999
DXF file: C:\Users\sesa63760\Dev\_Creo\CAD\MCADUE0002618_3D-CAD\drw0001_2.dxf
999
Pro/ENGINEER 2019471 by Parametric Technology Corporation
  0
SECTION
  2
HEADER
  9
$ACADVER
  1
AC1024
  9
$DWGCODEPAGE
  3
ANSI_1252
  9
$EXTMAX
 10
1006.8440395238
 20
1423.9651416122
 30
0.0
  9
$EXTMIN
 10
0.0
 20
0.0
 30
0.0
  9
$LIMMIN
 10
0.0
 20
0.0
  9
$LIMMAX
 10
1006.8440395238
 20
1423.9651416122
  9
$VIEWCTR
 10
503.4220197619
 20
711.9825708061
  9
$VIEWSIZE
 40
1423.9651416122
  9
$CLAYER
  8
0
  9
$LTSCALE
 40
92.8214314532
  9
$CELTYPE
  6
BYLAYER
  9
$DIMSCALE
 40
1.0
  9
$DIMASZ
 40
11.9862385658
  9
$DIMEXO
 40
1.0
  9
$DIMDLI
 40
64.1311708222
  9
$DIMEXE
 40
1.0
  9
$DIMCEN
 40
15.1889615105
  9
$DIMLFAC
 40
1.0
  9
$DIMBLK
  1
_FILLED
  9
$DIMALT
 70
0
  9
$DIMALTF
 40
0.0393700787
  9
$DIMTXT
 40
16.7807339921
  9
$DIMTOL
 70
1
  9
$DIMLIM
 70
0
  9
$DIMTFAC
 40
1.0
  9
$DIMTP
 40
0.01
  9
$DIMTM
 40
0.01
  9
$DIMGAP
 40
0.625
  9
$DIMDSEP
 70
46
  9
$AUNITS
 70
0
  9
$PDMODE
 70
3
  9
$PDSIZE
 40
0.3125
  9
$HANDSEED
  5
4EB
  9
$TILEMODE
 70
1
  9
$MEASUREMENT
 70
1
  9
$INSUNITS
 70
4
  0
ENDSEC
  0
SECTION
  2
CLASSES
  0
CLASS
  1
ACDBDICTIONARYWDFLT
  2
AcDbDictionaryWithDefault
  3
AutoCAD 2000
 90
0
 91
1
280
0
281
0
  0
CLASS
  1
ACDBPLACEHOLDER
  2
AcDbPlaceHolder
  3
AutoCAD 2000
 90
0
 91
1
280
0
281
0
  0
CLASS
  1
LAYOUT
  2
AcDbLayout
  3
AutoCAD 2000
 90
0
 91
0
280
0
281
0
  0
ENDSEC
  0
SECTION
  2
TABLES
  0
TABLE
  2
VPORT
  5
8
100
AcDbSymbolTable
 70
2
  0
VPORT
  5
1F4
100
AcDbSymbolTableRecord
100
AcDbViewportTableRecord
  2
*ACTIVE
 70
0
 10
0.0
 20
0.0
 11
1.0
 21
1.0
 12
503.4220197619
 22
711.9825708061
 13
0.0
 23
0.0
 14
1.0
 24
1.0
 15
0.0
 25
0.0
 16
0.0
 26
0.0
 36
1.0
 17
0.0
 27
0.0
 37
0.0
 40
1423.9651416122
 41
0.7070707071
 42
50.0
 43
0.0
 44
0.0
 50
0.0
 51
0.0
 71
0
 72
100
 73
1
 74
1
 75
0
 76
0
 77
0
 78
0
  0
ENDTAB
  0
TABLE
  2
LTYPE
  5
5
100
AcDbSymbolTable
 70
6
  0
LTYPE
  5
14
100
AcDbSymbolTableRecord
100
AcDbLinetypeTableRecord
  2
BYBLOCK
 70
0
  3

 72
65
 73
0
 40
0.0
  0
LTYPE
  5
15
100
AcDbSymbolTableRecord
100
AcDbLinetypeTableRecord
  2
BYLAYER
 70
0
  3

 72
65
 73
0
 40
0.0
  0
LTYPE
  5
16
100
AcDbSymbolTableRecord
100
AcDbLinetypeTableRecord
  2
CONTINUOUS
 70
64
  3
Solid line
 72
65
 73
0
 40
0.0
  0
LTYPE
  5
1F5
100
AcDbSymbolTableRecord
100
AcDbLinetypeTableRecord
  2
CENTER
 70
64
  3
____ _ ____ _ ____ _ ____ _ ____ _ ____ _ ____
 72
65
 73
4
 40
0.6
 49
0.375
 74
0
 49
-0.075
 74
0
 49
0.075
 74
0
 49
-0.075
 74
0
  0
LTYPE
  5
1F6
100
AcDbSymbolTableRecord
100
AcDbLinetypeTableRecord
  2
HIDDEN
 70
64
  3
- - - - - - - - - - - - - - - - - - - -
 72
65
 73
2
 40
0.2
 49
0.1
 74
0
 49
-0.1
 74
0
  0
LTYPE
  5
1F7
100
AcDbSymbolTableRecord
100
AcDbLinetypeTableRecord
  2
PHANTOM
 70
64
  3
_____ _ _ _____ _ _ _____ _ _ _____
 72
65
 73
6
 40
0.8
 49
0.45
 74
0
 49
-0.05
 74
0
 49
0.1
 74
0
 49
-0.05
 74
0
 49
0.1
 74
0
 49
-0.05
 74
0
  0
LTYPE
  5
1F8
100
AcDbSymbolTableRecord
100
AcDbLinetypeTableRecord
  2
DOT
 70
64
  3
. . . . . . . . . . . . . . . . . . . .
 72
65
 73
2
 40
0.2
 49
0.1
 74
0
 49
-0.1
 74
0
  0
LTYPE
  5
1F9
100
AcDbSymbolTableRecord
100
AcDbLinetypeTableRecord
  2
DASHED
 70
64
  3
- - - - - - - - - - - - - - - - - - - -
 72
65
 73
2
 40
0.2
 49
0.1
 74
0
 49
-0.1
 74
0
  0
ENDTAB
  0
TABLE
  2
LAYER
  5
2
100
AcDbSymbolTable
 70
36
  0
LAYER
  5
10
100
AcDbSymbolTableRecord
100
AcDbLayerTableRecord
  2
0
 70
0
 62
7
  6
CONTINUOUS
370
-3
390
F
  0
LAYER
  5
1FA
100
AcDbSymbolTableRecord
100
AcDbLayerTableRecord
  2
DEFAULT_1
 70
0
 62
7
  6
CENTER
370
-3
390
F
  0
LAYER
  5
1FB
100
AcDbSymbolTableRecord
100
AcDbLayerTableRecord
  2
DEFAULT_2
 70
0
 62
8
  6
HIDDEN
370
-3
390
F
  0
LAYER
  5
1FC
100
AcDbSymbolTableRecord
100
AcDbLayerTableRecord
  2
DEFAULT_3
 70
0
 62
7
  6
PHANTOM
370
-3
390
F
  0
LAYER
  5
1FD
100
AcDbSymbolTableRecord
100
AcDbLayerTableRecord
  2
00_COMPONENTS
 70
0
 62
7
  6
CONTINUOUS
370
-3
390
F
  0
LAYER
  5
1FE
100
AcDbSymbolTableRecord
100
AcDbLayerTableRecord
  2
01_1_DEFAULT_DATUMS
 70
0
 62
7
  6
CONTINUOUS
370
-3
390
F
  0
LAYER
  5
1FF
100
AcDbSymbolTableRecord
100
AcDbLayerTableRecord
  2
01_PLANES
 70
0
 62
7
  6
CONTINUOUS
370
-3
390
F
  0
LAYER
  5
200
100
AcDbSymbolTableRecord
100
AcDbLayerTableRecord
  2
02_COORD_SYS
 70
0
 62
7
  6
CONTINUOUS
370
-3
390
F
  0
LAYER
  5
201
100
AcDbSymbolTableRecord
100
AcDbLayerTableRecord
  2
03_AXES
 70
0
 62
7
  6
CONTINUOUS
370
-3
390
F
  0
LAYER
  5
202
100
AcDbSymbolTableRecord
100
AcDbLayerTableRecord
  2
04_POINTS
 70
0
 62
7
  6
CONTINUOUS
370
-3
390
F
  0
LAYER
  5
203
100
AcDbSymbolTableRecord
100
AcDbLayerTableRecord
  2
05_CURVES
 70
0
 62
7
  6
CONTINUOUS
370
-3
390
F
  0
LAYER
  5
204
100
AcDbSymbolTableRecord
100
AcDbLayerTableRecord
  2
06_SURFS
 70
0
 62
7
  6
CONTINUOUS
370
-3
390
F
  0
LAYER
  5
205
100
AcDbSymbolTableRecord
100
AcDbLayerTableRecord
  2
07_COSMETICS
 70
0
 62
7
  6
CONTINUOUS
370
-3
390
F
  0
LAYER
  5
206
100
AcDbSymbolTableRecord
100
AcDbLayerTableRecord
  2
10_NOTES
 70
0
 62
7
  6
CONTINUOUS
370
-3
390
F
  0
LAYER
  5
207
100
AcDbSymbolTableRecord
100
AcDbLayerTableRecord
  2
11_NOTES_PUB
 70
0
 62
7
  6
CONTINUOUS
370
-3
390
F
  0
LAYER
  5
208
100
AcDbSymbolTableRecord
100
AcDbLayerTableRecord
  2
13_REF_GTOL
 70
0
 62
7
  6
CONTINUOUS
370
-3
390
F
  0
LAYER
  5
209
100
AcDbSymbolTableRecord
100
AcDbLayerTableRecord
  2
16_MISC
 70
0
 62
7
  6
CONTINUOUS
370
-3
390
F
  0
LAYER
  5
20A
100
AcDbSymbolTableRecord
100
AcDbLayerTableRecord
  2
17_NO_PRINT
 70
0
 62
7
  6
CONTINUOUS
370
-3
390
F
  0
LAYER
  5
20B
100
AcDbSymbolTableRecord
100
AcDbLayerTableRecord
  2
18_DATUM_CAMS_JOINTS
 70
0
 62
7
  6
CONTINUOUS
370
-3
390
F
  0
LAYER
  5
20C
100
AcDbSymbolTableRecord
100
AcDbLayerTableRecord
  2
19_DATUM_FUNCTIONAL
 70
0
 62
7
  6
CONTINUOUS
370
-3
390
F
  0
LAYER
  5
20D
100
AcDbSymbolTableRecord
100
AcDbLayerTableRecord
  2
20_DATUM_KINEMATIC_SCHEME
 70
0
 62
7
  6
CONTINUOUS
370
-3
390
F
  0
ENDTAB
  0
TABLE
  2
STYLE
  5
3
100
AcDbSymbolTable
 70
1
  0
STYLE
  5
11
100
AcDbSymbolTableRecord
100
AcDbTextStyleTableRecord
  2
STANDARD
 70
0
 40
0.0
 41
0.8
 50
0.0
 71
0
 42
0.2
  3
txt
  4

  0
STYLE
  5
20E
100
AcDbSymbolTableRecord
100
AcDbTextStyleTableRecord
  2
TEXTSTYLE_1
 70
0
 40
0.0
 41
0.8
 50
0.0
 71
0
 42
0.2
  3
gdt
  4

  0
ENDTAB
  0
TABLE
  2
VIEW
  5
6
100
AcDbSymbolTable
 70
0
  0
ENDTAB
  0
TABLE
  2
UCS
  5
7
100
AcDbSymbolTable
 70
0
  0
ENDTAB
  0
TABLE
  2
APPID
  5
9
100
AcDbSymbolTable
 70
1
  0
APPID
  5
20F
100
AcDbSymbolTableRecord
100
AcDbRegAppTableRecord
  2
ACAD
 70
0
  0
ENDTAB
  0
TABLE
  2
BLOCK_RECORD
  5
1
100
AcDbSymbolTable
 70
0
  0
BLOCK_RECORD
  5
210
100
AcDbSymbolTableRecord
100
AcDbBlockTableRecord
  2
*Model_Space
  0
BLOCK_RECORD
  5
211
100
AcDbSymbolTableRecord
100
AcDbBlockTableRecord
  2
*Paper_Space
  0
BLOCK_RECORD
  5
212
100
AcDbSymbolTableRecord
100
AcDbBlockTableRecord
  2
_FILLED
  0
ENDTAB
  0
TABLE
  2
DIMSTYLE
  5
A
100
AcDbSymbolTable
 70
1
100
AcDbDimStyleTable
 71
0
  0
DIMSTYLE
105
213
100
AcDbSymbolTableRecord
100
AcDbDimStyleTableRecord
  2
STANDARD
 70
0
  3

  4

 40
1.0
 41
11.9862385658
 42
1.0
 43
0.38
 44
1.0
 45
0.0
 46
0.0
 47
0.01
 48
0.01
140
16.7807339921
141
0.09
142
0.0
143
25.4
144
1.0
145
0.0
146
1.0
147
0.625
 71
1
 72
0
 73
0
 74
0
 75
0
 76
0
 77
1
 78
8
 79
2
170
0
171
1
172
0
173
0
174
0
175
0
176
0
177
0
178
0
270
2
179
2
271
2
272
2
273
2
274
2
275
0
280
0
281
0
282
0
283
1
284
8
285
0
286
0
287
3
288
0
340
11
278
46
341
212
342
212
343
212
344
212
  0
ENDTAB
  0
ENDSEC
  0
SECTION
  2
BLOCKS
  0
BLOCK
  5
20
100
AcDbEntity
  8
0
100
AcDbBlockBegin
  2
*Model_Space
 70
0
 10
0.0
 20
0.0
 30
0.0
  3
*Model_Space
  1

  0
ENDBLK
  5
21
100
AcDbEntity
  8
0
100
AcDbBlockEnd
  0
BLOCK
  5
1C
100
AcDbEntity
  8
0
100
AcDbBlockBegin
  2
*Paper_Space
 70
0
 10
0.0
 20
0.0
 30
0.0
  3
*Paper_Space
  1

  0
ENDBLK
  5
1D
100
AcDbEntity
  8
0
100
AcDbBlockEnd
  0
BLOCK
  5
214
100
AcDbEntity
  8
0
100
AcDbBlockBegin
  2
_FILLED
 70
64
 10
0.0
 20
0.0
  3
_FILLED
  1

  0
SOLID
  5
215
100
AcDbEntity
  8
0
  6
BYBLOCK
 62
0
100
AcDbTrace
 10
0.0
 20
0.0
 11
-1.0
 21
0.25
 12
-1.0
 22
-0.25
 13
-1.0
 23
-0.25
  0
ENDBLK
  5
216
100
AcDbEntity
  8
0
  6
BYBLOCK
 62
0
100
AcDbBlockEnd
  0
ENDSEC
  0
SECTION
  2
ENTITIES
  0
LINE
  5
217
100
AcDbEntity
  8
0
100
AcDbLine
 62
7
  6
CONTINUOUS
 10
152.5457233218
 20
110.8681917211
 11
150.5457233218
 21
112.8681917211
  0
LINE
  5
218
100
AcDbEntity
  8
0
100
AcDbLine
 62
7
  6
CONTINUOUS
 10
905.8936973218
 20
108.8681917211
 11
867.7936973218
 21
108.8681917211
  0
LINE
  5
219
100
AcDbEntity
  8
0
100
AcDbLine
 62
7
  6
CONTINUOUS
 10
861.3936973218
 20
108.8681917211
 11
834.3936973218
 21
108.8681917211
  0
LINE
  5
21A
100
AcDbEntity
  8
0
100
AcDbLine
 62
7
  6
CONTINUOUS
 10
114.8936973218
 20
108.8681917211
 11
152.9936973218
 21
108.8681917211
  0
LINE
  5
21B
100
AcDbEntity
  8
0
100
AcDbLine
 62
7
  6
CONTINUOUS
 10
159.3936973218
 20
108.8681917211
 11
186.3936973218
 21
108.8681917211
  0
LINE
  5
21C
100
AcDbEntity
  8
0
100
AcDbLine
 62
7
  6
CONTINUOUS
 10
866.4936973218
 20
109.3681917211
 11
154.2936973218
 21
109.3681917211
  0
LINE
  5
21D
100
AcDbEntity
  8
0
100
AcDbLine
 62
7
  6
CONTINUOUS
 10
857.8936973218
 20
110.8681917211
 11
837.8936973218
 21
110.8681917211
  0
LINE
  5
21E
100
AcDbEntity
  8
0
100
AcDbLine
 62
7
  6
CONTINUOUS
 10
182.8936973218
 20
110.8681917211
 11
162.8936973218
 21
110.8681917211
  0
LINE
  5
21F
100
AcDbEntity
  8
0
100
AcDbLine
 62
7
  6
CONTINUOUS
 10
152.2936973218
 20
110.8681917211
 11
154.2936973218
 21
110.8681917211
  0
LINE
  5
220
100
AcDbEntity
  8
0
100
AcDbLine
 62
7
  6
CONTINUOUS
 10
866.4936973218
 20
110.8681917211
 11
868.4936973218
 21
110.8681917211
  0
LINE
  5
221
100
AcDbEntity
  8
0
100
AcDbLine
 62
7
  6
CONTINUOUS
 10
154.2936973218
 20
111.8681917211
 11
866.4936973218
 21
111.8681917211
  0
LINE
  5
222
100
AcDbEntity
  8
0
100
AcDbLine
 62
7
  6
CONTINUOUS
 10
867.7936973218
 20
112.8681917211
 11
866.4936973218
 21
112.8681917211
  0
LINE
  5
223
100
AcDbEntity
  8
0
100
AcDbLine
 62
7
  6
CONTINUOUS
 10
857.8936973218
 20
112.8681917211
 11
837.8936973218
 21
112.8681917211
  0
LINE
  5
224
100
AcDbEntity
  8
0
100
AcDbLine
 62
7
  6
CONTINUOUS
 10
154.2936973218
 20
112.8681917211
 11
152.9936973218
 21
112.8681917211
  0
LINE
  5
225
100
AcDbEntity
  8
0
100
AcDbLine
 62
7
  6
CONTINUOUS
 10
162.8936973218
 20
112.8681917211
 11
182.8936973218
 21
112.8681917211
  0
LINE
  5
226
100
AcDbEntity
  8
0
100
AcDbLine
 62
7
  6
CONTINUOUS
 10
110.3936973218
 20
113.3681917211
 11
152.2936973218
 21
113.3681917211
  0
LINE
  5
227
100
AcDbEntity
  8
0
100
AcDbLine
 62
7
  6
CONTINUOUS
 10
868.4936973218
 20
113.3681917211
 11
910.3936973218
 21
113.3681917211
  0
LINE
  5
228
100
AcDbEntity
  8
0
100
AcDbLine
 62
7
  6
CONTINUOUS
 10
867.7936973218
 20
114.3681917211
 11
867.3936973218
 21
114.3681917211
  0
LINE
  5
229
100
AcDbEntity
  8
0
100
AcDbLine
 62
7
  6
CONTINUOUS
 10
152.9936973218
 20
114.3681917211
 11
153.3936973218
 21
114.3681917211
  0
LINE
  5
22A
100
AcDbEntity
  8
0
100
AcDbLine
 62
7
  6
CONTINUOUS
 10
899.3936973218
 20
118.8681917211
 11
868.4936973218
 21
118.8681917211
  0
LINE
  5
22B
100
AcDbEntity
  8
0
100
AcDbLine
 62
7
  6
CONTINUOUS
 10
866.4936973218
 20
118.8681917211
 11
154.2936973218
 21
118.8681917211
  0
LINE
  5
22C
100
AcDbEntity
  8
0
100
AcDbLine
 62
7
  6
CONTINUOUS
 10
152.2936973218
 20
118.8681917211
 11
121.3936973218
 21
118.8681917211
  0
LINE
  5
22D
100
AcDbEntity
  8
0
100
AcDbLine
 62
7
  6
CONTINUOUS
 10
110.3936973218
 20
121.3681917211
 11
152.2936973218
 21
121.3681917211
  0
LINE
  5
22E
100
AcDbEntity
  8
0
100
AcDbLine
 62
7
  6
CONTINUOUS
 10
154.2936973218
 20
121.3681917211
 11
866.4936973218
 21
121.3681917211
  0
LINE
  5
22F
100
AcDbEntity
  8
0
100
AcDbLine
 62
7
  6
CONTINUOUS
 10
868.4936973218
 20
121.3681917211
 11
910.3936973218
 21
121.3681917211
  0
LINE
  5
230
100
AcDbEntity
  8
0
100
AcDbLine
 62
7
  6
CONTINUOUS
 10
154.2936973218
 20
121.6610849399
 11
866.4936973218
 21
121.6610849399
  0
LINE
  5
231
100
AcDbEntity
  8
0
100
AcDbLine
 62
7
  6
CONTINUOUS
 10
110.3936973218
 20
121.9931917211
 11
122.3936973218
 21
121.9931917211
  0
LINE
  5
232
100
AcDbEntity
  8
0
100
AcDbLine
 62
7
  6
CONTINUOUS
 10
122.527671918
 20
121.9931917211
 11
149.5867861717
 21
121.9931917211
  0
LINE
  5
233
100
AcDbEntity
  8
0
100
AcDbLine
 62
7
  6
CONTINUOUS
 10
871.2006084719
 20
121.9931917211
 11
910.3936973218
 21
121.9931917211
  0
LINE
  5
234
100
AcDbEntity
  8
0
100
AcDbLine
 62
7
  6
CONTINUOUS
 10
866.4936973218
 20
125.7516976691
 11
154.2936973218
 21
125.7516976691
  0
LINE
  5
235
100
AcDbEntity
  8
0
100
AcDbLine
 62
7
  6
CONTINUOUS
 10
866.4936973218
 20
126.1044943867
 11
154.2936973218
 21
126.1044943867
  0
LINE
  5
236
100
AcDbEntity
  8
0
100
AcDbLine
 62
7
  6
CONTINUOUS
 10
154.2936973218
 20
127.8681917211
 11
153.8936973218
 21
127.8681917211
  0
LINE
  5
237
100
AcDbEntity
  8
0
100
AcDbLine
 62
7
  6
CONTINUOUS
 10
866.4936973218
 20
127.8681917211
 11
866.8936973218
 21
127.8681917211
  0
LINE
  5
238
100
AcDbEntity
  8
0
100
AcDbLine
 62
7
  6
CONTINUOUS
 10
153.8936973218
 20
128.8681917211
 11
154.2936973218
 21
128.8681917211
  0
LINE
  5
239
100
AcDbEntity
  8
0
100
AcDbLine
 62
7
  6
CONTINUOUS
 10
866.4936973218
 20
128.8681917211
 11
866.8936973218
 21
128.8681917211
  0
LINE
  5
23A
100
AcDbEntity
  8
0
100
AcDbLine
 62
7
  6
CONTINUOUS
 10
152.9936973218
 20
129.8681917211
 11
154.2936973218
 21
129.8681917211
  0
LINE
  5
23B
100
AcDbEntity
  8
0
100
AcDbLine
 62
7
  6
CONTINUOUS
 10
866.4936973218
 20
129.8681917211
 11
867.7936973218
 21
129.8681917211
  0
LINE
  5
23C
100
AcDbEntity
  8
0
100
AcDbLine
 62
7
  6
CONTINUOUS
 10
866.4936973218
 20
130.1951071159
 11
154.2936973218
 21
130.1951071159
  0
LINE
  5
23D
100
AcDbEntity
  8
0
100
AcDbLine
 62
7
  6
CONTINUOUS
 10
154.2936973218
 20
130.9022138971
 11
866.4936973218
 21
130.9022138971
  0
LINE
  5
23E
100
AcDbEntity
  8
0
100
AcDbLine
 62
7
  6
CONTINUOUS
 10
149.063709051
 20
134.0681917211
 11
133.7472507124
 21
134.0681917211
  0
LINE
  5
23F
100
AcDbEntity
  8
0
100
AcDbLine
 62
7
  6
CONTINUOUS
 10
871.7236855926
 20
134.0681917211
 11
887.0401439312
 21
134.0681917211
  0
LINE
  5
240
100
AcDbEntity
  8
0
100
AcDbLine
 62
7
  6
CONTINUOUS
 10
884.8592348171
 20
134.8681917211
 11
860.1104974756
 21
134.8681917211
  0
LINE
  5
241
100
AcDbEntity
  8
0
100
AcDbLine
 62
7
  6
CONTINUOUS
 10
135.9281598265
 20
134.8681917211
 11
160.676897168
 21
134.8681917211
  0
LINE
  5
242
100
AcDbEntity
  8
0
100
AcDbLine
 62
7
  6
CONTINUOUS
 10
134.1936973218
 20
1244.0081917211
 11
130.5116240263
 21
1235.907630471
  0
LINE
  5
243
100
AcDbEntity
  8
0
100
AcDbLine
 62
7
  6
CONTINUOUS
 10
130.6902068405
 20
1235.8248698822
 11
134.1936973218
 21
1243.532548407
  0
LINE
  5
244
100
AcDbEntity
  8
0
100
AcDbLine
 62
7
  6
CONTINUOUS
 10
884.8592348171
 20
141.2681917211
 11
860.1104974756
 21
141.2681917211
  0
LINE
  5
245
100
AcDbEntity
  8
0
100
AcDbLine
 62
7
  6
CONTINUOUS
 10
135.9281598265
 20
141.2681917211
 11
160.676897168
 21
141.2681917211
  0
LINE
  5
246
100
AcDbEntity
  8
0
100
AcDbLine
 62
7
  6
CONTINUOUS
 10
149.063709051
 20
142.0681917211
 11
133.7472507124
 21
142.0681917211
  0
LINE
  5
247
100
AcDbEntity
  8
0
100
AcDbLine
 62
7
  6
CONTINUOUS
 10
871.7236855926
 20
142.0681917211
 11
887.0401439312
 21
142.0681917211
  0
LINE
  5
248
100
AcDbEntity
  8
0
100
AcDbLine
 62
7
  6
CONTINUOUS
 10
157.5436973218
 20
144.3681917211
 11
154.2936973218
 21
144.3681917211
  0
LINE
  5
249
100
AcDbEntity
  8
0
100
AcDbLine
 62
7
  6
CONTINUOUS
 10
863.2436973218
 20
144.3681917211
 11
866.4936973218
 21
144.3681917211
  0
LINE
  5
24A
100
AcDbEntity
  8
0
100
AcDbLine
 62
7
  6
CONTINUOUS
 10
148.2936973218
 20
147.1181917211
 11
155.3936973218
 21
147.1181917211
  0
LINE
  5
24B
100
AcDbEntity
  8
0
100
AcDbLine
 62
7
  6
CONTINUOUS
 10
865.3936973218
 20
147.1181917211
 11
872.4935683264
 21
147.1181917211
  0
LINE
  5
24C
100
AcDbEntity
  8
0
100
AcDbLine
 62
7
  6
CONTINUOUS
 10
863.2436973218
 20
147.2681917211
 11
157.5436973218
 21
147.2681917211
  0
LINE
  5
24D
100
AcDbEntity
  8
0
100
AcDbLine
 62
7
  6
CONTINUOUS
 10
157.5436973218
 20
148.8681917211
 11
863.2436973218
 21
148.8681917211
  0
LINE
  5
24E
100
AcDbEntity
  8
0
100
AcDbLine
 62
7
  6
CONTINUOUS
 10
155.3936973218
 20
151.9681917211
 11
157.5436973218
 21
151.9681917211
  0
LINE
  5
24F
100
AcDbEntity
  8
0
100
AcDbLine
 62
7
  6
CONTINUOUS
 10
863.2436973218
 20
151.9681917211
 11
865.3936973218
 21
151.9681917211
  0
LINE
  5
250
100
AcDbEntity
  8
0
100
AcDbLine
 62
7
  6
CONTINUOUS
 10
863.2436973218
 20
152.3681917211
 11
157.5436973218
 21
152.3681917211
  0
LINE
  5
251
100
AcDbEntity
  8
0
100
AcDbLine
 62
7
  6
CONTINUOUS
 10
157.5436973218
 20
152.8681917211
 11
156.2936973218
 21
152.8681917211
  0
LINE
  5
252
100
AcDbEntity
  8
0
100
AcDbLine
 62
7
  6
CONTINUOUS
 10
863.2436973218
 20
152.8681917211
 11
864.4936973218
 21
152.8681917211
  0
LINE
  5
253
100
AcDbEntity
  8
0
100
AcDbLine
 62
7
  6
CONTINUOUS
 10
156.2936973218
 20
154.3681917211
 11
864.4936973218
 21
154.3681917211
  0
LINE
  5
254
100
AcDbEntity
  8
0
100
AcDbLine
 62
7
  6
CONTINUOUS
 10
139.388007804
 20
160.8681917211
 11
148.1936973218
 21
160.8681917211
  0
LINE
  5
255
100
AcDbEntity
  8
0
100
AcDbLine
 62
7
  6
CONTINUOUS
 10
134.988486105
 20
161.1681917211
 11
148.1936973218
 21
161.1681917211
  0
LINE
  5
256
100
AcDbEntity
  8
0
100
AcDbLine
 62
7
  6
CONTINUOUS
 10
134.1936973218
 20
161.6681917223
 11
134.4884615999
 21
161.6681917223
  0
LINE
  5
257
100
AcDbEntity
  8
0
100
AcDbLine
 62
7
  6
CONTINUOUS
 10
147.1936973218
 20
165.8681917211
 11
134.1936973218
 21
165.8681917211
  0
LINE
  5
258
100
AcDbEntity
  8
0
100
AcDbLine
 62
7
  6
CONTINUOUS
 10
147.1936973218
 20
175.8681917211
 11
134.1936973218
 21
175.8681917211
  0
LINE
  5
259
100
AcDbEntity
  8
0
100
AcDbLine
 62
7
  6
CONTINUOUS
 10
134.4884615999
 20
180.0681916741
 11
134.1936973218
 21
180.0681916741
  0
LINE
  5
25A
100
AcDbEntity
  8
0
100
AcDbLine
 62
7
  6
CONTINUOUS
 10
148.1936973218
 20
180.5681917211
 11
134.988480679
 21
180.5681917211
  0
LINE
  5
25B
100
AcDbEntity
  8
0
100
AcDbLine
 62
7
  6
CONTINUOUS
 10
148.1936973218
 20
180.8681917211
 11
139.3876151985
 21
180.8681917211
  0
LINE
  5
25C
100
AcDbEntity
  8
0
100
AcDbLine
 62
7
  6
CONTINUOUS
 10
130.4936973218
 20
182.9115135601
 11
130.6902068405
 21
182.9115135601
  0
LINE
  5
25D
100
AcDbEntity
  8
0
100
AcDbLine
 62
7
  6
CONTINUOUS
 10
146.1762449154
 20
163.0955579966
 11
134.4884615999
 21
163.6560736581
  0
LINE
  5
25E
100
AcDbEntity
  8
0
100
AcDbLine
 62
7
  6
CONTINUOUS
 10
130.5116240263
 20
182.8287529712
 11
134.1936973218
 21
174.7281917211
  0
LINE
  5
25F
100
AcDbEntity
  8
0
100
AcDbLine
 62
7
  6
CONTINUOUS
 10
134.1936973218
 20
175.2038345012
 11
130.6902068405
 21
182.9115135601
  0
LINE
  5
260
100
AcDbEntity
  8
0
100
AcDbLine
 62
7
  6
CONTINUOUS
 10
146.1762449154
 20
178.6408254457
 11
134.4884615999
 21
178.0803097841
  0
LINE
  5
261
100
AcDbEntity
  8
0
100
AcDbLine
 62
7
  6
CONTINUOUS
 10
131.4936973218
 20
189.9931917211
 11
145.1813399236
 21
189.9931917211
  0
LINE
  5
262
100
AcDbEntity
  8
0
100
AcDbLine
 62
7
  6
CONTINUOUS
 10
145.1813399236
 20
203.7431917211
 11
131.4936973218
 21
203.7431917211
  0
LINE
  5
263
100
AcDbEntity
  8
0
100
AcDbLine
 62
7
  6
CONTINUOUS
 10
130.6902068405
 20
210.8248698822
 11
130.4936973218
 21
210.8248698822
  0
LINE
  5
264
100
AcDbEntity
  8
0
100
AcDbLine
 62
7
  6
CONTINUOUS
 10
139.3876137675
 20
212.8681917211
 11
148.1936973218
 21
212.8681917211
  0
LINE
  5
265
100
AcDbEntity
  8
0
100
AcDbLine
 62
7
  6
CONTINUOUS
 10
134.9884806826
 20
213.1681917211
 11
148.1936973218
 21
213.1681917211
  0
LINE
  5
266
100
AcDbEntity
  8
0
100
AcDbLine
 62
7
  6
CONTINUOUS
 10
134.1936973218
 20
213.6681917213
 11
134.4884615999
 21
213.6681917213
  0
LINE
  5
267
100
AcDbEntity
  8
0
100
AcDbLine
 62
7
  6
CONTINUOUS
 10
147.1936973218
 20
217.8681917211
 11
134.1936973218
 21
217.8681917211
  0
LINE
  5
268
100
AcDbEntity
  8
0
100
AcDbLine
 62
7
  6
CONTINUOUS
 10
147.1936973218
 20
227.8681917211
 11
134.1936973218
 21
227.8681917211
  0
LINE
  5
269
100
AcDbEntity
  8
0
100
AcDbLine
 62
7
  6
CONTINUOUS
 10
134.4884615999
 20
232.0681917245
 11
134.1936973218
 21
232.0681917245
  0
LINE
  5
26A
100
AcDbEntity
  8
0
100
AcDbLine
 62
7
  6
CONTINUOUS
 10
148.1936973218
 20
232.5681917211
 11
134.9884824978
 21
232.5681917211
  0
LINE
  5
26B
100
AcDbEntity
  8
0
100
AcDbLine
 62
7
  6
CONTINUOUS
 10
148.1936973218
 20
232.8681917211
 11
139.388006616
 21
232.8681917211
  0
LINE
  5
26C
100
AcDbEntity
  8
0
100
AcDbLine
 62
7
  6
CONTINUOUS
 10
146.1762449154
 20
215.0955579966
 11
134.4884615999
 21
215.6560736581
  0
LINE
  5
26D
100
AcDbEntity
  8
0
100
AcDbLine
 62
7
  6
CONTINUOUS
 10
134.1936973218
 20
994.0081917211
 11
130.5116240263
 21
985.907630471
  0
LINE
  5
26E
100
AcDbEntity
  8
0
100
AcDbLine
 62
7
  6
CONTINUOUS
 10
130.6902068405
 20
985.8248698822
 11
134.1936973218
 21
993.532548407
  0
LINE
  5
26F
100
AcDbEntity
  8
0
100
AcDbLine
 62
7
  6
CONTINUOUS
 10
146.1762449154
 20
230.6408254457
 11
134.4884615999
 21
230.0803097841
  0
LINE
  5
270
100
AcDbEntity
  8
0
100
AcDbLine
 62
7
  6
CONTINUOUS
 10
130.5116240263
 20
432.8287529712
 11
134.1936973218
 21
424.7281917211
  0
LINE
  5
271
100
AcDbEntity
  8
0
100
AcDbLine
 62
7
  6
CONTINUOUS
 10
134.1936973218
 20
425.2038345012
 11
130.6902068405
 21
432.9115135601
  0
LINE
  5
272
100
AcDbEntity
  8
0
100
AcDbLine
 62
7
  6
CONTINUOUS
 10
110.3936973218
 20
111.8681917211
 11
110.3936973218
 21
121.3681917211
  0
LINE
  5
273
100
AcDbEntity
  8
0
100
AcDbLine
 62
7
  6
CONTINUOUS
 10
110.3936973218
 20
121.9931917211
 11
110.3936973218
 21
1296.7431917211
  0
LINE
  5
274
100
AcDbEntity
  8
0
100
AcDbLine
 62
7
  6
CONTINUOUS
 10
110.3936973218
 20
1297.3681917211
 11
110.3936973218
 21
1306.8681917211
  0
LINE
  5
275
100
AcDbEntity
  8
0
100
AcDbLine
 62
7
  6
CONTINUOUS
 10
112.8936973218
 20
1296.7431917211
 11
112.8936973218
 21
121.9931917211
  0
LINE
  5
276
100
AcDbEntity
  8
0
100
AcDbLine
 62
7
  6
CONTINUOUS
 10
114.8936973218
 20
1309.8681917211
 11
114.8936973218
 21
1297.3681917211
  0
LINE
  5
277
100
AcDbEntity
  8
0
100
AcDbLine
 62
7
  6
CONTINUOUS
 10
114.8936973218
 20
121.3681917211
 11
114.8936973218
 21
108.8681917211
  0
LINE
  5
278
100
AcDbEntity
  8
0
100
AcDbLine
 62
7
  6
CONTINUOUS
 10
119.8936973218
 20
121.9931917211
 11
119.8936973218
 21
1296.7431917211
  0
LINE
  5
279
100
AcDbEntity
  8
0
100
AcDbLine
 62
7
  6
CONTINUOUS
 10
121.3936973218
 20
121.3681917211
 11
121.3936973218
 21
118.8681917211
  0
LINE
  5
27A
100
AcDbEntity
  8
0
100
AcDbLine
 62
7
  6
CONTINUOUS
 10
121.3936973218
 20
1297.3681917211
 11
121.3936973218
 21
1299.8681917211
  0
LINE
  5
27B
100
AcDbEntity
  8
0
100
AcDbLine
 62
7
  6
CONTINUOUS
 10
122.3936973218
 20
1296.7431917211
 11
122.3936973218
 21
121.9931917211
  0
LINE
  5
27C
100
AcDbEntity
  8
0
100
AcDbLine
 62
7
  6
CONTINUOUS
 10
122.6865905406
 20
1296.7431917211
 11
122.6865905406
 21
121.9931917211
  0
LINE
  5
27D
100
AcDbEntity
  8
0
100
AcDbLine
 62
7
  6
CONTINUOUS
 10
126.7772032698
 20
121.9931917211
 11
126.7772032698
 21
1296.7431917211
  0
LINE
  5
27E
100
AcDbEntity
  8
0
100
AcDbLine
 62
7
  6
CONTINUOUS
 10
127.1307566604
 20
121.9931917211
 11
127.1307566604
 21
1296.7431917211
  0
LINE
  5
27F
100
AcDbEntity
  8
0
100
AcDbLine
 62
7
  6
CONTINUOUS
 10
130.4936973218
 20
182.9115135601
 11
130.4936973218
 21
210.8248698822
  0
LINE
  5
280
100
AcDbEntity
  8
0
100
AcDbLine
 62
7
  6
CONTINUOUS
 10
130.4936973218
 20
432.9115135601
 11
130.4936973218
 21
460.8248698822
  0
LINE
  5
281
100
AcDbEntity
  8
0
100
AcDbLine
 62
7
  6
CONTINUOUS
 10
130.4936973218
 20
957.9115135601
 11
130.4936973218
 21
985.8248698822
  0
LINE
  5
282
100
AcDbEntity
  8
0
100
AcDbLine
 62
7
  6
CONTINUOUS
 10
130.4936973218
 20
1207.9115135601
 11
130.4936973218
 21
1235.8248698822
  0
LINE
  5
283
100
AcDbEntity
  8
0
100
AcDbLine
 62
7
  6
CONTINUOUS
 10
130.6902068405
 20
1235.8248698822
 11
130.6902068405
 21
1207.9115135601
  0
LINE
  5
284
100
AcDbEntity
  8
0
100
AcDbLine
 62
7
  6
CONTINUOUS
 10
130.6902068405
 20
985.8248698822
 11
130.6902068405
 21
957.9115135601
  0
LINE
  5
285
100
AcDbEntity
  8
0
100
AcDbLine
 62
7
  6
CONTINUOUS
 10
130.6902068405
 20
460.8248698822
 11
130.6902068405
 21
432.9115135601
  0
LINE
  5
286
100
AcDbEntity
  8
0
100
AcDbLine
 62
7
  6
CONTINUOUS
 10
130.6902068405
 20
210.8248698822
 11
130.6902068405
 21
182.9115135601
  0
LINE
  5
287
100
AcDbEntity
  8
0
100
AcDbLine
 62
7
  6
CONTINUOUS
 10
130.8936973218
 20
121.3681917211
 11
130.8936973218
 21
121.9931917211
  0
LINE
  5
288
100
AcDbEntity
  8
0
100
AcDbLine
 62
7
  6
CONTINUOUS
 10
130.8936973218
 20
1296.7431917211
 11
130.8936973218
 21
1297.3681917211
  0
LINE
  5
289
100
AcDbEntity
  8
0
100
AcDbLine
 62
7
  6
CONTINUOUS
 10
131.2291955144
 20
121.9931917211
 11
131.2291955144
 21
181.2500956975
  0
LINE
  5
28A
100
AcDbEntity
  8
0
100
AcDbLine
 62
7
  6
CONTINUOUS
 10
131.2291955144
 20
212.4862877448
 11
131.2291955144
 21
431.2500956975
  0
LINE
  5
28B
100
AcDbEntity
  8
0
100
AcDbLine
 62
7
  6
CONTINUOUS
 10
131.2291955144
 20
462.4862877448
 11
131.2291955144
 21
956.2500956975
  0
LINE
  5
28C
100
AcDbEntity
  8
0
100
AcDbLine
 62
7
  6
CONTINUOUS
 10
131.2291955144
 20
987.4862877448
 11
131.2291955144
 21
1206.2500956975
  0
LINE
  5
28D
100
AcDbEntity
  8
0
100
AcDbLine
 62
7
  6
CONTINUOUS
 10
131.2291955144
 20
1237.4862877448
 11
131.2291955144
 21
1296.7431917211
  0
LINE
  5
28E
100
AcDbEntity
  8
0
100
AcDbLine
 62
7
  6
CONTINUOUS
 10
131.4936973218
 20
1228.7431917211
 11
131.4936973218
 21
1214.9931917211
  0
LINE
  5
28F
100
AcDbEntity
  8
0
100
AcDbLine
 62
7
  6
CONTINUOUS
 10
131.4936973218
 20
978.7431917211
 11
131.4936973218
 21
964.9931917211
  0
LINE
  5
290
100
AcDbEntity
  8
0
100
AcDbLine
 62
7
  6
CONTINUOUS
 10
131.4936973218
 20
453.7431917211
 11
131.4936973218
 21
439.9931917211
  0
LINE
  5
291
100
AcDbEntity
  8
0
100
AcDbLine
 62
7
  6
CONTINUOUS
 10
131.4936973218
 20
203.7431917211
 11
131.4936973218
 21
189.9931917211
  0
LINE
  5
292
100
AcDbEntity
  8
0
100
AcDbLine
 62
7
  6
CONTINUOUS
 10
131.7936973218
 20
1228.7431917211
 11
131.7936973218
 21
1214.9931917211
  0
LINE
  5
293
100
AcDbEntity
  8
0
100
AcDbLine
 62
7
  6
CONTINUOUS
 10
131.7936973218
 20
978.7431917211
 11
131.7936973218
 21
964.9931917211
  0
LINE
  5
294
100
AcDbEntity
  8
0
100
AcDbLine
 62
7
  6
CONTINUOUS
 10
131.7936973218
 20
453.7431917211
 11
131.7936973218
 21
439.9931917211
  0
LINE
  5
295
100
AcDbEntity
  8
0
100
AcDbLine
 62
7
  6
CONTINUOUS
 10
131.7936973218
 20
203.7431917211
 11
131.7936973218
 21
189.9931917211
  0
LINE
  5
296
100
AcDbEntity
  8
0
100
AcDbLine
 62
7
  6
CONTINUOUS
 10
131.9363022955
 20
1296.7431917211
 11
131.9363022955
 21
1239.0419226634
  0
LINE
  5
297
100
AcDbEntity
  8
0
100
AcDbLine
 62
7
  6
CONTINUOUS
 10
131.9363022955
 20
1204.6944607789
 11
131.9363022955
 21
989.0419226634
  0
LINE
  5
298
100
AcDbEntity
  8
0
100
AcDbLine
 62
7
  6
CONTINUOUS
 10
131.9363022955
 20
954.6944607789
 11
131.9363022955
 21
464.0419226634
  0
LINE
  5
299
100
AcDbEntity
  8
0
100
AcDbLine
 62
7
  6
CONTINUOUS
 10
131.9363022955
 20
429.6944607789
 11
131.9363022955
 21
214.0419226634
  0
LINE
  5
29A
100
AcDbEntity
  8
0
100
AcDbLine
 62
7
  6
CONTINUOUS
 10
131.9363022955
 20
179.6944607789
 11
131.9363022955
 21
121.9931917211
  0
LINE
  5
29B
100
AcDbEntity
  8
0
100
AcDbLine
 62
7
  6
CONTINUOUS
 10
132.2176636131
 20
189.9931917211
 11
132.2176636131
 21
203.7431917211
  0
LINE
  5
29C
100
AcDbEntity
  8
0
100
AcDbLine
 62
7
  6
CONTINUOUS
 10
132.2176636131
 20
439.9931917211
 11
132.2176636131
 21
453.7431917211
  0
LINE
  5
29D
100
AcDbEntity
  8
0
100
AcDbLine
 62
7
  6
CONTINUOUS
 10
132.2176636131
 20
964.9931917211
 11
132.2176636131
 21
978.7431917211
  0
LINE
  5
29E
100
AcDbEntity
  8
0
100
AcDbLine
 62
7
  6
CONTINUOUS
 10
132.2176636131
 20
1214.9931917211
 11
132.2176636131
 21
1228.7431917211
  0
LINE
  5
29F
100
AcDbEntity
  8
0
100
AcDbLine
 62
7
  6
CONTINUOUS
 10
132.3590849693
 20
1228.7431917211
 11
132.3590849693
 21
1214.9931917211
  0
LINE
  5
2A0
100
AcDbEntity
  8
0
100
AcDbLine
 62
7
  6
CONTINUOUS
 10
132.3590849693
 20
978.7431917211
 11
132.3590849693
 21
964.9931917211
  0
LINE
  5
2A1
100
AcDbEntity
  8
0
100
AcDbLine
 62
7
  6
CONTINUOUS
 10
132.3590849693
 20
453.7431917211
 11
132.3590849693
 21
439.9931917211
  0
LINE
  5
2A2
100
AcDbEntity
  8
0
100
AcDbLine
 62
7
  6
CONTINUOUS
 10
132.3590849693
 20
203.7431917211
 11
132.3590849693
 21
189.9931917211
  0
LINE
  5
2A3
100
AcDbEntity
  8
0
100
AcDbLine
 62
7
  6
CONTINUOUS
 10
133.3936973218
 20
1297.3681917211
 11
133.3936973218
 21
1296.7431917211
  0
LINE
  5
2A4
100
AcDbEntity
  8
0
100
AcDbLine
 62
7
  6
CONTINUOUS
 10
133.3936973218
 20
121.9931917211
 11
133.3936973218
 21
121.3681917211
  0
LINE
  5
2A5
100
AcDbEntity
  8
0
100
AcDbLine
 62
7
  6
CONTINUOUS
 10
134.1936973218
 20
161.6681917224
 11
134.1936973218
 21
180.0681917209
  0
LINE
  5
2A6
100
AcDbEntity
  8
0
100
AcDbLine
 62
7
  6
CONTINUOUS
 10
134.1936973218
 20
213.6681917214
 11
134.1936973218
 21
232.0681917248
  0
LINE
  5
2A7
100
AcDbEntity
  8
0
100
AcDbLine
 62
7
  6
CONTINUOUS
 10
134.1936973218
 20
411.6681917224
 11
134.1936973218
 21
430.0681917209
  0
LINE
  5
2A8
100
AcDbEntity
  8
0
100
AcDbLine
 62
7
  6
CONTINUOUS
 10
134.1936973218
 20
463.6681917214
 11
134.1936973218
 21
482.0681917248
  0
LINE
  5
2A9
100
AcDbEntity
  8
0
100
AcDbLine
 62
7
  6
CONTINUOUS
 10
134.1936973218
 20
936.6681917224
 11
134.1936973218
 21
955.0681917209
  0
LINE
  5
2AA
100
AcDbEntity
  8
0
100
AcDbLine
 62
7
  6
CONTINUOUS
 10
134.1936973218
 20
988.6681917214
 11
134.1936973218
 21
1007.0681917248
  0
LINE
  5
2AB
100
AcDbEntity
  8
0
100
AcDbLine
 62
7
  6
CONTINUOUS
 10
134.1936973218
 20
1186.6681917224
 11
134.1936973218
 21
1205.0681917209
  0
LINE
  5
2AC
100
AcDbEntity
  8
0
100
AcDbLine
 62
7
  6
CONTINUOUS
 10
134.1936973218
 20
1238.6681917214
 11
134.1936973218
 21
1257.0681917248
  0
LINE
  5
2AD
100
AcDbEntity
  8
0
100
AcDbLine
 62
7
  6
CONTINUOUS
 10
134.4884615999
 20
1257.0682126005
 11
134.4884615999
 21
1255.0803097841
  0
LINE
  5
2AE
100
AcDbEntity
  8
0
100
AcDbLine
 62
7
  6
CONTINUOUS
 10
134.4884615999
 20
1240.6560736581
 11
134.4884615999
 21
1238.668168723
  0
LINE
  5
2AF
100
AcDbEntity
  8
0
100
AcDbLine
 62
7
  6
CONTINUOUS
 10
134.4884615999
 20
1205.0682147105
 11
134.4884615999
 21
1203.0803097841
  0
LINE
  5
2B0
100
AcDbEntity
  8
0
100
AcDbLine
 62
7
  6
CONTINUOUS
 10
134.4884615999
 20
1188.6560736581
 11
134.4884615999
 21
1186.6681632915
  0
LINE
  5
2B1
100
AcDbEntity
  8
0
100
AcDbLine
 62
7
  6
CONTINUOUS
 10
134.4884615999
 20
1007.0682126005
 11
134.4884615999
 21
1005.0803097841
  0
LINE
  5
2B2
100
AcDbEntity
  8
0
100
AcDbLine
 62
7
  6
CONTINUOUS
 10
134.4884615999
 20
990.6560736581
 11
134.4884615999
 21
988.668168723
  0
LINE
  5
2B3
100
AcDbEntity
  8
0
100
AcDbLine
 62
7
  6
CONTINUOUS
 10
134.4884615999
 20
955.0682147105
 11
134.4884615999
 21
953.0803097841
  0
LINE
  5
2B4
100
AcDbEntity
  8
0
100
AcDbLine
 62
7
  6
CONTINUOUS
 10
134.4884615999
 20
938.6560736581
 11
134.4884615999
 21
936.6681632915
  0
LINE
  5
2B5
100
AcDbEntity
  8
0
100
AcDbLine
 62
7
  6
CONTINUOUS
 10
134.4884615999
 20
482.0682126005
 11
134.4884615999
 21
480.0803097841
  0
LINE
  5
2B6
100
AcDbEntity
  8
0
100
AcDbLine
 62
7
  6
CONTINUOUS
 10
134.4884615999
 20
465.6560736581
 11
134.4884615999
 21
463.668168723
  0
LINE
  5
2B7
100
AcDbEntity
  8
0
100
AcDbLine
 62
7
  6
CONTINUOUS
 10
134.4884615999
 20
430.0682147105
 11
134.4884615999
 21
428.0803097841
  0
LINE
  5
2B8
100
AcDbEntity
  8
0
100
AcDbLine
 62
7
  6
CONTINUOUS
 10
134.4884615999
 20
413.6560736581
 11
134.4884615999
 21
411.6681632915
  0
LINE
  5
2B9
100
AcDbEntity
  8
0
100
AcDbLine
 62
7
  6
CONTINUOUS
 10
134.4884615999
 20
232.0682126005
 11
134.4884615999
 21
230.0803097841
  0
LINE
  5
2BA
100
AcDbEntity
  8
0
100
AcDbLine
 62
7
  6
CONTINUOUS
 10
134.4884615999
 20
215.6560736581
 11
134.4884615999
 21
213.668168723
  0
LINE
  5
2BB
100
AcDbEntity
  8
0
100
AcDbLine
 62
7
  6
CONTINUOUS
 10
134.4884615999
 20
180.0682147105
 11
134.4884615999
 21
178.0803097841
  0
LINE
  5
2BC
100
AcDbEntity
  8
0
100
AcDbLine
 62
7
  6
CONTINUOUS
 10
134.4884615999
 20
163.6560736581
 11
134.4884615999
 21
161.6681632915
  0
LINE
  5
2BD
100
AcDbEntity
  8
0
100
AcDbLine
 62
7
  6
CONTINUOUS
 10
136.3936973218
 20
148.4931917211
 11
136.3936973218
 21
153.4931917211
  0
LINE
  5
2BE
100
AcDbEntity
  8
0
100
AcDbLine
 62
7
  6
CONTINUOUS
 10
136.3936973218
 20
1265.2431917211
 11
136.3936973218
 21
1270.2431917211
  0
LINE
  5
2BF
100
AcDbEntity
  8
0
100
AcDbLine
 62
7
  6
CONTINUOUS
 10
142.3936973218
 20
1270.2431917211
 11
142.3936973218
 21
1265.2431917211
  0
LINE
  5
2C0
100
AcDbEntity
  8
0
100
AcDbLine
 62
7
  6
CONTINUOUS
 10
142.3936973218
 20
153.4931917211
 11
142.3936973218
 21
148.4931917211
  0
LINE
  5
2C1
100
AcDbEntity
  8
0
100
AcDbLine
 62
7
  6
CONTINUOUS
 10
143.2286021337
 20
1237.8681917211
 11
143.2286021347
 21
1228.7431917211
  0
LINE
  5
2C2
100
AcDbEntity
  8
0
100
AcDbLine
 62
7
  6
CONTINUOUS
 10
143.2286021337
 20
987.8681917211
 11
143.2286021347
 21
978.7431917211
  0
LINE
  5
2C3
100
AcDbEntity
  8
0
100
AcDbLine
 62
7
  6
CONTINUOUS
 10
143.2286021337
 20
462.8681917211
 11
143.2286021347
 21
453.7431917211
  0
LINE
  5
2C4
100
AcDbEntity
  8
0
100
AcDbLine
 62
7
  6
CONTINUOUS
 10
143.2286021337
 20
212.8681917211
 11
143.2286021347
 21
203.7431917211
  0
LINE
  5
2C5
100
AcDbEntity
  8
0
100
AcDbLine
 62
7
  6
CONTINUOUS
 10
143.2286021342
 20
180.8681917211
 11
143.2286021347
 21
189.9931917211
  0
LINE
  5
2C6
100
AcDbEntity
  8
0
100
AcDbLine
 62
7
  6
CONTINUOUS
 10
143.2286021342
 20
430.8681917211
 11
143.2286021347
 21
439.9931917211
  0
LINE
  5
2C7
100
AcDbEntity
  8
0
100
AcDbLine
 62
7
  6
CONTINUOUS
 10
143.2286021342
 20
955.8681917211
 11
143.2286021347
 21
964.9931917211
  0
LINE
  5
2C8
100
AcDbEntity
  8
0
100
AcDbLine
 62
7
  6
CONTINUOUS
 10
143.2286021342
 20
1205.8681917211
 11
143.2286021347
 21
1214.9931917211
  0
LINE
  5
2C9
100
AcDbEntity
  8
0
100
AcDbLine
 62
7
  6
CONTINUOUS
 10
145.1813399236
 20
189.9931917211
 11
145.1813399236
 21
194.3795790324
  0
LINE
  5
2CA
100
AcDbEntity
  8
0
100
AcDbLine
 62
7
  6
CONTINUOUS
 10
145.1813399236
 20
199.3568044098
 11
145.1813399236
 21
203.7431917211
  0
LINE
  5
2CB
100
AcDbEntity
  8
0
100
AcDbLine
 62
7
  6
CONTINUOUS
 10
145.1813399236
 20
439.9931917211
 11
145.1813399236
 21
444.3795790324
  0
LINE
  5
2CC
100
AcDbEntity
  8
0
100
AcDbLine
 62
7
  6
CONTINUOUS
 10
145.1813399236
 20
449.3568044098
 11
145.1813399236
 21
453.7431917211
  0
LINE
  5
2CD
100
AcDbEntity
  8
0
100
AcDbLine
 62
7
  6
CONTINUOUS
 10
145.1813399236
 20
964.9931917211
 11
145.1813399236
 21
969.3795790324
  0
LINE
  5
2CE
100
AcDbEntity
  8
0
100
AcDbLine
 62
7
  6
CONTINUOUS
 10
145.1813399236
 20
974.3568044098
 11
145.1813399236
 21
978.7431917211
  0
LINE
  5
2CF
100
AcDbEntity
  8
0
100
AcDbLine
 62
7
  6
CONTINUOUS
 10
145.1813399236
 20
1214.9931917211
 11
145.1813399236
 21
1219.3795790324
  0
LINE
  5
2D0
100
AcDbEntity
  8
0
100
AcDbLine
 62
7
  6
CONTINUOUS
 10
145.1813399236
 20
1224.3568044098
 11
145.1813399236
 21
1228.7431917211
  0
LINE
  5
2D1
100
AcDbEntity
  8
0
100
AcDbLine
 62
7
  6
CONTINUOUS
 10
145.1936973218
 20
1237.8681917211
 11
145.1936973218
 21
1224.3278664964
  0
LINE
  5
2D2
100
AcDbEntity
  8
0
100
AcDbLine
 62
7
  6
CONTINUOUS
 10
145.1936973218
 20
1219.4085169459
 11
145.1936973218
 21
1205.8681917211
  0
LINE
  5
2D3
100
AcDbEntity
  8
0
100
AcDbLine
 62
7
  6
CONTINUOUS
 10
145.1936973218
 20
987.8681917211
 11
145.1936973218
 21
974.3278664964
  0
LINE
  5
2D4
100
AcDbEntity
  8
0
100
AcDbLine
 62
7
  6
CONTINUOUS
 10
145.1936973218
 20
969.4085169459
 11
145.1936973218
 21
955.8681917211
  0
LINE
  5
2D5
100
AcDbEntity
  8
0
100
AcDbLine
 62
7
  6
CONTINUOUS
 10
145.1936973218
 20
462.8681917211
 11
145.1936973218
 21
449.3278664964
  0
LINE
  5
2D6
100
AcDbEntity
  8
0
100
AcDbLine
 62
7
  6
CONTINUOUS
 10
145.1936973218
 20
444.4085169459
 11
145.1936973218
 21
430.8681917211
  0
LINE
  5
2D7
100
AcDbEntity
  8
0
100
AcDbLine
 62
7
  6
CONTINUOUS
 10
145.1936973218
 20
212.8681917211
 11
145.1936973218
 21
199.3278664964
  0
LINE
  5
2D8
100
AcDbEntity
  8
0
100
AcDbLine
 62
7
  6
CONTINUOUS
 10
145.1936973218
 20
194.4085169459
 11
145.1936973218
 21
180.8681917211
  0
LINE
  5
2D9
100
AcDbEntity
  8
0
100
AcDbLine
 62
7
  6
CONTINUOUS
 10
146.1762449129
 20
1257.5681917211
 11
146.1762449154
 21
1255.6408254457
  0
LINE
  5
2DA
100
AcDbEntity
  8
0
100
AcDbLine
 62
7
  6
CONTINUOUS
 10
146.1762449154
 20
1240.0955579966
 11
146.1762449118
 21
1238.1681917211
  0
LINE
  5
2DB
100
AcDbEntity
  8
0
100
AcDbLine
 62
7
  6
CONTINUOUS
 10
146.1762449082
 20
1205.5681917211
 11
146.1762449154
 21
1203.6408254457
  0
LINE
  5
2DC
100
AcDbEntity
  8
0
100
AcDbLine
 62
7
  6
CONTINUOUS
 10
146.1762449154
 20
1188.0955579966
 11
146.1762449118
 21
1186.1681917211
  0
LINE
  5
2DD
100
AcDbEntity
  8
0
100
AcDbLine
 62
7
  6
CONTINUOUS
 10
146.1762449129
 20
1007.5681917211
 11
146.1762449154
 21
1005.6408254457
  0
LINE
  5
2DE
100
AcDbEntity
  8
0
100
AcDbLine
 62
7
  6
CONTINUOUS
 10
146.1762449154
 20
990.0955579966
 11
146.1762449118
 21
988.1681917211
  0
LINE
  5
2DF
100
AcDbEntity
  8
0
100
AcDbLine
 62
7
  6
CONTINUOUS
 10
146.1762449082
 20
955.5681917211
 11
146.1762449154
 21
953.6408254457
  0
LINE
  5
2E0
100
AcDbEntity
  8
0
100
AcDbLine
 62
7
  6
CONTINUOUS
 10
146.1762449154
 20
938.0955579966
 11
146.1762449118
 21
936.1681917211
  0
LINE
  5
2E1
100
AcDbEntity
  8
0
100
AcDbLine
 62
7
  6
CONTINUOUS
 10
146.1762449129
 20
482.5681917211
 11
146.1762449154
 21
480.6408254457
  0
LINE
  5
2E2
100
AcDbEntity
  8
0
100
AcDbLine
 62
7
  6
CONTINUOUS
 10
146.1762449154
 20
465.0955579966
 11
146.1762449118
 21
463.1681917211
  0
LINE
  5
2E3
100
AcDbEntity
  8
0
100
AcDbLine
 62
7
  6
CONTINUOUS
 10
146.1762449082
 20
430.5681917211
 11
146.1762449154
 21
428.6408254457
  0
LINE
  5
2E4
100
AcDbEntity
  8
0
100
AcDbLine
 62
7
  6
CONTINUOUS
 10
146.1762449154
 20
413.0955579966
 11
146.1762449118
 21
411.1681917211
  0
LINE
  5
2E5
100
AcDbEntity
  8
0
100
AcDbLine
 62
7
  6
CONTINUOUS
 10
146.1762449129
 20
232.5681917211
 11
146.1762449154
 21
230.6408254457
  0
LINE
  5
2E6
100
AcDbEntity
  8
0
100
AcDbLine
 62
7
  6
CONTINUOUS
 10
146.1762449154
 20
215.0955579966
 11
146.1762449118
 21
213.1681917211
  0
LINE
  5
2E7
100
AcDbEntity
  8
0
100
AcDbLine
 62
7
  6
CONTINUOUS
 10
146.1762449082
 20
180.5681917211
 11
146.1762449154
 21
178.6408254457
  0
LINE
  5
2E8
100
AcDbEntity
  8
0
100
AcDbLine
 62
7
  6
CONTINUOUS
 10
146.1762449154
 20
163.0955579966
 11
146.1762449118
 21
161.1681917211
  0
LINE
  5
2E9
100
AcDbEntity
  8
0
100
AcDbLine
 62
7
  6
CONTINUOUS
 10
147.1936973218
 20
161.1681917211
 11
147.1936973218
 21
180.5681917211
  0
LINE
  5
2EA
100
AcDbEntity
  8
0
100
AcDbLine
 62
7
  6
CONTINUOUS
 10
147.1936973218
 20
213.1681917211
 11
147.1936973218
 21
232.5681917211
  0
LINE
  5
2EB
100
AcDbEntity
  8
0
100
AcDbLine
 62
7
  6
CONTINUOUS
 10
147.1936973218
 20
411.1681917211
 11
147.1936973218
 21
430.5681917211
  0
LINE
  5
2EC
100
AcDbEntity
  8
0
100
AcDbLine
 62
7
  6
CONTINUOUS
 10
147.1936973218
 20
463.1681917211
 11
147.1936973218
 21
482.5681917211
  0
LINE
  5
2ED
100
AcDbEntity
  8
0
100
AcDbLine
 62
7
  6
CONTINUOUS
 10
147.1936973218
 20
936.1681917211
 11
147.1936973218
 21
955.5681917211
  0
LINE
  5
2EE
100
AcDbEntity
  8
0
100
AcDbLine
 62
7
  6
CONTINUOUS
 10
147.1936973218
 20
988.1681917211
 11
147.1936973218
 21
1007.5681917211
  0
LINE
  5
2EF
100
AcDbEntity
  8
0
100
AcDbLine
 62
7
  6
CONTINUOUS
 10
147.1936973218
 20
1186.1681917211
 11
147.1936973218
 21
1205.5681917211
  0
LINE
  5
2F0
100
AcDbEntity
  8
0
100
AcDbLine
 62
7
  6
CONTINUOUS
 10
147.1936973218
 20
1238.1681917211
 11
147.1936973218
 21
1257.5681917211
  0
LINE
  5
2F1
100
AcDbEntity
  8
0
100
AcDbLine
 62
7
  6
CONTINUOUS
 10
148.2936973218
 20
147.1181917211
 11
148.2936973218
 21
1271.6181917211
  0
LINE
  5
2F2
100
AcDbEntity
  8
0
100
AcDbLine
 62
7
  6
CONTINUOUS
 10
149.8936973218
 20
1271.6181917211
 11
149.8936973218
 21
147.1181917211
  0
LINE
  5
2F3
100
AcDbEntity
  8
0
100
AcDbLine
 62
7
  6
CONTINUOUS
 10
152.2936973218
 20
108.8681917211
 11
152.2936973218
 21
121.3681917211
  0
LINE
  5
2F4
100
AcDbEntity
  8
0
100
AcDbLine
 62
7
  6
CONTINUOUS
 10
152.2936973218
 20
1297.3681917211
 11
152.2936973218
 21
1309.8681917211
  0
LINE
  5
2F5
100
AcDbEntity
  8
0
100
AcDbLine
 62
7
  6
CONTINUOUS
 10
152.9936973218
 20
108.8681917211
 11
152.9936973218
 21
147.1181917211
  0
LINE
  5
2F6
100
AcDbEntity
  8
0
100
AcDbLine
 62
7
  6
CONTINUOUS
 10
152.9936973218
 20
1271.6181917211
 11
152.9936973218
 21
1309.8681917211
  0
LINE
  5
2F7
100
AcDbEntity
  8
0
100
AcDbLine
 62
7
  6
CONTINUOUS
 10
153.3936973218
 20
1305.8681917211
 11
153.3936973218
 21
1304.3681917211
  0
LINE
  5
2F8
100
AcDbEntity
  8
0
100
AcDbLine
 62
7
  6
CONTINUOUS
 10
153.3936973218
 20
147.1181917211
 11
153.3936973218
 21
1271.6181917211
  0
LINE
  5
2F9
100
AcDbEntity
  8
0
100
AcDbLine
 62
7
  6
CONTINUOUS
 10
153.8836973218
 20
117.0681917211
 11
153.8836973218
 21
127.3681917211
  0
LINE
  5
2FA
100
AcDbEntity
  8
0
100
AcDbLine
 62
7
  6
CONTINUOUS
 10
153.8836973218
 20
1291.3681917211
 11
153.8836973218
 21
1301.6681917211
  0
LINE
  5
2FB
100
AcDbEntity
  8
0
100
AcDbLine
 62
7
  6
CONTINUOUS
 10
153.8936973218
 20
1303.8681917211
 11
153.8936973218
 21
1301.6681917211
  0
LINE
  5
2FC
100
AcDbEntity
  8
0
100
AcDbLine
 62
7
  6
CONTINUOUS
 10
153.8936973218
 20
127.8681917211
 11
153.8936973218
 21
127.3681917211
  0
LINE
  5
2FD
100
AcDbEntity
  8
0
100
AcDbLine
 62
7
  6
CONTINUOUS
 10
153.8936973218
 20
114.8681917211
 11
153.8936973218
 21
117.1180383346
  0
LINE
  5
2FE
100
AcDbEntity
  8
0
100
AcDbLine
 62
7
  6
CONTINUOUS
 10
153.8936973218
 20
128.0032471113
 11
153.8936973218
 21
129.8681917211
  0
LINE
  5
2FF
100
AcDbEntity
  8
0
100
AcDbLine
 62
7
  6
CONTINUOUS
 10
153.8936973218
 20
1288.8681917211
 11
153.8936973218
 21
1290.7332369693
  0
LINE
  5
300
100
AcDbEntity
  8
0
100
AcDbLine
 62
7
  6
CONTINUOUS
 10
154.2936973218
 20
144.3681917211
 11
154.2936973218
 21
109.3681917211
  0
LINE
  5
301
100
AcDbEntity
  8
0
100
AcDbLine
 62
7
  6
CONTINUOUS
 10
154.2936973218
 20
1274.3681917211
 11
154.2936973218
 21
1297.0752985023
  0
LINE
  5
302
100
AcDbEntity
  8
0
100
AcDbLine
 62
7
  6
CONTINUOUS
 10
154.2936973218
 20
1297.3681917211
 11
154.2936973218
 21
1309.3681917211
  0
LINE
  5
303
100
AcDbEntity
  8
0
100
AcDbLine
 62
7
  6
CONTINUOUS
 10
155.3936973218
 20
144.3681917211
 11
155.3936973218
 21
1274.3681917211
  0
LINE
  5
304
100
AcDbEntity
  8
0
100
AcDbLine
 62
7
  6
CONTINUOUS
 10
156.2936973218
 20
154.3681917211
 11
156.2936973218
 21
152.8681917211
  0
LINE
  5
305
100
AcDbEntity
  8
0
100
AcDbLine
 62
7
  6
CONTINUOUS
 10
156.2936973218
 20
1264.3681917211
 11
156.2936973218
 21
1265.8681917211
  0
LINE
  5
306
100
AcDbEntity
  8
0
100
AcDbLine
 62
7
  6
CONTINUOUS
 10
156.3936973218
 20
144.3681917211
 11
156.3936973218
 21
151.9681917211
  0
LINE
  5
307
100
AcDbEntity
  8
0
100
AcDbLine
 62
7
  6
CONTINUOUS
 10
156.3936973218
 20
1266.7681917211
 11
156.3936973218
 21
1274.3681917211
  0
LINE
  5
308
100
AcDbEntity
  8
0
100
AcDbLine
 62
7
  6
CONTINUOUS
 10
156.5936973218
 20
1274.3681917211
 11
156.5936973218
 21
1266.7681917211
  0
LINE
  5
309
100
AcDbEntity
  8
0
100
AcDbLine
 62
7
  6
CONTINUOUS
 10
156.5936973218
 20
151.9681917211
 11
156.5936973218
 21
144.3681917211
  0
LINE
  5
30A
100
AcDbEntity
  8
0
100
AcDbLine
 62
7
  6
CONTINUOUS
 10
157.5436973218
 20
144.3681917211
 11
157.5436973218
 21
154.3681917211
  0
LINE
  5
30B
100
AcDbEntity
  8
0
100
AcDbLine
 62
7
  6
CONTINUOUS
 10
157.5436973218
 20
1264.3681917211
 11
157.5436973218
 21
1274.3681917211
  0
LINE
  5
30C
100
AcDbEntity
  8
0
100
AcDbLine
 62
7
  6
CONTINUOUS
 10
162.8936973218
 20
110.8681917211
 11
162.8936973218
 21
112.8681917211
  0
LINE
  5
30D
100
AcDbEntity
  8
0
100
AcDbLine
 62
7
  6
CONTINUOUS
 10
167.0436973218
 20
137.8681917211
 11
167.0436973218
 21
139.8681917211
  0
LINE
  5
30E
100
AcDbEntity
  8
0
100
AcDbLine
 62
7
  6
CONTINUOUS
 10
167.0436973218
 20
1278.8681917211
 11
167.0436973218
 21
1280.8681917211
  0
LINE
  5
30F
100
AcDbEntity
  8
0
100
AcDbLine
 62
7
  6
CONTINUOUS
 10
175.0436973218
 20
1280.8681917211
 11
175.0436973218
 21
1278.8681917211
  0
LINE
  5
310
100
AcDbEntity
  8
0
100
AcDbLine
 62
7
  6
CONTINUOUS
 10
175.0436973218
 20
139.8681917211
 11
175.0436973218
 21
137.8681917211
  0
LINE
  5
311
100
AcDbEntity
  8
0
100
AcDbLine
 62
7
  6
CONTINUOUS
 10
149.5867861717
 20
1296.7431917211
 11
151.3436973218
 21
1271.6181917211
  0
LINE
  5
312
100
AcDbEntity
  8
0
100
AcDbLine
 62
7
  6
CONTINUOUS
 10
182.8936973218
 20
112.8681917211
 11
182.8936973218
 21
110.8681917211
  0
LINE
  5
313
100
AcDbEntity
  8
0
100
AcDbLine
 62
7
  6
CONTINUOUS
 10
151.3436973218
 20
147.1181917211
 11
149.5867861717
 21
121.9931917211
  0
LINE
  5
314
100
AcDbEntity
  8
0
100
AcDbLine
 62
7
  6
CONTINUOUS
 10
139.388007804
 20
410.8681917211
 11
148.1936973218
 21
410.8681917211
  0
LINE
  5
315
100
AcDbEntity
  8
0
100
AcDbLine
 62
7
  6
CONTINUOUS
 10
134.988486105
 20
411.1681917211
 11
148.1936973218
 21
411.1681917211
  0
LINE
  5
316
100
AcDbEntity
  8
0
100
AcDbLine
 62
7
  6
CONTINUOUS
 10
134.1936973218
 20
411.6681917223
 11
134.4884615999
 21
411.6681917223
  0
LINE
  5
317
100
AcDbEntity
  8
0
100
AcDbLine
 62
7
  6
CONTINUOUS
 10
147.1936973218
 20
415.8681917211
 11
134.1936973218
 21
415.8681917211
  0
LINE
  5
318
100
AcDbEntity
  8
0
100
AcDbLine
 62
7
  6
CONTINUOUS
 10
147.1936973218
 20
425.8681917211
 11
134.1936973218
 21
425.8681917211
  0
LINE
  5
319
100
AcDbEntity
  8
0
100
AcDbLine
 62
7
  6
CONTINUOUS
 10
146.1762449154
 20
413.0955579966
 11
134.4884615999
 21
413.6560736581
  0
LINE
  5
31A
100
AcDbEntity
  8
0
100
AcDbLine
 62
7
  6
CONTINUOUS
 10
134.1936973218
 20
469.0081917211
 11
130.5116240263
 21
460.907630471
  0
LINE
  5
31B
100
AcDbEntity
  8
0
100
AcDbLine
 62
7
  6
CONTINUOUS
 10
130.6902068405
 20
460.8248698822
 11
134.1936973218
 21
468.532548407
  0
LINE
  5
31C
100
AcDbEntity
  8
0
100
AcDbLine
 62
7
  6
CONTINUOUS
 10
146.1762449154
 20
428.6408254457
 11
134.4884615999
 21
428.0803097841
  0
LINE
  5
31D
100
AcDbEntity
  8
0
100
AcDbLine
 62
7
  6
CONTINUOUS
 10
134.4884615999
 20
430.0681916741
 11
134.1936973218
 21
430.0681916741
  0
LINE
  5
31E
100
AcDbEntity
  8
0
100
AcDbLine
 62
7
  6
CONTINUOUS
 10
148.1936973218
 20
430.5681917211
 11
134.988480679
 21
430.5681917211
  0
LINE
  5
31F
100
AcDbEntity
  8
0
100
AcDbLine
 62
7
  6
CONTINUOUS
 10
148.1936973218
 20
430.8681917211
 11
139.3876151985
 21
430.8681917211
  0
LINE
  5
320
100
AcDbEntity
  8
0
100
AcDbLine
 62
7
  6
CONTINUOUS
 10
130.4936973218
 20
432.9115135601
 11
130.6902068405
 21
432.9115135601
  0
LINE
  5
321
100
AcDbEntity
  8
0
100
AcDbLine
 62
7
  6
CONTINUOUS
 10
131.4936973218
 20
439.9931917211
 11
145.1813399236
 21
439.9931917211
  0
LINE
  5
322
100
AcDbEntity
  8
0
100
AcDbLine
 62
7
  6
CONTINUOUS
 10
145.1813399236
 20
453.7431917211
 11
131.4936973218
 21
453.7431917211
  0
LINE
  5
323
100
AcDbEntity
  8
0
100
AcDbLine
 62
7
  6
CONTINUOUS
 10
130.6902068405
 20
460.8248698822
 11
130.4936973218
 21
460.8248698822
  0
LINE
  5
324
100
AcDbEntity
  8
0
100
AcDbLine
 62
7
  6
CONTINUOUS
 10
139.3876137675
 20
462.8681917211
 11
148.1936973218
 21
462.8681917211
  0
LINE
  5
325
100
AcDbEntity
  8
0
100
AcDbLine
 62
7
  6
CONTINUOUS
 10
134.9884806826
 20
463.1681917211
 11
148.1936973218
 21
463.1681917211
  0
LINE
  5
326
100
AcDbEntity
  8
0
100
AcDbLine
 62
7
  6
CONTINUOUS
 10
134.1936973218
 20
463.6681917213
 11
134.4884615999
 21
463.6681917213
  0
LINE
  5
327
100
AcDbEntity
  8
0
100
AcDbLine
 62
7
  6
CONTINUOUS
 10
147.1936973218
 20
467.8681917211
 11
134.1936973218
 21
467.8681917211
  0
LINE
  5
328
100
AcDbEntity
  8
0
100
AcDbLine
 62
7
  6
CONTINUOUS
 10
146.1762449154
 20
465.0955579966
 11
134.4884615999
 21
465.6560736581
  0
LINE
  5
329
100
AcDbEntity
  8
0
100
AcDbLine
 62
7
  6
CONTINUOUS
 10
130.5116240263
 20
957.8287529712
 11
134.1936973218
 21
949.7281917211
  0
LINE
  5
32A
100
AcDbEntity
  8
0
100
AcDbLine
 62
7
  6
CONTINUOUS
 10
134.1936973218
 20
950.2038345012
 11
130.6902068405
 21
957.9115135601
  0
LINE
  5
32B
100
AcDbEntity
  8
0
100
AcDbLine
 62
7
  6
CONTINUOUS
 10
146.1762449154
 20
480.6408254457
 11
134.4884615999
 21
480.0803097841
  0
LINE
  5
32C
100
AcDbEntity
  8
0
100
AcDbLine
 62
7
  6
CONTINUOUS
 10
147.1936973218
 20
477.8681917211
 11
134.1936973218
 21
477.8681917211
  0
LINE
  5
32D
100
AcDbEntity
  8
0
100
AcDbLine
 62
7
  6
CONTINUOUS
 10
134.4884615999
 20
482.0681917245
 11
134.1936973218
 21
482.0681917245
  0
LINE
  5
32E
100
AcDbEntity
  8
0
100
AcDbLine
 62
7
  6
CONTINUOUS
 10
148.1936973218
 20
482.5681917211
 11
134.9884824978
 21
482.5681917211
  0
LINE
  5
32F
100
AcDbEntity
  8
0
100
AcDbLine
 62
7
  6
CONTINUOUS
 10
148.1936973218
 20
482.8681917211
 11
139.388006616
 21
482.8681917211
  0
LINE
  5
330
100
AcDbEntity
  8
0
100
AcDbLine
 62
7
  6
CONTINUOUS
 10
134.1936973218
 20
219.0081917211
 11
130.5116240263
 21
210.907630471
  0
LINE
  5
331
100
AcDbEntity
  8
0
100
AcDbLine
 62
7
  6
CONTINUOUS
 10
130.6902068405
 20
210.8248698822
 11
134.1936973218
 21
218.532548407
  0
LINE
  5
332
100
AcDbEntity
  8
0
100
AcDbLine
 62
7
  6
CONTINUOUS
 10
895.7091321186
 20
1296.8190889971
 11
896.2582348426
 21
1297.3681917211
  0
LINE
  5
333
100
AcDbEntity
  8
0
100
AcDbLine
 62
7
  6
CONTINUOUS
 10
898.4534212917
 20
1297.4279156911
 11
897.9347507124
 21
1296.9092451117
  0
LINE
  5
334
100
AcDbEntity
  8
0
100
AcDbLine
 62
7
  6
CONTINUOUS
 10
900.2221244466
 20
1297.0752985023
 11
899.8900176654
 21
1296.7431917211
  0
LINE
  5
335
100
AcDbEntity
  8
0
100
AcDbLine
 62
7
  6
CONTINUOUS
 10
896.2582348426
 20
121.3681917211
 11
895.7091321186
 21
121.9172944451
  0
LINE
  5
336
100
AcDbEntity
  8
0
100
AcDbLine
 62
7
  6
CONTINUOUS
 10
897.9347507124
 20
121.8271383305
 11
898.3936973218
 21
121.3681917211
  0
LINE
  5
337
100
AcDbEntity
  8
0
100
AcDbLine
 62
7
  6
CONTINUOUS
 10
899.8918574936
 20
121.9913518929
 11
900.2221244466
 21
121.6610849399
  0
LINE
  5
338
100
AcDbEntity
  8
0
100
AcDbLine
 62
7
  6
CONTINUOUS
 10
130.5116240263
 20
1207.8287529712
 11
134.1936973218
 21
1199.7281917211
  0
LINE
  5
339
100
AcDbEntity
  8
0
100
AcDbLine
 62
7
  6
CONTINUOUS
 10
134.1936973218
 20
1200.2038345012
 11
130.6902068405
 21
1207.9115135601
  0
LINE
  5
33A
100
AcDbEntity
  8
0
100
AcDbLine
 62
7
  6
CONTINUOUS
 10
120.565270197
 20
121.6610849399
 11
120.89553715
 21
121.9913518929
  0
LINE
  5
33B
100
AcDbEntity
  8
0
100
AcDbLine
 62
7
  6
CONTINUOUS
 10
122.3936973218
 20
121.3681917211
 11
122.8526439312
 21
121.8271383305
  0
LINE
  5
33C
100
AcDbEntity
  8
0
100
AcDbLine
 62
7
  6
CONTINUOUS
 10
125.154159801
 20
121.9931917211
 11
124.529159801
 21
121.3681917211
  0
LINE
  5
33D
100
AcDbEntity
  8
0
100
AcDbLine
 62
7
  6
CONTINUOUS
 10
120.8973769782
 20
1296.7431917211
 11
120.565270197
 21
1297.0752985023
  0
LINE
  5
33E
100
AcDbEntity
  8
0
100
AcDbLine
 62
7
  6
CONTINUOUS
 10
122.8526439312
 20
1296.9092451117
 11
122.3339733519
 21
1297.4279156911
  0
LINE
  5
33F
100
AcDbEntity
  8
0
100
AcDbLine
 62
7
  6
CONTINUOUS
 10
124.529159801
 20
1297.3681917211
 11
125.154159801
 21
1296.7431917211
  0
LINE
  5
340
100
AcDbEntity
  8
0
100
AcDbLine
 62
7
  6
CONTINUOUS
 10
139.388007804
 20
935.8681917211
 11
148.1936973218
 21
935.8681917211
  0
LINE
  5
341
100
AcDbEntity
  8
0
100
AcDbLine
 62
7
  6
CONTINUOUS
 10
134.988486105
 20
936.1681917211
 11
148.1936973218
 21
936.1681917211
  0
LINE
  5
342
100
AcDbEntity
  8
0
100
AcDbLine
 62
7
  6
CONTINUOUS
 10
134.1936973218
 20
936.6681917223
 11
134.4884615999
 21
936.6681917223
  0
LINE
  5
343
100
AcDbEntity
  8
0
100
AcDbLine
 62
7
  6
CONTINUOUS
 10
147.1936973218
 20
940.8681917211
 11
134.1936973218
 21
940.8681917211
  0
LINE
  5
344
100
AcDbEntity
  8
0
100
AcDbLine
 62
7
  6
CONTINUOUS
 10
147.1936973218
 20
950.8681917211
 11
134.1936973218
 21
950.8681917211
  0
LINE
  5
345
100
AcDbEntity
  8
0
100
AcDbLine
 62
7
  6
CONTINUOUS
 10
134.4884615999
 20
955.0681916741
 11
134.1936973218
 21
955.0681916741
  0
LINE
  5
346
100
AcDbEntity
  8
0
100
AcDbLine
 62
7
  6
CONTINUOUS
 10
148.1936973218
 20
955.5681917211
 11
134.988480679
 21
955.5681917211
  0
LINE
  5
347
100
AcDbEntity
  8
0
100
AcDbLine
 62
7
  6
CONTINUOUS
 10
148.1936973218
 20
955.8681917211
 11
139.3876151985
 21
955.8681917211
  0
LINE
  5
348
100
AcDbEntity
  8
0
100
AcDbLine
 62
7
  6
CONTINUOUS
 10
146.1762449154
 20
938.0955579966
 11
134.4884615999
 21
938.6560736581
  0
LINE
  5
349
100
AcDbEntity
  8
0
100
AcDbLine
 62
7
  6
CONTINUOUS
 10
146.1762449154
 20
953.6408254457
 11
134.4884615999
 21
953.0803097841
  0
LINE
  5
34A
100
AcDbEntity
  8
0
100
AcDbLine
 62
7
  6
CONTINUOUS
 10
130.4936973218
 20
957.9115135601
 11
130.6902068405
 21
957.9115135601
  0
LINE
  5
34B
100
AcDbEntity
  8
0
100
AcDbLine
 62
7
  6
CONTINUOUS
 10
131.4936973218
 20
964.9931917211
 11
145.1813399236
 21
964.9931917211
  0
LINE
  5
34C
100
AcDbEntity
  8
0
100
AcDbLine
 62
7
  6
CONTINUOUS
 10
145.1813399236
 20
978.7431917211
 11
131.4936973218
 21
978.7431917211
  0
LINE
  5
34D
100
AcDbEntity
  8
0
100
AcDbLine
 62
7
  6
CONTINUOUS
 10
130.6902068405
 20
985.8248698822
 11
130.4936973218
 21
985.8248698822
  0
LINE
  5
34E
100
AcDbEntity
  8
0
100
AcDbLine
 62
7
  6
CONTINUOUS
 10
139.3876137675
 20
987.8681917211
 11
148.1936973218
 21
987.8681917211
  0
LINE
  5
34F
100
AcDbEntity
  8
0
100
AcDbLine
 62
7
  6
CONTINUOUS
 10
134.9884806826
 20
988.1681917211
 11
148.1936973218
 21
988.1681917211
  0
LINE
  5
350
100
AcDbEntity
  8
0
100
AcDbLine
 62
7
  6
CONTINUOUS
 10
134.1936973218
 20
988.6681917213
 11
134.4884615999
 21
988.6681917213
  0
LINE
  5
351
100
AcDbEntity
  8
0
100
AcDbLine
 62
7
  6
CONTINUOUS
 10
147.1936973218
 20
992.8681917211
 11
134.1936973218
 21
992.8681917211
  0
LINE
  5
352
100
AcDbEntity
  8
0
100
AcDbLine
 62
7
  6
CONTINUOUS
 10
147.1936973218
 20
1002.8681917211
 11
134.1936973218
 21
1002.8681917211
  0
LINE
  5
353
100
AcDbEntity
  8
0
100
AcDbLine
 62
7
  6
CONTINUOUS
 10
146.1762449154
 20
990.0955579966
 11
134.4884615999
 21
990.6560736581
  0
LINE
  5
354
100
AcDbEntity
  8
0
100
AcDbLine
 62
7
  6
CONTINUOUS
 10
871.2006084719
 20
121.9931917211
 11
869.4436973218
 21
147.1181917211
  0
LINE
  5
355
100
AcDbEntity
  8
0
100
AcDbLine
 62
7
  6
CONTINUOUS
 10
837.8936973218
 20
112.8681917211
 11
837.8936973218
 21
110.8681917211
  0
LINE
  5
356
100
AcDbEntity
  8
0
100
AcDbLine
 62
7
  6
CONTINUOUS
 10
845.7436973218
 20
137.8681917211
 11
845.7436973218
 21
139.8681917211
  0
LINE
  5
357
100
AcDbEntity
  8
0
100
AcDbLine
 62
7
  6
CONTINUOUS
 10
845.7436973218
 20
1278.8681917211
 11
845.7436973218
 21
1280.8681917211
  0
LINE
  5
358
100
AcDbEntity
  8
0
100
AcDbLine
 62
7
  6
CONTINUOUS
 10
869.4436973218
 20
1271.6181917211
 11
871.2006084719
 21
1296.7431917211
  0
LINE
  5
359
100
AcDbEntity
  8
0
100
AcDbLine
 62
7
  6
CONTINUOUS
 10
146.1762449154
 20
1005.6408254457
 11
134.4884615999
 21
1005.0803097841
  0
LINE
  5
35A
100
AcDbEntity
  8
0
100
AcDbLine
 62
7
  6
CONTINUOUS
 10
134.4884615999
 20
1007.0681917245
 11
134.1936973218
 21
1007.0681917245
  0
LINE
  5
35B
100
AcDbEntity
  8
0
100
AcDbLine
 62
7
  6
CONTINUOUS
 10
148.1936973218
 20
1007.5681917211
 11
134.9884824978
 21
1007.5681917211
  0
LINE
  5
35C
100
AcDbEntity
  8
0
100
AcDbLine
 62
7
  6
CONTINUOUS
 10
148.1936973218
 20
1007.8681917211
 11
139.388006616
 21
1007.8681917211
  0
LINE
  5
35D
100
AcDbEntity
  8
0
100
AcDbLine
 62
7
  6
CONTINUOUS
 10
853.7436973218
 20
1280.8681917211
 11
853.7436973218
 21
1278.8681917211
  0
LINE
  5
35E
100
AcDbEntity
  8
0
100
AcDbLine
 62
7
  6
CONTINUOUS
 10
853.7436973218
 20
139.8681917211
 11
853.7436973218
 21
137.8681917211
  0
LINE
  5
35F
100
AcDbEntity
  8
0
100
AcDbLine
 62
7
  6
CONTINUOUS
 10
857.8936973218
 20
112.8681917211
 11
857.8936973218
 21
110.8681917211
  0
LINE
  5
360
100
AcDbEntity
  8
0
100
AcDbLine
 62
7
  6
CONTINUOUS
 10
863.2436973218
 20
144.3681917211
 11
863.2436973218
 21
154.3681917211
  0
LINE
  5
361
100
AcDbEntity
  8
0
100
AcDbLine
 62
7
  6
CONTINUOUS
 10
863.2436973218
 20
1264.3681917211
 11
863.2436973218
 21
1274.3681917211
  0
LINE
  5
362
100
AcDbEntity
  8
0
100
AcDbLine
 62
7
  6
CONTINUOUS
 10
864.1936973218
 20
144.3681917211
 11
864.1936973218
 21
151.9681917211
  0
LINE
  5
363
100
AcDbEntity
  8
0
100
AcDbLine
 62
7
  6
CONTINUOUS
 10
864.1936973218
 20
1266.7681917211
 11
864.1936973218
 21
1274.3681917211
  0
LINE
  5
364
100
AcDbEntity
  8
0
100
AcDbLine
 62
7
  6
CONTINUOUS
 10
864.3936973218
 20
1274.3681917211
 11
864.3936973218
 21
1266.7681917211
  0
LINE
  5
365
100
AcDbEntity
  8
0
100
AcDbLine
 62
7
  6
CONTINUOUS
 10
864.3936973218
 20
151.9681917211
 11
864.3936973218
 21
144.3681917211
  0
LINE
  5
366
100
AcDbEntity
  8
0
100
AcDbLine
 62
7
  6
CONTINUOUS
 10
864.4936973218
 20
154.3681917211
 11
864.4936973218
 21
152.8681917211
  0
LINE
  5
367
100
AcDbEntity
  8
0
100
AcDbLine
 62
7
  6
CONTINUOUS
 10
864.4936973218
 20
1264.3681917211
 11
864.4936973218
 21
1265.8681917211
  0
LINE
  5
368
100
AcDbEntity
  8
0
100
AcDbLine
 62
7
  6
CONTINUOUS
 10
865.3936973218
 20
144.3681917211
 11
865.3936973218
 21
1274.3681917211
  0
LINE
  5
369
100
AcDbEntity
  8
0
100
AcDbLine
 62
7
  6
CONTINUOUS
 10
866.4936973218
 20
109.3681917211
 11
866.4936973218
 21
121.3681917211
  0
LINE
  5
36A
100
AcDbEntity
  8
0
100
AcDbLine
 62
7
  6
CONTINUOUS
 10
866.4936973218
 20
121.6610849399
 11
866.4936973218
 21
144.3681917211
  0
LINE
  5
36B
100
AcDbEntity
  8
0
100
AcDbLine
 62
7
  6
CONTINUOUS
 10
866.4936973218
 20
1274.3681917211
 11
866.4936973218
 21
1309.3681917211
  0
LINE
  5
36C
100
AcDbEntity
  8
0
100
AcDbLine
 62
7
  6
CONTINUOUS
 10
866.8936973218
 20
1303.8681917211
 11
866.8936973218
 21
1301.6183451077
  0
LINE
  5
36D
100
AcDbEntity
  8
0
100
AcDbLine
 62
7
  6
CONTINUOUS
 10
866.8936973218
 20
114.8681917211
 11
866.8936973218
 21
117.0681917211
  0
LINE
  5
36E
100
AcDbEntity
  8
0
100
AcDbLine
 62
7
  6
CONTINUOUS
 10
866.8936973218
 20
128.003146473
 11
866.8936973218
 21
129.8681917211
  0
LINE
  5
36F
100
AcDbEntity
  8
0
100
AcDbLine
 62
7
  6
CONTINUOUS
 10
866.8936973218
 20
1288.8681917211
 11
866.8936973218
 21
1290.7331363309
  0
LINE
  5
370
100
AcDbEntity
  8
0
100
AcDbLine
 62
7
  6
CONTINUOUS
 10
866.8936973218
 20
1290.8681917211
 11
866.8936973218
 21
1291.3681917211
  0
LINE
  5
371
100
AcDbEntity
  8
0
100
AcDbLine
 62
7
  6
CONTINUOUS
 10
866.9036973218
 20
1301.6681917211
 11
866.9036973218
 21
1291.3681917211
  0
LINE
  5
372
100
AcDbEntity
  8
0
100
AcDbLine
 62
7
  6
CONTINUOUS
 10
866.9036973218
 20
127.3681917211
 11
866.9036973218
 21
117.0681917211
  0
LINE
  5
373
100
AcDbEntity
  8
0
100
AcDbLine
 62
7
  6
CONTINUOUS
 10
867.3936973218
 20
1271.6181917211
 11
867.3936973218
 21
147.1181917211
  0
LINE
  5
374
100
AcDbEntity
  8
0
100
AcDbLine
 62
7
  6
CONTINUOUS
 10
867.3936973218
 20
112.8681917211
 11
867.3936973218
 21
114.3681917211
  0
LINE
  5
375
100
AcDbEntity
  8
0
100
AcDbLine
 62
7
  6
CONTINUOUS
 10
867.7936973218
 20
108.8681917211
 11
867.7936973218
 21
147.1181917211
  0
LINE
  5
376
100
AcDbEntity
  8
0
100
AcDbLine
 62
7
  6
CONTINUOUS
 10
867.7936973218
 20
1271.6181917211
 11
867.7936973218
 21
1309.8681917211
  0
LINE
  5
377
100
AcDbEntity
  8
0
100
AcDbLine
 62
7
  6
CONTINUOUS
 10
868.4936973218
 20
1309.8681917211
 11
868.4936973218
 21
1297.3681917211
  0
LINE
  5
378
100
AcDbEntity
  8
0
100
AcDbLine
 62
7
  6
CONTINUOUS
 10
868.4936973218
 20
108.8681917211
 11
868.4936973218
 21
121.3681917211
  0
LINE
  5
379
100
AcDbEntity
  8
0
100
AcDbLine
 62
7
  6
CONTINUOUS
 10
870.8936973218
 20
147.1181917211
 11
870.8936973218
 21
1271.6181917211
  0
LINE
  5
37A
100
AcDbEntity
  8
0
100
AcDbLine
 62
7
  6
CONTINUOUS
 10
872.4936973218
 20
147.1181917211
 11
872.4936973218
 21
1271.6181917211
  0
LINE
  5
37B
100
AcDbEntity
  8
0
100
AcDbLine
 62
7
  6
CONTINUOUS
 10
878.3936973218
 20
1270.2431917211
 11
878.3936973218
 21
1265.2431917211
  0
LINE
  5
37C
100
AcDbEntity
  8
0
100
AcDbLine
 62
7
  6
CONTINUOUS
 10
878.3936973218
 20
153.4931917211
 11
878.3936973218
 21
148.4931917211
  0
LINE
  5
37D
100
AcDbEntity
  8
0
100
AcDbLine
 62
7
  6
CONTINUOUS
 10
884.3936973218
 20
148.4931917211
 11
884.3936973218
 21
153.4931917211
  0
LINE
  5
37E
100
AcDbEntity
  8
0
100
AcDbLine
 62
7
  6
CONTINUOUS
 10
884.3936973218
 20
1265.2431917211
 11
884.3936973218
 21
1270.2431917211
  0
LINE
  5
37F
100
AcDbEntity
  8
0
100
AcDbLine
 62
7
  6
CONTINUOUS
 10
887.3936973218
 20
121.3681917211
 11
887.3936973218
 21
121.9931917211
  0
LINE
  5
380
100
AcDbEntity
  8
0
100
AcDbLine
 62
7
  6
CONTINUOUS
 10
887.3936973218
 20
1296.7431917211
 11
887.3936973218
 21
1297.3681917211
  0
LINE
  5
381
100
AcDbEntity
  8
0
100
AcDbLine
 62
7
  6
CONTINUOUS
 10
888.8510923481
 20
121.9931917211
 11
888.8510923481
 21
1296.7431917211
  0
LINE
  5
382
100
AcDbEntity
  8
0
100
AcDbLine
 62
7
  6
CONTINUOUS
 10
889.5581991292
 20
1296.7431917211
 11
889.5581991292
 21
121.9931917211
  0
LINE
  5
383
100
AcDbEntity
  8
0
100
AcDbLine
 62
7
  6
CONTINUOUS
 10
889.8936973218
 20
1297.3681917211
 11
889.8936973218
 21
1296.7431917211
  0
LINE
  5
384
100
AcDbEntity
  8
0
100
AcDbLine
 62
7
  6
CONTINUOUS
 10
889.8936973218
 20
121.9931917211
 11
889.8936973218
 21
121.3681917211
  0
LINE
  5
385
100
AcDbEntity
  8
0
100
AcDbLine
 62
7
  6
CONTINUOUS
 10
898.100804103
 20
121.9931917211
 11
898.100804103
 21
1296.7431917211
  0
LINE
  5
386
100
AcDbEntity
  8
0
100
AcDbLine
 62
7
  6
CONTINUOUS
 10
898.3936973218
 20
121.9931917211
 11
898.3936973218
 21
1296.7431917211
  0
LINE
  5
387
100
AcDbEntity
  8
0
100
AcDbLine
 62
7
  6
CONTINUOUS
 10
899.3936973218
 20
121.3681917211
 11
899.3936973218
 21
118.8681917211
  0
LINE
  5
388
100
AcDbEntity
  8
0
100
AcDbLine
 62
7
  6
CONTINUOUS
 10
899.3936973218
 20
1297.3681917211
 11
899.3936973218
 21
1299.8681917211
  0
LINE
  5
389
100
AcDbEntity
  8
0
100
AcDbLine
 62
7
  6
CONTINUOUS
 10
900.8936973218
 20
1296.7431917211
 11
900.8936973218
 21
121.9931917211
  0
LINE
  5
38A
100
AcDbEntity
  8
0
100
AcDbLine
 62
7
  6
CONTINUOUS
 10
905.8936973218
 20
108.8681917211
 11
905.8936973218
 21
121.3681917211
  0
LINE
  5
38B
100
AcDbEntity
  8
0
100
AcDbLine
 62
7
  6
CONTINUOUS
 10
905.8936973218
 20
1297.3681917211
 11
905.8936973218
 21
1309.8681917211
  0
LINE
  5
38C
100
AcDbEntity
  8
0
100
AcDbLine
 62
7
  6
CONTINUOUS
 10
907.8936973218
 20
121.9931917211
 11
907.8936973218
 21
1296.7431917211
  0
LINE
  5
38D
100
AcDbEntity
  8
0
100
AcDbLine
 62
7
  6
CONTINUOUS
 10
910.3936973218
 20
1296.7431917211
 11
910.3936973218
 21
121.9931917211
  0
LINE
  5
38E
100
AcDbEntity
  8
0
100
AcDbLine
 62
7
  6
CONTINUOUS
 10
910.3936973218
 20
121.3681917211
 11
910.3936973218
 21
111.8681917211
  0
LINE
  5
38F
100
AcDbEntity
  8
0
100
AcDbLine
 62
7
  6
CONTINUOUS
 10
910.3936973218
 20
1297.3681917211
 11
910.3936973218
 21
1306.8681917211
  0
LINE
  5
390
100
AcDbEntity
  8
0
100
AcDbLine
 62
7
  6
CONTINUOUS
 10
139.388007804
 20
1185.8681917211
 11
148.1936973218
 21
1185.8681917211
  0
LINE
  5
391
100
AcDbEntity
  8
0
100
AcDbLine
 62
7
  6
CONTINUOUS
 10
134.988486105
 20
1186.1681917211
 11
148.1936973218
 21
1186.1681917211
  0
LINE
  5
392
100
AcDbEntity
  8
0
100
AcDbLine
 62
7
  6
CONTINUOUS
 10
134.1936973218
 20
1186.6681917223
 11
134.4884615999
 21
1186.6681917223
  0
LINE
  5
393
100
AcDbEntity
  8
0
100
AcDbLine
 62
7
  6
CONTINUOUS
 10
147.1936973218
 20
1190.8681917211
 11
134.1936973218
 21
1190.8681917211
  0
LINE
  5
394
100
AcDbEntity
  8
0
100
AcDbLine
 62
7
  6
CONTINUOUS
 10
146.1762449154
 20
1188.0955579966
 11
134.4884615999
 21
1188.6560736581
  0
LINE
  5
395
100
AcDbEntity
  8
0
100
AcDbLine
 62
7
  6
CONTINUOUS
 10
146.1762449154
 20
1203.6408254457
 11
134.4884615999
 21
1203.0803097841
  0
LINE
  5
396
100
AcDbEntity
  8
0
100
AcDbLine
 62
7
  6
CONTINUOUS
 10
147.1936973218
 20
1200.8681917211
 11
134.1936973218
 21
1200.8681917211
  0
LINE
  5
397
100
AcDbEntity
  8
0
100
AcDbLine
 62
7
  6
CONTINUOUS
 10
134.4884615999
 20
1205.0681916741
 11
134.1936973218
 21
1205.0681916741
  0
LINE
  5
398
100
AcDbEntity
  8
0
100
AcDbLine
 62
7
  6
CONTINUOUS
 10
148.1936973218
 20
1205.5681917211
 11
134.988480679
 21
1205.5681917211
  0
LINE
  5
399
100
AcDbEntity
  8
0
100
AcDbLine
 62
7
  6
CONTINUOUS
 10
148.1936973218
 20
1205.8681917211
 11
139.3876151985
 21
1205.8681917211
  0
LINE
  5
39A
100
AcDbEntity
  8
0
100
AcDbLine
 62
7
  6
CONTINUOUS
 10
130.4936973218
 20
1207.9115135601
 11
130.6902068405
 21
1207.9115135601
  0
LINE
  5
39B
100
AcDbEntity
  8
0
100
AcDbLine
 62
7
  6
CONTINUOUS
 10
131.4936973218
 20
1214.9931917211
 11
145.1813399236
 21
1214.9931917211
  0
LINE
  5
39C
100
AcDbEntity
  8
0
100
AcDbLine
 62
7
  6
CONTINUOUS
 10
145.1813399236
 20
1228.7431917211
 11
131.4936973218
 21
1228.7431917211
  0
LINE
  5
39D
100
AcDbEntity
  8
0
100
AcDbLine
 62
7
  6
CONTINUOUS
 10
130.6902068405
 20
1235.8248698822
 11
130.4936973218
 21
1235.8248698822
  0
LINE
  5
39E
100
AcDbEntity
  8
0
100
AcDbLine
 62
7
  6
CONTINUOUS
 10
139.3876137675
 20
1237.8681917211
 11
148.1936973218
 21
1237.8681917211
  0
LINE
  5
39F
100
AcDbEntity
  8
0
100
AcDbLine
 62
7
  6
CONTINUOUS
 10
134.9884806826
 20
1238.1681917211
 11
148.1936973218
 21
1238.1681917211
  0
LINE
  5
3A0
100
AcDbEntity
  8
0
100
AcDbLine
 62
7
  6
CONTINUOUS
 10
134.1936973218
 20
1238.6681917213
 11
134.4884615999
 21
1238.6681917213
  0
LINE
  5
3A1
100
AcDbEntity
  8
0
100
AcDbLine
 62
7
  6
CONTINUOUS
 10
147.1936973218
 20
1242.8681917211
 11
134.1936973218
 21
1242.8681917211
  0
LINE
  5
3A2
100
AcDbEntity
  8
0
100
AcDbLine
 62
7
  6
CONTINUOUS
 10
146.1762449154
 20
1240.0955579966
 11
134.4884615999
 21
1240.6560736581
  0
LINE
  5
3A3
100
AcDbEntity
  8
0
100
AcDbLine
 62
7
  6
CONTINUOUS
 10
146.1762449154
 20
1255.6408254457
 11
134.4884615999
 21
1255.0803097841
  0
LINE
  5
3A4
100
AcDbEntity
  8
0
100
AcDbLine
 62
7
  6
CONTINUOUS
 10
147.1936973218
 20
1252.8681917211
 11
134.1936973218
 21
1252.8681917211
  0
LINE
  5
3A5
100
AcDbEntity
  8
0
100
AcDbLine
 62
7
  6
CONTINUOUS
 10
134.4884615999
 20
1257.0681917245
 11
134.1936973218
 21
1257.0681917245
  0
LINE
  5
3A6
100
AcDbEntity
  8
0
100
AcDbLine
 62
7
  6
CONTINUOUS
 10
148.1936973218
 20
1257.5681917211
 11
134.9884824978
 21
1257.5681917211
  0
LINE
  5
3A7
100
AcDbEntity
  8
0
100
AcDbLine
 62
7
  6
CONTINUOUS
 10
148.1936973218
 20
1257.8681917211
 11
139.388006616
 21
1257.8681917211
  0
LINE
  5
3A8
100
AcDbEntity
  8
0
100
AcDbLine
 62
7
  6
CONTINUOUS
 10
156.2936973218
 20
1264.3681917211
 11
864.4936973218
 21
1264.3681917211
  0
LINE
  5
3A9
100
AcDbEntity
  8
0
100
AcDbLine
 62
7
  6
CONTINUOUS
 10
157.5436973218
 20
1265.8681917211
 11
156.2936973218
 21
1265.8681917211
  0
LINE
  5
3AA
100
AcDbEntity
  8
0
100
AcDbLine
 62
7
  6
CONTINUOUS
 10
863.2436973218
 20
1265.8681917211
 11
864.4936973218
 21
1265.8681917211
  0
LINE
  5
3AB
100
AcDbEntity
  8
0
100
AcDbLine
 62
7
  6
CONTINUOUS
 10
157.5436973218
 20
1266.3681917211
 11
863.2436973218
 21
1266.3681917211
  0
LINE
  5
3AC
100
AcDbEntity
  8
0
100
AcDbLine
 62
7
  6
CONTINUOUS
 10
155.3936973218
 20
1266.7681917211
 11
157.5436973218
 21
1266.7681917211
  0
LINE
  5
3AD
100
AcDbEntity
  8
0
100
AcDbLine
 62
7
  6
CONTINUOUS
 10
863.2436973218
 20
1266.7681917211
 11
865.3936973218
 21
1266.7681917211
  0
LINE
  5
3AE
100
AcDbEntity
  8
0
100
AcDbLine
 62
7
  6
CONTINUOUS
 10
863.2436973218
 20
1269.8681917211
 11
157.5436973218
 21
1269.8681917211
  0
LINE
  5
3AF
100
AcDbEntity
  8
0
100
AcDbLine
 62
7
  6
CONTINUOUS
 10
157.5436973218
 20
1271.4681917211
 11
863.2436973218
 21
1271.4681917211
  0
LINE
  5
3B0
100
AcDbEntity
  8
0
100
AcDbLine
 62
7
  6
CONTINUOUS
 10
872.4935683264
 20
1271.6181917211
 11
865.3936973218
 21
1271.6181917211
  0
LINE
  5
3B1
100
AcDbEntity
  8
0
100
AcDbLine
 62
7
  6
CONTINUOUS
 10
155.3936973218
 20
1271.6181917211
 11
148.2936973218
 21
1271.6181917211
  0
LINE
  5
3B2
100
AcDbEntity
  8
0
100
AcDbLine
 62
7
  6
CONTINUOUS
 10
157.5436973218
 20
1274.3681917211
 11
154.2936973218
 21
1274.3681917211
  0
LINE
  5
3B3
100
AcDbEntity
  8
0
100
AcDbLine
 62
7
  6
CONTINUOUS
 10
863.2436973218
 20
1274.3681917211
 11
866.4936973218
 21
1274.3681917211
  0
LINE
  5
3B4
100
AcDbEntity
  8
0
100
AcDbLine
 62
7
  6
CONTINUOUS
 10
149.063709051
 20
1276.6681917211
 11
133.7472507124
 21
1276.6681917211
  0
LINE
  5
3B5
100
AcDbEntity
  8
0
100
AcDbLine
 62
7
  6
CONTINUOUS
 10
871.7236855926
 20
1276.6681917211
 11
887.0401439312
 21
1276.6681917211
  0
LINE
  5
3B6
100
AcDbEntity
  8
0
100
AcDbLine
 62
7
  6
CONTINUOUS
 10
884.8592348171
 20
1277.4681917211
 11
860.1104974756
 21
1277.4681917211
  0
LINE
  5
3B7
100
AcDbEntity
  8
0
100
AcDbLine
 62
7
  6
CONTINUOUS
 10
135.9281598265
 20
1277.4681917211
 11
160.676897168
 21
1277.4681917211
  0
LINE
  5
3B8
100
AcDbEntity
  8
0
100
AcDbLine
 62
7
  6
CONTINUOUS
 10
884.8592348171
 20
1283.8681917211
 11
860.1104974756
 21
1283.8681917211
  0
LINE
  5
3B9
100
AcDbEntity
  8
0
100
AcDbLine
 62
7
  6
CONTINUOUS
 10
135.9281598265
 20
1283.8681917211
 11
160.676897168
 21
1283.8681917211
  0
LINE
  5
3BA
100
AcDbEntity
  8
0
100
AcDbLine
 62
7
  6
CONTINUOUS
 10
149.063709051
 20
1284.6681917211
 11
133.7472507124
 21
1284.6681917211
  0
LINE
  5
3BB
100
AcDbEntity
  8
0
100
AcDbLine
 62
7
  6
CONTINUOUS
 10
871.7236855926
 20
1284.6681917211
 11
887.0401439312
 21
1284.6681917211
  0
LINE
  5
3BC
100
AcDbEntity
  8
0
100
AcDbLine
 62
7
  6
CONTINUOUS
 10
866.4936973218
 20
1287.8341695452
 11
154.2936973218
 21
1287.8341695452
  0
LINE
  5
3BD
100
AcDbEntity
  8
0
100
AcDbLine
 62
7
  6
CONTINUOUS
 10
154.2936973218
 20
1288.5412763264
 11
866.4936973218
 21
1288.5412763264
  0
LINE
  5
3BE
100
AcDbEntity
  8
0
100
AcDbLine
 62
7
  6
CONTINUOUS
 10
867.7936973218
 20
1288.8681917211
 11
866.4936973218
 21
1288.8681917211
  0
LINE
  5
3BF
100
AcDbEntity
  8
0
100
AcDbLine
 62
7
  6
CONTINUOUS
 10
154.2936973218
 20
1288.8681917211
 11
152.9936973218
 21
1288.8681917211
  0
LINE
  5
3C0
100
AcDbEntity
  8
0
100
AcDbLine
 62
7
  6
CONTINUOUS
 10
866.8936973218
 20
1289.8681917211
 11
866.4936973218
 21
1289.8681917211
  0
LINE
  5
3C1
100
AcDbEntity
  8
0
100
AcDbLine
 62
7
  6
CONTINUOUS
 10
154.2936973218
 20
1289.8681917211
 11
153.8936973218
 21
1289.8681917211
  0
LINE
  5
3C2
100
AcDbEntity
  8
0
100
AcDbLine
 62
7
  6
CONTINUOUS
 10
154.2936973218
 20
1290.8681917211
 11
153.8936973218
 21
1290.8681917211
  0
LINE
  5
3C3
100
AcDbEntity
  8
0
100
AcDbLine
 62
7
  6
CONTINUOUS
 10
866.4936973218
 20
1290.8681917211
 11
866.8936973218
 21
1290.8681917211
  0
LINE
  5
3C4
100
AcDbEntity
  8
0
100
AcDbLine
 62
7
  6
CONTINUOUS
 10
154.2936973218
 20
1292.6318890555
 11
866.4936973218
 21
1292.6318890555
  0
LINE
  5
3C5
100
AcDbEntity
  8
0
100
AcDbLine
 62
7
  6
CONTINUOUS
 10
154.2936973218
 20
1292.9846857731
 11
866.4936973218
 21
1292.9846857731
  0
LINE
  5
3C6
100
AcDbEntity
  8
0
100
AcDbLine
 62
7
  6
CONTINUOUS
 10
910.3936973218
 20
1296.7431917211
 11
898.3936973218
 21
1296.7431917211
  0
LINE
  5
3C7
100
AcDbEntity
  8
0
100
AcDbLine
 62
7
  6
CONTINUOUS
 10
898.2597227256
 20
1296.7431917211
 11
871.2006084719
 21
1296.7431917211
  0
LINE
  5
3C8
100
AcDbEntity
  8
0
100
AcDbLine
 62
7
  6
CONTINUOUS
 10
149.5867861717
 20
1296.7431917211
 11
110.3936973218
 21
1296.7431917211
  0
LINE
  5
3C9
100
AcDbEntity
  8
0
100
AcDbLine
 62
7
  6
CONTINUOUS
 10
866.4936973218
 20
1297.0752985023
 11
154.2936973218
 21
1297.0752985023
  0
LINE
  5
3CA
100
AcDbEntity
  8
0
100
AcDbLine
 62
7
  6
CONTINUOUS
 10
866.4936973218
 20
1297.3681917211
 11
154.2936973218
 21
1297.3681917211
  0
LINE
  5
3CB
100
AcDbEntity
  8
0
100
AcDbLine
 62
7
  6
CONTINUOUS
 10
110.3936973218
 20
1297.3681917211
 11
152.2936973218
 21
1297.3681917211
  0
LINE
  5
3CC
100
AcDbEntity
  8
0
100
AcDbLine
 62
7
  6
CONTINUOUS
 10
868.4936973218
 20
1297.3681917211
 11
910.3936973218
 21
1297.3681917211
  0
LINE
  5
3CD
100
AcDbEntity
  8
0
100
AcDbLine
 62
7
  6
CONTINUOUS
 10
121.3936973218
 20
1299.8681917211
 11
152.2936973218
 21
1299.8681917211
  0
LINE
  5
3CE
100
AcDbEntity
  8
0
100
AcDbLine
 62
7
  6
CONTINUOUS
 10
154.2936973218
 20
1299.8681917211
 11
866.4936973218
 21
1299.8681917211
  0
LINE
  5
3CF
100
AcDbEntity
  8
0
100
AcDbLine
 62
7
  6
CONTINUOUS
 10
868.4936973218
 20
1299.8681917211
 11
899.3936973218
 21
1299.8681917211
  0
LINE
  5
3D0
100
AcDbEntity
  8
0
100
AcDbLine
 62
7
  6
CONTINUOUS
 10
867.7936973218
 20
1304.3681917211
 11
867.3936973218
 21
1304.3681917211
  0
LINE
  5
3D1
100
AcDbEntity
  8
0
100
AcDbLine
 62
7
  6
CONTINUOUS
 10
152.9936973218
 20
1304.3681917211
 11
153.3936973218
 21
1304.3681917211
  0
LINE
  5
3D2
100
AcDbEntity
  8
0
100
AcDbLine
 62
7
  6
CONTINUOUS
 10
910.3936973218
 20
1305.3681917211
 11
868.4936973218
 21
1305.3681917211
  0
LINE
  5
3D3
100
AcDbEntity
  8
0
100
AcDbLine
 62
7
  6
CONTINUOUS
 10
152.2936973218
 20
1305.3681917211
 11
110.3936973218
 21
1305.3681917211
  0
LINE
  5
3D4
100
AcDbEntity
  8
0
100
AcDbLine
 62
7
  6
CONTINUOUS
 10
867.7936973218
 20
1305.8681917211
 11
867.3936973218
 21
1305.8681917211
  0
LINE
  5
3D5
100
AcDbEntity
  8
0
100
AcDbLine
 62
7
  6
CONTINUOUS
 10
152.9936973218
 20
1305.8681917211
 11
153.3936973218
 21
1305.8681917211
  0
LINE
  5
3D6
100
AcDbEntity
  8
0
100
AcDbLine
 62
7
  6
CONTINUOUS
 10
866.4936973218
 20
1306.8681917211
 11
154.2936973218
 21
1306.8681917211
  0
LINE
  5
3D7
100
AcDbEntity
  8
0
100
AcDbLine
 62
7
  6
CONTINUOUS
 10
868.4936973218
 20
1307.8681917211
 11
867.7936973218
 21
1307.8681917211
  0
LINE
  5
3D8
100
AcDbEntity
  8
0
100
AcDbLine
 62
7
  6
CONTINUOUS
 10
152.2936973218
 20
1307.8681917211
 11
152.9936973218
 21
1307.8681917211
  0
LINE
  5
3D9
100
AcDbEntity
  8
0
100
AcDbLine
 62
7
  6
CONTINUOUS
 10
154.2936973218
 20
1309.3681917211
 11
866.4936973218
 21
1309.3681917211
  0
LINE
  5
3DA
100
AcDbEntity
  8
0
100
AcDbLine
 62
7
  6
CONTINUOUS
 10
114.8936973218
 20
1309.8681917211
 11
152.9936973218
 21
1309.8681917211
  0
LINE
  5
3DB
100
AcDbEntity
  8
0
100
AcDbLine
 62
7
  6
CONTINUOUS
 10
867.7936973218
 20
1309.8681917211
 11
905.8936973218
 21
1309.8681917211
  0
LINE
  5
3DC
100
AcDbEntity
  8
0
100
AcDbLine
 62
7
  6
CONTINUOUS
 10
870.2416713218
 20
112.8681917211
 11
868.2416713218
 21
110.8681917211
  0
ARC
  5
3DD
100
AcDbEntity
  8
0
100
AcDbCircle
 62
7
  6
CONTINUOUS
 10
138.386538254
 20
227.7859699894
 40
18.6255854692
100
AcDbArc
 50
245.1644690534
 51
245.5931780101
  0
ARC
  5
3DE
100
AcDbEntity
  8
0
100
AcDbCircle
 62
7
  6
CONTINUOUS
 10
139.3936973218
 20
196.8681917211
 40
6.3
100
AcDbArc
 50
337.0190801925
 51
22.9809198075
  0
ARC
  5
3DF
100
AcDbEntity
  8
0
100
AcDbCircle
 62
7
  6
CONTINUOUS
 10
139.3936973218
 20
196.8681917211
 40
6.3
100
AcDbArc
 50
23.2670896383
 51
336.7329103617
  0
ARC
  5
3E0
100
AcDbEntity
  8
0
100
AcDbCircle
 62
7
  6
CONTINUOUS
 10
114.8936973218
 20
113.3681917211
 40
4.5
100
AcDbArc
 50
180.0
 51
270.0
  0
CIRCLE
  5
3E1
100
AcDbEntity
  8
0
100
AcDbCircle
 62
7
  6
CONTINUOUS
 10
139.3936973218
 20
196.8681917211
 40
3.65
  0
ARC
  5
3E2
100
AcDbEntity
  8
0
100
AcDbCircle
 62
7
  6
CONTINUOUS
 10
139.3936973218
 20
148.4931917211
 40
3.0
100
AcDbArc
 50
180.0
 51
360.0
  0
ARC
  5
3E3
100
AcDbEntity
  8
0
100
AcDbCircle
 62
7
  6
CONTINUOUS
 10
139.3936973218
 20
153.4931917211
 40
3.0
100
AcDbArc
 50
0.0
 51
180.0
  0
CIRCLE
  5
3E4
100
AcDbEntity
  8
0
100
AcDbCircle
 62
7
  6
CONTINUOUS
 10
139.3936973218
 20
196.8681917211
 40
2.6
  0
ARC
  5
3E5
100
AcDbEntity
  8
0
100
AcDbCircle
 62
7
  6
CONTINUOUS
 10
112.8936973218
 20
111.8681917211
 40
2.5
100
AcDbArc
 50
180.0
 51
270.0
  0
ARC
  5
3E6
100
AcDbEntity
  8
0
100
AcDbCircle
 62
7
  6
CONTINUOUS
 10
119.8581634159
 20
122.3681917211
 40
1.0
100
AcDbArc
 50
270.0
 51
314.9999999991
  0
ARC
  5
3E7
100
AcDbEntity
  8
0
100
AcDbCircle
 62
7
  6
CONTINUOUS
 10
134.9936973218
 20
161.6681917211
 40
0.8
100
AcDbArc
 50
179.9999999526
 51
227.356590344
  0
ARC
  5
3E8
100
AcDbEntity
  8
0
100
AcDbCircle
 62
7
  6
CONTINUOUS
 10
134.9936973218
 20
180.0681917211
 40
0.8
100
AcDbArc
 50
132.6428545729
 51
180.0
  0
ARC
  5
3E9
100
AcDbEntity
  8
0
100
AcDbCircle
 62
7
  6
CONTINUOUS
 10
134.9936973218
 20
213.6681917211
 40
0.8
100
AcDbArc
 50
180.0
 51
227.3559784644
  0
ARC
  5
3EA
100
AcDbEntity
  8
0
100
AcDbCircle
 62
7
  6
CONTINUOUS
 10
134.9936973218
 20
232.0681917211
 40
0.8
100
AcDbArc
 50
132.6455720047
 51
179.9999998702
  0
ARC
  5
3EB
100
AcDbEntity
  8
0
100
AcDbCircle
 62
7
  6
CONTINUOUS
 10
146.8936973218
 20
161.1681917211
 40
0.3
100
AcDbArc
 50
270.0
 51
360.0
  0
ARC
  5
3EC
100
AcDbEntity
  8
0
100
AcDbCircle
 62
7
  6
CONTINUOUS
 10
146.8936973218
 20
180.5681917211
 40
0.3
100
AcDbArc
 50
0.0
 51
90.0
  0
ARC
  5
3ED
100
AcDbEntity
  8
0
100
AcDbCircle
 62
7
  6
CONTINUOUS
 10
146.8936973218
 20
232.5681917211
 40
0.3
100
AcDbArc
 50
0.0
 51
89.9999999916
  0
ARC
  5
3EE
100
AcDbEntity
  8
0
100
AcDbCircle
 62
7
  6
CONTINUOUS
 10
146.8936973218
 20
213.1681917211
 40
0.3
100
AcDbArc
 50
270.0
 51
360.0
  0
ARC
  5
3EF
100
AcDbEntity
  8
0
100
AcDbCircle
 62
7
  6
CONTINUOUS
 10
130.6936973218
 20
182.9115135601
 40
0.2
100
AcDbArc
 50
180.0
 51
204.4439547807
  0
ARC
  5
3F0
100
AcDbEntity
  8
0
100
AcDbCircle
 62
7
  6
CONTINUOUS
 10
130.6936973218
 20
210.8248698822
 40
0.2
100
AcDbArc
 50
155.5560452193
 51
180.0
  0
ARC
  5
3F1
100
AcDbEntity
  8
0
100
AcDbCircle
 62
7
  6
CONTINUOUS
 10
138.3865382701
 20
477.7859700246
 40
18.625585508
100
AcDbArc
 50
245.1644690538
 51
245.5931780097
  0
ARC
  5
3F2
100
AcDbEntity
  8
0
100
AcDbCircle
 62
7
  6
CONTINUOUS
 10
139.3936973218
 20
446.8681917211
 40
6.3
100
AcDbArc
 50
337.0190801925
 51
22.9809198075
  0
ARC
  5
3F3
100
AcDbEntity
  8
0
100
AcDbCircle
 62
7
  6
CONTINUOUS
 10
139.3936973218
 20
446.8681917211
 40
6.3
100
AcDbArc
 50
23.2670896383
 51
336.7329103617
  0
CIRCLE
  5
3F4
100
AcDbEntity
  8
0
100
AcDbCircle
 62
7
  6
CONTINUOUS
 10
139.3936973218
 20
446.8681917211
 40
3.65
  0
CIRCLE
  5
3F5
100
AcDbEntity
  8
0
100
AcDbCircle
 62
7
  6
CONTINUOUS
 10
139.3936973218
 20
446.8681917211
 40
2.6
  0
ARC
  5
3F6
100
AcDbEntity
  8
0
100
AcDbCircle
 62
7
  6
CONTINUOUS
 10
134.9936973218
 20
411.6681917211
 40
0.8
100
AcDbArc
 50
179.9999999526
 51
227.356590344
  0
ARC
  5
3F7
100
AcDbEntity
  8
0
100
AcDbCircle
 62
7
  6
CONTINUOUS
 10
134.9936973218
 20
430.0681917211
 40
0.8
100
AcDbArc
 50
132.6428545729
 51
180.0
  0
ARC
  5
3F8
100
AcDbEntity
  8
0
100
AcDbCircle
 62
7
  6
CONTINUOUS
 10
134.9936973218
 20
463.6681917211
 40
0.8
100
AcDbArc
 50
180.0
 51
227.3559784644
  0
ARC
  5
3F9
100
AcDbEntity
  8
0
100
AcDbCircle
 62
7
  6
CONTINUOUS
 10
134.9936973218
 20
482.0681917211
 40
0.8
100
AcDbArc
 50
132.6455720047
 51
179.9999998702
  0
ARC
  5
3FA
100
AcDbEntity
  8
0
100
AcDbCircle
 62
7
  6
CONTINUOUS
 10
146.8936973218
 20
411.1681917211
 40
0.3
100
AcDbArc
 50
270.0
 51
360.0
  0
ARC
  5
3FB
100
AcDbEntity
  8
0
100
AcDbCircle
 62
7
  6
CONTINUOUS
 10
146.8936973218
 20
430.5681917211
 40
0.3
100
AcDbArc
 50
0.0
 51
90.0
  0
ARC
  5
3FC
100
AcDbEntity
  8
0
100
AcDbCircle
 62
7
  6
CONTINUOUS
 10
146.8936973218
 20
482.5681917211
 40
0.3
100
AcDbArc
 50
0.0
 51
89.9999999916
  0
ARC
  5
3FD
100
AcDbEntity
  8
0
100
AcDbCircle
 62
7
  6
CONTINUOUS
 10
146.8936973218
 20
463.1681917211
 40
0.3
100
AcDbArc
 50
270.0
 51
360.0
  0
ARC
  5
3FE
100
AcDbEntity
  8
0
100
AcDbCircle
 62
7
  6
CONTINUOUS
 10
130.6936973218
 20
432.9115135601
 40
0.2
100
AcDbArc
 50
180.0
 51
204.4439547807
  0
ARC
  5
3FF
100
AcDbEntity
  8
0
100
AcDbCircle
 62
7
  6
CONTINUOUS
 10
130.6936973218
 20
460.8248698822
 40
0.2
100
AcDbArc
 50
155.5560452193
 51
180.0
  0
ARC
  5
400
100
AcDbEntity
  8
0
100
AcDbCircle
 62
7
  6
CONTINUOUS
 10
171.0436973218
 20
139.8681917211
 40
4.0
100
AcDbArc
 50
0.0
 51
180.0
  0
ARC
  5
401
100
AcDbEntity
  8
0
100
AcDbCircle
 62
7
  6
CONTINUOUS
 10
171.0436973218
 20
137.8681917211
 40
4.0
100
AcDbArc
 50
180.0
 51
360.0
  0
ARC
  5
402
100
AcDbEntity
  8
0
100
AcDbCircle
 62
7
  6
CONTINUOUS
 10
159.3936973218
 20
111.8681917211
 40
3.0
100
AcDbArc
 50
238.0192384923
 51
270.0
  0
ARC
  5
403
100
AcDbEntity
  8
0
100
AcDbCircle
 62
7
  6
CONTINUOUS
 10
186.3936973218
 20
111.8681917211
 40
3.0
100
AcDbArc
 50
270.0
 51
301.9807615077
  0
ARC
  5
404
100
AcDbEntity
  8
0
100
AcDbCircle
 62
7
  6
CONTINUOUS
 10
151.3836973218
 20
117.0681917211
 40
2.5
100
AcDbArc
 50
311.0747218276
 51
1.1376992854
  0
ARC
  5
405
100
AcDbEntity
  8
0
100
AcDbCircle
 62
7
  6
CONTINUOUS
 10
151.3836973218
 20
127.3681917211
 40
2.5
100
AcDbArc
 50
11.4004770402
 51
50.3575359266
  0
ARC
  5
406
100
AcDbEntity
  8
0
100
AcDbCircle
 62
7
  6
CONTINUOUS
 10
153.3936973218
 20
114.8681917211
 40
2.0
100
AcDbArc
 50
270.0
 51
298.744027205
  0
ARC
  5
407
100
AcDbEntity
  8
0
100
AcDbCircle
 62
7
  6
CONTINUOUS
 10
153.3936973218
 20
114.8681917211
 40
0.5
100
AcDbArc
 50
270.0
 51
360.0
  0
ARC
  5
408
100
AcDbEntity
  8
0
100
AcDbCircle
 62
7
  6
CONTINUOUS
 10
138.3865382734
 20
1002.7859700318
 40
18.6255855159
100
AcDbArc
 50
245.1644690539
 51
245.5931780095
  0
ARC
  5
409
100
AcDbEntity
  8
0
100
AcDbCircle
 62
7
  6
CONTINUOUS
 10
139.3936973218
 20
971.8681917211
 40
6.3
100
AcDbArc
 50
337.0190801925
 51
22.9809198075
  0
ARC
  5
40A
100
AcDbEntity
  8
0
100
AcDbCircle
 62
7
  6
CONTINUOUS
 10
139.3936973218
 20
971.8681917211
 40
6.3
100
AcDbArc
 50
23.2670896383
 51
336.7329103617
  0
CIRCLE
  5
40B
100
AcDbEntity
  8
0
100
AcDbCircle
 62
7
  6
CONTINUOUS
 10
139.3936973218
 20
971.8681917211
 40
3.65
  0
CIRCLE
  5
40C
100
AcDbEntity
  8
0
100
AcDbCircle
 62
7
  6
CONTINUOUS
 10
139.3936973218
 20
971.8681917211
 40
2.6
  0
ARC
  5
40D
100
AcDbEntity
  8
0
100
AcDbCircle
 62
7
  6
CONTINUOUS
 10
134.9936973218
 20
936.6681917211
 40
0.8
100
AcDbArc
 50
179.9999999526
 51
227.356590344
  0
ARC
  5
40E
100
AcDbEntity
  8
0
100
AcDbCircle
 62
7
  6
CONTINUOUS
 10
134.9936973218
 20
955.0681917211
 40
0.8
100
AcDbArc
 50
132.6428545729
 51
180.0
  0
ARC
  5
40F
100
AcDbEntity
  8
0
100
AcDbCircle
 62
7
  6
CONTINUOUS
 10
134.9936973218
 20
988.6681917211
 40
0.8
100
AcDbArc
 50
180.0
 51
227.3559784643
  0
ARC
  5
410
100
AcDbEntity
  8
0
100
AcDbCircle
 62
7
  6
CONTINUOUS
 10
134.9936973218
 20
1007.0681917211
 40
0.8
100
AcDbArc
 50
132.6455720047
 51
179.9999998702
  0
ARC
  5
411
100
AcDbEntity
  8
0
100
AcDbCircle
 62
7
  6
CONTINUOUS
 10
130.6936973218
 20
957.9115135601
 40
0.2
100
AcDbArc
 50
180.0
 51
204.4439547807
  0
ARC
  5
412
100
AcDbEntity
  8
0
100
AcDbCircle
 62
7
  6
CONTINUOUS
 10
130.6936973218
 20
985.8248698822
 40
0.2
100
AcDbArc
 50
155.5560452193
 51
180.0
  0
ARC
  5
413
100
AcDbEntity
  8
0
100
AcDbCircle
 62
7
  6
CONTINUOUS
 10
138.3865382734
 20
1252.7859700318
 40
18.6255855159
100
AcDbArc
 50
245.1644690539
 51
245.5931780095
  0
ARC
  5
414
100
AcDbEntity
  8
0
100
AcDbCircle
 62
7
  6
CONTINUOUS
 10
139.3936973218
 20
1221.8681917211
 40
6.3
100
AcDbArc
 50
337.0190801925
 51
22.9809198075
  0
ARC
  5
415
100
AcDbEntity
  8
0
100
AcDbCircle
 62
7
  6
CONTINUOUS
 10
139.3936973218
 20
1221.8681917211
 40
6.3
100
AcDbArc
 50
23.2670896383
 51
336.7329103617
  0
ARC
  5
416
100
AcDbEntity
  8
0
100
AcDbCircle
 62
7
  6
CONTINUOUS
 10
114.8936973218
 20
1305.3681917211
 40
4.5
100
AcDbArc
 50
90.0
 51
180.0
  0
CIRCLE
  5
417
100
AcDbEntity
  8
0
100
AcDbCircle
 62
7
  6
CONTINUOUS
 10
139.3936973218
 20
1221.8681917211
 40
3.65
  0
ARC
  5
418
100
AcDbEntity
  8
0
100
AcDbCircle
 62
7
  6
CONTINUOUS
 10
139.3936973218
 20
1265.2431917211
 40
3.0
100
AcDbArc
 50
180.0
 51
360.0
  0
ARC
  5
419
100
AcDbEntity
  8
0
100
AcDbCircle
 62
7
  6
CONTINUOUS
 10
139.3936973218
 20
1270.2431917211
 40
3.0
100
AcDbArc
 50
0.0
 51
180.0
  0
CIRCLE
  5
41A
100
AcDbEntity
  8
0
100
AcDbCircle
 62
7
  6
CONTINUOUS
 10
139.3936973218
 20
1221.8681917211
 40
2.6
  0
ARC
  5
41B
100
AcDbEntity
  8
0
100
AcDbCircle
 62
7
  6
CONTINUOUS
 10
112.8936973218
 20
1306.8681917211
 40
2.5
100
AcDbArc
 50
90.0
 51
180.0
  0
ARC
  5
41C
100
AcDbEntity
  8
0
100
AcDbCircle
 62
7
  6
CONTINUOUS
 10
119.8581634159
 20
1296.3681917211
 40
1.0
100
AcDbArc
 50
45.0000000009
 51
83.2230549658
  0
ARC
  5
41D
100
AcDbEntity
  8
0
100
AcDbCircle
 62
7
  6
CONTINUOUS
 10
134.9936973218
 20
1186.6681917211
 40
0.8
100
AcDbArc
 50
179.9999999526
 51
227.356590344
  0
ARC
  5
41E
100
AcDbEntity
  8
0
100
AcDbCircle
 62
7
  6
CONTINUOUS
 10
134.9936973218
 20
1205.0681917211
 40
0.8
100
AcDbArc
 50
132.6428545729
 51
180.0
  0
ARC
  5
41F
100
AcDbEntity
  8
0
100
AcDbCircle
 62
7
  6
CONTINUOUS
 10
134.9936973218
 20
1238.6681917211
 40
0.8
100
AcDbArc
 50
180.0
 51
227.3559784643
  0
ARC
  5
420
100
AcDbEntity
  8
0
100
AcDbCircle
 62
7
  6
CONTINUOUS
 10
134.9936973218
 20
1257.0681917211
 40
0.8
100
AcDbArc
 50
132.6455720046
 51
179.9999998702
  0
ARC
  5
421
100
AcDbEntity
  8
0
100
AcDbCircle
 62
7
  6
CONTINUOUS
 10
130.6936973218
 20
1207.9115135601
 40
0.2
100
AcDbArc
 50
180.0
 51
204.4439547807
  0
ARC
  5
422
100
AcDbEntity
  8
0
100
AcDbCircle
 62
7
  6
CONTINUOUS
 10
130.6936973218
 20
1235.8248698822
 40
0.2
100
AcDbArc
 50
155.5560452193
 51
180.0
  0
ARC
  5
423
100
AcDbEntity
  8
0
100
AcDbCircle
 62
7
  6
CONTINUOUS
 10
146.8936973218
 20
936.1681917211
 40
0.3
100
AcDbArc
 50
270.0
 51
360.0
  0
ARC
  5
424
100
AcDbEntity
  8
0
100
AcDbCircle
 62
7
  6
CONTINUOUS
 10
146.8936973218
 20
955.5681917211
 40
0.3
100
AcDbArc
 50
0.0
 51
90.0
  0
ARC
  5
425
100
AcDbEntity
  8
0
100
AcDbCircle
 62
7
  6
CONTINUOUS
 10
146.8936973218
 20
1007.5681917211
 40
0.3
100
AcDbArc
 50
0.0
 51
89.9999999916
  0
ARC
  5
426
100
AcDbEntity
  8
0
100
AcDbCircle
 62
7
  6
CONTINUOUS
 10
146.8936973218
 20
988.1681917211
 40
0.3
100
AcDbArc
 50
270.0
 51
360.0
  0
ARC
  5
427
100
AcDbEntity
  8
0
100
AcDbCircle
 62
7
  6
CONTINUOUS
 10
171.0436973218
 20
1280.8681917211
 40
4.0
100
AcDbArc
 50
0.0
 51
180.0
  0
ARC
  5
428
100
AcDbEntity
  8
0
100
AcDbCircle
 62
7
  6
CONTINUOUS
 10
171.0436973218
 20
1278.8681917211
 40
4.0
100
AcDbArc
 50
180.0
 51
360.0
  0
ARC
  5
429
100
AcDbEntity
  8
0
100
AcDbCircle
 62
7
  6
CONTINUOUS
 10
151.3836973218
 20
1301.6681917211
 40
2.5
100
AcDbArc
 50
0.0
 51
48.9252781724
  0
ARC
  5
42A
100
AcDbEntity
  8
0
100
AcDbCircle
 62
7
  6
CONTINUOUS
 10
151.3836973218
 20
1291.3681917211
 40
2.5
100
AcDbArc
 50
311.0747218276
 51
360.0
  0
ARC
  5
42B
100
AcDbEntity
  8
0
100
AcDbCircle
 62
7
  6
CONTINUOUS
 10
153.3936973218
 20
1303.8681917211
 40
2.0
100
AcDbArc
 50
61.255972795
 51
90.0
  0
ARC
  5
42C
100
AcDbEntity
  8
0
100
AcDbCircle
 62
7
  6
CONTINUOUS
 10
153.3936973218
 20
1303.8681917211
 40
0.5
100
AcDbArc
 50
0.0
 51
90.0
  0
ARC
  5
42D
100
AcDbEntity
  8
0
100
AcDbCircle
 62
7
  6
CONTINUOUS
 10
146.8936973218
 20
1186.1681917211
 40
0.3
100
AcDbArc
 50
270.0
 51
360.0
  0
ARC
  5
42E
100
AcDbEntity
  8
0
100
AcDbCircle
 62
7
  6
CONTINUOUS
 10
146.8936973218
 20
1205.5681917211
 40
0.3
100
AcDbArc
 50
0.0
 51
90.0
  0
ARC
  5
42F
100
AcDbEntity
  8
0
100
AcDbCircle
 62
7
  6
CONTINUOUS
 10
146.8936973218
 20
1257.5681917211
 40
0.3
100
AcDbArc
 50
0.0
 51
89.9999999916
  0
ARC
  5
430
100
AcDbEntity
  8
0
100
AcDbCircle
 62
7
  6
CONTINUOUS
 10
146.8936973218
 20
1238.1681917211
 40
0.3
100
AcDbArc
 50
270.0
 51
360.0
  0
ARC
  5
431
100
AcDbEntity
  8
0
100
AcDbCircle
 62
7
  6
CONTINUOUS
 10
905.8936973218
 20
113.3681917211
 40
4.5
100
AcDbArc
 50
270.0
 51
360.0
  0
ARC
  5
432
100
AcDbEntity
  8
0
100
AcDbCircle
 62
7
  6
CONTINUOUS
 10
849.7436973218
 20
137.8681917211
 40
4.0
100
AcDbArc
 50
180.0
 51
360.0
  0
ARC
  5
433
100
AcDbEntity
  8
0
100
AcDbCircle
 62
7
  6
CONTINUOUS
 10
849.7436973218
 20
139.8681917211
 40
4.0
100
AcDbArc
 50
0.0
 51
180.0
  0
ARC
  5
434
100
AcDbEntity
  8
0
100
AcDbCircle
 62
7
  6
CONTINUOUS
 10
861.3936973218
 20
111.8681917211
 40
3.0
100
AcDbArc
 50
270.0
 51
301.9807615077
  0
ARC
  5
435
100
AcDbEntity
  8
0
100
AcDbCircle
 62
7
  6
CONTINUOUS
 10
834.3936973218
 20
111.8681917211
 40
3.0
100
AcDbArc
 50
238.0192384923
 51
270.0
  0
ARC
  5
436
100
AcDbEntity
  8
0
100
AcDbCircle
 62
7
  6
CONTINUOUS
 10
881.3936973218
 20
153.4931917211
 40
3.0
100
AcDbArc
 50
0.0
 51
180.0
  0
ARC
  5
437
100
AcDbEntity
  8
0
100
AcDbCircle
 62
7
  6
CONTINUOUS
 10
881.3936973218
 20
148.4931917211
 40
3.0
100
AcDbArc
 50
180.0
 51
360.0
  0
CIRCLE
  5
438
100
AcDbEntity
  8
0
100
AcDbCircle
 62
7
  6
CONTINUOUS
 10
881.3936973218
 20
446.8681917211
 40
2.6
  0
CIRCLE
  5
439
100
AcDbEntity
  8
0
100
AcDbCircle
 62
7
  6
CONTINUOUS
 10
881.3936973218
 20
196.8681917211
 40
2.6
  0
ARC
  5
43A
100
AcDbEntity
  8
0
100
AcDbCircle
 62
7
  6
CONTINUOUS
 10
907.8936973218
 20
111.8681917211
 40
2.5
100
AcDbArc
 50
270.0
 51
360.0
  0
ARC
  5
43B
100
AcDbEntity
  8
0
100
AcDbCircle
 62
7
  6
CONTINUOUS
 10
869.4036973218
 20
117.0681917211
 40
2.5
100
AcDbArc
 50
180.0
 51
228.9252781724
  0
ARC
  5
43C
100
AcDbEntity
  8
0
100
AcDbCircle
 62
7
  6
CONTINUOUS
 10
869.4036973218
 20
127.3681917211
 40
2.5
100
AcDbArc
 50
131.0747218276
 51
180.0
  0
ARC
  5
43D
100
AcDbEntity
  8
0
100
AcDbCircle
 62
7
  6
CONTINUOUS
 10
867.3936973218
 20
114.8681917211
 40
2.0
100
AcDbArc
 50
241.255972795
 51
252.8180426231
  0
ARC
  5
43E
100
AcDbEntity
  8
0
100
AcDbCircle
 62
7
  6
CONTINUOUS
 10
900.9292312277
 20
122.3681917211
 40
1.0
100
AcDbArc
 50
225.0000000009
 51
263.2230549658
  0
ARC
  5
43F
100
AcDbEntity
  8
0
100
AcDbCircle
 62
7
  6
CONTINUOUS
 10
867.3936973218
 20
114.8681917211
 40
0.5
100
AcDbArc
 50
180.0
 51
270.0
  0
ARC
  5
440
100
AcDbEntity
  8
0
100
AcDbCircle
 62
7
  6
CONTINUOUS
 10
905.8936973218
 20
1305.3681917211
 40
4.5
100
AcDbArc
 50
0.0
 51
90.0
  0
ARC
  5
441
100
AcDbEntity
  8
0
100
AcDbCircle
 62
7
  6
CONTINUOUS
 10
849.7436973218
 20
1278.8681917211
 40
4.0
100
AcDbArc
 50
180.0
 51
360.0
  0
ARC
  5
442
100
AcDbEntity
  8
0
100
AcDbCircle
 62
7
  6
CONTINUOUS
 10
849.7436973218
 20
1280.8681917211
 40
4.0
100
AcDbArc
 50
0.0
 51
180.0
  0
ARC
  5
443
100
AcDbEntity
  8
0
100
AcDbCircle
 62
7
  6
CONTINUOUS
 10
881.3936973218
 20
1265.2431917211
 40
3.0
100
AcDbArc
 50
180.0
 51
360.0
  0
ARC
  5
444
100
AcDbEntity
  8
0
100
AcDbCircle
 62
7
  6
CONTINUOUS
 10
881.3936973218
 20
1270.2431917211
 40
3.0
100
AcDbArc
 50
0.0
 51
180.0
  0
CIRCLE
  5
445
100
AcDbEntity
  8
0
100
AcDbCircle
 62
7
  6
CONTINUOUS
 10
881.3936973218
 20
1221.8681917211
 40
2.6
  0
CIRCLE
  5
446
100
AcDbEntity
  8
0
100
AcDbCircle
 62
7
  6
CONTINUOUS
 10
881.3936973218
 20
971.8681917211
 40
2.6
  0
ARC
  5
447
100
AcDbEntity
  8
0
100
AcDbCircle
 62
7
  6
CONTINUOUS
 10
907.8936973218
 20
1306.8681917211
 40
2.5
100
AcDbArc
 50
0.0
 51
90.0
  0
ARC
  5
448
100
AcDbEntity
  8
0
100
AcDbCircle
 62
7
  6
CONTINUOUS
 10
869.4036973218
 20
1301.6681917211
 40
2.5
100
AcDbArc
 50
131.0747218276
 51
181.1376992854
  0
ARC
  5
449
100
AcDbEntity
  8
0
100
AcDbCircle
 62
7
  6
CONTINUOUS
 10
869.4036973218
 20
1291.3681917211
 40
2.5
100
AcDbArc
 50
191.4004770402
 51
230.3575359266
  0
ARC
  5
44A
100
AcDbEntity
  8
0
100
AcDbCircle
 62
7
  6
CONTINUOUS
 10
867.3936973218
 20
1303.8681917211
 40
2.0
100
AcDbArc
 50
90.0
 51
118.744027205
  0
ARC
  5
44B
100
AcDbEntity
  8
0
100
AcDbCircle
 62
7
  6
CONTINUOUS
 10
900.9292312277
 20
1296.3681917211
 40
1.0
100
AcDbArc
 50
90.0
 51
134.9999999991
  0
ARC
  5
44C
100
AcDbEntity
  8
0
100
AcDbCircle
 62
7
  6
CONTINUOUS
 10
867.3936973218
 20
1303.8681917211
 40
0.5
100
AcDbArc
 50
90.0
 51
180.0
  0
SPLINE
  5
44D
100
AcDbEntity
  8
0
100
AcDbSpline
 62
7
  6
CONTINUOUS
 70
0
 71
3
 72
9
 73
5
 74
0
 42
0.0000001
 43
0.0000001
 44
0.0000000001
 40
0.0
 40
0.0
 40
0.0
 40
0.0
 40
0.4987382925
 40
1.0
 40
1.0
 40
1.0
 40
1.0
 10
134.4517497979
 20
1186.0797237002
 30
0.0
 10
134.5239519758
 20
1186.0132468519
 30
0.0
 10
134.695934744
 20
1185.9070885041
 30
0.0
 10
134.8943870145
 20
1185.8707730187
 30
0.0
 10
134.9930279443
 20
1185.8706692164
 30
0.0
  0
SPLINE
  5
44E
100
AcDbEntity
  8
0
100
AcDbSpline
 62
7
  6
CONTINUOUS
 70
0
 71
3
 72
8
 73
4
 74
0
 42
0.0000001
 43
0.0000001
 44
0.0000000001
 40
0.0
 40
0.0
 40
0.0
 40
0.0
 40
1.0
 40
1.0
 40
1.0
 40
1.0
 10
139.3880078829
 20
1185.8681917212
 30
0.0
 10
137.9230139787
 20
1185.8681919145
 30
0.0
 10
136.4580198412
 20
1185.8690134936
 30
0.0
 10
134.9930268644
 20
1185.8706619626
 30
0.0
  0
SPLINE
  5
44F
100
AcDbEntity
  8
0
100
AcDbSpline
 62
7
  6
CONTINUOUS
 70
0
 71
3
 72
9
 73
5
 74
0
 42
0.0000001
 43
0.0000001
 44
0.0000000001
 40
0.0
 40
0.0
 40
0.0
 40
0.0
 40
0.4987408618
 40
1.0
 40
1.0
 40
1.0
 40
1.0
 10
134.451754472
 20
1205.6566645176
 30
0.0
 10
134.523996425
 20
1205.7231780834
 30
0.0
 10
134.6960864166
 20
1205.8294032172
 30
0.0
 10
134.8946674063
 20
1205.8656151489
 30
0.0
 10
134.993361737
 20
1205.8657093216
 30
0.0
  0
SPLINE
  5
450
100
AcDbEntity
  8
0
100
AcDbSpline
 62
7
  6
CONTINUOUS
 70
0
 71
3
 72
8
 73
4
 74
0
 42
0.0000001
 43
0.0000001
 44
0.0000000001
 40
0.0
 40
0.0
 40
0.0
 40
0.0
 40
1.0
 40
1.0
 40
1.0
 40
1.0
 10
139.3876151987
 20
1205.8681917211
 30
0.0
 10
137.9229744699
 20
1205.8681914548
 30
0.0
 10
136.4583335002
 20
1205.8673839635
 30
0.0
 10
134.9936936986
 20
1205.8657358915
 30
0.0
  0
SPLINE
  5
451
100
AcDbEntity
  8
0
100
AcDbSpline
 62
7
  6
CONTINUOUS
 70
0
 71
3
 72
8
 73
4
 74
0
 42
0.0000001
 43
0.0000001
 44
0.0000000001
 40
0.0
 40
0.0
 40
0.0
 40
0.0
 40
1.0
 40
1.0
 40
1.0
 40
1.0
 10
134.9930270194
 20
1257.8657226055
 30
0.0
 10
136.4580195352
 20
1257.8673710835
 30
0.0
 10
137.9230132123
 20
1257.8681914791
 30
0.0
 10
139.3880066556
 20
1257.868191721
 30
0.0
  0
SPLINE
  5
452
100
AcDbEntity
  8
0
100
AcDbSpline
 62
7
  6
CONTINUOUS
 70
0
 71
3
 72
9
 73
5
 74
0
 42
0.0000001
 43
0.0000001
 44
0.0000000001
 40
0.0
 40
0.0
 40
0.0
 40
0.0
 40
0.498736292
 40
1.0
 40
1.0
 40
1.0
 40
1.0
 10
134.4517264569
 20
1257.6566404995
 30
0.0
 10
134.5239691269
 20
1257.723160406
 30
0.0
 10
134.6960685646
 20
1257.829388064
 30
0.0
 10
134.8946607457
 20
1257.8656223597
 30
0.0
 10
134.9933617379
 20
1257.8657046825
 30
0.0
  0
SPLINE
  5
453
100
AcDbEntity
  8
0
100
AcDbSpline
 62
7
  6
CONTINUOUS
 70
0
 71
3
 72
9
 73
5
 74
0
 42
0.0000001
 43
0.0000001
 44
0.0000000001
 40
0.0
 40
0.0
 40
0.0
 40
0.0
 40
0.5012753054
 40
1.0
 40
1.0
 40
1.0
 40
1.0
 10
134.9930279206
 20
1237.8706670224
 30
0.0
 10
134.8943834836
 20
1237.870734155
 30
0.0
 10
134.6959358409
 20
1237.9071302134
 30
0.0
 10
134.5239435173
 20
1238.0132530561
 30
0.0
 10
134.4517432664
 20
1238.0797292213
 30
0.0
  0
SPLINE
  5
454
100
AcDbEntity
  8
0
100
AcDbSpline
 62
7
  6
CONTINUOUS
 70
0
 71
3
 72
8
 73
4
 74
0
 42
0.0000001
 43
0.0000001
 44
0.0000000001
 40
0.0
 40
0.0
 40
0.0
 40
0.0
 40
1.0
 40
1.0
 40
1.0
 40
1.0
 10
139.3876138766
 20
1237.8681917212
 30
0.0
 10
137.9227513569
 20
1237.8681920544
 30
0.0
 10
136.4578886035
 20
1237.8690125299
 30
0.0
 10
134.9930270111
 20
1237.8706608325
 30
0.0
  0
SPLINE
  5
455
100
AcDbEntity
  8
0
100
AcDbSpline
 62
7
  6
CONTINUOUS
 70
0
 71
3
 72
9
 73
5
 74
0
 42
0.0000001
 43
0.0000001
 44
0.0000000001
 40
0.0
 40
0.0
 40
0.0
 40
0.0
 40
0.3342519572
 40
1.0
 40
1.0
 40
1.0
 40
1.0
 10
134.9930267796
 20
1205.8657212208
 30
0.0
 10
134.9885860964
 20
1205.832863565
 30
0.0
 10
134.9912677223
 20
1205.7331772506
 30
0.0
 10
134.9884616019
 20
1205.6342311007
 30
0.0
 10
134.9884616019
 20
1205.5681917211
 30
0.0
  0
SPLINE
  5
456
100
AcDbEntity
  8
0
100
AcDbSpline
 62
7
  6
CONTINUOUS
 70
0
 71
3
 72
14
 73
10
 74
0
 42
0.0000001
 43
0.0000001
 44
0.0000000001
 40
0.0
 40
0.0
 40
0.0
 40
0.0
 40
0.01955988
 40
0.0764744741
 40
0.1689689157
 40
0.2932173881
 40
0.4446257701
 40
0.6175034241
 40
1.0
 40
1.0
 40
1.0
 40
1.0
 10
146.1814806373
 20
1185.8681917211
 30
0.0
 10
146.179523682
 20
1185.8681917211
 30
0.0
 10
146.1818719086
 20
1185.8803121243
 30
0.0
 10
146.1781578179
 20
1185.8929615051
 30
0.0
 10
146.1789222158
 20
1185.9226616046
 30
0.0
 10
146.1775064065
 20
1185.9585115017
 30
0.0
 10
146.1771235205
 20
1186.0037344579
 30
0.0
 10
146.1763789152
 20
1186.0742967278
 30
0.0
 10
146.1762449154
 20
1186.1299231473
 30
0.0
 10
146.1762449154
 20
1186.1681917211
 30
0.0
  0
SPLINE
  5
457
100
AcDbEntity
  8
0
100
AcDbSpline
 62
7
  6
CONTINUOUS
 70
0
 71
3
 72
9
 73
5
 74
0
 42
0.0000001
 43
0.0000001
 44
0.0000000001
 40
0.0
 40
0.0
 40
0.0
 40
0.0
 40
0.4999747561
 40
1.0
 40
1.0
 40
1.0
 40
1.0
 10
134.988486105
 20
1186.1681917211
 30
0.0
 10
134.8609360023
 20
1186.1681748742
 30
0.0
 10
134.5952083919
 20
1186.2748851819
 30
0.0
 10
134.4884650628
 20
1186.5406003077
 30
0.0
 10
134.4884615999
 20
1186.6681632915
 30
0.0
  0
SPLINE
  5
458
100
AcDbEntity
  8
0
100
AcDbSpline
 62
7
  6
CONTINUOUS
 70
0
 71
3
 72
14
 73
10
 74
0
 42
0.0000001
 43
0.0000001
 44
0.0000000001
 40
0.0
 40
0.0
 40
0.0
 40
0.0
 40
0.3824965759
 40
0.5553742299
 40
0.7067826119
 40
0.8310310843
 40
0.9235255259
 40
0.98044012
 40
1.0
 40
1.0
 40
1.0
 40
1.0
 10
146.1762449154
 20
1205.5681917211
 30
0.0
 10
146.1762449154
 20
1205.606460295
 30
0.0
 10
146.1763789152
 20
1205.6620867144
 30
0.0
 10
146.1771235205
 20
1205.7326489843
 30
0.0
 10
146.1775064065
 20
1205.7778719406
 30
0.0
 10
146.1789222158
 20
1205.8137218376
 30
0.0
 10
146.1781578179
 20
1205.8434219372
 30
0.0
 10
146.1818719086
 20
1205.856071318
 30
0.0
 10
146.179523682
 20
1205.8681917211
 30
0.0
 10
146.1814806373
 20
1205.8681917211
 30
0.0
  0
SPLINE
  5
459
100
AcDbEntity
  8
0
100
AcDbSpline
 62
7
  6
CONTINUOUS
 70
0
 71
3
 72
9
 73
5
 74
0
 42
0.0000001
 43
0.0000001
 44
0.0000000001
 40
0.0
 40
0.0
 40
0.0
 40
0.0
 40
0.5000258365
 40
1.0
 40
1.0
 40
1.0
 40
1.0
 10
134.4884615999
 20
1257.0682126005
 30
0.0
 10
134.4884581391
 20
1257.1957752313
 30
0.0
 10
134.5952180143
 20
1257.4614800111
 30
0.0
 10
134.8609330512
 20
1257.5682130503
 30
0.0
 10
134.9884824978
 20
1257.5681917211
 30
0.0
  0
SPLINE
  5
45A
100
AcDbEntity
  8
0
100
AcDbSpline
 62
7
  6
CONTINUOUS
 70
0
 71
3
 72
9
 73
5
 74
0
 42
0.0000001
 43
0.0000001
 44
0.0000000001
 40
0.0
 40
0.0
 40
0.0
 40
0.0
 40
0.6655427656
 40
1.0
 40
1.0
 40
1.0
 40
1.0
 10
134.9884616518
 20
1186.1681917211
 30
0.0
 10
134.9884616518
 20
1186.1021726481
 30
0.0
 10
134.9912678047
 20
1186.0032263986
 30
0.0
 10
134.9885832187
 20
1185.9035397942
 30
0.0
 10
134.9930268644
 20
1185.8706619626
 30
0.0
  0
SPLINE
  5
45B
100
AcDbEntity
  8
0
100
AcDbSpline
 62
7
  6
CONTINUOUS
 70
0
 71
3
 72
11
 73
7
 74
0
 42
0.0000001
 43
0.0000001
 44
0.0000000001
 40
0.0
 40
0.0
 40
0.0
 40
0.0
 40
0.0658909553
 40
0.2598491307
 40
0.5755089317
 40
1.0
 40
1.0
 40
1.0
 40
1.0
 10
130.5116240263
 20
1235.907630471
 30
0.0
 10
130.5111016506
 20
1235.9064812445
 30
0.0
 10
130.5193713458
 20
1235.9053565011
 30
0.0
 10
130.5256846096
 20
1235.8995336234
 30
0.0
 10
130.5439286607
 20
1235.8925183267
 30
0.0
 10
130.5561352247
 20
1235.8863505878
 30
0.0
 10
130.5635140231
 20
1235.8829310332
 30
0.0
  0
SPLINE
  5
45C
100
AcDbEntity
  8
0
100
AcDbSpline
 62
7
  6
CONTINUOUS
 70
0
 71
3
 72
9
 73
5
 74
0
 42
0.0000001
 43
0.0000001
 44
0.0000000001
 40
0.0
 40
0.0
 40
0.0
 40
0.0
 40
0.3342416874
 40
1.0
 40
1.0
 40
1.0
 40
1.0
 10
134.9930270194
 20
1257.8657226055
 30
0.0
 10
134.988585214
 20
1257.832865973
 30
0.0
 10
134.9912688825
 20
1257.7331788764
 30
0.0
 10
134.9884616545
 20
1257.634232428
 30
0.0
 10
134.9884616545
 20
1257.5681917211
 30
0.0
  0
SPLINE
  5
45D
100
AcDbEntity
  8
0
100
AcDbSpline
 62
7
  6
CONTINUOUS
 70
0
 71
3
 72
9
 73
5
 74
0
 42
0.0000001
 43
0.0000001
 44
0.0000000001
 40
0.0
 40
0.0
 40
0.0
 40
0.0
 40
0.5000258476
 40
1.0
 40
1.0
 40
1.0
 40
1.0
 10
134.4884615999
 20
1205.0682147105
 30
0.0
 10
134.4884644793
 20
1205.195777851
 30
0.0
 10
134.5952038894
 20
1205.461493644
 30
0.0
 10
134.8609307276
 20
1205.5682082451
 30
0.0
 10
134.988480679
 20
1205.5681917211
 30
0.0
  0
SPLINE
  5
45E
100
AcDbEntity
  8
0
100
AcDbSpline
 62
7
  6
CONTINUOUS
 70
0
 71
3
 72
14
 73
10
 74
0
 42
0.0000001
 43
0.0000001
 44
0.0000000001
 40
0.0
 40
0.0
 40
0.0
 40
0.0
 40
0.3824931411
 40
0.5553696047
 40
0.7067773731
 40
0.8310259391
 40
0.9235212851
 40
0.9804376202
 40
1.0
 40
1.0
 40
1.0
 40
1.0
 10
146.1762449154
 20
1257.5681917211
 30
0.0
 10
146.1762449154
 20
1257.6064599492
 30
0.0
 10
146.1763789103
 20
1257.6620858457
 30
0.0
 10
146.1771235091
 20
1257.732647726
 30
0.0
 10
146.1775063713
 20
1257.7778701826
 30
0.0
 10
146.1789222125
 20
1257.8137210153
 30
0.0
 10
146.1781576826
 20
1257.8434192706
 30
0.0
 10
146.1818720816
 20
1257.8560728857
 30
0.0
 10
146.1795233534
 20
1257.8681900234
 30
0.0
 10
146.181480558
 20
1257.8681917211
 30
0.0
  0
SPLINE
  5
45F
100
AcDbEntity
  8
0
100
AcDbSpline
 62
7
  6
CONTINUOUS
 70
0
 71
3
 72
9
 73
5
 74
0
 42
0.0000001
 43
0.0000001
 44
0.0000000001
 40
0.0
 40
0.0
 40
0.0
 40
0.0
 40
0.2828679615
 40
1.0
 40
1.0
 40
1.0
 40
1.0
 10
130.6902068405
 20
1207.9115135601
 30
0.0
 10
130.6772412803
 20
1207.905618328
 30
0.0
 10
130.6314238548
 20
1207.8847365774
 30
0.0
 10
130.5856497618
 20
1207.8637583594
 30
0.0
 10
130.5529095406
 20
1207.8485293301
 30
0.0
  0
SPLINE
  5
460
100
AcDbEntity
  8
0
100
AcDbSpline
 62
7
  6
CONTINUOUS
 70
0
 71
3
 72
11
 73
7
 74
0
 42
0.0000001
 43
0.0000001
 44
0.0000000001
 40
0.0
 40
0.0
 40
0.0
 40
0.0
 40
0.4275084641
 40
0.7425479831
 40
0.9349940974
 40
1.0
 40
1.0
 40
1.0
 40
1.0
 10
130.5529095406
 20
1207.8485293301
 30
0.0
 10
130.5469937281
 20
1207.8457776052
 30
0.0
 10
130.5372455136
 20
1207.8408390246
 30
0.0
 10
130.5227195797
 20
1207.8351998825
 30
0.0
 10
130.5177054291
 20
1207.8306026769
 30
0.0
 10
130.5112134939
 20
1207.8296561426
 30
0.0
 10
130.5116240263
 20
1207.8287529712
 30
0.0
  0
SPLINE
  5
461
100
AcDbEntity
  8
0
100
AcDbSpline
 62
7
  6
CONTINUOUS
 70
0
 71
3
 72
9
 73
5
 74
0
 42
0.0000001
 43
0.0000001
 44
0.0000000001
 40
0.0
 40
0.0
 40
0.0
 40
0.0
 40
0.6655512361
 40
1.0
 40
1.0
 40
1.0
 40
1.0
 10
134.9884616457
 20
1238.1681917211
 30
0.0
 10
134.9884616457
 20
1238.1021715561
 30
0.0
 10
134.9912687027
 20
1238.003225063
 30
0.0
 10
134.9885824501
 20
1237.9035378202
 30
0.0
 10
134.9930270111
 20
1237.8706608325
 30
0.0
  0
SPLINE
  5
462
100
AcDbEntity
  8
0
100
AcDbSpline
 62
7
  6
CONTINUOUS
 70
0
 71
3
 72
9
 73
5
 74
0
 42
0.0000001
 43
0.0000001
 44
0.0000000001
 40
0.0
 40
0.0
 40
0.0
 40
0.0
 40
0.4999744507
 40
1.0
 40
1.0
 40
1.0
 40
1.0
 10
134.9884806826
 20
1238.1681917211
 30
0.0
 10
134.860930656
 20
1238.1681751631
 30
0.0
 10
134.5952037984
 20
1238.2748898994
 30
0.0
 10
134.4884644954
 20
1238.5406056594
 30
0.0
 10
134.4884615999
 20
1238.668168723
 30
0.0
  0
SPLINE
  5
463
100
AcDbEntity
  8
0
100
AcDbSpline
 62
7
  6
CONTINUOUS
 70
0
 71
3
 72
14
 73
10
 74
0
 42
0.0000001
 43
0.0000001
 44
0.0000000001
 40
0.0
 40
0.0
 40
0.0
 40
0.0
 40
0.01955988
 40
0.0764744741
 40
0.1689689157
 40
0.2932173881
 40
0.4446257701
 40
0.6175034241
 40
1.0
 40
1.0
 40
1.0
 40
1.0
 10
146.1814806373
 20
1237.8681917211
 30
0.0
 10
146.179523682
 20
1237.8681917211
 30
0.0
 10
146.1818719086
 20
1237.8803121243
 30
0.0
 10
146.1781578179
 20
1237.8929615051
 30
0.0
 10
146.1789222158
 20
1237.9226616046
 30
0.0
 10
146.1775064065
 20
1237.9585115017
 30
0.0
 10
146.1771235205
 20
1238.0037344579
 30
0.0
 10
146.1763789152
 20
1238.0742967278
 30
0.0
 10
146.1762449154
 20
1238.1299231473
 30
0.0
 10
146.1762449154
 20
1238.1681917211
 30
0.0
  0
SPLINE
  5
464
100
AcDbEntity
  8
0
100
AcDbSpline
 62
7
  6
CONTINUOUS
 70
0
 71
3
 72
9
 73
5
 74
0
 42
0.0000001
 43
0.0000001
 44
0.0000000001
 40
0.0
 40
0.0
 40
0.0
 40
0.0
 40
0.4987382925
 40
1.0
 40
1.0
 40
1.0
 40
1.0
 10
134.4517497979
 20
161.0797237002
 30
0.0
 10
134.5239519758
 20
161.0132468519
 30
0.0
 10
134.695934744
 20
160.9070885041
 30
0.0
 10
134.8943870145
 20
160.8707730187
 30
0.0
 10
134.9930279443
 20
160.8706692164
 30
0.0
  0
SPLINE
  5
465
100
AcDbEntity
  8
0
100
AcDbSpline
 62
7
  6
CONTINUOUS
 70
0
 71
3
 72
8
 73
4
 74
0
 42
0.0000001
 43
0.0000001
 44
0.0000000001
 40
0.0
 40
0.0
 40
0.0
 40
0.0
 40
1.0
 40
1.0
 40
1.0
 40
1.0
 10
139.3880078829
 20
160.8681917212
 30
0.0
 10
137.9230139787
 20
160.8681919145
 30
0.0
 10
136.4580198412
 20
160.8690134936
 30
0.0
 10
134.9930268644
 20
160.8706619626
 30
0.0
  0
SPLINE
  5
466
100
AcDbEntity
  8
0
100
AcDbSpline
 62
7
  6
CONTINUOUS
 70
0
 71
3
 72
9
 73
5
 74
0
 42
0.0000001
 43
0.0000001
 44
0.0000000001
 40
0.0
 40
0.0
 40
0.0
 40
0.0
 40
0.4987408618
 40
1.0
 40
1.0
 40
1.0
 40
1.0
 10
134.451754472
 20
180.6566645176
 30
0.0
 10
134.523996425
 20
180.7231780834
 30
0.0
 10
134.6960864166
 20
180.8294032172
 30
0.0
 10
134.8946674063
 20
180.8656151489
 30
0.0
 10
134.993361737
 20
180.8657093216
 30
0.0
  0
SPLINE
  5
467
100
AcDbEntity
  8
0
100
AcDbSpline
 62
7
  6
CONTINUOUS
 70
0
 71
3
 72
8
 73
4
 74
0
 42
0.0000001
 43
0.0000001
 44
0.0000000001
 40
0.0
 40
0.0
 40
0.0
 40
0.0
 40
1.0
 40
1.0
 40
1.0
 40
1.0
 10
139.3876151987
 20
180.8681917211
 30
0.0
 10
137.9229744699
 20
180.8681914548
 30
0.0
 10
136.4583335002
 20
180.8673839635
 30
0.0
 10
134.9936936986
 20
180.8657358915
 30
0.0
  0
SPLINE
  5
468
100
AcDbEntity
  8
0
100
AcDbSpline
 62
7
  6
CONTINUOUS
 70
0
 71
3
 72
8
 73
4
 74
0
 42
0.0000001
 43
0.0000001
 44
0.0000000001
 40
0.0
 40
0.0
 40
0.0
 40
0.0
 40
1.0
 40
1.0
 40
1.0
 40
1.0
 10
134.9930270194
 20
232.8657226055
 30
0.0
 10
136.4580195352
 20
232.8673710835
 30
0.0
 10
137.9230132123
 20
232.8681914791
 30
0.0
 10
139.3880066556
 20
232.868191721
 30
0.0
  0
SPLINE
  5
469
100
AcDbEntity
  8
0
100
AcDbSpline
 62
7
  6
CONTINUOUS
 70
0
 71
3
 72
9
 73
5
 74
0
 42
0.0000001
 43
0.0000001
 44
0.0000000001
 40
0.0
 40
0.0
 40
0.0
 40
0.0
 40
0.498736292
 40
1.0
 40
1.0
 40
1.0
 40
1.0
 10
134.4517264569
 20
232.6566404995
 30
0.0
 10
134.5239691269
 20
232.723160406
 30
0.0
 10
134.6960685646
 20
232.829388064
 30
0.0
 10
134.8946607457
 20
232.8656223597
 30
0.0
 10
134.9933617379
 20
232.8657046825
 30
0.0
  0
SPLINE
  5
46A
100
AcDbEntity
  8
0
100
AcDbSpline
 62
7
  6
CONTINUOUS
 70
0
 71
3
 72
9
 73
5
 74
0
 42
0.0000001
 43
0.0000001
 44
0.0000000001
 40
0.0
 40
0.0
 40
0.0
 40
0.0
 40
0.5012753054
 40
1.0
 40
1.0
 40
1.0
 40
1.0
 10
134.9930279206
 20
212.8706670224
 30
0.0
 10
134.8943834836
 20
212.870734155
 30
0.0
 10
134.6959358409
 20
212.9071302134
 30
0.0
 10
134.5239435173
 20
213.0132530561
 30
0.0
 10
134.4517432664
 20
213.0797292213
 30
0.0
  0
SPLINE
  5
46B
100
AcDbEntity
  8
0
100
AcDbSpline
 62
7
  6
CONTINUOUS
 70
0
 71
3
 72
8
 73
4
 74
0
 42
0.0000001
 43
0.0000001
 44
0.0000000001
 40
0.0
 40
0.0
 40
0.0
 40
0.0
 40
1.0
 40
1.0
 40
1.0
 40
1.0
 10
139.3876138766
 20
212.8681917212
 30
0.0
 10
137.9227513569
 20
212.8681920544
 30
0.0
 10
136.4578886035
 20
212.8690125299
 30
0.0
 10
134.9930270111
 20
212.8706608325
 30
0.0
  0
SPLINE
  5
46C
100
AcDbEntity
  8
0
100
AcDbSpline
 62
7
  6
CONTINUOUS
 70
0
 71
3
 72
9
 73
5
 74
0
 42
0.0000001
 43
0.0000001
 44
0.0000000001
 40
0.0
 40
0.0
 40
0.0
 40
0.0
 40
0.3342519572
 40
1.0
 40
1.0
 40
1.0
 40
1.0
 10
134.9930267796
 20
180.8657212208
 30
0.0
 10
134.9885860964
 20
180.832863565
 30
0.0
 10
134.9912677223
 20
180.7331772506
 30
0.0
 10
134.9884616019
 20
180.6342311007
 30
0.0
 10
134.9884616019
 20
180.5681917211
 30
0.0
  0
SPLINE
  5
46D
100
AcDbEntity
  8
0
100
AcDbSpline
 62
7
  6
CONTINUOUS
 70
0
 71
3
 72
14
 73
10
 74
0
 42
0.0000001
 43
0.0000001
 44
0.0000000001
 40
0.0
 40
0.0
 40
0.0
 40
0.0
 40
0.01955988
 40
0.0764744741
 40
0.1689689157
 40
0.2932173881
 40
0.4446257701
 40
0.6175034241
 40
1.0
 40
1.0
 40
1.0
 40
1.0
 10
146.1814806373
 20
160.8681917211
 30
0.0
 10
146.179523682
 20
160.8681917211
 30
0.0
 10
146.1818719086
 20
160.8803121243
 30
0.0
 10
146.1781578179
 20
160.8929615051
 30
0.0
 10
146.1789222158
 20
160.9226616046
 30
0.0
 10
146.1775064065
 20
160.9585115017
 30
0.0
 10
146.1771235205
 20
161.0037344579
 30
0.0
 10
146.1763789152
 20
161.0742967278
 30
0.0
 10
146.1762449154
 20
161.1299231473
 30
0.0
 10
146.1762449154
 20
161.1681917211
 30
0.0
  0
SPLINE
  5
46E
100
AcDbEntity
  8
0
100
AcDbSpline
 62
7
  6
CONTINUOUS
 70
0
 71
3
 72
9
 73
5
 74
0
 42
0.0000001
 43
0.0000001
 44
0.0000000001
 40
0.0
 40
0.0
 40
0.0
 40
0.0
 40
0.4999747561
 40
1.0
 40
1.0
 40
1.0
 40
1.0
 10
134.988486105
 20
161.1681917211
 30
0.0
 10
134.8609360023
 20
161.1681748742
 30
0.0
 10
134.5952083919
 20
161.2748851819
 30
0.0
 10
134.4884650628
 20
161.5406003077
 30
0.0
 10
134.4884615999
 20
161.6681632915
 30
0.0
  0
SPLINE
  5
46F
100
AcDbEntity
  8
0
100
AcDbSpline
 62
7
  6
CONTINUOUS
 70
0
 71
3
 72
14
 73
10
 74
0
 42
0.0000001
 43
0.0000001
 44
0.0000000001
 40
0.0
 40
0.0
 40
0.0
 40
0.0
 40
0.3824965759
 40
0.5553742299
 40
0.7067826119
 40
0.8310310843
 40
0.9235255259
 40
0.98044012
 40
1.0
 40
1.0
 40
1.0
 40
1.0
 10
146.1762449154
 20
180.5681917211
 30
0.0
 10
146.1762449154
 20
180.606460295
 30
0.0
 10
146.1763789152
 20
180.6620867144
 30
0.0
 10
146.1771235205
 20
180.7326489843
 30
0.0
 10
146.1775064065
 20
180.7778719406
 30
0.0
 10
146.1789222158
 20
180.8137218376
 30
0.0
 10
146.1781578179
 20
180.8434219372
 30
0.0
 10
146.1818719086
 20
180.856071318
 30
0.0
 10
146.179523682
 20
180.8681917211
 30
0.0
 10
146.1814806373
 20
180.8681917211
 30
0.0
  0
SPLINE
  5
470
100
AcDbEntity
  8
0
100
AcDbSpline
 62
7
  6
CONTINUOUS
 70
0
 71
3
 72
9
 73
5
 74
0
 42
0.0000001
 43
0.0000001
 44
0.0000000001
 40
0.0
 40
0.0
 40
0.0
 40
0.0
 40
0.5000258365
 40
1.0
 40
1.0
 40
1.0
 40
1.0
 10
134.4884615999
 20
232.0682126005
 30
0.0
 10
134.4884581391
 20
232.1957752313
 30
0.0
 10
134.5952180143
 20
232.4614800111
 30
0.0
 10
134.8609330512
 20
232.5682130503
 30
0.0
 10
134.9884824978
 20
232.5681917211
 30
0.0
  0
SPLINE
  5
471
100
AcDbEntity
  8
0
100
AcDbSpline
 62
7
  6
CONTINUOUS
 70
0
 71
3
 72
9
 73
5
 74
0
 42
0.0000001
 43
0.0000001
 44
0.0000000001
 40
0.0
 40
0.0
 40
0.0
 40
0.0
 40
0.6655427656
 40
1.0
 40
1.0
 40
1.0
 40
1.0
 10
134.9884616518
 20
161.1681917211
 30
0.0
 10
134.9884616518
 20
161.1021726481
 30
0.0
 10
134.9912678047
 20
161.0032263986
 30
0.0
 10
134.9885832187
 20
160.9035397942
 30
0.0
 10
134.9930268644
 20
160.8706619626
 30
0.0
  0
SPLINE
  5
472
100
AcDbEntity
  8
0
100
AcDbSpline
 62
7
  6
CONTINUOUS
 70
0
 71
3
 72
11
 73
7
 74
0
 42
0.0000001
 43
0.0000001
 44
0.0000000001
 40
0.0
 40
0.0
 40
0.0
 40
0.0
 40
0.0658909553
 40
0.2598491307
 40
0.5755089317
 40
1.0
 40
1.0
 40
1.0
 40
1.0
 10
130.5116240263
 20
210.907630471
 30
0.0
 10
130.5111016506
 20
210.9064812445
 30
0.0
 10
130.5193713458
 20
210.9053565011
 30
0.0
 10
130.5256846096
 20
210.8995336234
 30
0.0
 10
130.5439286607
 20
210.8925183267
 30
0.0
 10
130.5561352247
 20
210.8863505878
 30
0.0
 10
130.5635140231
 20
210.8829310332
 30
0.0
  0
SPLINE
  5
473
100
AcDbEntity
  8
0
100
AcDbSpline
 62
7
  6
CONTINUOUS
 70
0
 71
3
 72
9
 73
5
 74
0
 42
0.0000001
 43
0.0000001
 44
0.0000000001
 40
0.0
 40
0.0
 40
0.0
 40
0.0
 40
0.3342416874
 40
1.0
 40
1.0
 40
1.0
 40
1.0
 10
134.9930270194
 20
232.8657226055
 30
0.0
 10
134.988585214
 20
232.832865973
 30
0.0
 10
134.9912688825
 20
232.7331788764
 30
0.0
 10
134.9884616545
 20
232.634232428
 30
0.0
 10
134.9884616545
 20
232.5681917211
 30
0.0
  0
SPLINE
  5
474
100
AcDbEntity
  8
0
100
AcDbSpline
 62
7
  6
CONTINUOUS
 70
0
 71
3
 72
9
 73
5
 74
0
 42
0.0000001
 43
0.0000001
 44
0.0000000001
 40
0.0
 40
0.0
 40
0.0
 40
0.0
 40
0.5000258476
 40
1.0
 40
1.0
 40
1.0
 40
1.0
 10
134.4884615999
 20
180.0682147105
 30
0.0
 10
134.4884644793
 20
180.195777851
 30
0.0
 10
134.5952038894
 20
180.461493644
 30
0.0
 10
134.8609307276
 20
180.5682082451
 30
0.0
 10
134.988480679
 20
180.5681917211
 30
0.0
  0
SPLINE
  5
475
100
AcDbEntity
  8
0
100
AcDbSpline
 62
7
  6
CONTINUOUS
 70
0
 71
3
 72
14
 73
10
 74
0
 42
0.0000001
 43
0.0000001
 44
0.0000000001
 40
0.0
 40
0.0
 40
0.0
 40
0.0
 40
0.3824931411
 40
0.5553696047
 40
0.7067773731
 40
0.8310259391
 40
0.9235212851
 40
0.9804376202
 40
1.0
 40
1.0
 40
1.0
 40
1.0
 10
146.1762449154
 20
232.5681917211
 30
0.0
 10
146.1762449154
 20
232.6064599492
 30
0.0
 10
146.1763789103
 20
232.6620858457
 30
0.0
 10
146.1771235091
 20
232.732647726
 30
0.0
 10
146.1775063713
 20
232.7778701826
 30
0.0
 10
146.1789222125
 20
232.8137210153
 30
0.0
 10
146.1781576826
 20
232.8434192706
 30
0.0
 10
146.1818720816
 20
232.8560728857
 30
0.0
 10
146.1795233534
 20
232.8681900234
 30
0.0
 10
146.181480558
 20
232.8681917211
 30
0.0
  0
SPLINE
  5
476
100
AcDbEntity
  8
0
100
AcDbSpline
 62
7
  6
CONTINUOUS
 70
0
 71
3
 72
9
 73
5
 74
0
 42
0.0000001
 43
0.0000001
 44
0.0000000001
 40
0.0
 40
0.0
 40
0.0
 40
0.0
 40
0.2828679615
 40
1.0
 40
1.0
 40
1.0
 40
1.0
 10
130.6902068405
 20
182.9115135601
 30
0.0
 10
130.6772412803
 20
182.905618328
 30
0.0
 10
130.6314238548
 20
182.8847365774
 30
0.0
 10
130.5856497618
 20
182.8637583594
 30
0.0
 10
130.5529095406
 20
182.8485293301
 30
0.0
  0
SPLINE
  5
477
100
AcDbEntity
  8
0
100
AcDbSpline
 62
7
  6
CONTINUOUS
 70
0
 71
3
 72
11
 73
7
 74
0
 42
0.0000001
 43
0.0000001
 44
0.0000000001
 40
0.0
 40
0.0
 40
0.0
 40
0.0
 40
0.4275084641
 40
0.7425479831
 40
0.9349940974
 40
1.0
 40
1.0
 40
1.0
 40
1.0
 10
130.5529095406
 20
182.8485293301
 30
0.0
 10
130.5469937281
 20
182.8457776052
 30
0.0
 10
130.5372455136
 20
182.8408390246
 30
0.0
 10
130.5227195797
 20
182.8351998825
 30
0.0
 10
130.5177054291
 20
182.8306026769
 30
0.0
 10
130.5112134939
 20
182.8296561426
 30
0.0
 10
130.5116240263
 20
182.8287529712
 30
0.0
  0
SPLINE
  5
478
100
AcDbEntity
  8
0
100
AcDbSpline
 62
7
  6
CONTINUOUS
 70
0
 71
3
 72
9
 73
5
 74
0
 42
0.0000001
 43
0.0000001
 44
0.0000000001
 40
0.0
 40
0.0
 40
0.0
 40
0.0
 40
0.6655512361
 40
1.0
 40
1.0
 40
1.0
 40
1.0
 10
134.9884616457
 20
213.1681917211
 30
0.0
 10
134.9884616457
 20
213.1021715561
 30
0.0
 10
134.9912687027
 20
213.003225063
 30
0.0
 10
134.9885824501
 20
212.9035378202
 30
0.0
 10
134.9930270111
 20
212.8706608325
 30
0.0
  0
SPLINE
  5
479
100
AcDbEntity
  8
0
100
AcDbSpline
 62
7
  6
CONTINUOUS
 70
0
 71
3
 72
9
 73
5
 74
0
 42
0.0000001
 43
0.0000001
 44
0.0000000001
 40
0.0
 40
0.0
 40
0.0
 40
0.0
 40
0.4999744507
 40
1.0
 40
1.0
 40
1.0
 40
1.0
 10
134.9884806826
 20
213.1681917211
 30
0.0
 10
134.860930656
 20
213.1681751631
 30
0.0
 10
134.5952037984
 20
213.2748898994
 30
0.0
 10
134.4884644954
 20
213.5406056594
 30
0.0
 10
134.4884615999
 20
213.668168723
 30
0.0
  0
SPLINE
  5
47A
100
AcDbEntity
  8
0
100
AcDbSpline
 62
7
  6
CONTINUOUS
 70
0
 71
3
 72
14
 73
10
 74
0
 42
0.0000001
 43
0.0000001
 44
0.0000000001
 40
0.0
 40
0.0
 40
0.0
 40
0.0
 40
0.01955988
 40
0.0764744741
 40
0.1689689157
 40
0.2932173881
 40
0.4446257701
 40
0.6175034241
 40
1.0
 40
1.0
 40
1.0
 40
1.0
 10
146.1814806373
 20
212.8681917211
 30
0.0
 10
146.179523682
 20
212.8681917211
 30
0.0
 10
146.1818719086
 20
212.8803121243
 30
0.0
 10
146.1781578179
 20
212.8929615051
 30
0.0
 10
146.1789222158
 20
212.9226616046
 30
0.0
 10
146.1775064065
 20
212.9585115017
 30
0.0
 10
146.1771235205
 20
213.0037344579
 30
0.0
 10
146.1763789152
 20
213.0742967278
 30
0.0
 10
146.1762449154
 20
213.1299231473
 30
0.0
 10
146.1762449154
 20
213.1681917211
 30
0.0
  0
SPLINE
  5
47B
100
AcDbEntity
  8
0
100
AcDbSpline
 62
7
  6
CONTINUOUS
 70
0
 71
3
 72
9
 73
5
 74
0
 42
0.0000001
 43
0.0000001
 44
0.0000000001
 40
0.0
 40
0.0
 40
0.0
 40
0.0
 40
0.4987382925
 40
1.0
 40
1.0
 40
1.0
 40
1.0
 10
134.4517497979
 20
936.0797237002
 30
0.0
 10
134.5239519758
 20
936.0132468519
 30
0.0
 10
134.695934744
 20
935.9070885041
 30
0.0
 10
134.8943870145
 20
935.8707730187
 30
0.0
 10
134.9930279443
 20
935.8706692164
 30
0.0
  0
SPLINE
  5
47C
100
AcDbEntity
  8
0
100
AcDbSpline
 62
7
  6
CONTINUOUS
 70
0
 71
3
 72
8
 73
4
 74
0
 42
0.0000001
 43
0.0000001
 44
0.0000000001
 40
0.0
 40
0.0
 40
0.0
 40
0.0
 40
1.0
 40
1.0
 40
1.0
 40
1.0
 10
139.3880078829
 20
935.8681917212
 30
0.0
 10
137.9230139787
 20
935.8681919145
 30
0.0
 10
136.4580198412
 20
935.8690134936
 30
0.0
 10
134.9930268644
 20
935.8706619626
 30
0.0
  0
SPLINE
  5
47D
100
AcDbEntity
  8
0
100
AcDbSpline
 62
7
  6
CONTINUOUS
 70
0
 71
3
 72
9
 73
5
 74
0
 42
0.0000001
 43
0.0000001
 44
0.0000000001
 40
0.0
 40
0.0
 40
0.0
 40
0.0
 40
0.4987408618
 40
1.0
 40
1.0
 40
1.0
 40
1.0
 10
134.451754472
 20
955.6566645176
 30
0.0
 10
134.523996425
 20
955.7231780834
 30
0.0
 10
134.6960864166
 20
955.8294032172
 30
0.0
 10
134.8946674063
 20
955.8656151489
 30
0.0
 10
134.993361737
 20
955.8657093216
 30
0.0
  0
SPLINE
  5
47E
100
AcDbEntity
  8
0
100
AcDbSpline
 62
7
  6
CONTINUOUS
 70
0
 71
3
 72
8
 73
4
 74
0
 42
0.0000001
 43
0.0000001
 44
0.0000000001
 40
0.0
 40
0.0
 40
0.0
 40
0.0
 40
1.0
 40
1.0
 40
1.0
 40
1.0
 10
139.3876151987
 20
955.8681917211
 30
0.0
 10
137.9229744699
 20
955.8681914548
 30
0.0
 10
136.4583335002
 20
955.8673839635
 30
0.0
 10
134.9936936986
 20
955.8657358915
 30
0.0
  0
SPLINE
  5
47F
100
AcDbEntity
  8
0
100
AcDbSpline
 62
7
  6
CONTINUOUS
 70
0
 71
3
 72
8
 73
4
 74
0
 42
0.0000001
 43
0.0000001
 44
0.0000000001
 40
0.0
 40
0.0
 40
0.0
 40
0.0
 40
1.0
 40
1.0
 40
1.0
 40
1.0
 10
134.9930270194
 20
1007.8657226055
 30
0.0
 10
136.4580195352
 20
1007.8673710835
 30
0.0
 10
137.9230132123
 20
1007.8681914791
 30
0.0
 10
139.3880066556
 20
1007.868191721
 30
0.0
  0
SPLINE
  5
480
100
AcDbEntity
  8
0
100
AcDbSpline
 62
7
  6
CONTINUOUS
 70
0
 71
3
 72
9
 73
5
 74
0
 42
0.0000001
 43
0.0000001
 44
0.0000000001
 40
0.0
 40
0.0
 40
0.0
 40
0.0
 40
0.498736292
 40
1.0
 40
1.0
 40
1.0
 40
1.0
 10
134.4517264569
 20
1007.6566404995
 30
0.0
 10
134.5239691269
 20
1007.723160406
 30
0.0
 10
134.6960685646
 20
1007.829388064
 30
0.0
 10
134.8946607457
 20
1007.8656223597
 30
0.0
 10
134.9933617379
 20
1007.8657046825
 30
0.0
  0
SPLINE
  5
481
100
AcDbEntity
  8
0
100
AcDbSpline
 62
7
  6
CONTINUOUS
 70
0
 71
3
 72
9
 73
5
 74
0
 42
0.0000001
 43
0.0000001
 44
0.0000000001
 40
0.0
 40
0.0
 40
0.0
 40
0.0
 40
0.5012753054
 40
1.0
 40
1.0
 40
1.0
 40
1.0
 10
134.9930279206
 20
987.8706670224
 30
0.0
 10
134.8943834836
 20
987.870734155
 30
0.0
 10
134.6959358409
 20
987.9071302134
 30
0.0
 10
134.5239435173
 20
988.0132530561
 30
0.0
 10
134.4517432664
 20
988.0797292213
 30
0.0
  0
SPLINE
  5
482
100
AcDbEntity
  8
0
100
AcDbSpline
 62
7
  6
CONTINUOUS
 70
0
 71
3
 72
8
 73
4
 74
0
 42
0.0000001
 43
0.0000001
 44
0.0000000001
 40
0.0
 40
0.0
 40
0.0
 40
0.0
 40
1.0
 40
1.0
 40
1.0
 40
1.0
 10
139.3876138766
 20
987.8681917212
 30
0.0
 10
137.9227513569
 20
987.8681920544
 30
0.0
 10
136.4578886035
 20
987.8690125299
 30
0.0
 10
134.9930270111
 20
987.8706608325
 30
0.0
  0
SPLINE
  5
483
100
AcDbEntity
  8
0
100
AcDbSpline
 62
7
  6
CONTINUOUS
 70
0
 71
3
 72
9
 73
5
 74
0
 42
0.0000001
 43
0.0000001
 44
0.0000000001
 40
0.0
 40
0.0
 40
0.0
 40
0.0
 40
0.3342519572
 40
1.0
 40
1.0
 40
1.0
 40
1.0
 10
134.9930267796
 20
955.8657212208
 30
0.0
 10
134.9885860964
 20
955.832863565
 30
0.0
 10
134.9912677223
 20
955.7331772506
 30
0.0
 10
134.9884616019
 20
955.6342311007
 30
0.0
 10
134.9884616019
 20
955.5681917211
 30
0.0
  0
SPLINE
  5
484
100
AcDbEntity
  8
0
100
AcDbSpline
 62
7
  6
CONTINUOUS
 70
0
 71
3
 72
14
 73
10
 74
0
 42
0.0000001
 43
0.0000001
 44
0.0000000001
 40
0.0
 40
0.0
 40
0.0
 40
0.0
 40
0.01955988
 40
0.0764744741
 40
0.1689689157
 40
0.2932173881
 40
0.4446257701
 40
0.6175034241
 40
1.0
 40
1.0
 40
1.0
 40
1.0
 10
146.1814806373
 20
935.8681917211
 30
0.0
 10
146.179523682
 20
935.8681917211
 30
0.0
 10
146.1818719086
 20
935.8803121243
 30
0.0
 10
146.1781578179
 20
935.8929615051
 30
0.0
 10
146.1789222158
 20
935.9226616046
 30
0.0
 10
146.1775064065
 20
935.9585115017
 30
0.0
 10
146.1771235205
 20
936.0037344579
 30
0.0
 10
146.1763789152
 20
936.0742967278
 30
0.0
 10
146.1762449154
 20
936.1299231473
 30
0.0
 10
146.1762449154
 20
936.1681917211
 30
0.0
  0
SPLINE
  5
485
100
AcDbEntity
  8
0
100
AcDbSpline
 62
7
  6
CONTINUOUS
 70
0
 71
3
 72
9
 73
5
 74
0
 42
0.0000001
 43
0.0000001
 44
0.0000000001
 40
0.0
 40
0.0
 40
0.0
 40
0.0
 40
0.4999747561
 40
1.0
 40
1.0
 40
1.0
 40
1.0
 10
134.988486105
 20
936.1681917211
 30
0.0
 10
134.8609360023
 20
936.1681748742
 30
0.0
 10
134.5952083919
 20
936.2748851819
 30
0.0
 10
134.4884650628
 20
936.5406003077
 30
0.0
 10
134.4884615999
 20
936.6681632915
 30
0.0
  0
SPLINE
  5
486
100
AcDbEntity
  8
0
100
AcDbSpline
 62
7
  6
CONTINUOUS
 70
0
 71
3
 72
14
 73
10
 74
0
 42
0.0000001
 43
0.0000001
 44
0.0000000001
 40
0.0
 40
0.0
 40
0.0
 40
0.0
 40
0.3824965759
 40
0.5553742299
 40
0.7067826119
 40
0.8310310843
 40
0.9235255259
 40
0.98044012
 40
1.0
 40
1.0
 40
1.0
 40
1.0
 10
146.1762449154
 20
955.5681917211
 30
0.0
 10
146.1762449154
 20
955.606460295
 30
0.0
 10
146.1763789152
 20
955.6620867144
 30
0.0
 10
146.1771235205
 20
955.7326489843
 30
0.0
 10
146.1775064065
 20
955.7778719406
 30
0.0
 10
146.1789222158
 20
955.8137218376
 30
0.0
 10
146.1781578179
 20
955.8434219372
 30
0.0
 10
146.1818719086
 20
955.856071318
 30
0.0
 10
146.179523682
 20
955.8681917211
 30
0.0
 10
146.1814806373
 20
955.8681917211
 30
0.0
  0
SPLINE
  5
487
100
AcDbEntity
  8
0
100
AcDbSpline
 62
7
  6
CONTINUOUS
 70
0
 71
3
 72
9
 73
5
 74
0
 42
0.0000001
 43
0.0000001
 44
0.0000000001
 40
0.0
 40
0.0
 40
0.0
 40
0.0
 40
0.5000258365
 40
1.0
 40
1.0
 40
1.0
 40
1.0
 10
134.4884615999
 20
1007.0682126005
 30
0.0
 10
134.4884581391
 20
1007.1957752313
 30
0.0
 10
134.5952180143
 20
1007.4614800111
 30
0.0
 10
134.8609330512
 20
1007.5682130503
 30
0.0
 10
134.9884824978
 20
1007.5681917211
 30
0.0
  0
SPLINE
  5
488
100
AcDbEntity
  8
0
100
AcDbSpline
 62
7
  6
CONTINUOUS
 70
0
 71
3
 72
9
 73
5
 74
0
 42
0.0000001
 43
0.0000001
 44
0.0000000001
 40
0.0
 40
0.0
 40
0.0
 40
0.0
 40
0.6655427656
 40
1.0
 40
1.0
 40
1.0
 40
1.0
 10
134.9884616518
 20
936.1681917211
 30
0.0
 10
134.9884616518
 20
936.1021726481
 30
0.0
 10
134.9912678047
 20
936.0032263986
 30
0.0
 10
134.9885832187
 20
935.9035397942
 30
0.0
 10
134.9930268644
 20
935.8706619626
 30
0.0
  0
SPLINE
  5
489
100
AcDbEntity
  8
0
100
AcDbSpline
 62
7
  6
CONTINUOUS
 70
0
 71
3
 72
11
 73
7
 74
0
 42
0.0000001
 43
0.0000001
 44
0.0000000001
 40
0.0
 40
0.0
 40
0.0
 40
0.0
 40
0.0658909553
 40
0.2598491307
 40
0.5755089317
 40
1.0
 40
1.0
 40
1.0
 40
1.0
 10
130.5116240263
 20
985.907630471
 30
0.0
 10
130.5111016506
 20
985.9064812445
 30
0.0
 10
130.5193713458
 20
985.9053565011
 30
0.0
 10
130.5256846096
 20
985.8995336234
 30
0.0
 10
130.5439286607
 20
985.8925183267
 30
0.0
 10
130.5561352247
 20
985.8863505878
 30
0.0
 10
130.5635140231
 20
985.8829310332
 30
0.0
  0
SPLINE
  5
48A
100
AcDbEntity
  8
0
100
AcDbSpline
 62
7
  6
CONTINUOUS
 70
0
 71
3
 72
9
 73
5
 74
0
 42
0.0000001
 43
0.0000001
 44
0.0000000001
 40
0.0
 40
0.0
 40
0.0
 40
0.0
 40
0.3342416874
 40
1.0
 40
1.0
 40
1.0
 40
1.0
 10
134.9930270194
 20
1007.8657226055
 30
0.0
 10
134.988585214
 20
1007.832865973
 30
0.0
 10
134.9912688825
 20
1007.7331788764
 30
0.0
 10
134.9884616545
 20
1007.634232428
 30
0.0
 10
134.9884616545
 20
1007.5681917211
 30
0.0
  0
SPLINE
  5
48B
100
AcDbEntity
  8
0
100
AcDbSpline
 62
7
  6
CONTINUOUS
 70
0
 71
3
 72
9
 73
5
 74
0
 42
0.0000001
 43
0.0000001
 44
0.0000000001
 40
0.0
 40
0.0
 40
0.0
 40
0.0
 40
0.5000258476
 40
1.0
 40
1.0
 40
1.0
 40
1.0
 10
134.4884615999
 20
955.0682147105
 30
0.0
 10
134.4884644793
 20
955.195777851
 30
0.0
 10
134.5952038894
 20
955.461493644
 30
0.0
 10
134.8609307276
 20
955.5682082451
 30
0.0
 10
134.988480679
 20
955.5681917211
 30
0.0
  0
SPLINE
  5
48C
100
AcDbEntity
  8
0
100
AcDbSpline
 62
7
  6
CONTINUOUS
 70
0
 71
3
 72
14
 73
10
 74
0
 42
0.0000001
 43
0.0000001
 44
0.0000000001
 40
0.0
 40
0.0
 40
0.0
 40
0.0
 40
0.3824931411
 40
0.5553696047
 40
0.7067773731
 40
0.8310259391
 40
0.9235212851
 40
0.9804376202
 40
1.0
 40
1.0
 40
1.0
 40
1.0
 10
146.1762449154
 20
1007.5681917211
 30
0.0
 10
146.1762449154
 20
1007.6064599492
 30
0.0
 10
146.1763789103
 20
1007.6620858457
 30
0.0
 10
146.1771235091
 20
1007.732647726
 30
0.0
 10
146.1775063713
 20
1007.7778701826
 30
0.0
 10
146.1789222125
 20
1007.8137210153
 30
0.0
 10
146.1781576826
 20
1007.8434192706
 30
0.0
 10
146.1818720816
 20
1007.8560728857
 30
0.0
 10
146.1795233534
 20
1007.8681900234
 30
0.0
 10
146.181480558
 20
1007.8681917211
 30
0.0
  0
SPLINE
  5
48D
100
AcDbEntity
  8
0
100
AcDbSpline
 62
7
  6
CONTINUOUS
 70
0
 71
3
 72
9
 73
5
 74
0
 42
0.0000001
 43
0.0000001
 44
0.0000000001
 40
0.0
 40
0.0
 40
0.0
 40
0.0
 40
0.2828679615
 40
1.0
 40
1.0
 40
1.0
 40
1.0
 10
130.6902068405
 20
957.9115135601
 30
0.0
 10
130.6772412803
 20
957.905618328
 30
0.0
 10
130.6314238548
 20
957.8847365774
 30
0.0
 10
130.5856497618
 20
957.8637583594
 30
0.0
 10
130.5529095406
 20
957.8485293301
 30
0.0
  0
SPLINE
  5
48E
100
AcDbEntity
  8
0
100
AcDbSpline
 62
7
  6
CONTINUOUS
 70
0
 71
3
 72
11
 73
7
 74
0
 42
0.0000001
 43
0.0000001
 44
0.0000000001
 40
0.0
 40
0.0
 40
0.0
 40
0.0
 40
0.4275084641
 40
0.7425479831
 40
0.9349940974
 40
1.0
 40
1.0
 40
1.0
 40
1.0
 10
130.5529095406
 20
957.8485293301
 30
0.0
 10
130.5469937281
 20
957.8457776052
 30
0.0
 10
130.5372455136
 20
957.8408390246
 30
0.0
 10
130.5227195797
 20
957.8351998825
 30
0.0
 10
130.5177054291
 20
957.8306026769
 30
0.0
 10
130.5112134939
 20
957.8296561426
 30
0.0
 10
130.5116240263
 20
957.8287529712
 30
0.0
  0
SPLINE
  5
48F
100
AcDbEntity
  8
0
100
AcDbSpline
 62
7
  6
CONTINUOUS
 70
0
 71
3
 72
9
 73
5
 74
0
 42
0.0000001
 43
0.0000001
 44
0.0000000001
 40
0.0
 40
0.0
 40
0.0
 40
0.0
 40
0.6655512361
 40
1.0
 40
1.0
 40
1.0
 40
1.0
 10
134.9884616457
 20
988.1681917211
 30
0.0
 10
134.9884616457
 20
988.1021715561
 30
0.0
 10
134.9912687027
 20
988.003225063
 30
0.0
 10
134.9885824501
 20
987.9035378202
 30
0.0
 10
134.9930270111
 20
987.8706608325
 30
0.0
  0
SPLINE
  5
490
100
AcDbEntity
  8
0
100
AcDbSpline
 62
7
  6
CONTINUOUS
 70
0
 71
3
 72
9
 73
5
 74
0
 42
0.0000001
 43
0.0000001
 44
0.0000000001
 40
0.0
 40
0.0
 40
0.0
 40
0.0
 40
0.4999744507
 40
1.0
 40
1.0
 40
1.0
 40
1.0
 10
134.9884806826
 20
988.1681917211
 30
0.0
 10
134.860930656
 20
988.1681751631
 30
0.0
 10
134.5952037984
 20
988.2748898994
 30
0.0
 10
134.4884644954
 20
988.5406056594
 30
0.0
 10
134.4884615999
 20
988.668168723
 30
0.0
  0
SPLINE
  5
491
100
AcDbEntity
  8
0
100
AcDbSpline
 62
7
  6
CONTINUOUS
 70
0
 71
3
 72
14
 73
10
 74
0
 42
0.0000001
 43
0.0000001
 44
0.0000000001
 40
0.0
 40
0.0
 40
0.0
 40
0.0
 40
0.01955988
 40
0.0764744741
 40
0.1689689157
 40
0.2932173881
 40
0.4446257701
 40
0.6175034241
 40
1.0
 40
1.0
 40
1.0
 40
1.0
 10
146.1814806373
 20
987.8681917211
 30
0.0
 10
146.179523682
 20
987.8681917211
 30
0.0
 10
146.1818719086
 20
987.8803121243
 30
0.0
 10
146.1781578179
 20
987.8929615051
 30
0.0
 10
146.1789222158
 20
987.9226616046
 30
0.0
 10
146.1775064065
 20
987.9585115017
 30
0.0
 10
146.1771235205
 20
988.0037344579
 30
0.0
 10
146.1763789152
 20
988.0742967278
 30
0.0
 10
146.1762449154
 20
988.1299231473
 30
0.0
 10
146.1762449154
 20
988.1681917211
 30
0.0
  0
SPLINE
  5
492
100
AcDbEntity
  8
0
100
AcDbSpline
 62
7
  6
CONTINUOUS
 70
0
 71
3
 72
9
 73
5
 74
0
 42
0.0000001
 43
0.0000001
 44
0.0000000001
 40
0.0
 40
0.0
 40
0.0
 40
0.0
 40
0.4987382925
 40
1.0
 40
1.0
 40
1.0
 40
1.0
 10
134.4517497979
 20
411.0797237002
 30
0.0
 10
134.5239519758
 20
411.0132468519
 30
0.0
 10
134.695934744
 20
410.9070885041
 30
0.0
 10
134.8943870145
 20
410.8707730187
 30
0.0
 10
134.9930279443
 20
410.8706692164
 30
0.0
  0
SPLINE
  5
493
100
AcDbEntity
  8
0
100
AcDbSpline
 62
7
  6
CONTINUOUS
 70
0
 71
3
 72
8
 73
4
 74
0
 42
0.0000001
 43
0.0000001
 44
0.0000000001
 40
0.0
 40
0.0
 40
0.0
 40
0.0
 40
1.0
 40
1.0
 40
1.0
 40
1.0
 10
139.3880078829
 20
410.8681917212
 30
0.0
 10
137.9230139787
 20
410.8681919145
 30
0.0
 10
136.4580198412
 20
410.8690134936
 30
0.0
 10
134.9930268644
 20
410.8706619626
 30
0.0
  0
SPLINE
  5
494
100
AcDbEntity
  8
0
100
AcDbSpline
 62
7
  6
CONTINUOUS
 70
0
 71
3
 72
9
 73
5
 74
0
 42
0.0000001
 43
0.0000001
 44
0.0000000001
 40
0.0
 40
0.0
 40
0.0
 40
0.0
 40
0.4987408618
 40
1.0
 40
1.0
 40
1.0
 40
1.0
 10
134.451754472
 20
430.6566645176
 30
0.0
 10
134.523996425
 20
430.7231780834
 30
0.0
 10
134.6960864166
 20
430.8294032172
 30
0.0
 10
134.8946674063
 20
430.8656151489
 30
0.0
 10
134.993361737
 20
430.8657093216
 30
0.0
  0
SPLINE
  5
495
100
AcDbEntity
  8
0
100
AcDbSpline
 62
7
  6
CONTINUOUS
 70
0
 71
3
 72
8
 73
4
 74
0
 42
0.0000001
 43
0.0000001
 44
0.0000000001
 40
0.0
 40
0.0
 40
0.0
 40
0.0
 40
1.0
 40
1.0
 40
1.0
 40
1.0
 10
139.3876151987
 20
430.8681917211
 30
0.0
 10
137.9229744699
 20
430.8681914548
 30
0.0
 10
136.4583335002
 20
430.8673839635
 30
0.0
 10
134.9936936986
 20
430.8657358915
 30
0.0
  0
SPLINE
  5
496
100
AcDbEntity
  8
0
100
AcDbSpline
 62
7
  6
CONTINUOUS
 70
0
 71
3
 72
8
 73
4
 74
0
 42
0.0000001
 43
0.0000001
 44
0.0000000001
 40
0.0
 40
0.0
 40
0.0
 40
0.0
 40
1.0
 40
1.0
 40
1.0
 40
1.0
 10
134.9930270194
 20
482.8657226055
 30
0.0
 10
136.4580195352
 20
482.8673710835
 30
0.0
 10
137.9230132123
 20
482.8681914791
 30
0.0
 10
139.3880066556
 20
482.868191721
 30
0.0
  0
SPLINE
  5
497
100
AcDbEntity
  8
0
100
AcDbSpline
 62
7
  6
CONTINUOUS
 70
0
 71
3
 72
9
 73
5
 74
0
 42
0.0000001
 43
0.0000001
 44
0.0000000001
 40
0.0
 40
0.0
 40
0.0
 40
0.0
 40
0.498736292
 40
1.0
 40
1.0
 40
1.0
 40
1.0
 10
134.4517264569
 20
482.6566404995
 30
0.0
 10
134.5239691269
 20
482.723160406
 30
0.0
 10
134.6960685646
 20
482.829388064
 30
0.0
 10
134.8946607457
 20
482.8656223597
 30
0.0
 10
134.9933617379
 20
482.8657046825
 30
0.0
  0
SPLINE
  5
498
100
AcDbEntity
  8
0
100
AcDbSpline
 62
7
  6
CONTINUOUS
 70
0
 71
3
 72
9
 73
5
 74
0
 42
0.0000001
 43
0.0000001
 44
0.0000000001
 40
0.0
 40
0.0
 40
0.0
 40
0.0
 40
0.5012753054
 40
1.0
 40
1.0
 40
1.0
 40
1.0
 10
134.9930279206
 20
462.8706670224
 30
0.0
 10
134.8943834836
 20
462.870734155
 30
0.0
 10
134.6959358409
 20
462.9071302134
 30
0.0
 10
134.5239435173
 20
463.0132530561
 30
0.0
 10
134.4517432664
 20
463.0797292213
 30
0.0
  0
SPLINE
  5
499
100
AcDbEntity
  8
0
100
AcDbSpline
 62
7
  6
CONTINUOUS
 70
0
 71
3
 72
8
 73
4
 74
0
 42
0.0000001
 43
0.0000001
 44
0.0000000001
 40
0.0
 40
0.0
 40
0.0
 40
0.0
 40
1.0
 40
1.0
 40
1.0
 40
1.0
 10
139.3876138766
 20
462.8681917212
 30
0.0
 10
137.9227513569
 20
462.8681920544
 30
0.0
 10
136.4578886035
 20
462.8690125299
 30
0.0
 10
134.9930270111
 20
462.8706608325
 30
0.0
  0
SPLINE
  5
49A
100
AcDbEntity
  8
0
100
AcDbSpline
 62
7
  6
CONTINUOUS
 70
0
 71
3
 72
9
 73
5
 74
0
 42
0.0000001
 43
0.0000001
 44
0.0000000001
 40
0.0
 40
0.0
 40
0.0
 40
0.0
 40
0.3342519572
 40
1.0
 40
1.0
 40
1.0
 40
1.0
 10
134.9930267796
 20
430.8657212208
 30
0.0
 10
134.9885860964
 20
430.832863565
 30
0.0
 10
134.9912677223
 20
430.7331772506
 30
0.0
 10
134.9884616019
 20
430.6342311007
 30
0.0
 10
134.9884616019
 20
430.5681917211
 30
0.0
  0
SPLINE
  5
49B
100
AcDbEntity
  8
0
100
AcDbSpline
 62
7
  6
CONTINUOUS
 70
0
 71
3
 72
14
 73
10
 74
0
 42
0.0000001
 43
0.0000001
 44
0.0000000001
 40
0.0
 40
0.0
 40
0.0
 40
0.0
 40
0.01955988
 40
0.0764744741
 40
0.1689689157
 40
0.2932173881
 40
0.4446257701
 40
0.6175034241
 40
1.0
 40
1.0
 40
1.0
 40
1.0
 10
146.1814806373
 20
410.8681917211
 30
0.0
 10
146.179523682
 20
410.8681917211
 30
0.0
 10
146.1818719086
 20
410.8803121243
 30
0.0
 10
146.1781578179
 20
410.8929615051
 30
0.0
 10
146.1789222158
 20
410.9226616046
 30
0.0
 10
146.1775064065
 20
410.9585115017
 30
0.0
 10
146.1771235205
 20
411.0037344579
 30
0.0
 10
146.1763789152
 20
411.0742967278
 30
0.0
 10
146.1762449154
 20
411.1299231473
 30
0.0
 10
146.1762449154
 20
411.1681917211
 30
0.0
  0
SPLINE
  5
49C
100
AcDbEntity
  8
0
100
AcDbSpline
 62
7
  6
CONTINUOUS
 70
0
 71
3
 72
9
 73
5
 74
0
 42
0.0000001
 43
0.0000001
 44
0.0000000001
 40
0.0
 40
0.0
 40
0.0
 40
0.0
 40
0.4999747561
 40
1.0
 40
1.0
 40
1.0
 40
1.0
 10
134.988486105
 20
411.1681917211
 30
0.0
 10
134.8609360023
 20
411.1681748742
 30
0.0
 10
134.5952083919
 20
411.2748851819
 30
0.0
 10
134.4884650628
 20
411.5406003077
 30
0.0
 10
134.4884615999
 20
411.6681632915
 30
0.0
  0
SPLINE
  5
49D
100
AcDbEntity
  8
0
100
AcDbSpline
 62
7
  6
CONTINUOUS
 70
0
 71
3
 72
14
 73
10
 74
0
 42
0.0000001
 43
0.0000001
 44
0.0000000001
 40
0.0
 40
0.0
 40
0.0
 40
0.0
 40
0.3824965759
 40
0.5553742299
 40
0.7067826119
 40
0.8310310843
 40
0.9235255259
 40
0.98044012
 40
1.0
 40
1.0
 40
1.0
 40
1.0
 10
146.1762449154
 20
430.5681917211
 30
0.0
 10
146.1762449154
 20
430.606460295
 30
0.0
 10
146.1763789152
 20
430.6620867144
 30
0.0
 10
146.1771235205
 20
430.7326489843
 30
0.0
 10
146.1775064065
 20
430.7778719406
 30
0.0
 10
146.1789222158
 20
430.8137218376
 30
0.0
 10
146.1781578179
 20
430.8434219372
 30
0.0
 10
146.1818719086
 20
430.856071318
 30
0.0
 10
146.179523682
 20
430.8681917211
 30
0.0
 10
146.1814806373
 20
430.8681917211
 30
0.0
  0
SPLINE
  5
49E
100
AcDbEntity
  8
0
100
AcDbSpline
 62
7
  6
CONTINUOUS
 70
0
 71
3
 72
9
 73
5
 74
0
 42
0.0000001
 43
0.0000001
 44
0.0000000001
 40
0.0
 40
0.0
 40
0.0
 40
0.0
 40
0.5000258365
 40
1.0
 40
1.0
 40
1.0
 40
1.0
 10
134.4884615999
 20
482.0682126005
 30
0.0
 10
134.4884581391
 20
482.1957752313
 30
0.0
 10
134.5952180143
 20
482.4614800111
 30
0.0
 10
134.8609330512
 20
482.5682130503
 30
0.0
 10
134.9884824978
 20
482.5681917211
 30
0.0
  0
SPLINE
  5
49F
100
AcDbEntity
  8
0
100
AcDbSpline
 62
7
  6
CONTINUOUS
 70
0
 71
3
 72
9
 73
5
 74
0
 42
0.0000001
 43
0.0000001
 44
0.0000000001
 40
0.0
 40
0.0
 40
0.0
 40
0.0
 40
0.6655427656
 40
1.0
 40
1.0
 40
1.0
 40
1.0
 10
134.9884616518
 20
411.1681917211
 30
0.0
 10
134.9884616518
 20
411.1021726481
 30
0.0
 10
134.9912678047
 20
411.0032263986
 30
0.0
 10
134.9885832187
 20
410.9035397942
 30
0.0
 10
134.9930268644
 20
410.8706619626
 30
0.0
  0
SPLINE
  5
4A0
100
AcDbEntity
  8
0
100
AcDbSpline
 62
7
  6
CONTINUOUS
 70
0
 71
3
 72
11
 73
7
 74
0
 42
0.0000001
 43
0.0000001
 44
0.0000000001
 40
0.0
 40
0.0
 40
0.0
 40
0.0
 40
0.0658909553
 40
0.2598491307
 40
0.5755089317
 40
1.0
 40
1.0
 40
1.0
 40
1.0
 10
130.5116240263
 20
460.907630471
 30
0.0
 10
130.5111016506
 20
460.9064812445
 30
0.0
 10
130.5193713458
 20
460.9053565011
 30
0.0
 10
130.5256846096
 20
460.8995336234
 30
0.0
 10
130.5439286607
 20
460.8925183267
 30
0.0
 10
130.5561352247
 20
460.8863505878
 30
0.0
 10
130.5635140231
 20
460.8829310332
 30
0.0
  0
SPLINE
  5
4A1
100
AcDbEntity
  8
0
100
AcDbSpline
 62
7
  6
CONTINUOUS
 70
0
 71
3
 72
9
 73
5
 74
0
 42
0.0000001
 43
0.0000001
 44
0.0000000001
 40
0.0
 40
0.0
 40
0.0
 40
0.0
 40
0.3342416874
 40
1.0
 40
1.0
 40
1.0
 40
1.0
 10
134.9930270194
 20
482.8657226055
 30
0.0
 10
134.988585214
 20
482.832865973
 30
0.0
 10
134.9912688825
 20
482.7331788764
 30
0.0
 10
134.9884616545
 20
482.634232428
 30
0.0
 10
134.9884616545
 20
482.5681917211
 30
0.0
  0
SPLINE
  5
4A2
100
AcDbEntity
  8
0
100
AcDbSpline
 62
7
  6
CONTINUOUS
 70
0
 71
3
 72
9
 73
5
 74
0
 42
0.0000001
 43
0.0000001
 44
0.0000000001
 40
0.0
 40
0.0
 40
0.0
 40
0.0
 40
0.5000258476
 40
1.0
 40
1.0
 40
1.0
 40
1.0
 10
134.4884615999
 20
430.0682147105
 30
0.0
 10
134.4884644793
 20
430.195777851
 30
0.0
 10
134.5952038894
 20
430.461493644
 30
0.0
 10
134.8609307276
 20
430.5682082451
 30
0.0
 10
134.988480679
 20
430.5681917211
 30
0.0
  0
SPLINE
  5
4A3
100
AcDbEntity
  8
0
100
AcDbSpline
 62
7
  6
CONTINUOUS
 70
0
 71
3
 72
14
 73
10
 74
0
 42
0.0000001
 43
0.0000001
 44
0.0000000001
 40
0.0
 40
0.0
 40
0.0
 40
0.0
 40
0.3824931411
 40
0.5553696047
 40
0.7067773731
 40
0.8310259391
 40
0.9235212851
 40
0.9804376202
 40
1.0
 40
1.0
 40
1.0
 40
1.0
 10
146.1762449154
 20
482.5681917211
 30
0.0
 10
146.1762449154
 20
482.6064599492
 30
0.0
 10
146.1763789103
 20
482.6620858457
 30
0.0
 10
146.1771235091
 20
482.732647726
 30
0.0
 10
146.1775063713
 20
482.7778701826
 30
0.0
 10
146.1789222125
 20
482.8137210153
 30
0.0
 10
146.1781576826
 20
482.8434192706
 30
0.0
 10
146.1818720816
 20
482.8560728857
 30
0.0
 10
146.1795233534
 20
482.8681900234
 30
0.0
 10
146.181480558
 20
482.8681917211
 30
0.0
  0
SPLINE
  5
4A4
100
AcDbEntity
  8
0
100
AcDbSpline
 62
7
  6
CONTINUOUS
 70
0
 71
3
 72
9
 73
5
 74
0
 42
0.0000001
 43
0.0000001
 44
0.0000000001
 40
0.0
 40
0.0
 40
0.0
 40
0.0
 40
0.2828679615
 40
1.0
 40
1.0
 40
1.0
 40
1.0
 10
130.6902068405
 20
432.9115135601
 30
0.0
 10
130.6772412803
 20
432.905618328
 30
0.0
 10
130.6314238548
 20
432.8847365774
 30
0.0
 10
130.5856497618
 20
432.8637583594
 30
0.0
 10
130.5529095406
 20
432.8485293301
 30
0.0
  0
SPLINE
  5
4A5
100
AcDbEntity
  8
0
100
AcDbSpline
 62
7
  6
CONTINUOUS
 70
0
 71
3
 72
11
 73
7
 74
0
 42
0.0000001
 43
0.0000001
 44
0.0000000001
 40
0.0
 40
0.0
 40
0.0
 40
0.0
 40
0.4275084641
 40
0.7425479831
 40
0.9349940974
 40
1.0
 40
1.0
 40
1.0
 40
1.0
 10
130.5529095406
 20
432.8485293301
 30
0.0
 10
130.5469937281
 20
432.8457776052
 30
0.0
 10
130.5372455136
 20
432.8408390246
 30
0.0
 10
130.5227195797
 20
432.8351998825
 30
0.0
 10
130.5177054291
 20
432.8306026769
 30
0.0
 10
130.5112134939
 20
432.8296561426
 30
0.0
 10
130.5116240263
 20
432.8287529712
 30
0.0
  0
SPLINE
  5
4A6
100
AcDbEntity
  8
0
100
AcDbSpline
 62
7
  6
CONTINUOUS
 70
0
 71
3
 72
9
 73
5
 74
0
 42
0.0000001
 43
0.0000001
 44
0.0000000001
 40
0.0
 40
0.0
 40
0.0
 40
0.0
 40
0.6655512361
 40
1.0
 40
1.0
 40
1.0
 40
1.0
 10
134.9884616457
 20
463.1681917211
 30
0.0
 10
134.9884616457
 20
463.1021715561
 30
0.0
 10
134.9912687027
 20
463.003225063
 30
0.0
 10
134.9885824501
 20
462.9035378202
 30
0.0
 10
134.9930270111
 20
462.8706608325
 30
0.0
  0
SPLINE
  5
4A7
100
AcDbEntity
  8
0
100
AcDbSpline
 62
7
  6
CONTINUOUS
 70
0
 71
3
 72
9
 73
5
 74
0
 42
0.0000001
 43
0.0000001
 44
0.0000000001
 40
0.0
 40
0.0
 40
0.0
 40
0.0
 40
0.4999744507
 40
1.0
 40
1.0
 40
1.0
 40
1.0
 10
134.9884806826
 20
463.1681917211
 30
0.0
 10
134.860930656
 20
463.1681751631
 30
0.0
 10
134.5952037984
 20
463.2748898994
 30
0.0
 10
134.4884644954
 20
463.5406056594
 30
0.0
 10
134.4884615999
 20
463.668168723
 30
0.0
  0
SPLINE
  5
4A8
100
AcDbEntity
  8
0
100
AcDbSpline
 62
7
  6
CONTINUOUS
 70
0
 71
3
 72
14
 73
10
 74
0
 42
0.0000001
 43
0.0000001
 44
0.0000000001
 40
0.0
 40
0.0
 40
0.0
 40
0.0
 40
0.01955988
 40
0.0764744741
 40
0.1689689157
 40
0.2932173881
 40
0.4446257701
 40
0.6175034241
 40
1.0
 40
1.0
 40
1.0
 40
1.0
 10
146.1814806373
 20
462.8681917211
 30
0.0
 10
146.179523682
 20
462.8681917211
 30
0.0
 10
146.1818719086
 20
462.8803121243
 30
0.0
 10
146.1781578179
 20
462.8929615051
 30
0.0
 10
146.1789222158
 20
462.9226616046
 30
0.0
 10
146.1775064065
 20
462.9585115017
 30
0.0
 10
146.1771235205
 20
463.0037344579
 30
0.0
 10
146.1763789152
 20
463.0742967278
 30
0.0
 10
146.1762449154
 20
463.1299231473
 30
0.0
 10
146.1762449154
 20
463.1681917211
 30
0.0
  0
SPLINE
  5
4A9
100
AcDbEntity
  8
0
100
AcDbSpline
 62
7
  6
CONTINUOUS
 70
0
 71
3
 72
21
 73
17
 74
0
 42
0.0000001
 43
0.0000001
 44
0.0000000001
 40
0.0
 40
0.0
 40
0.0
 40
0.0
 40
0.0828105404
 40
0.1635846309
 40
0.2405532658
 40
0.3124951184
 40
0.3790314963
 40
0.4408926847
 40
0.5
 40
0.5591073153
 40
0.6209685037
 40
0.6875048816
 40
0.7594467342
 40
0.8364153691
 40
0.9171894596
 40
1.0
 40
1.0
 40
1.0
 40
1.0
 10
151.8921361758
 20
138.0681917211
 30
0.0
 10
151.8921361758
 20
138.3658264588
 30
0.0
 10
151.8458330672
 20
138.9548830988
 30
0.0
 10
151.6398237143
 20
139.7984851413
 30
0.0
 10
151.3068992986
 20
140.5589695522
 30
0.0
 10
150.861658511
 20
141.1994081459
 30
0.0
 10
150.3228356237
 20
141.6879539721
 30
0.0
 10
149.713336974
 20
141.9968073103
 30
0.0
 10
149.063709051
 20
142.1030713861
 30
0.0
 10
148.414081128
 20
141.9968073103
 30
0.0
 10
147.8045824784
 20
141.6879539721
 30
0.0
 10
147.2657595911
 20
141.1994081459
 30
0.0
 10
146.8205188035
 20
140.5589695522
 30
0.0
 10
146.4875943878
 20
139.7984851413
 30
0.0
 10
146.2815850349
 20
138.9548830988
 30
0.0
 10
146.2352819263
 20
138.3658264588
 30
0.0
 10
146.2352819263
 20
138.0681917211
 30
0.0
  0
SPLINE
  5
4AA
100
AcDbEntity
  8
0
100
AcDbSpline
 62
7
  6
CONTINUOUS
 70
0
 71
3
 72
21
 73
17
 74
0
 42
0.0000001
 43
0.0000001
 44
0.0000000001
 40
0.0
 40
0.0
 40
0.0
 40
0.0
 40
0.0828105404
 40
0.1635846309
 40
0.2405532658
 40
0.3124951184
 40
0.3790314963
 40
0.4408926847
 40
0.5
 40
0.5591073153
 40
0.6209685037
 40
0.6875048816
 40
0.7594467342
 40
0.8364153691
 40
0.9171894596
 40
1.0
 40
1.0
 40
1.0
 40
1.0
 10
130.9188235876
 20
138.0681917211
 30
0.0
 10
130.9188235876
 20
138.3658264588
 30
0.0
 10
130.9651266962
 20
138.9548830988
 30
0.0
 10
131.1711360491
 20
139.7984851413
 30
0.0
 10
131.5040604649
 20
140.5589695522
 30
0.0
 10
131.9493012524
 20
141.1994081459
 30
0.0
 10
132.4881241397
 20
141.6879539721
 30
0.0
 10
133.0976227894
 20
141.9968073103
 30
0.0
 10
133.7472507124
 20
142.1030713861
 30
0.0
 10
134.3968786354
 20
141.9968073103
 30
0.0
 10
135.0063772851
 20
141.6879539721
 30
0.0
 10
135.5452001724
 20
141.1994081459
 30
0.0
 10
135.9904409599
 20
140.5589695522
 30
0.0
 10
136.3233653757
 20
139.7984851413
 30
0.0
 10
136.5293747286
 20
138.9548830988
 30
0.0
 10
136.5756778371
 20
138.3658264588
 30
0.0
 10
136.5756778371
 20
138.0681917211
 30
0.0
  0
SPLINE
  5
4AB
100
AcDbEntity
  8
0
100
AcDbSpline
 62
7
  6
CONTINUOUS
 70
0
 71
3
 72
21
 73
17
 74
0
 42
0.0000001
 43
0.0000001
 44
0.0000000001
 40
0.0
 40
0.0
 40
0.0
 40
0.0
 40
0.0828105404
 40
0.1635846309
 40
0.2405532658
 40
0.3124951184
 40
0.3790314963
 40
0.4408926847
 40
0.5
 40
0.5591073153
 40
0.6209685037
 40
0.6875048816
 40
0.7594467342
 40
0.8364153691
 40
0.9171894596
 40
1.0
 40
1.0
 40
1.0
 40
1.0
 10
146.2352819263
 20
138.0681917211
 30
0.0
 10
146.2352819263
 20
137.7705569835
 30
0.0
 10
146.2815850349
 20
137.1815003435
 30
0.0
 10
146.4875943878
 20
136.3378983009
 30
0.0
 10
146.8205188035
 20
135.57741389
 30
0.0
 10
147.2657595911
 20
134.9369752963
 30
0.0
 10
147.8045824784
 20
134.4484294701
 30
0.0
 10
148.414081128
 20
134.139576132
 30
0.0
 10
149.063709051
 20
134.0333120562
 30
0.0
 10
149.713336974
 20
134.139576132
 30
0.0
 10
150.3228356237
 20
134.4484294701
 30
0.0
 10
150.861658511
 20
134.9369752963
 30
0.0
 10
151.3068992986
 20
135.57741389
 30
0.0
 10
151.6398237143
 20
136.3378983009
 30
0.0
 10
151.8458330672
 20
137.1815003435
 30
0.0
 10
151.8921361758
 20
137.7705569835
 30
0.0
 10
151.8921361758
 20
138.0681917211
 30
0.0
  0
SPLINE
  5
4AC
100
AcDbEntity
  8
0
100
AcDbSpline
 62
7
  6
CONTINUOUS
 70
0
 71
3
 72
21
 73
17
 74
0
 42
0.0000001
 43
0.0000001
 44
0.0000000001
 40
0.0
 40
0.0
 40
0.0
 40
0.0
 40
0.0828105404
 40
0.1635846309
 40
0.2405532658
 40
0.3124951184
 40
0.3790314963
 40
0.4408926847
 40
0.5
 40
0.5591073153
 40
0.6209685037
 40
0.6875048816
 40
0.7594467342
 40
0.8364153691
 40
0.9171894596
 40
1.0
 40
1.0
 40
1.0
 40
1.0
 10
136.5756778371
 20
138.0681917211
 30
0.0
 10
136.5756778371
 20
137.7705569835
 30
0.0
 10
136.5293747286
 20
137.1815003435
 30
0.0
 10
136.3233653757
 20
136.3378983009
 30
0.0
 10
135.9904409599
 20
135.57741389
 30
0.0
 10
135.5452001724
 20
134.9369752963
 30
0.0
 10
135.0063772851
 20
134.4484294701
 30
0.0
 10
134.3968786354
 20
134.139576132
 30
0.0
 10
133.7472507124
 20
134.0333120562
 30
0.0
 10
133.0976227894
 20
134.139576132
 30
0.0
 10
132.4881241397
 20
134.4484294701
 30
0.0
 10
131.9493012524
 20
134.9369752963
 30
0.0
 10
131.5040604649
 20
135.57741389
 30
0.0
 10
131.1711360491
 20
136.3378983009
 30
0.0
 10
130.9651266962
 20
137.1815003435
 30
0.0
 10
130.9188235876
 20
137.7705569835
 30
0.0
 10
130.9188235876
 20
138.0681917211
 30
0.0
  0
SPLINE
  5
4AD
100
AcDbEntity
  8
0
100
AcDbSpline
 62
7
  6
CONTINUOUS
 70
0
 71
3
 72
21
 73
17
 74
0
 42
0.0000001
 43
0.0000001
 44
0.0000000001
 40
0.0
 40
0.0
 40
0.0
 40
0.0
 40
0.0828105404
 40
0.1635846309
 40
0.2405532658
 40
0.3124951184
 40
0.3790314963
 40
0.4408926847
 40
0.5
 40
0.5591073153
 40
0.6209685037
 40
0.6875048816
 40
0.7594467342
 40
0.8364153691
 40
0.9171894596
 40
1.0
 40
1.0
 40
1.0
 40
1.0
 10
146.2352819263
 20
1280.6681917211
 30
0.0
 10
146.2352819263
 20
1280.3705569835
 30
0.0
 10
146.2815850349
 20
1279.7815003435
 30
0.0
 10
146.4875943878
 20
1278.9378983009
 30
0.0
 10
146.8205188035
 20
1278.17741389
 30
0.0
 10
147.2657595911
 20
1277.5369752963
 30
0.0
 10
147.8045824784
 20
1277.0484294701
 30
0.0
 10
148.414081128
 20
1276.739576132
 30
0.0
 10
149.063709051
 20
1276.6333120561
 30
0.0
 10
149.713336974
 20
1276.739576132
 30
0.0
 10
150.3228356237
 20
1277.0484294701
 30
0.0
 10
150.861658511
 20
1277.5369752963
 30
0.0
 10
151.3068992986
 20
1278.17741389
 30
0.0
 10
151.6398237143
 20
1278.9378983009
 30
0.0
 10
151.8458330672
 20
1279.7815003435
 30
0.0
 10
151.8921361758
 20
1280.3705569835
 30
0.0
 10
151.8921361758
 20
1280.6681917211
 30
0.0
  0
SPLINE
  5
4AE
100
AcDbEntity
  8
0
100
AcDbSpline
 62
7
  6
CONTINUOUS
 70
0
 71
3
 72
21
 73
17
 74
0
 42
0.0000001
 43
0.0000001
 44
0.0000000001
 40
0.0
 40
0.0
 40
0.0
 40
0.0
 40
0.0828105404
 40
0.1635846309
 40
0.2405532658
 40
0.3124951184
 40
0.3790314963
 40
0.4408926847
 40
0.5
 40
0.5591073153
 40
0.6209685037
 40
0.6875048816
 40
0.7594467342
 40
0.8364153691
 40
0.9171894596
 40
1.0
 40
1.0
 40
1.0
 40
1.0
 10
136.5756778371
 20
1280.6681917211
 30
0.0
 10
136.5756778371
 20
1280.3705569835
 30
0.0
 10
136.5293747286
 20
1279.7815003435
 30
0.0
 10
136.3233653757
 20
1278.9378983009
 30
0.0
 10
135.9904409599
 20
1278.17741389
 30
0.0
 10
135.5452001724
 20
1277.5369752963
 30
0.0
 10
135.0063772851
 20
1277.0484294701
 30
0.0
 10
134.3968786354
 20
1276.739576132
 30
0.0
 10
133.7472507124
 20
1276.6333120562
 30
0.0
 10
133.0976227894
 20
1276.739576132
 30
0.0
 10
132.4881241397
 20
1277.0484294701
 30
0.0
 10
131.9493012524
 20
1277.5369752963
 30
0.0
 10
131.5040604649
 20
1278.17741389
 30
0.0
 10
131.1711360491
 20
1278.9378983009
 30
0.0
 10
130.9651266962
 20
1279.7815003435
 30
0.0
 10
130.9188235876
 20
1280.3705569835
 30
0.0
 10
130.9188235876
 20
1280.6681917211
 30
0.0
  0
SPLINE
  5
4AF
100
AcDbEntity
  8
0
100
AcDbSpline
 62
7
  6
CONTINUOUS
 70
0
 71
3
 72
21
 73
17
 74
0
 42
0.0000001
 43
0.0000001
 44
0.0000000001
 40
0.0
 40
0.0
 40
0.0
 40
0.0
 40
0.0828105404
 40
0.1635846309
 40
0.2405532658
 40
0.3124951184
 40
0.3790314963
 40
0.4408926847
 40
0.5
 40
0.5591073153
 40
0.6209685037
 40
0.6875048816
 40
0.7594467342
 40
0.8364153691
 40
0.9171894596
 40
1.0
 40
1.0
 40
1.0
 40
1.0
 10
151.8921361758
 20
1280.6681917211
 30
0.0
 10
151.8921361758
 20
1280.9658264588
 30
0.0
 10
151.8458330672
 20
1281.5548830988
 30
0.0
 10
151.6398237143
 20
1282.3984851413
 30
0.0
 10
151.3068992986
 20
1283.1589695522
 30
0.0
 10
150.861658511
 20
1283.7994081459
 30
0.0
 10
150.3228356237
 20
1284.2879539721
 30
0.0
 10
149.713336974
 20
1284.5968073103
 30
0.0
 10
149.063709051
 20
1284.7030713861
 30
0.0
 10
148.414081128
 20
1284.5968073103
 30
0.0
 10
147.8045824784
 20
1284.2879539721
 30
0.0
 10
147.2657595911
 20
1283.7994081459
 30
0.0
 10
146.8205188035
 20
1283.1589695522
 30
0.0
 10
146.4875943878
 20
1282.3984851413
 30
0.0
 10
146.2815850349
 20
1281.5548830988
 30
0.0
 10
146.2352819263
 20
1280.9658264588
 30
0.0
 10
146.2352819263
 20
1280.6681917211
 30
0.0
  0
SPLINE
  5
4B0
100
AcDbEntity
  8
0
100
AcDbSpline
 62
7
  6
CONTINUOUS
 70
0
 71
3
 72
21
 73
17
 74
0
 42
0.0000001
 43
0.0000001
 44
0.0000000001
 40
0.0
 40
0.0
 40
0.0
 40
0.0
 40
0.0828105404
 40
0.1635846309
 40
0.2405532658
 40
0.3124951184
 40
0.3790314963
 40
0.4408926847
 40
0.5
 40
0.5591073153
 40
0.6209685037
 40
0.6875048816
 40
0.7594467342
 40
0.8364153691
 40
0.9171894596
 40
1.0
 40
1.0
 40
1.0
 40
1.0
 10
130.9188235876
 20
1280.6681917211
 30
0.0
 10
130.9188235876
 20
1280.9658264588
 30
0.0
 10
130.9651266962
 20
1281.5548830988
 30
0.0
 10
131.1711360491
 20
1282.3984851413
 30
0.0
 10
131.5040604649
 20
1283.1589695522
 30
0.0
 10
131.9493012524
 20
1283.7994081459
 30
0.0
 10
132.4881241397
 20
1284.2879539721
 30
0.0
 10
133.0976227894
 20
1284.5968073103
 30
0.0
 10
133.7472507124
 20
1284.7030713861
 30
0.0
 10
134.3968786354
 20
1284.5968073103
 30
0.0
 10
135.0063772851
 20
1284.2879539721
 30
0.0
 10
135.5452001724
 20
1283.7994081459
 30
0.0
 10
135.9904409599
 20
1283.1589695522
 30
0.0
 10
136.3233653757
 20
1282.3984851413
 30
0.0
 10
136.5293747286
 20
1281.5548830988
 30
0.0
 10
136.5756778371
 20
1280.9658264588
 30
0.0
 10
136.5756778371
 20
1280.6681917211
 30
0.0
  0
SPLINE
  5
4B1
100
AcDbEntity
  8
0
100
AcDbSpline
 62
7
  6
CONTINUOUS
 70
0
 71
3
 72
21
 73
17
 74
0
 42
0.0000001
 43
0.0000001
 44
0.0000000001
 40
0.0
 40
0.0
 40
0.0
 40
0.0
 40
0.0828105404
 40
0.1635846309
 40
0.2405532658
 40
0.3124951184
 40
0.3790314963
 40
0.4408926847
 40
0.5
 40
0.5591073153
 40
0.6209685037
 40
0.6875048816
 40
0.7594467342
 40
0.8364153691
 40
0.9171894596
 40
1.0
 40
1.0
 40
1.0
 40
1.0
 10
874.5521127173
 20
1280.6681917211
 30
0.0
 10
874.5521127173
 20
1280.3705569835
 30
0.0
 10
874.5058096087
 20
1279.7815003435
 30
0.0
 10
874.2998002558
 20
1278.9378983009
 30
0.0
 10
873.9668758401
 20
1278.17741389
 30
0.0
 10
873.5216350525
 20
1277.5369752963
 30
0.0
 10
872.9828121652
 20
1277.0484294701
 30
0.0
 10
872.3733135156
 20
1276.739576132
 30
0.0
 10
871.7236855926
 20
1276.6333120562
 30
0.0
 10
871.0740576696
 20
1276.739576132
 30
0.0
 10
870.4645590199
 20
1277.0484294701
 30
0.0
 10
869.9257361326
 20
1277.5369752963
 30
0.0
 10
869.480495345
 20
1278.17741389
 30
0.0
 10
869.1475709293
 20
1278.9378983009
 30
0.0
 10
868.9415615764
 20
1279.7815003435
 30
0.0
 10
868.8952584678
 20
1280.3705569835
 30
0.0
 10
868.8952584678
 20
1280.6681917211
 30
0.0
  0
SPLINE
  5
4B2
100
AcDbEntity
  8
0
100
AcDbSpline
 62
7
  6
CONTINUOUS
 70
0
 71
3
 72
21
 73
17
 74
0
 42
0.0000001
 43
0.0000001
 44
0.0000000001
 40
0.0
 40
0.0
 40
0.0
 40
0.0
 40
0.0828105404
 40
0.1635846309
 40
0.2405532658
 40
0.3124951184
 40
0.3790314963
 40
0.4408926847
 40
0.5
 40
0.5591073153
 40
0.6209685037
 40
0.6875048816
 40
0.7594467342
 40
0.8364153691
 40
0.9171894596
 40
1.0
 40
1.0
 40
1.0
 40
1.0
 10
884.2117168065
 20
1280.6681917211
 30
0.0
 10
884.2117168065
 20
1280.3705569835
 30
0.0
 10
884.258019915
 20
1279.7815003435
 30
0.0
 10
884.4640292679
 20
1278.9378983009
 30
0.0
 10
884.7969536837
 20
1278.17741389
 30
0.0
 10
885.2421944712
 20
1277.5369752963
 30
0.0
 10
885.7810173585
 20
1277.0484294701
 30
0.0
 10
886.3905160082
 20
1276.739576132
 30
0.0
 10
887.0401439312
 20
1276.6333120561
 30
0.0
 10
887.6897718542
 20
1276.739576132
 30
0.0
 10
888.2992705039
 20
1277.0484294701
 30
0.0
 10
888.8380933912
 20
1277.5369752963
 30
0.0
 10
889.2833341787
 20
1278.17741389
 30
0.0
 10
889.6162585945
 20
1278.9378983009
 30
0.0
 10
889.8222679474
 20
1279.7815003435
 30
0.0
 10
889.868571056
 20
1280.3705569835
 30
0.0
 10
889.868571056
 20
1280.6681917211
 30
0.0
  0
SPLINE
  5
4B3
100
AcDbEntity
  8
0
100
AcDbSpline
 62
7
  6
CONTINUOUS
 70
0
 71
3
 72
21
 73
17
 74
0
 42
0.0000001
 43
0.0000001
 44
0.0000000001
 40
0.0
 40
0.0
 40
0.0
 40
0.0
 40
0.0828105404
 40
0.1635846309
 40
0.2405532658
 40
0.3124951184
 40
0.3790314963
 40
0.4408926847
 40
0.5
 40
0.5591073153
 40
0.6209685037
 40
0.6875048816
 40
0.7594467342
 40
0.8364153691
 40
0.9171894596
 40
1.0
 40
1.0
 40
1.0
 40
1.0
 10
868.8952584678
 20
1280.6681917211
 30
0.0
 10
868.8952584678
 20
1280.9658264588
 30
0.0
 10
868.9415615764
 20
1281.5548830988
 30
0.0
 10
869.1475709293
 20
1282.3984851413
 30
0.0
 10
869.480495345
 20
1283.1589695522
 30
0.0
 10
869.9257361326
 20
1283.7994081459
 30
0.0
 10
870.4645590199
 20
1284.2879539721
 30
0.0
 10
871.0740576696
 20
1284.5968073103
 30
0.0
 10
871.7236855926
 20
1284.7030713861
 30
0.0
 10
872.3733135156
 20
1284.5968073103
 30
0.0
 10
872.9828121652
 20
1284.2879539721
 30
0.0
 10
873.5216350525
 20
1283.7994081459
 30
0.0
 10
873.9668758401
 20
1283.1589695522
 30
0.0
 10
874.2998002558
 20
1282.3984851413
 30
0.0
 10
874.5058096087
 20
1281.5548830988
 30
0.0
 10
874.5521127173
 20
1280.9658264588
 30
0.0
 10
874.5521127173
 20
1280.6681917211
 30
0.0
  0
SPLINE
  5
4B4
100
AcDbEntity
  8
0
100
AcDbSpline
 62
7
  6
CONTINUOUS
 70
0
 71
3
 72
21
 73
17
 74
0
 42
0.0000001
 43
0.0000001
 44
0.0000000001
 40
0.0
 40
0.0
 40
0.0
 40
0.0
 40
0.0828105404
 40
0.1635846309
 40
0.2405532658
 40
0.3124951184
 40
0.3790314963
 40
0.4408926847
 40
0.5
 40
0.5591073153
 40
0.6209685037
 40
0.6875048816
 40
0.7594467342
 40
0.8364153691
 40
0.9171894596
 40
1.0
 40
1.0
 40
1.0
 40
1.0
 10
889.868571056
 20
1280.6681917211
 30
0.0
 10
889.868571056
 20
1280.9658264588
 30
0.0
 10
889.8222679474
 20
1281.5548830988
 30
0.0
 10
889.6162585945
 20
1282.3984851413
 30
0.0
 10
889.2833341787
 20
1283.1589695522
 30
0.0
 10
888.8380933912
 20
1283.7994081459
 30
0.0
 10
888.2992705039
 20
1284.2879539721
 30
0.0
 10
887.6897718542
 20
1284.5968073103
 30
0.0
 10
887.0401439312
 20
1284.7030713861
 30
0.0
 10
886.3905160082
 20
1284.5968073103
 30
0.0
 10
885.7810173585
 20
1284.2879539721
 30
0.0
 10
885.2421944712
 20
1283.7994081459
 30
0.0
 10
884.7969536837
 20
1283.1589695522
 30
0.0
 10
884.4640292679
 20
1282.3984851413
 30
0.0
 10
884.258019915
 20
1281.5548830988
 30
0.0
 10
884.2117168065
 20
1280.9658264588
 30
0.0
 10
884.2117168065
 20
1280.6681917211
 30
0.0
  0
SPLINE
  5
4B5
100
AcDbEntity
  8
0
100
AcDbSpline
 62
7
  6
CONTINUOUS
 70
0
 71
3
 72
21
 73
17
 74
0
 42
0.0000001
 43
0.0000001
 44
0.0000000001
 40
0.0
 40
0.0
 40
0.0
 40
0.0
 40
0.0828105404
 40
0.1635846309
 40
0.2405532658
 40
0.3124951184
 40
0.3790314963
 40
0.4408926847
 40
0.5
 40
0.5591073153
 40
0.6209685037
 40
0.6875048816
 40
0.7594467342
 40
0.8364153691
 40
0.9171894596
 40
1.0
 40
1.0
 40
1.0
 40
1.0
 10
868.8952584678
 20
138.0681917211
 30
0.0
 10
868.8952584678
 20
138.3658264588
 30
0.0
 10
868.9415615764
 20
138.9548830988
 30
0.0
 10
869.1475709293
 20
139.7984851413
 30
0.0
 10
869.480495345
 20
140.5589695522
 30
0.0
 10
869.9257361326
 20
141.1994081459
 30
0.0
 10
870.4645590199
 20
141.6879539721
 30
0.0
 10
871.0740576696
 20
141.9968073103
 30
0.0
 10
871.7236855926
 20
142.1030713861
 30
0.0
 10
872.3733135156
 20
141.9968073103
 30
0.0
 10
872.9828121652
 20
141.6879539721
 30
0.0
 10
873.5216350525
 20
141.1994081459
 30
0.0
 10
873.9668758401
 20
140.5589695522
 30
0.0
 10
874.2998002558
 20
139.7984851413
 30
0.0
 10
874.5058096087
 20
138.9548830988
 30
0.0
 10
874.5521127173
 20
138.3658264588
 30
0.0
 10
874.5521127173
 20
138.0681917211
 30
0.0
  0
SPLINE
  5
4B6
100
AcDbEntity
  8
0
100
AcDbSpline
 62
7
  6
CONTINUOUS
 70
0
 71
3
 72
21
 73
17
 74
0
 42
0.0000001
 43
0.0000001
 44
0.0000000001
 40
0.0
 40
0.0
 40
0.0
 40
0.0
 40
0.0828105404
 40
0.1635846309
 40
0.2405532658
 40
0.3124951184
 40
0.3790314963
 40
0.4408926847
 40
0.5
 40
0.5591073153
 40
0.6209685037
 40
0.6875048816
 40
0.7594467342
 40
0.8364153691
 40
0.9171894596
 40
1.0
 40
1.0
 40
1.0
 40
1.0
 10
889.868571056
 20
138.0681917211
 30
0.0
 10
889.868571056
 20
138.3658264588
 30
0.0
 10
889.8222679474
 20
138.9548830988
 30
0.0
 10
889.6162585945
 20
139.7984851413
 30
0.0
 10
889.2833341787
 20
140.5589695522
 30
0.0
 10
888.8380933912
 20
141.1994081459
 30
0.0
 10
888.2992705039
 20
141.6879539721
 30
0.0
 10
887.6897718542
 20
141.9968073103
 30
0.0
 10
887.0401439312
 20
142.1030713861
 30
0.0
 10
886.3905160082
 20
141.9968073103
 30
0.0
 10
885.7810173585
 20
141.6879539721
 30
0.0
 10
885.2421944712
 20
141.1994081459
 30
0.0
 10
884.7969536837
 20
140.5589695522
 30
0.0
 10
884.4640292679
 20
139.7984851413
 30
0.0
 10
884.258019915
 20
138.9548830988
 30
0.0
 10
884.2117168065
 20
138.3658264588
 30
0.0
 10
884.2117168065
 20
138.0681917211
 30
0.0
  0
SPLINE
  5
4B7
100
AcDbEntity
  8
0
100
AcDbSpline
 62
7
  6
CONTINUOUS
 70
0
 71
3
 72
21
 73
17
 74
0
 42
0.0000001
 43
0.0000001
 44
0.0000000001
 40
0.0
 40
0.0
 40
0.0
 40
0.0
 40
0.0828105404
 40
0.1635846309
 40
0.2405532658
 40
0.3124951184
 40
0.3790314963
 40
0.4408926847
 40
0.5
 40
0.5591073153
 40
0.6209685037
 40
0.6875048816
 40
0.7594467342
 40
0.8364153691
 40
0.9171894596
 40
1.0
 40
1.0
 40
1.0
 40
1.0
 10
874.5521127173
 20
138.0681917211
 30
0.0
 10
874.5521127173
 20
137.7705569835
 30
0.0
 10
874.5058096087
 20
137.1815003435
 30
0.0
 10
874.2998002558
 20
136.3378983009
 30
0.0
 10
873.9668758401
 20
135.57741389
 30
0.0
 10
873.5216350525
 20
134.9369752963
 30
0.0
 10
872.9828121652
 20
134.4484294701
 30
0.0
 10
872.3733135156
 20
134.139576132
 30
0.0
 10
871.7236855926
 20
134.0333120562
 30
0.0
 10
871.0740576696
 20
134.139576132
 30
0.0
 10
870.4645590199
 20
134.4484294701
 30
0.0
 10
869.9257361326
 20
134.9369752963
 30
0.0
 10
869.480495345
 20
135.57741389
 30
0.0
 10
869.1475709293
 20
136.3378983009
 30
0.0
 10
868.9415615764
 20
137.1815003435
 30
0.0
 10
868.8952584678
 20
137.7705569835
 30
0.0
 10
868.8952584678
 20
138.0681917211
 30
0.0
  0
SPLINE
  5
4B8
100
AcDbEntity
  8
0
100
AcDbSpline
 62
7
  6
CONTINUOUS
 70
0
 71
3
 72
21
 73
17
 74
0
 42
0.0000001
 43
0.0000001
 44
0.0000000001
 40
0.0
 40
0.0
 40
0.0
 40
0.0
 40
0.0828105404
 40
0.1635846309
 40
0.2405532658
 40
0.3124951184
 40
0.3790314963
 40
0.4408926847
 40
0.5
 40
0.5591073153
 40
0.6209685037
 40
0.6875048816
 40
0.7594467342
 40
0.8364153691
 40
0.9171894596
 40
1.0
 40
1.0
 40
1.0
 40
1.0
 10
884.2117168065
 20
138.0681917211
 30
0.0
 10
884.2117168065
 20
137.7705569835
 30
0.0
 10
884.258019915
 20
137.1815003435
 30
0.0
 10
884.4640292679
 20
136.3378983009
 30
0.0
 10
884.7969536837
 20
135.57741389
 30
0.0
 10
885.2421944712
 20
134.9369752963
 30
0.0
 10
885.7810173585
 20
134.4484294701
 30
0.0
 10
886.3905160082
 20
134.139576132
 30
0.0
 10
887.0401439312
 20
134.0333120562
 30
0.0
 10
887.6897718542
 20
134.139576132
 30
0.0
 10
888.2992705039
 20
134.4484294701
 30
0.0
 10
888.8380933912
 20
134.9369752963
 30
0.0
 10
889.2833341787
 20
135.57741389
 30
0.0
 10
889.6162585945
 20
136.3378983009
 30
0.0
 10
889.8222679474
 20
137.1815003435
 30
0.0
 10
889.868571056
 20
137.7705569835
 30
0.0
 10
889.868571056
 20
138.0681917211
 30
0.0
  0
SPLINE
  5
4B9
100
AcDbEntity
  8
0
100
AcDbSpline
 62
7
  6
CONTINUOUS
 70
0
 71
3
 72
23
 73
19
 74
0
 42
0.0000001
 43
0.0000001
 44
0.0000000001
 40
0.0
 40
0.0
 40
0.0
 40
0.0
 40
0.0725125904
 40
0.1436522423
 40
0.2121827066
 40
0.2771463858
 40
0.338014309
 40
0.3948364803
 40
0.4483559497
 40
0.5
 40
0.5516440503
 40
0.6051635197
 40
0.661985691
 40
0.7228536142
 40
0.7878172934
 40
0.8563477577
 40
0.9274874096
 40
1.0
 40
1.0
 40
1.0
 40
1.0
 10
882.5964931173
 20
138.0681917211
 30
0.0
 10
882.5964931173
 20
138.2767921167
 30
0.0
 10
882.6250195109
 20
138.6906340945
 30
0.0
 10
882.7522468112
 20
139.2896794799
 30
0.0
 10
882.9592242129
 20
139.8433134697
 30
0.0
 10
883.2386933856
 20
140.3307781459
 30
0.0
 10
883.5811233976
 20
140.7337811431
 30
0.0
 10
883.9750563081
 20
141.0364092346
 30
0.0
 10
884.4068089447
 20
141.225077206
 30
0.0
 10
884.8592348171
 20
141.2893645403
 30
0.0
 10
885.3116606896
 20
141.225077206
 30
0.0
 10
885.7434133262
 20
141.0364092346
 30
0.0
 10
886.1373462366
 20
140.7337811431
 30
0.0
 10
886.4797762486
 20
140.3307781459
 30
0.0
 10
886.7592454214
 20
139.8433134697
 30
0.0
 10
886.966222823
 20
139.2896794799
 30
0.0
 10
887.0934501233
 20
138.6906340945
 30
0.0
 10
887.1219765169
 20
138.2767921167
 30
0.0
 10
887.1219765169
 20
138.0681917211
 30
0.0
  0
SPLINE
  5
4BA
100
AcDbEntity
  8
0
100
AcDbSpline
 62
7
  6
CONTINUOUS
 70
0
 71
3
 72
23
 73
19
 74
0
 42
0.0000001
 43
0.0000001
 44
0.0000000001
 40
0.0
 40
0.0
 40
0.0
 40
0.0
 40
0.0725125904
 40
0.1436522423
 40
0.2121827066
 40
0.2771463858
 40
0.338014309
 40
0.3948364803
 40
0.4483559497
 40
0.5
 40
0.5516440503
 40
0.6051635197
 40
0.661985691
 40
0.7228536142
 40
0.7878172934
 40
0.8563477577
 40
0.9274874096
 40
1.0
 40
1.0
 40
1.0
 40
1.0
 10
862.3732391754
 20
138.0681917211
 30
0.0
 10
862.3732391754
 20
138.2767921167
 30
0.0
 10
862.3447127818
 20
138.6906340945
 30
0.0
 10
862.2174854815
 20
139.2896794799
 30
0.0
 10
862.0105080798
 20
139.8433134697
 30
0.0
 10
861.7310389071
 20
140.3307781459
 30
0.0
 10
861.3886088951
 20
140.7337811431
 30
0.0
 10
860.9946759847
 20
141.0364092346
 30
0.0
 10
860.562923348
 20
141.225077206
 30
0.0
 10
860.1104974756
 20
141.2893645403
 30
0.0
 10
859.6580716032
 20
141.225077206
 30
0.0
 10
859.2263189665
 20
141.0364092346
 30
0.0
 10
858.8323860561
 20
140.7337811431
 30
0.0
 10
858.4899560441
 20
140.3307781459
 30
0.0
 10
858.2104868714
 20
139.8433134697
 30
0.0
 10
858.0035094697
 20
139.2896794799
 30
0.0
 10
857.8762821694
 20
138.6906340945
 30
0.0
 10
857.8477557758
 20
138.2767921167
 30
0.0
 10
857.8477557758
 20
138.0681917211
 30
0.0
  0
SPLINE
  5
4BB
100
AcDbEntity
  8
0
100
AcDbSpline
 62
7
  6
CONTINUOUS
 70
0
 71
3
 72
23
 73
19
 74
0
 42
0.0000001
 43
0.0000001
 44
0.0000000001
 40
0.0
 40
0.0
 40
0.0
 40
0.0
 40
0.0725125904
 40
0.1436522423
 40
0.2121827066
 40
0.2771463858
 40
0.338014309
 40
0.3948364803
 40
0.4483559497
 40
0.5
 40
0.5516440503
 40
0.6051635197
 40
0.661985691
 40
0.7228536142
 40
0.7878172934
 40
0.8563477577
 40
0.9274874096
 40
1.0
 40
1.0
 40
1.0
 40
1.0
 10
887.1219765169
 20
138.0681917211
 30
0.0
 10
887.1219765169
 20
137.8595913255
 30
0.0
 10
887.0934501233
 20
137.4457493477
 30
0.0
 10
886.966222823
 20
136.8467039624
 30
0.0
 10
886.7592454214
 20
136.2930699726
 30
0.0
 10
886.4797762486
 20
135.8056052963
 30
0.0
 10
886.1373462366
 20
135.4026022992
 30
0.0
 10
885.7434133262
 20
135.0999742076
 30
0.0
 10
885.3116606896
 20
134.9113062363
 30
0.0
 10
884.8592348171
 20
134.8470189019
 30
0.0
 10
884.4068089447
 20
134.9113062363
 30
0.0
 10
883.9750563081
 20
135.0999742076
 30
0.0
 10
883.5811233976
 20
135.4026022992
 30
0.0
 10
883.2386933856
 20
135.8056052963
 30
0.0
 10
882.9592242129
 20
136.2930699726
 30
0.0
 10
882.7522468112
 20
136.8467039624
 30
0.0
 10
882.6250195109
 20
137.4457493477
 30
0.0
 10
882.5964931173
 20
137.8595913255
 30
0.0
 10
882.5964931173
 20
138.0681917211
 30
0.0
  0
SPLINE
  5
4BC
100
AcDbEntity
  8
0
100
AcDbSpline
 62
7
  6
CONTINUOUS
 70
0
 71
3
 72
23
 73
19
 74
0
 42
0.0000001
 43
0.0000001
 44
0.0000000001
 40
0.0
 40
0.0
 40
0.0
 40
0.0
 40
0.0725125904
 40
0.1436522423
 40
0.2121827066
 40
0.2771463858
 40
0.338014309
 40
0.3948364803
 40
0.4483559497
 40
0.5
 40
0.5516440503
 40
0.6051635197
 40
0.661985691
 40
0.7228536142
 40
0.7878172934
 40
0.8563477577
 40
0.9274874096
 40
1.0
 40
1.0
 40
1.0
 40
1.0
 10
857.8477557758
 20
138.0681917211
 30
0.0
 10
857.8477557758
 20
137.8595913255
 30
0.0
 10
857.8762821694
 20
137.4457493477
 30
0.0
 10
858.0035094697
 20
136.8467039624
 30
0.0
 10
858.2104868714
 20
136.2930699726
 30
0.0
 10
858.4899560441
 20
135.8056052963
 30
0.0
 10
858.8323860561
 20
135.4026022992
 30
0.0
 10
859.2263189665
 20
135.0999742076
 30
0.0
 10
859.6580716032
 20
134.9113062363
 30
0.0
 10
860.1104974756
 20
134.8470189019
 30
0.0
 10
860.562923348
 20
134.9113062363
 30
0.0
 10
860.9946759847
 20
135.0999742076
 30
0.0
 10
861.3886088951
 20
135.4026022992
 30
0.0
 10
861.7310389071
 20
135.8056052963
 30
0.0
 10
862.0105080798
 20
136.2930699726
 30
0.0
 10
862.2174854815
 20
136.8467039624
 30
0.0
 10
862.3447127818
 20
137.4457493477
 30
0.0
 10
862.3732391754
 20
137.8595913255
 30
0.0
 10
862.3732391754
 20
138.0681917211
 30
0.0
  0
SPLINE
  5
4BD
100
AcDbEntity
  8
0
100
AcDbSpline
 62
7
  6
CONTINUOUS
 70
0
 71
3
 72
23
 73
19
 74
0
 42
0.0000001
 43
0.0000001
 44
0.0000000001
 40
0.0
 40
0.0
 40
0.0
 40
0.0
 40
0.0725125904
 40
0.1436522423
 40
0.2121827066
 40
0.2771463858
 40
0.338014309
 40
0.3948364803
 40
0.4483559497
 40
0.5
 40
0.5516440503
 40
0.6051635197
 40
0.661985691
 40
0.7228536142
 40
0.7878172934
 40
0.8563477577
 40
0.9274874096
 40
1.0
 40
1.0
 40
1.0
 40
1.0
 10
133.6654181267
 20
138.0681917211
 30
0.0
 10
133.6654181267
 20
138.2767921167
 30
0.0
 10
133.6939445203
 20
138.6906340945
 30
0.0
 10
133.8211718205
 20
139.2896794799
 30
0.0
 10
134.0281492222
 20
139.8433134697
 30
0.0
 10
134.3076183949
 20
140.3307781459
 30
0.0
 10
134.650048407
 20
140.7337811431
 30
0.0
 10
135.0439813174
 20
141.0364092346
 30
0.0
 10
135.475733954
 20
141.225077206
 30
0.0
 10
135.9281598265
 20
141.2893645403
 30
0.0
 10
136.3805856989
 20
141.225077206
 30
0.0
 10
136.8123383355
 20
141.0364092346
 30
0.0
 10
137.206271246
 20
140.7337811431
 30
0.0
 10
137.548701258
 20
140.3307781459
 30
0.0
 10
137.8281704307
 20
139.8433134697
 30
0.0
 10
138.0351478324
 20
139.2896794799
 30
0.0
 10
138.1623751327
 20
138.6906340945
 30
0.0
 10
138.1909015263
 20
138.2767921167
 30
0.0
 10
138.1909015263
 20
138.0681917211
 30
0.0
  0
SPLINE
  5
4BE
100
AcDbEntity
  8
0
100
AcDbSpline
 62
7
  6
CONTINUOUS
 70
0
 71
3
 72
23
 73
19
 74
0
 42
0.0000001
 43
0.0000001
 44
0.0000000001
 40
0.0
 40
0.0
 40
0.0
 40
0.0
 40
0.0725125904
 40
0.1436522423
 40
0.2121827066
 40
0.2771463858
 40
0.338014309
 40
0.3948364803
 40
0.4483559497
 40
0.5
 40
0.5516440503
 40
0.6051635197
 40
0.661985691
 40
0.7228536142
 40
0.7878172934
 40
0.8563477577
 40
0.9274874096
 40
1.0
 40
1.0
 40
1.0
 40
1.0
 10
162.9396388678
 20
138.0681917211
 30
0.0
 10
162.9396388678
 20
138.2767921167
 30
0.0
 10
162.9111124742
 20
138.6906340945
 30
0.0
 10
162.7838851739
 20
139.2896794799
 30
0.0
 10
162.5769077722
 20
139.8433134697
 30
0.0
 10
162.2974385995
 20
140.3307781459
 30
0.0
 10
161.9550085875
 20
140.7337811431
 30
0.0
 10
161.5610756771
 20
141.0364092346
 30
0.0
 10
161.1293230404
 20
141.225077206
 30
0.0
 10
160.676897168
 20
141.2893645403
 30
0.0
 10
160.2244712956
 20
141.225077206
 30
0.0
 10
159.7927186589
 20
141.0364092346
 30
0.0
 10
159.3987857485
 20
140.7337811431
 30
0.0
 10
159.0563557365
 20
140.3307781459
 30
0.0
 10
158.7768865638
 20
139.8433134697
 30
0.0
 10
158.5699091621
 20
139.2896794799
 30
0.0
 10
158.4426818618
 20
138.6906340945
 30
0.0
 10
158.4141554682
 20
138.2767921167
 30
0.0
 10
158.4141554682
 20
138.0681917211
 30
0.0
  0
SPLINE
  5
4BF
100
AcDbEntity
  8
0
100
AcDbSpline
 62
7
  6
CONTINUOUS
 70
0
 71
3
 72
23
 73
19
 74
0
 42
0.0000001
 43
0.0000001
 44
0.0000000001
 40
0.0
 40
0.0
 40
0.0
 40
0.0
 40
0.0725125904
 40
0.1436522423
 40
0.2121827066
 40
0.2771463858
 40
0.338014309
 40
0.3948364803
 40
0.4483559497
 40
0.5
 40
0.5516440503
 40
0.6051635197
 40
0.661985691
 40
0.7228536142
 40
0.7878172934
 40
0.8563477577
 40
0.9274874096
 40
1.0
 40
1.0
 40
1.0
 40
1.0
 10
138.1909015263
 20
138.0681917211
 30
0.0
 10
138.1909015263
 20
137.8595913255
 30
0.0
 10
138.1623751327
 20
137.4457493477
 30
0.0
 10
138.0351478324
 20
136.8467039624
 30
0.0
 10
137.8281704307
 20
136.2930699726
 30
0.0
 10
137.548701258
 20
135.8056052963
 30
0.0
 10
137.206271246
 20
135.4026022992
 30
0.0
 10
136.8123383355
 20
135.0999742076
 30
0.0
 10
136.3805856989
 20
134.9113062363
 30
0.0
 10
135.9281598265
 20
134.8470189019
 30
0.0
 10
135.475733954
 20
134.9113062363
 30
0.0
 10
135.0439813174
 20
135.0999742076
 30
0.0
 10
134.650048407
 20
135.4026022992
 30
0.0
 10
134.3076183949
 20
135.8056052963
 30
0.0
 10
134.0281492222
 20
136.2930699726
 30
0.0
 10
133.8211718205
 20
136.8467039624
 30
0.0
 10
133.6939445203
 20
137.4457493477
 30
0.0
 10
133.6654181267
 20
137.8595913255
 30
0.0
 10
133.6654181267
 20
138.0681917211
 30
0.0
  0
SPLINE
  5
4C0
100
AcDbEntity
  8
0
100
AcDbSpline
 62
7
  6
CONTINUOUS
 70
0
 71
3
 72
23
 73
19
 74
0
 42
0.0000001
 43
0.0000001
 44
0.0000000001
 40
0.0
 40
0.0
 40
0.0
 40
0.0
 40
0.0725125904
 40
0.1436522423
 40
0.2121827066
 40
0.2771463858
 40
0.338014309
 40
0.3948364803
 40
0.4483559497
 40
0.5
 40
0.5516440503
 40
0.6051635197
 40
0.661985691
 40
0.7228536142
 40
0.7878172934
 40
0.8563477577
 40
0.9274874096
 40
1.0
 40
1.0
 40
1.0
 40
1.0
 10
158.4141554682
 20
138.0681917211
 30
0.0
 10
158.4141554682
 20
137.8595913255
 30
0.0
 10
158.4426818618
 20
137.4457493477
 30
0.0
 10
158.5699091621
 20
136.8467039624
 30
0.0
 10
158.7768865638
 20
136.2930699726
 30
0.0
 10
159.0563557365
 20
135.8056052963
 30
0.0
 10
159.3987857485
 20
135.4026022992
 30
0.0
 10
159.7927186589
 20
135.0999742076
 30
0.0
 10
160.2244712956
 20
134.9113062363
 30
0.0
 10
160.676897168
 20
134.8470189019
 30
0.0
 10
161.1293230404
 20
134.9113062363
 30
0.0
 10
161.5610756771
 20
135.0999742076
 30
0.0
 10
161.9550085875
 20
135.4026022992
 30
0.0
 10
162.2974385995
 20
135.8056052963
 30
0.0
 10
162.5769077722
 20
136.2930699726
 30
0.0
 10
162.7838851739
 20
136.8467039624
 30
0.0
 10
162.9111124742
 20
137.4457493477
 30
0.0
 10
162.9396388678
 20
137.8595913255
 30
0.0
 10
162.9396388678
 20
138.0681917211
 30
0.0
  0
SPLINE
  5
4C1
100
AcDbEntity
  8
0
100
AcDbSpline
 62
7
  6
CONTINUOUS
 70
0
 71
3
 72
23
 73
19
 74
0
 42
0.0000001
 43
0.0000001
 44
0.0000000001
 40
0.0
 40
0.0
 40
0.0
 40
0.0
 40
0.0725125904
 40
0.1436522423
 40
0.2121827066
 40
0.2771463858
 40
0.338014309
 40
0.3948364803
 40
0.4483559497
 40
0.5
 40
0.5516440503
 40
0.6051635197
 40
0.661985691
 40
0.7228536142
 40
0.7878172934
 40
0.8563477577
 40
0.9274874096
 40
1.0
 40
1.0
 40
1.0
 40
1.0
 10
882.5964931173
 20
1280.6681917211
 30
0.0
 10
882.5964931173
 20
1280.8767921167
 30
0.0
 10
882.6250195109
 20
1281.2906340945
 30
0.0
 10
882.7522468112
 20
1281.8896794799
 30
0.0
 10
882.9592242129
 20
1282.4433134697
 30
0.0
 10
883.2386933856
 20
1282.9307781459
 30
0.0
 10
883.5811233976
 20
1283.3337811431
 30
0.0
 10
883.9750563081
 20
1283.6364092346
 30
0.0
 10
884.4068089447
 20
1283.825077206
 30
0.0
 10
884.8592348171
 20
1283.8893645403
 30
0.0
 10
885.3116606896
 20
1283.825077206
 30
0.0
 10
885.7434133262
 20
1283.6364092346
 30
0.0
 10
886.1373462366
 20
1283.3337811431
 30
0.0
 10
886.4797762486
 20
1282.9307781459
 30
0.0
 10
886.7592454214
 20
1282.4433134697
 30
0.0
 10
886.9662228231
 20
1281.8896794799
 30
0.0
 10
887.0934501233
 20
1281.2906340945
 30
0.0
 10
887.1219765169
 20
1280.8767921167
 30
0.0
 10
887.1219765169
 20
1280.6681917211
 30
0.0
  0
SPLINE
  5
4C2
100
AcDbEntity
  8
0
100
AcDbSpline
 62
7
  6
CONTINUOUS
 70
0
 71
3
 72
23
 73
19
 74
0
 42
0.0000001
 43
0.0000001
 44
0.0000000001
 40
0.0
 40
0.0
 40
0.0
 40
0.0
 40
0.0725125904
 40
0.1436522423
 40
0.2121827066
 40
0.2771463858
 40
0.338014309
 40
0.3948364803
 40
0.4483559497
 40
0.5
 40
0.5516440503
 40
0.6051635197
 40
0.661985691
 40
0.7228536142
 40
0.7878172934
 40
0.8563477577
 40
0.9274874096
 40
1.0
 40
1.0
 40
1.0
 40
1.0
 10
862.3732391754
 20
1280.6681917211
 30
0.0
 10
862.3732391754
 20
1280.8767921167
 30
0.0
 10
862.3447127818
 20
1281.2906340945
 30
0.0
 10
862.2174854815
 20
1281.8896794799
 30
0.0
 10
862.0105080798
 20
1282.4433134697
 30
0.0
 10
861.7310389071
 20
1282.9307781459
 30
0.0
 10
861.3886088951
 20
1283.3337811431
 30
0.0
 10
860.9946759847
 20
1283.6364092346
 30
0.0
 10
860.562923348
 20
1283.825077206
 30
0.0
 10
860.1104974756
 20
1283.8893645403
 30
0.0
 10
859.6580716032
 20
1283.825077206
 30
0.0
 10
859.2263189665
 20
1283.6364092346
 30
0.0
 10
858.8323860561
 20
1283.3337811431
 30
0.0
 10
858.4899560441
 20
1282.9307781459
 30
0.0
 10
858.2104868714
 20
1282.4433134697
 30
0.0
 10
858.0035094697
 20
1281.8896794799
 30
0.0
 10
857.8762821694
 20
1281.2906340945
 30
0.0
 10
857.8477557758
 20
1280.8767921167
 30
0.0
 10
857.8477557758
 20
1280.6681917211
 30
0.0
  0
SPLINE
  5
4C3
100
AcDbEntity
  8
0
100
AcDbSpline
 62
7
  6
CONTINUOUS
 70
0
 71
3
 72
23
 73
19
 74
0
 42
0.0000001
 43
0.0000001
 44
0.0000000001
 40
0.0
 40
0.0
 40
0.0
 40
0.0
 40
0.0725125904
 40
0.1436522423
 40
0.2121827066
 40
0.2771463858
 40
0.338014309
 40
0.3948364803
 40
0.4483559497
 40
0.5
 40
0.5516440503
 40
0.6051635197
 40
0.661985691
 40
0.7228536142
 40
0.7878172934
 40
0.8563477577
 40
0.9274874096
 40
1.0
 40
1.0
 40
1.0
 40
1.0
 10
887.1219765169
 20
1280.6681917211
 30
0.0
 10
887.1219765169
 20
1280.4595913255
 30
0.0
 10
887.0934501233
 20
1280.0457493477
 30
0.0
 10
886.9662228231
 20
1279.4467039624
 30
0.0
 10
886.7592454214
 20
1278.8930699726
 30
0.0
 10
886.4797762486
 20
1278.4056052963
 30
0.0
 10
886.1373462366
 20
1278.0026022992
 30
0.0
 10
885.7434133262
 20
1277.6999742076
 30
0.0
 10
885.3116606896
 20
1277.5113062363
 30
0.0
 10
884.8592348171
 20
1277.4470189019
 30
0.0
 10
884.4068089447
 20
1277.5113062363
 30
0.0
 10
883.9750563081
 20
1277.6999742076
 30
0.0
 10
883.5811233976
 20
1278.0026022992
 30
0.0
 10
883.2386933856
 20
1278.4056052963
 30
0.0
 10
882.9592242129
 20
1278.8930699726
 30
0.0
 10
882.7522468112
 20
1279.4467039624
 30
0.0
 10
882.6250195109
 20
1280.0457493477
 30
0.0
 10
882.5964931173
 20
1280.4595913255
 30
0.0
 10
882.5964931173
 20
1280.6681917211
 30
0.0
  0
SPLINE
  5
4C4
100
AcDbEntity
  8
0
100
AcDbSpline
 62
7
  6
CONTINUOUS
 70
0
 71
3
 72
23
 73
19
 74
0
 42
0.0000001
 43
0.0000001
 44
0.0000000001
 40
0.0
 40
0.0
 40
0.0
 40
0.0
 40
0.0725125904
 40
0.1436522423
 40
0.2121827066
 40
0.2771463858
 40
0.338014309
 40
0.3948364803
 40
0.4483559497
 40
0.5
 40
0.5516440503
 40
0.6051635197
 40
0.661985691
 40
0.7228536142
 40
0.7878172934
 40
0.8563477577
 40
0.9274874096
 40
1.0
 40
1.0
 40
1.0
 40
1.0
 10
857.8477557758
 20
1280.6681917211
 30
0.0
 10
857.8477557758
 20
1280.4595913255
 30
0.0
 10
857.8762821694
 20
1280.0457493477
 30
0.0
 10
858.0035094697
 20
1279.4467039624
 30
0.0
 10
858.2104868714
 20
1278.8930699726
 30
0.0
 10
858.4899560441
 20
1278.4056052963
 30
0.0
 10
858.8323860561
 20
1278.0026022992
 30
0.0
 10
859.2263189665
 20
1277.6999742076
 30
0.0
 10
859.6580716032
 20
1277.5113062363
 30
0.0
 10
860.1104974756
 20
1277.4470189019
 30
0.0
 10
860.562923348
 20
1277.5113062363
 30
0.0
 10
860.9946759847
 20
1277.6999742076
 30
0.0
 10
861.3886088951
 20
1278.0026022992
 30
0.0
 10
861.7310389071
 20
1278.4056052963
 30
0.0
 10
862.0105080798
 20
1278.8930699726
 30
0.0
 10
862.2174854815
 20
1279.4467039624
 30
0.0
 10
862.3447127818
 20
1280.0457493477
 30
0.0
 10
862.3732391754
 20
1280.4595913255
 30
0.0
 10
862.3732391754
 20
1280.6681917211
 30
0.0
  0
SPLINE
  5
4C5
100
AcDbEntity
  8
0
100
AcDbSpline
 62
7
  6
CONTINUOUS
 70
0
 71
3
 72
23
 73
19
 74
0
 42
0.0000001
 43
0.0000001
 44
0.0000000001
 40
0.0
 40
0.0
 40
0.0
 40
0.0
 40
0.0725125904
 40
0.1436522423
 40
0.2121827066
 40
0.2771463858
 40
0.338014309
 40
0.3948364803
 40
0.4483559497
 40
0.5
 40
0.5516440503
 40
0.6051635197
 40
0.661985691
 40
0.7228536142
 40
0.7878172934
 40
0.8563477577
 40
0.9274874096
 40
1.0
 40
1.0
 40
1.0
 40
1.0
 10
138.1909015263
 20
1280.6681917211
 30
0.0
 10
138.1909015263
 20
1280.8767921167
 30
0.0
 10
138.1623751327
 20
1281.2906340945
 30
0.0
 10
138.0351478324
 20
1281.8896794799
 30
0.0
 10
137.8281704307
 20
1282.4433134697
 30
0.0
 10
137.548701258
 20
1282.9307781459
 30
0.0
 10
137.206271246
 20
1283.3337811431
 30
0.0
 10
136.8123383355
 20
1283.6364092346
 30
0.0
 10
136.3805856989
 20
1283.825077206
 30
0.0
 10
135.9281598265
 20
1283.8893645403
 30
0.0
 10
135.475733954
 20
1283.825077206
 30
0.0
 10
135.0439813174
 20
1283.6364092346
 30
0.0
 10
134.650048407
 20
1283.3337811431
 30
0.0
 10
134.3076183949
 20
1282.9307781459
 30
0.0
 10
134.0281492222
 20
1282.4433134697
 30
0.0
 10
133.8211718205
 20
1281.8896794799
 30
0.0
 10
133.6939445203
 20
1281.2906340945
 30
0.0
 10
133.6654181267
 20
1280.8767921167
 30
0.0
 10
133.6654181267
 20
1280.6681917211
 30
0.0
  0
SPLINE
  5
4C6
100
AcDbEntity
  8
0
100
AcDbSpline
 62
7
  6
CONTINUOUS
 70
0
 71
3
 72
23
 73
19
 74
0
 42
0.0000001
 43
0.0000001
 44
0.0000000001
 40
0.0
 40
0.0
 40
0.0
 40
0.0
 40
0.0725125904
 40
0.1436522423
 40
0.2121827066
 40
0.2771463858
 40
0.338014309
 40
0.3948364803
 40
0.4483559497
 40
0.5
 40
0.5516440503
 40
0.6051635197
 40
0.661985691
 40
0.7228536142
 40
0.7878172934
 40
0.8563477577
 40
0.9274874096
 40
1.0
 40
1.0
 40
1.0
 40
1.0
 10
158.4141554682
 20
1280.6681917211
 30
0.0
 10
158.4141554682
 20
1280.8767921167
 30
0.0
 10
158.4426818618
 20
1281.2906340945
 30
0.0
 10
158.5699091621
 20
1281.8896794799
 30
0.0
 10
158.7768865638
 20
1282.4433134697
 30
0.0
 10
159.0563557365
 20
1282.9307781459
 30
0.0
 10
159.3987857485
 20
1283.3337811431
 30
0.0
 10
159.7927186589
 20
1283.6364092346
 30
0.0
 10
160.2244712956
 20
1283.825077206
 30
0.0
 10
160.676897168
 20
1283.8893645403
 30
0.0
 10
161.1293230404
 20
1283.825077206
 30
0.0
 10
161.5610756771
 20
1283.6364092346
 30
0.0
 10
161.9550085875
 20
1283.3337811431
 30
0.0
 10
162.2974385995
 20
1282.9307781459
 30
0.0
 10
162.5769077722
 20
1282.4433134697
 30
0.0
 10
162.7838851739
 20
1281.8896794799
 30
0.0
 10
162.9111124742
 20
1281.2906340945
 30
0.0
 10
162.9396388678
 20
1280.8767921167
 30
0.0
 10
162.9396388678
 20
1280.6681917211
 30
0.0
  0
SPLINE
  5
4C7
100
AcDbEntity
  8
0
100
AcDbSpline
 62
7
  6
CONTINUOUS
 70
0
 71
3
 72
23
 73
19
 74
0
 42
0.0000001
 43
0.0000001
 44
0.0000000001
 40
0.0
 40
0.0
 40
0.0
 40
0.0
 40
0.0725125904
 40
0.1436522423
 40
0.2121827066
 40
0.2771463858
 40
0.338014309
 40
0.3948364803
 40
0.4483559497
 40
0.5
 40
0.5516440503
 40
0.6051635197
 40
0.661985691
 40
0.7228536142
 40
0.7878172934
 40
0.8563477577
 40
0.9274874096
 40
1.0
 40
1.0
 40
1.0
 40
1.0
 10
133.6654181267
 20
1280.6681917211
 30
0.0
 10
133.6654181267
 20
1280.4595913255
 30
0.0
 10
133.6939445203
 20
1280.0457493477
 30
0.0
 10
133.8211718205
 20
1279.4467039624
 30
0.0
 10
134.0281492222
 20
1278.8930699726
 30
0.0
 10
134.3076183949
 20
1278.4056052963
 30
0.0
 10
134.650048407
 20
1278.0026022992
 30
0.0
 10
135.0439813174
 20
1277.6999742076
 30
0.0
 10
135.475733954
 20
1277.5113062363
 30
0.0
 10
135.9281598265
 20
1277.4470189019
 30
0.0
 10
136.3805856989
 20
1277.5113062363
 30
0.0
 10
136.8123383355
 20
1277.6999742076
 30
0.0
 10
137.206271246
 20
1278.0026022992
 30
0.0
 10
137.548701258
 20
1278.4056052963
 30
0.0
 10
137.8281704307
 20
1278.8930699726
 30
0.0
 10
138.0351478324
 20
1279.4467039624
 30
0.0
 10
138.1623751327
 20
1280.0457493477
 30
0.0
 10
138.1909015263
 20
1280.4595913255
 30
0.0
 10
138.1909015263
 20
1280.6681917211
 30
0.0
  0
SPLINE
  5
4C8
100
AcDbEntity
  8
0
100
AcDbSpline
 62
7
  6
CONTINUOUS
 70
0
 71
3
 72
23
 73
19
 74
0
 42
0.0000001
 43
0.0000001
 44
0.0000000001
 40
0.0
 40
0.0
 40
0.0
 40
0.0
 40
0.0725125904
 40
0.1436522423
 40
0.2121827066
 40
0.2771463858
 40
0.338014309
 40
0.3948364803
 40
0.4483559497
 40
0.5
 40
0.5516440503
 40
0.6051635197
 40
0.661985691
 40
0.7228536142
 40
0.7878172934
 40
0.8563477577
 40
0.9274874096
 40
1.0
 40
1.0
 40
1.0
 40
1.0
 10
162.9396388678
 20
1280.6681917211
 30
0.0
 10
162.9396388678
 20
1280.4595913255
 30
0.0
 10
162.9111124742
 20
1280.0457493477
 30
0.0
 10
162.7838851739
 20
1279.4467039624
 30
0.0
 10
162.5769077722
 20
1278.8930699726
 30
0.0
 10
162.2974385995
 20
1278.4056052963
 30
0.0
 10
161.9550085875
 20
1278.0026022992
 30
0.0
 10
161.5610756771
 20
1277.6999742076
 30
0.0
 10
161.1293230404
 20
1277.5113062363
 30
0.0
 10
160.676897168
 20
1277.4470189019
 30
0.0
 10
160.2244712956
 20
1277.5113062363
 30
0.0
 10
159.7927186589
 20
1277.6999742076
 30
0.0
 10
159.3987857485
 20
1278.0026022992
 30
0.0
 10
159.0563557365
 20
1278.4056052963
 30
0.0
 10
158.7768865638
 20
1278.8930699726
 30
0.0
 10
158.5699091621
 20
1279.4467039624
 30
0.0
 10
158.4426818618
 20
1280.0457493477
 30
0.0
 10
158.4141554682
 20
1280.4595913255
 30
0.0
 10
158.4141554682
 20
1280.6681917211
 30
0.0
  0
ELLIPSE
  5
4C9
100
AcDbEntity
  8
0
100
AcDbEllipse
 62
7
  6
CONTINUOUS
 10
134.4936973218
 20
1202.2561920945
 30
0.0
 11
0.0
 21
0.8242432258
 31
0.0
 40
0.3639702343
 41
0.0174532925
 42
1.5707963268
  0
ELLIPSE
  5
4CA
100
AcDbEntity
  8
0
100
AcDbEllipse
 62
7
  6
CONTINUOUS
 10
146.1936973218
 20
1190.8426169619
 30
0.0
 11
0.0
 21
2.7474774195
 31
0.0
 40
0.3639702343
 41
-3.1590459461
 42
-1.5707963268
  0
ELLIPSE
  5
4CB
100
AcDbEntity
  8
0
100
AcDbEllipse
 62
7
  6
CONTINUOUS
 10
146.1936973218
 20
1252.8937664803
 30
0.0
 11
0.0
 21
2.7474774195
 31
0.0
 40
0.3639702343
 41
-1.5707963268
 42
0.0174532925
  0
ELLIPSE
  5
4CC
100
AcDbEntity
  8
0
100
AcDbEllipse
 62
7
  6
CONTINUOUS
 10
134.4936973218
 20
1254.2561920945
 30
0.0
 11
0.0
 21
0.8242432258
 31
0.0
 40
0.3639702343
 41
0.0174532925
 42
1.5707963268
  0
ELLIPSE
  5
4CD
100
AcDbEntity
  8
0
100
AcDbEllipse
 62
7
  6
CONTINUOUS
 10
134.4936973218
 20
1189.4801913477
 30
0.0
 11
-0.0
 21
0.8242432258
 31
0.0
 40
0.3639702343
 41
1.5707963268
 42
3.1241393611
  0
ELLIPSE
  5
4CE
100
AcDbEntity
  8
0
100
AcDbEllipse
 62
7
  6
CONTINUOUS
 10
134.4936973218
 20
1241.4801913477
 30
0.0
 11
0.0
 21
0.8242432258
 31
0.0
 40
0.3639702343
 41
1.5707963268
 42
3.1241393611
  0
ELLIPSE
  5
4CF
100
AcDbEntity
  8
0
100
AcDbEllipse
 62
7
  6
CONTINUOUS
 10
146.1936973218
 20
1200.8937664803
 30
0.0
 11
0.0
 21
2.7474774195
 31
0.0
 40
0.3639702343
 41
-1.5707963268
 42
0.0174532925
  0
ELLIPSE
  5
4D0
100
AcDbEntity
  8
0
100
AcDbEllipse
 62
7
  6
CONTINUOUS
 10
146.1936973218
 20
1242.8426169619
 30
0.0
 11
0.0
 21
2.7474774195
 31
0.0
 40
0.3639702343
 41
-3.1590459461
 42
-1.5707963268
  0
ELLIPSE
  5
4D1
100
AcDbEntity
  8
0
100
AcDbEllipse
 62
7
  6
CONTINUOUS
 10
134.4936973218
 20
177.2561920945
 30
0.0
 11
0.0
 21
0.8242432258
 31
0.0
 40
0.3639702343
 41
0.0174532925
 42
1.5707963268
  0
ELLIPSE
  5
4D2
100
AcDbEntity
  8
0
100
AcDbEllipse
 62
7
  6
CONTINUOUS
 10
146.1936973218
 20
165.8426169619
 30
0.0
 11
-0.0
 21
2.7474774195
 31
0.0
 40
0.3639702343
 41
-3.1590459461
 42
-1.5707963268
  0
ELLIPSE
  5
4D3
100
AcDbEntity
  8
0
100
AcDbEllipse
 62
7
  6
CONTINUOUS
 10
146.1936973218
 20
227.8937664803
 30
0.0
 11
-0.0
 21
2.7474774195
 31
0.0
 40
0.3639702343
 41
-1.5707963268
 42
0.0174532925
  0
ELLIPSE
  5
4D4
100
AcDbEntity
  8
0
100
AcDbEllipse
 62
7
  6
CONTINUOUS
 10
134.4936973218
 20
229.2561920945
 30
0.0
 11
0.0
 21
0.8242432258
 31
0.0
 40
0.3639702343
 41
0.0174532925
 42
1.5707963268
  0
ELLIPSE
  5
4D5
100
AcDbEntity
  8
0
100
AcDbEllipse
 62
7
  6
CONTINUOUS
 10
134.4936973218
 20
164.4801913477
 30
0.0
 11
-0.0
 21
0.8242432258
 31
0.0
 40
0.3639702343
 41
1.5707963268
 42
3.1241393611
  0
ELLIPSE
  5
4D6
100
AcDbEntity
  8
0
100
AcDbEllipse
 62
7
  6
CONTINUOUS
 10
134.4936973218
 20
216.4801913477
 30
0.0
 11
-0.0
 21
0.8242432258
 31
0.0
 40
0.3639702343
 41
1.5707963268
 42
3.1241393611
  0
ELLIPSE
  5
4D7
100
AcDbEntity
  8
0
100
AcDbEllipse
 62
7
  6
CONTINUOUS
 10
146.1936973218
 20
175.8937664803
 30
0.0
 11
-0.0
 21
2.7474774195
 31
0.0
 40
0.3639702343
 41
-1.5707963268
 42
0.0174532925
  0
ELLIPSE
  5
4D8
100
AcDbEntity
  8
0
100
AcDbEllipse
 62
7
  6
CONTINUOUS
 10
146.1936973218
 20
217.8426169619
 30
0.0
 11
-0.0
 21
2.7474774195
 31
0.0
 40
0.3639702343
 41
-3.1590459461
 42
-1.5707963268
  0
ELLIPSE
  5
4D9
100
AcDbEntity
  8
0
100
AcDbEllipse
 62
7
  6
CONTINUOUS
 10
134.4936973218
 20
952.2561920945
 30
0.0
 11
0.0
 21
0.8242432258
 31
0.0
 40
0.3639702343
 41
0.0174532925
 42
1.5707963268
  0
ELLIPSE
  5
4DA
100
AcDbEntity
  8
0
100
AcDbEllipse
 62
7
  6
CONTINUOUS
 10
146.1936973218
 20
940.8426169619
 30
0.0
 11
0.0
 21
2.7474774195
 31
0.0
 40
0.3639702343
 41
-3.1590459461
 42
-1.5707963268
  0
ELLIPSE
  5
4DB
100
AcDbEntity
  8
0
100
AcDbEllipse
 62
7
  6
CONTINUOUS
 10
146.1936973218
 20
1002.8937664803
 30
0.0
 11
0.0
 21
2.7474774195
 31
0.0
 40
0.3639702343
 41
-1.5707963268
 42
0.0174532925
  0
ELLIPSE
  5
4DC
100
AcDbEntity
  8
0
100
AcDbEllipse
 62
7
  6
CONTINUOUS
 10
134.4936973218
 20
1004.2561920945
 30
0.0
 11
0.0
 21
0.8242432258
 31
0.0
 40
0.3639702343
 41
0.0174532925
 42
1.5707963268
  0
ELLIPSE
  5
4DD
100
AcDbEntity
  8
0
100
AcDbEllipse
 62
7
  6
CONTINUOUS
 10
134.4936973218
 20
939.4801913477
 30
0.0
 11
-0.0
 21
0.8242432258
 31
0.0
 40
0.3639702343
 41
1.5707963268
 42
3.1241393611
  0
ELLIPSE
  5
4DE
100
AcDbEntity
  8
0
100
AcDbEllipse
 62
7
  6
CONTINUOUS
 10
134.4936973218
 20
991.4801913477
 30
0.0
 11
-0.0
 21
0.8242432258
 31
0.0
 40
0.3639702343
 41
1.5707963268
 42
3.1241393611
  0
ELLIPSE
  5
4DF
100
AcDbEntity
  8
0
100
AcDbEllipse
 62
7
  6
CONTINUOUS
 10
146.1936973218
 20
950.8937664803
 30
0.0
 11
0.0
 21
2.7474774195
 31
0.0
 40
0.3639702343
 41
-1.5707963268
 42
0.0174532925
  0
ELLIPSE
  5
4E0
100
AcDbEntity
  8
0
100
AcDbEllipse
 62
7
  6
CONTINUOUS
 10
146.1936973218
 20
992.8426169619
 30
0.0
 11
0.0
 21
2.7474774195
 31
0.0
 40
0.3639702343
 41
-3.1590459461
 42
-1.5707963268
  0
ELLIPSE
  5
4E1
100
AcDbEntity
  8
0
100
AcDbEllipse
 62
7
  6
CONTINUOUS
 10
134.4936973218
 20
427.2561920945
 30
0.0
 11
0.0
 21
0.8242432258
 31
0.0
 40
0.3639702343
 41
0.0174532925
 42
1.5707963268
  0
ELLIPSE
  5
4E2
100
AcDbEntity
  8
0
100
AcDbEllipse
 62
7
  6
CONTINUOUS
 10
146.1936973218
 20
415.8426169619
 30
0.0
 11
-0.0
 21
2.7474774195
 31
0.0
 40
0.3639702343
 41
-3.1590459461
 42
-1.5707963268
  0
ELLIPSE
  5
4E3
100
AcDbEntity
  8
0
100
AcDbEllipse
 62
7
  6
CONTINUOUS
 10
146.1936973218
 20
477.8937664803
 30
0.0
 11
-0.0
 21
2.7474774195
 31
0.0
 40
0.3639702343
 41
-1.5707963268
 42
0.0174532925
  0
ELLIPSE
  5
4E4
100
AcDbEntity
  8
0
100
AcDbEllipse
 62
7
  6
CONTINUOUS
 10
134.4936973218
 20
479.2561920945
 30
0.0
 11
0.0
 21
0.8242432258
 31
0.0
 40
0.3639702343
 41
0.0174532925
 42
1.5707963268
  0
ELLIPSE
  5
4E5
100
AcDbEntity
  8
0
100
AcDbEllipse
 62
7
  6
CONTINUOUS
 10
134.4936973218
 20
414.4801913477
 30
0.0
 11
-0.0
 21
0.8242432258
 31
0.0
 40
0.3639702343
 41
1.5707963268
 42
3.1241393611
  0
ELLIPSE
  5
4E6
100
AcDbEntity
  8
0
100
AcDbEllipse
 62
7
  6
CONTINUOUS
 10
134.4936973218
 20
466.4801913477
 30
0.0
 11
0.0
 21
0.8242432258
 31
0.0
 40
0.3639702343
 41
1.5707963268
 42
3.1241393611
  0
ELLIPSE
  5
4E7
100
AcDbEntity
  8
0
100
AcDbEllipse
 62
7
  6
CONTINUOUS
 10
146.1936973218
 20
425.8937664803
 30
0.0
 11
-0.0
 21
2.7474774195
 31
0.0
 40
0.3639702343
 41
-1.5707963268
 42
0.0174532925
  0
ELLIPSE
  5
4E8
100
AcDbEntity
  8
0
100
AcDbEllipse
 62
7
  6
CONTINUOUS
 10
146.1936973218
 20
467.8426169619
 30
0.0
 11
-0.0
 21
2.7474774195
 31
0.0
 40
0.3639702343
 41
-3.1590459461
 42
-1.5707963268
  0
ENDSEC
  0
SECTION
  2
OBJECTS
  0
DICTIONARY
  5
C
100
AcDbDictionary
280
0
281
1
  3
ACAD_GROUP
350
D
  3
ACAD_MLINESTYLE
350
17
  3
ACAD_LAYOUT
350
1A
  3
ACAD_PLOTSETTINGS
350
19
  3
ACAD_PLOTSTYLENAME
350
E
  0
DICTIONARY
  5
D
102
{ACAD_REACTORS
330
C
102
}
100
AcDbDictionary
280
0
281
1
  0
ACDBDICTIONARYWDFLT
  5
E
102
{ACAD_REACTORS
330
C
102
}
100
AcDbDictionary
281
1
  3
Normal
350
F
100
AcDbDictionaryWithDefault
340
F
  0
DICTIONARY
  5
17
102
{ACAD_REACTORS
330
C
102
}
100
AcDbDictionary
280
0
281
1
  3
Standard
350
18
  0
DICTIONARY
  5
19
102
{ACAD_REACTORS
330
C
102
}
100
AcDbDictionary
281
1
  0
DICTIONARY
  5
1A
102
{ACAD_REACTORS
330
C
102
}
100
AcDbDictionary
281
1
  3
Model
350
4E9
  3
Layout1
350
4EA
  0
ACDBPLACEHOLDER
  5
F
102
{ACAD_REACTORS
330
E
102
}
  0
MLINESTYLE
  5
18
102
{ACAD_REACTORS
330
17
102
}
100
AcDbMlineStyle
  2
STANDARD
 70
0
  3

 62
256
 51
90.0
 52
90.0
 71
2
 49
0.5
 62
256
  6
BYLAYER
 49
-0.5
 62
256
  6
BYLAYER
  0
LAYOUT
  5
4E9
102
{ACAD_REACTORS
330
1A
102
}
100
AcDbPlotSettings
  1

  2
none_device
  4

  6

 40
0.0
 41
0.0
 42
0.0
 43
0.0
 44
210.0
 45
297.0
 46
0.0
 47
0.0
 48
0.0
 49
0.0
140
0.0
141
0.0
142
1.0
143
1.0
 70
1024
 72
1
 73
0
 74
0
  7

 75
0
147
1.0
148
0.0
149
0.0
100
AcDbLayout
  1
Model
 70
0
 71
0
 10
0.0
 20
0.0
 11
210.0
 21
297.0
 12
0.0
 22
0.0
 32
0.0
 14
0.0
 24
0.0
 34
0.0
 15
0.0
 25
0.0
 35
0.0
146
0.0
 13
0.0
 23
0.0
 33
0.0
 16
1.0
 26
0.0
 36
0.0
 17
0.0
 27
1.0
 37
0.0
 76
0
330
210
345
0
346
0
  0
LAYOUT
  5
4EA
102
{ACAD_REACTORS
330
1A
102
}
100
AcDbPlotSettings
  1

  2
none_device
  4

  6

 40
0.0
 41
0.0
 42
0.0
 43
0.0
 44
210.0
 45
297.0
 46
0.0
 47
0.0
 48
0.0
 49
0.0
140
0.0
141
0.0
142
1.0
143
1.0
 70
0
 72
1
 73
0
 74
0
  7

 75
0
147
1.0
148
0.0
149
0.0
100
AcDbLayout
  1
Layout1
 70
0
 71
1
 10
0.0
 20
0.0
 11
210.0
 21
297.0
 12
0.0
 22
0.0
 32
0.0
 14
0.0
 24
0.0
 34
0.0
 15
0.0
 25
0.0
 35
0.0
146
0.0
 13
0.0
 23
0.0
 33
0.0
 16
1.0
 26
0.0
 36
0.0
 17
0.0
 27
1.0
 37
0.0
 76
0
330
211
345
0
346
0
  0
ENDSEC
  0
EOF
