999
DXF file: C:\Users\sesa63760\Dev\_Creo\CAD\MCADUE0001294_3D-CAD\drw0001_6.dxf
999
Pro/ENGINEER 2019471 by Parametric Technology Corporation
  0
SECTION
  2
HEADER
  9
$ACADVER
  1
AC1024
  9
$DWGCODEPAGE
  3
ANSI_1252
  9
$EXTMAX
 10
338.8133534761
 20
479.1788856305
 30
0.0
  9
$EXTMIN
 10
0.0
 20
0.0
 30
0.0
  9
$LIMMIN
 10
0.0
 20
0.0
  9
$LIMMAX
 10
338.8133534761
 20
479.1788856305
  9
$VIEWCTR
 10
169.4066767381
 20
239.5894428152
  9
$VIEWSIZE
 40
479.1788856305
  9
$CLAYER
  8
0
  9
$LTSCALE
 40
31.2353643967
  9
$CELTYPE
  6
BYLAYER
  9
$DIMSCALE
 40
1.0
  9
$DIMASZ
 40
4.0334923033
  9
$DIMEXO
 40
1.0
  9
$DIMDLI
 40
21.5807972195
  9
$DIMEXE
 40
1.0
  9
$DIMCEN
 40
5.1112414467
  9
$DIMLFAC
 40
1.0
  9
$DIMBLK
  1
_FILLED
  9
$DIMALT
 70
0
  9
$DIMALTF
 40
0.0393700787
  9
$DIMTXT
 40
5.6468892246
  9
$DIMTOL
 70
1
  9
$DIMLIM
 70
0
  9
$DIMTFAC
 40
1.0
  9
$DIMTP
 40
0.01
  9
$DIMTM
 40
0.01
  9
$DIMGAP
 40
0.625
  9
$DIMDSEP
 70
46
  9
$AUNITS
 70
0
  9
$PDMODE
 70
3
  9
$PDSIZE
 40
0.3125
  9
$HANDSEED
  5
30F
  9
$TILEMODE
 70
1
  9
$MEASUREMENT
 70
1
  9
$INSUNITS
 70
4
  0
ENDSEC
  0
SECTION
  2
CLASSES
  0
CLASS
  1
ACDBDICTIONARYWDFLT
  2
AcDbDictionaryWithDefault
  3
AutoCAD 2000
 90
0
 91
1
280
0
281
0
  0
CLASS
  1
ACDBPLACEHOLDER
  2
AcDbPlaceHolder
  3
AutoCAD 2000
 90
0
 91
1
280
0
281
0
  0
CLASS
  1
LAYOUT
  2
AcDbLayout
  3
AutoCAD 2000
 90
0
 91
0
280
0
281
0
  0
ENDSEC
  0
SECTION
  2
TABLES
  0
TABLE
  2
VPORT
  5
8
100
AcDbSymbolTable
 70
2
  0
VPORT
  5
1F4
100
AcDbSymbolTableRecord
100
AcDbViewportTableRecord
  2
*ACTIVE
 70
0
 10
0.0
 20
0.0
 11
1.0
 21
1.0
 12
169.4066767381
 22
239.5894428152
 13
0.0
 23
0.0
 14
1.0
 24
1.0
 15
0.0
 25
0.0
 16
0.0
 26
0.0
 36
1.0
 17
0.0
 27
0.0
 37
0.0
 40
479.1788856305
 41
0.7070707071
 42
50.0
 43
0.0
 44
0.0
 50
0.0
 51
0.0
 71
0
 72
100
 73
1
 74
1
 75
0
 76
0
 77
0
 78
0
  0
ENDTAB
  0
TABLE
  2
LTYPE
  5
5
100
AcDbSymbolTable
 70
6
  0
LTYPE
  5
14
100
AcDbSymbolTableRecord
100
AcDbLinetypeTableRecord
  2
BYBLOCK
 70
0
  3

 72
65
 73
0
 40
0.0
  0
LTYPE
  5
15
100
AcDbSymbolTableRecord
100
AcDbLinetypeTableRecord
  2
BYLAYER
 70
0
  3

 72
65
 73
0
 40
0.0
  0
LTYPE
  5
16
100
AcDbSymbolTableRecord
100
AcDbLinetypeTableRecord
  2
CONTINUOUS
 70
64
  3
Solid line
 72
65
 73
0
 40
0.0
  0
LTYPE
  5
1F5
100
AcDbSymbolTableRecord
100
AcDbLinetypeTableRecord
  2
CENTER
 70
64
  3
____ _ ____ _ ____ _ ____ _ ____ _ ____ _ ____
 72
65
 73
4
 40
0.6
 49
0.375
 74
0
 49
-0.075
 74
0
 49
0.075
 74
0
 49
-0.075
 74
0
  0
LTYPE
  5
1F6
100
AcDbSymbolTableRecord
100
AcDbLinetypeTableRecord
  2
HIDDEN
 70
64
  3
- - - - - - - - - - - - - - - - - - - -
 72
65
 73
2
 40
0.2
 49
0.1
 74
0
 49
-0.1
 74
0
  0
LTYPE
  5
1F7
100
AcDbSymbolTableRecord
100
AcDbLinetypeTableRecord
  2
PHANTOM
 70
64
  3
_____ _ _ _____ _ _ _____ _ _ _____
 72
65
 73
6
 40
0.8
 49
0.45
 74
0
 49
-0.05
 74
0
 49
0.1
 74
0
 49
-0.05
 74
0
 49
0.1
 74
0
 49
-0.05
 74
0
  0
LTYPE
  5
1F8
100
AcDbSymbolTableRecord
100
AcDbLinetypeTableRecord
  2
DOT
 70
64
  3
. . . . . . . . . . . . . . . . . . . .
 72
65
 73
2
 40
0.2
 49
0.1
 74
0
 49
-0.1
 74
0
  0
LTYPE
  5
1F9
100
AcDbSymbolTableRecord
100
AcDbLinetypeTableRecord
  2
DASHED
 70
64
  3
- - - - - - - - - - - - - - - - - - - -
 72
65
 73
2
 40
0.2
 49
0.1
 74
0
 49
-0.1
 74
0
  0
ENDTAB
  0
TABLE
  2
LAYER
  5
2
100
AcDbSymbolTable
 70
36
  0
LAYER
  5
10
100
AcDbSymbolTableRecord
100
AcDbLayerTableRecord
  2
0
 70
0
 62
7
  6
CONTINUOUS
370
-3
390
F
  0
LAYER
  5
1FA
100
AcDbSymbolTableRecord
100
AcDbLayerTableRecord
  2
DEFAULT_1
 70
0
 62
7
  6
CENTER
370
-3
390
F
  0
LAYER
  5
1FB
100
AcDbSymbolTableRecord
100
AcDbLayerTableRecord
  2
DEFAULT_2
 70
0
 62
8
  6
HIDDEN
370
-3
390
F
  0
LAYER
  5
1FC
100
AcDbSymbolTableRecord
100
AcDbLayerTableRecord
  2
DEFAULT_3
 70
0
 62
7
  6
PHANTOM
370
-3
390
F
  0
LAYER
  5
1FD
100
AcDbSymbolTableRecord
100
AcDbLayerTableRecord
  2
00_COMPONENTS
 70
0
 62
7
  6
CONTINUOUS
370
-3
390
F
  0
LAYER
  5
1FE
100
AcDbSymbolTableRecord
100
AcDbLayerTableRecord
  2
01_1_DEFAULT_DATUMS
 70
0
 62
7
  6
CONTINUOUS
370
-3
390
F
  0
LAYER
  5
1FF
100
AcDbSymbolTableRecord
100
AcDbLayerTableRecord
  2
01_PLANES
 70
0
 62
7
  6
CONTINUOUS
370
-3
390
F
  0
LAYER
  5
200
100
AcDbSymbolTableRecord
100
AcDbLayerTableRecord
  2
02_COORD_SYS
 70
0
 62
7
  6
CONTINUOUS
370
-3
390
F
  0
LAYER
  5
201
100
AcDbSymbolTableRecord
100
AcDbLayerTableRecord
  2
03_AXES
 70
0
 62
7
  6
CONTINUOUS
370
-3
390
F
  0
LAYER
  5
202
100
AcDbSymbolTableRecord
100
AcDbLayerTableRecord
  2
04_POINTS
 70
0
 62
7
  6
CONTINUOUS
370
-3
390
F
  0
LAYER
  5
203
100
AcDbSymbolTableRecord
100
AcDbLayerTableRecord
  2
05_CURVES
 70
0
 62
7
  6
CONTINUOUS
370
-3
390
F
  0
LAYER
  5
204
100
AcDbSymbolTableRecord
100
AcDbLayerTableRecord
  2
06_SURFS
 70
0
 62
7
  6
CONTINUOUS
370
-3
390
F
  0
LAYER
  5
205
100
AcDbSymbolTableRecord
100
AcDbLayerTableRecord
  2
07_COSMETICS
 70
0
 62
7
  6
CONTINUOUS
370
-3
390
F
  0
LAYER
  5
206
100
AcDbSymbolTableRecord
100
AcDbLayerTableRecord
  2
10_NOTES
 70
0
 62
7
  6
CONTINUOUS
370
-3
390
F
  0
LAYER
  5
207
100
AcDbSymbolTableRecord
100
AcDbLayerTableRecord
  2
11_NOTES_PUB
 70
0
 62
7
  6
CONTINUOUS
370
-3
390
F
  0
LAYER
  5
208
100
AcDbSymbolTableRecord
100
AcDbLayerTableRecord
  2
13_REF_GTOL
 70
0
 62
7
  6
CONTINUOUS
370
-3
390
F
  0
LAYER
  5
209
100
AcDbSymbolTableRecord
100
AcDbLayerTableRecord
  2
16_MISC
 70
0
 62
7
  6
CONTINUOUS
370
-3
390
F
  0
LAYER
  5
20A
100
AcDbSymbolTableRecord
100
AcDbLayerTableRecord
  2
17_NO_PRINT
 70
0
 62
7
  6
CONTINUOUS
370
-3
390
F
  0
LAYER
  5
20B
100
AcDbSymbolTableRecord
100
AcDbLayerTableRecord
  2
18_DATUM_CAMS_JOINTS
 70
0
 62
7
  6
CONTINUOUS
370
-3
390
F
  0
LAYER
  5
20C
100
AcDbSymbolTableRecord
100
AcDbLayerTableRecord
  2
19_DATUM_FUNCTIONAL
 70
0
 62
7
  6
CONTINUOUS
370
-3
390
F
  0
LAYER
  5
20D
100
AcDbSymbolTableRecord
100
AcDbLayerTableRecord
  2
20_DATUM_KINEMATIC_SCHEME
 70
0
 62
7
  6
CONTINUOUS
370
-3
390
F
  0
ENDTAB
  0
TABLE
  2
STYLE
  5
3
100
AcDbSymbolTable
 70
1
  0
STYLE
  5
11
100
AcDbSymbolTableRecord
100
AcDbTextStyleTableRecord
  2
STANDARD
 70
0
 40
0.0
 41
0.8
 50
0.0
 71
0
 42
0.2
  3
txt
  4

  0
STYLE
  5
20E
100
AcDbSymbolTableRecord
100
AcDbTextStyleTableRecord
  2
TEXTSTYLE_1
 70
0
 40
0.0
 41
0.8
 50
0.0
 71
0
 42
0.2
  3
gdt
  4

  0
ENDTAB
  0
TABLE
  2
VIEW
  5
6
100
AcDbSymbolTable
 70
0
  0
ENDTAB
  0
TABLE
  2
UCS
  5
7
100
AcDbSymbolTable
 70
0
  0
ENDTAB
  0
TABLE
  2
APPID
  5
9
100
AcDbSymbolTable
 70
1
  0
APPID
  5
20F
100
AcDbSymbolTableRecord
100
AcDbRegAppTableRecord
  2
ACAD
 70
0
  0
ENDTAB
  0
TABLE
  2
BLOCK_RECORD
  5
1
100
AcDbSymbolTable
 70
0
  0
BLOCK_RECORD
  5
210
100
AcDbSymbolTableRecord
100
AcDbBlockTableRecord
  2
*Model_Space
  0
BLOCK_RECORD
  5
211
100
AcDbSymbolTableRecord
100
AcDbBlockTableRecord
  2
*Paper_Space
  0
BLOCK_RECORD
  5
212
100
AcDbSymbolTableRecord
100
AcDbBlockTableRecord
  2
_FILLED
  0
ENDTAB
  0
TABLE
  2
DIMSTYLE
  5
A
100
AcDbSymbolTable
 70
1
100
AcDbDimStyleTable
 71
0
  0
DIMSTYLE
105
213
100
AcDbSymbolTableRecord
100
AcDbDimStyleTableRecord
  2
STANDARD
 70
0
  3

  4

 40
1.0
 41
4.0334923033
 42
1.0
 43
0.38
 44
1.0
 45
0.0
 46
0.0
 47
0.01
 48
0.01
140
5.6468892246
141
0.09
142
0.0
143
25.4
144
1.0
145
0.0
146
1.0
147
0.625
 71
1
 72
0
 73
0
 74
0
 75
0
 76
0
 77
1
 78
8
 79
2
170
0
171
1
172
0
173
0
174
0
175
0
176
0
177
0
178
0
270
2
179
2
271
2
272
2
273
2
274
2
275
0
280
0
281
0
282
0
283
1
284
8
285
0
286
0
287
3
288
0
340
11
278
46
341
212
342
212
343
212
344
212
  0
ENDTAB
  0
ENDSEC
  0
SECTION
  2
BLOCKS
  0
BLOCK
  5
20
100
AcDbEntity
  8
0
100
AcDbBlockBegin
  2
*Model_Space
 70
0
 10
0.0
 20
0.0
 30
0.0
  3
*Model_Space
  1

  0
ENDBLK
  5
21
100
AcDbEntity
  8
0
100
AcDbBlockEnd
  0
BLOCK
  5
1C
100
AcDbEntity
  8
0
100
AcDbBlockBegin
  2
*Paper_Space
 70
0
 10
0.0
 20
0.0
 30
0.0
  3
*Paper_Space
  1

  0
ENDBLK
  5
1D
100
AcDbEntity
  8
0
100
AcDbBlockEnd
  0
BLOCK
  5
214
100
AcDbEntity
  8
0
100
AcDbBlockBegin
  2
_FILLED
 70
64
 10
0.0
 20
0.0
  3
_FILLED
  1

  0
SOLID
  5
215
100
AcDbEntity
  8
0
  6
BYBLOCK
 62
0
100
AcDbTrace
 10
0.0
 20
0.0
 11
-1.0
 21
0.25
 12
-1.0
 22
-0.25
 13
-1.0
 23
-0.25
  0
ENDBLK
  5
216
100
AcDbEntity
  8
0
  6
BYBLOCK
 62
0
100
AcDbBlockEnd
  0
ENDSEC
  0
SECTION
  2
ENTITIES
  0
LINE
  5
217
100
AcDbEntity
  8
0
100
AcDbLine
 62
7
  6
CONTINUOUS
 10
73.8076584076
 20
43.3138781217
 11
76.4289449494
 21
42.5894428152
  0
LINE
  5
218
100
AcDbEntity
  8
0
100
AcDbLine
 62
7
  6
CONTINUOUS
 10
102.4392415607
 20
39.5894428227
 11
274.0392415607
 21
39.5894428203
  0
LINE
  5
219
100
AcDbEntity
  8
0
100
AcDbLine
 62
7
  6
CONTINUOUS
 10
102.4392415607
 20
40.5894428152
 11
274.0392415607
 21
40.5894428152
  0
LINE
  5
21A
100
AcDbEntity
  8
0
100
AcDbLine
 62
7
  6
CONTINUOUS
 10
92.1289449493
 20
41.5894428152
 11
76.4289449493
 21
41.5894428152
  0
LINE
  5
21B
100
AcDbEntity
  8
0
100
AcDbLine
 62
7
  6
CONTINUOUS
 10
92.1289449493
 20
42.5894428152
 11
76.4289449494
 21
42.5894428152
  0
LINE
  5
21C
100
AcDbEntity
  8
0
100
AcDbLine
 62
7
  6
CONTINUOUS
 10
97.2392414972
 20
419.3914677761
 11
96.8576235699
 21
419.070755273
  0
LINE
  5
21D
100
AcDbEntity
  8
0
100
AcDbLine
 62
7
  6
CONTINUOUS
 10
276.4392415607
 20
55.0894428152
 11
276.2392415607
 21
55.0894428152
  0
LINE
  5
21E
100
AcDbEntity
  8
0
100
AcDbLine
 62
7
  6
CONTINUOUS
 10
96.8576235699
 20
60.1081303574
 11
97.239241514
 21
59.7874178744
  0
LINE
  5
21F
100
AcDbEntity
  8
0
100
AcDbLine
 62
7
  6
CONTINUOUS
 10
276.4392415607
 20
68.0894428152
 11
276.2392415607
 21
68.0894428152
  0
LINE
  5
220
100
AcDbEntity
  8
0
100
AcDbLine
 62
7
  6
CONTINUOUS
 10
96.8576235699
 20
59.1265031739
 11
93.2289449493
 21
58.4211595019
  0
LINE
  5
221
100
AcDbEntity
  8
0
100
AcDbLine
 62
7
  6
CONTINUOUS
 10
93.2289449493
 20
59.4027866854
 11
96.8576235699
 21
60.1081303574
  0
LINE
  5
222
100
AcDbEntity
  8
0
100
AcDbLine
 62
7
  6
CONTINUOUS
 10
99.0392415607
 20
103.5894428152
 11
99.2392415607
 21
103.5894428152
  0
LINE
  5
223
100
AcDbEntity
  8
0
100
AcDbLine
 62
7
  6
CONTINUOUS
 10
99.0392415607
 20
113.5894428152
 11
99.2392415607
 21
113.5894428152
  0
LWPOLYLINE
  5
224
100
AcDbEntity
  8
0
100
AcDbPolyline
 62
7
  6
CONTINUOUS
 90
4
 70
0
 10
67.5700980151
 20
217.8284868907
 10
67.589316298
 20
217.6466248743
 10
67.6234766071
 20
217.2245536099
 10
67.6289446953
 20
217.0400247169
  0
LINE
  5
225
100
AcDbEntity
  8
0
100
AcDbLine
 62
7
  6
CONTINUOUS
 10
67.6104467223
 20
217.489538342
 11
67.5782794106
 21
217.7996356339
  0
LWPOLYLINE
  5
226
100
AcDbEntity
  8
0
100
AcDbPolyline
 62
7
  6
CONTINUOUS
 90
3
 70
0
 10
67.2393848998
 20
217.9948894434
 10
67.3268869787
 20
216.9949496034
 10
67.4385359678
 20
216.2369428083
  0
LWPOLYLINE
  5
227
100
AcDbEntity
  8
0
100
AcDbPolyline
 62
7
  6
CONTINUOUS
 90
3
 70
0
 10
67.2394514042
 20
216.5651052311
 10
67.272826649
 20
216.1360267418
 10
67.4233435876
 20
215.1867319712
  0
LINE
  5
228
100
AcDbEntity
  8
0
100
AcDbLine
 62
7
  6
CONTINUOUS
 10
67.2486719799
 20
218.00399193
 11
67.2492072022
 21
217.9958100187
  0
LINE
  5
229
100
AcDbEntity
  8
0
100
AcDbLine
 62
7
  6
CONTINUOUS
 10
67.2492551844
 20
216.5659532993
 11
67.2486726033
 21
216.5753879956
  0
LWPOLYLINE
  5
22A
100
AcDbEntity
  8
0
100
AcDbPolyline
 62
7
  6
CONTINUOUS
 90
4
 70
0
 10
67.4250028975
 20
220.0480798858
 10
67.4680713748
 20
219.0413486102
 10
67.5020630721
 20
218.5557813792
 10
67.5701010516
 20
217.8283973632
  0
LINE
  5
22B
100
AcDbEntity
  8
0
100
AcDbLine
 62
7
  6
CONTINUOUS
 10
67.4350957106
 20
220.0483294702
 11
67.4352783894
 21
220.0416973146
  0
LINE
  5
22C
100
AcDbEntity
  8
0
100
AcDbLine
 62
7
  6
CONTINUOUS
 10
67.6289439794
 20
254.5404559225
 11
67.6289449493
 21
254.5393536141
  0
LINE
  5
22D
100
AcDbEntity
  8
0
100
AcDbLine
 62
7
  6
CONTINUOUS
 10
67.6289448918
 20
215.0408021231
 11
67.6289449493
 21
215.0405450099
  0
LINE
  5
22E
100
AcDbEntity
  8
0
100
AcDbLine
 62
7
  6
CONTINUOUS
 10
67.6289449493
 20
217.0384913773
 11
67.6289447122
 21
217.0396580777
  0
LINE
  5
22F
100
AcDbEntity
  8
0
100
AcDbLine
 62
7
  6
CONTINUOUS
 10
67.2391782472
 20
253.0034978338
 11
67.2391782472
 21
243.2773035775
  0
LINE
  5
230
100
AcDbEntity
  8
0
100
AcDbLine
 62
7
  6
CONTINUOUS
 10
67.2391782472
 20
235.901582053
 11
67.2391782472
 21
218.0039788592
  0
LINE
  5
231
100
AcDbEntity
  8
0
100
AcDbLine
 62
7
  6
CONTINUOUS
 10
67.2391782472
 20
217.9948881484
 11
67.2391782472
 21
216.5753877967
  0
LINE
  5
232
100
AcDbEntity
  8
0
100
AcDbLine
 62
7
  6
CONTINUOUS
 10
67.2486695237
 20
243.1504307382
 11
67.2486695237
 21
251.5749321324
  0
LINE
  5
233
100
AcDbEntity
  8
0
100
AcDbLine
 62
7
  6
CONTINUOUS
 10
67.2486663278
 20
251.7336354999
 11
67.2486663278
 21
253.0034978338
  0
LINE
  5
234
100
AcDbEntity
  8
0
100
AcDbLine
 62
7
  6
CONTINUOUS
 10
67.2486726034
 20
216.5753877967
 11
67.2486726034
 21
217.888753166
  0
LINE
  5
235
100
AcDbEntity
  8
0
100
AcDbLine
 62
7
  6
CONTINUOUS
 10
67.24867198
 20
218.0039788592
 11
67.24867198
 21
236.0284713153
  0
LINE
  5
236
100
AcDbEntity
  8
0
100
AcDbLine
 62
7
  6
CONTINUOUS
 10
67.6289449493
 20
252.540638901
 11
67.6289446125
 21
252.5392715696
  0
LWPOLYLINE
  5
237
100
AcDbEntity
  8
0
100
AcDbPolyline
 62
7
  6
CONTINUOUS
 90
3
 70
0
 10
67.4250129463
 20
249.5307979812
 10
67.2617515053
 20
234.7954499868
 10
67.42501282
 20
220.0480882042
  0
LINE
  5
238
100
AcDbEntity
  8
0
100
AcDbLine
 62
7
  6
CONTINUOUS
 10
67.4352784017
 20
249.5371899854
 11
67.4351165101
 21
249.5305515843
  0
LWPOLYLINE
  5
239
100
AcDbEntity
  8
0
100
AcDbPolyline
 62
7
  6
CONTINUOUS
 90
4
 70
0
 10
67.6289473846
 20
252.538759529
 10
67.623544107
 20
252.3556686078
 10
67.5897429703
 20
251.9365293538
 10
67.5700995162
 20
251.7504177068
  0
LWPOLYLINE
  5
23A
100
AcDbEntity
  8
0
100
AcDbPolyline
 62
7
  6
CONTINUOUS
 90
9
 70
0
 10
67.6289320562
 20
254.5404562909
 10
67.6272683773
 20
254.4985076455
 10
67.6061868208
 20
254.3200419819
 10
67.5559987569
 20
254.0154318293
 10
67.5191918766
 20
253.8073269149
 10
67.4292569572
 20
253.2857513928
 10
67.3335463052
 20
252.6364732927
 10
67.2575327032
 20
251.8862056209
 10
67.2405400588
 20
251.5938009243
  0
LWPOLYLINE
  5
23B
100
AcDbEntity
  8
0
100
AcDbPolyline
 62
7
  6
CONTINUOUS
 90
4
 70
0
 10
67.5701032572
 20
251.7505082124
 10
67.5026364988
 20
251.0303533457
 10
67.4685365959
 20
250.5451313467
 10
67.4250028706
 20
249.5308063008
  0
LINE
  5
23C
100
AcDbEntity
  8
0
100
AcDbLine
 62
7
  6
CONTINUOUS
 10
67.2402270687
 20
251.5943569883
 11
67.2396652289
 21
251.5888550867
  0
LINE
  5
23D
100
AcDbEntity
  8
0
100
AcDbLine
 62
7
  6
CONTINUOUS
 10
67.5700995162
 20
251.7504177068
 11
67.5701100022
 21
251.7505124307
  0
LINE
  5
23E
100
AcDbEntity
  8
0
100
AcDbLine
 62
7
  6
CONTINUOUS
 10
96.85762357
 20
420.0523824566
 11
96.6668145746
 21
419.0707552731
  0
LWPOLYLINE
  5
23F
100
AcDbEntity
  8
0
100
AcDbPolyline
 62
7
  6
CONTINUOUS
 90
4
 70
0
 10
67.5069348754
 20
254.751700205
 10
67.4237616564
 20
254.3941194989
 10
67.2734767875
 20
253.4491502552
 10
67.2394485373
 20
253.0137667299
  0
LINE
  5
240
100
AcDbEntity
  8
0
100
AcDbLine
 62
7
  6
CONTINUOUS
 10
67.6207835311
 20
255.1649030332
 11
67.5069348754
 21
254.751700205
  0
LINE
  5
241
100
AcDbEntity
  8
0
100
AcDbLine
 62
7
  6
CONTINUOUS
 10
67.6222498497
 20
255.170052316
 11
67.6207835311
 21
255.1649030332
  0
LINE
  5
242
100
AcDbEntity
  8
0
100
AcDbLine
 62
7
  6
CONTINUOUS
 10
67.6216768387
 20
255.164726708
 11
67.636848574
 21
255.217936292
  0
LINE
  5
243
100
AcDbEntity
  8
0
100
AcDbLine
 62
7
  6
CONTINUOUS
 10
67.6301837737
 20
255.1959989678
 11
67.6401336739
 21
255.2287655263
  0
LINE
  5
244
100
AcDbEntity
  8
0
100
AcDbLine
 62
7
  6
CONTINUOUS
 10
67.6298533402
 20
214.3839612767
 11
67.6401251316
 21
214.3501852908
  0
LINE
  5
245
100
AcDbEntity
  8
0
100
AcDbLine
 62
7
  6
CONTINUOUS
 10
67.62163293
 20
214.4141755925
 11
67.6362981422
 21
214.3627013143
  0
LINE
  5
246
100
AcDbEntity
  8
0
100
AcDbLine
 62
7
  6
CONTINUOUS
 10
67.5070601229
 20
214.8267066127
 11
67.6218538236
 21
214.4101136366
  0
LINE
  5
247
100
AcDbEntity
  8
0
100
AcDbLine
 62
7
  6
CONTINUOUS
 10
67.4233435876
 20
215.1867319712
 11
67.5070601229
 21
214.8267066127
  0
LINE
  5
248
100
AcDbEntity
  8
0
100
AcDbLine
 62
7
  6
CONTINUOUS
 10
96.8576235727
 20
59.1265031595
 11
96.6668145746
 21
60.1081303574
  0
LWPOLYLINE
  5
249
100
AcDbEntity
  8
0
100
AcDbPolyline
 62
7
  6
CONTINUOUS
 90
4
 70
0
 10
67.4385359678
 20
216.2369428083
 10
67.5906267679
 20
215.3593028072
 10
67.6202964051
 20
215.1530357896
 10
67.6289353065
 20
215.0395515565
  0
LINE
  5
24A
100
AcDbEntity
  8
0
100
AcDbLine
 62
7
  6
CONTINUOUS
 10
67.2486719799
 20
218.00399193
 11
67.2496576929
 21
217.9961852365
  0
LINE
  5
24B
100
AcDbEntity
  8
0
100
AcDbLine
 62
7
  6
CONTINUOUS
 10
67.2393857968
 20
217.994869703
 11
67.2394623654
 21
217.9942517388
  0
LINE
  5
24C
100
AcDbEntity
  8
0
100
AcDbLine
 62
7
  6
CONTINUOUS
 10
67.2497629882
 20
216.5663519183
 11
67.2486726033
 21
216.5753879956
  0
LINE
  5
24D
100
AcDbEntity
  8
0
100
AcDbLine
 62
7
  6
CONTINUOUS
 10
67.5701078339
 20
217.8283981734
 11
67.5700980151
 21
217.8284868907
  0
LINE
  5
24E
100
AcDbEntity
  8
0
100
AcDbLine
 62
7
  6
CONTINUOUS
 10
71.0893467844
 20
219.5590079002
 11
71.0893467844
 21
250.0198792153
  0
LINE
  5
24F
100
AcDbEntity
  8
0
100
AcDbLine
 62
7
  6
CONTINUOUS
 10
71.6478777574
 20
209.9898753356
 11
71.6478777574
 21
212.8391083935
  0
LINE
  5
250
100
AcDbEntity
  8
0
100
AcDbLine
 62
7
  6
CONTINUOUS
 10
71.6478777574
 20
256.7397812436
 11
71.6478777574
 21
259.5890102949
  0
LINE
  5
251
100
AcDbEntity
  8
0
100
AcDbLine
 62
7
  6
CONTINUOUS
 10
72.3903296654
 20
209.8187279063
 11
72.3903296654
 21
212.6876246518
  0
LINE
  5
252
100
AcDbEntity
  8
0
100
AcDbLine
 62
7
  6
CONTINUOUS
 10
72.3903296654
 20
256.8912656675
 11
72.3903296654
 21
259.7601577242
  0
LINE
  5
253
100
AcDbEntity
  8
0
100
AcDbLine
 62
7
  6
CONTINUOUS
 10
73.2289449493
 20
434.3894428152
 11
73.2289449493
 21
44.7894428152
  0
LINE
  5
254
100
AcDbEntity
  8
0
100
AcDbLine
 62
7
  6
CONTINUOUS
 10
73.8076584076
 20
43.3138781217
 11
73.8076584076
 21
435.8650075087
  0
LINE
  5
255
100
AcDbEntity
  8
0
100
AcDbLine
 62
7
  6
CONTINUOUS
 10
76.4289449493
 20
41.5894428167
 11
76.4289449493
 21
42.5894428176
  0
LINE
  5
256
100
AcDbEntity
  8
0
100
AcDbLine
 62
7
  6
CONTINUOUS
 10
76.4289449493
 20
436.5894428152
 11
76.4289449493
 21
437.5894428137
  0
LINE
  5
257
100
AcDbEntity
  8
0
100
AcDbLine
 62
7
  6
CONTINUOUS
 10
79.2755483514
 20
436.5894428152
 11
79.2755483515
 21
42.5894428152
  0
LINE
  5
258
100
AcDbEntity
  8
0
100
AcDbLine
 62
7
  6
CONTINUOUS
 10
80.0947003958
 20
437.5894428152
 11
80.0947003957
 21
436.5894428152
  0
LINE
  5
259
100
AcDbEntity
  8
0
100
AcDbLine
 62
7
  6
CONTINUOUS
 10
80.0947003958
 20
42.5894428152
 11
80.0947003957
 21
41.5894428152
  0
LINE
  5
25A
100
AcDbEntity
  8
0
100
AcDbLine
 62
7
  6
CONTINUOUS
 10
81.8968348932
 20
41.5894428152
 11
81.8968348932
 21
437.5894428152
  0
LINE
  5
25B
100
AcDbEntity
  8
0
100
AcDbLine
 62
7
  6
CONTINUOUS
 10
92.1289449493
 20
437.5894428152
 11
92.1289449493
 21
41.5894428152
  0
LINE
  5
25C
100
AcDbEntity
  8
0
100
AcDbLine
 62
7
  6
CONTINUOUS
 10
93.2289449493
 20
435.6976895313
 11
93.2289449493
 21
43.4811960992
  0
LINE
  5
25D
100
AcDbEntity
  8
0
100
AcDbLine
 62
7
  6
CONTINUOUS
 10
96.8576235699
 20
419.0707552731
 11
96.8576235699
 21
60.1081303574
  0
LINE
  5
25E
100
AcDbEntity
  8
0
100
AcDbLine
 62
7
  6
CONTINUOUS
 10
98.0392415607
 20
107.839443816
 11
98.0392415607
 21
109.3394105266
  0
LINE
  5
25F
100
AcDbEntity
  8
0
100
AcDbLine
 62
7
  6
CONTINUOUS
 10
98.0392415607
 20
369.839443816
 11
98.0392415607
 21
371.3394105266
  0
LINE
  5
260
100
AcDbEntity
  8
0
100
AcDbLine
 62
7
  6
CONTINUOUS
 10
99.0392415607
 20
103.5894428152
 11
99.0392415607
 21
113.5894428121
  0
LINE
  5
261
100
AcDbEntity
  8
0
100
AcDbLine
 62
7
  6
CONTINUOUS
 10
99.0392415607
 20
365.5894428152
 11
99.0392415607
 21
375.5894428121
  0
LINE
  5
262
100
AcDbEntity
  8
0
100
AcDbLine
 62
7
  6
CONTINUOUS
 10
99.2392415607
 20
436.3894428153
 11
99.2392415607
 21
42.7894428152
  0
LINE
  5
263
100
AcDbEntity
  8
0
100
AcDbLine
 62
7
  6
CONTINUOUS
 10
102.4392415607
 20
39.5894428227
 11
102.4392415607
 21
439.5894428078
  0
LINE
  5
264
100
AcDbEntity
  8
0
100
AcDbLine
 62
7
  6
CONTINUOUS
 10
72.3903296654
 20
209.8187279063
 11
71.6478833732
 21
209.9898728398
  0
LINE
  5
265
100
AcDbEntity
  8
0
100
AcDbLine
 62
7
  6
CONTINUOUS
 10
72.3903296654
 20
209.8187279063
 11
73.2289449493
 21
209.7894428152
  0
LINE
  5
266
100
AcDbEntity
  8
0
100
AcDbLine
 62
7
  6
CONTINUOUS
 10
67.2486726034
 20
216.5753877967
 11
67.2391782472
 21
216.5753877967
  0
LINE
  5
267
100
AcDbEntity
  8
0
100
AcDbLine
 62
7
  6
CONTINUOUS
 10
67.24867198
 20
218.0039788592
 11
67.2391782472
 21
218.0039788592
  0
LINE
  5
268
100
AcDbEntity
  8
0
100
AcDbLine
 62
7
  6
CONTINUOUS
 10
67.2399978958
 20
251.5749067712
 11
67.2391782472
 21
251.5748896184
  0
LINE
  5
269
100
AcDbEntity
  8
0
100
AcDbLine
 62
7
  6
CONTINUOUS
 10
67.2399978958
 20
251.5749067712
 11
67.2486695237
 21
251.5749321324
  0
LINE
  5
26A
100
AcDbEntity
  8
0
100
AcDbLine
 62
7
  6
CONTINUOUS
 10
67.2391782472
 20
253.0034978338
 11
67.2486663278
 21
253.0034978338
  0
LINE
  5
26B
100
AcDbEntity
  8
0
100
AcDbLine
 62
7
  6
CONTINUOUS
 10
73.2289449493
 20
259.7894428152
 11
72.3903296654
 21
259.7601577242
  0
LINE
  5
26C
100
AcDbEntity
  8
0
100
AcDbLine
 62
7
  6
CONTINUOUS
 10
72.3903296654
 20
259.7601577242
 11
71.6478833732
 21
259.5890127907
  0
LINE
  5
26D
100
AcDbEntity
  8
0
100
AcDbLine
 62
7
  6
CONTINUOUS
 10
274.0392415607
 20
439.5894428101
 11
274.0392415607
 21
39.5894428203
  0
LINE
  5
26E
100
AcDbEntity
  8
0
100
AcDbLine
 62
7
  6
CONTINUOUS
 10
276.2392415607
 20
41.7894428152
 11
276.2392415607
 21
437.3894428152
  0
LINE
  5
26F
100
AcDbEntity
  8
0
100
AcDbLine
 62
7
  6
CONTINUOUS
 10
276.4392415607
 20
424.0894428152
 11
276.4392415607
 21
411.0894428152
  0
LINE
  5
270
100
AcDbEntity
  8
0
100
AcDbLine
 62
7
  6
CONTINUOUS
 10
276.4392415607
 20
68.0894428152
 11
276.4392415607
 21
55.0894428152
  0
LINE
  5
271
100
AcDbEntity
  8
0
100
AcDbLine
 62
7
  6
CONTINUOUS
 10
74.1761711432
 20
43.2120336144
 11
73.8076584076
 21
42.9539982189
  0
LINE
  5
272
100
AcDbEntity
  8
0
100
AcDbLine
 62
7
  6
CONTINUOUS
 10
74.1761711432
 20
435.9668520161
 11
73.8076584077
 21
436.2248874114
  0
LINE
  5
273
100
AcDbEntity
  8
0
100
AcDbLine
 62
7
  6
CONTINUOUS
 10
99.0392415607
 20
365.5894428152
 11
99.2392415607
 21
365.5894428152
  0
LINE
  5
274
100
AcDbEntity
  8
0
100
AcDbLine
 62
7
  6
CONTINUOUS
 10
99.0392415607
 20
375.5894428152
 11
99.2392415607
 21
375.5894428152
  0
LINE
  5
275
100
AcDbEntity
  8
0
100
AcDbLine
 62
7
  6
CONTINUOUS
 10
96.8576235699
 20
419.0707552731
 11
93.2289449493
 21
419.7760989451
  0
LINE
  5
276
100
AcDbEntity
  8
0
100
AcDbLine
 62
7
  6
CONTINUOUS
 10
93.2289449493
 20
420.7577261286
 11
96.8576235699
 21
420.0523824566
  0
LINE
  5
277
100
AcDbEntity
  8
0
100
AcDbLine
 62
7
  6
CONTINUOUS
 10
276.4392415607
 20
411.0894428152
 11
276.2392415607
 21
411.0894428152
  0
LINE
  5
278
100
AcDbEntity
  8
0
100
AcDbLine
 62
7
  6
CONTINUOUS
 10
276.4392415607
 20
424.0894428152
 11
276.2392415607
 21
424.0894428152
  0
LINE
  5
279
100
AcDbEntity
  8
0
100
AcDbLine
 62
7
  6
CONTINUOUS
 10
76.4289449494
 20
436.5894428152
 11
92.1289449493
 21
436.5894428152
  0
LINE
  5
27A
100
AcDbEntity
  8
0
100
AcDbLine
 62
7
  6
CONTINUOUS
 10
76.4289449494
 20
436.5894428153
 11
73.8076584076
 21
435.8650075087
  0
LINE
  5
27B
100
AcDbEntity
  8
0
100
AcDbLine
 62
7
  6
CONTINUOUS
 10
76.4289449493
 20
437.5894428152
 11
92.1289449493
 21
437.5894428152
  0
LINE
  5
27C
100
AcDbEntity
  8
0
100
AcDbLine
 62
7
  6
CONTINUOUS
 10
102.4392415607
 20
438.5894428153
 11
274.0392415607
 21
438.5894428152
  0
LINE
  5
27D
100
AcDbEntity
  8
0
100
AcDbLine
 62
7
  6
CONTINUOUS
 10
102.4392415607
 20
439.5894428152
 11
274.0392415607
 21
439.5894428152
  0
ARC
  5
27E
100
AcDbEntity
  8
0
100
AcDbCircle
 62
7
  6
CONTINUOUS
 10
87.0315195032
 20
219.5415164079
 40
19.8685891465
100
AcDbArc
 50
188.1978958052
 51
189.1582104062
  0
ARC
  5
27F
100
AcDbEntity
  8
0
100
AcDbCircle
 62
7
  6
CONTINUOUS
 10
83.458733112
 20
219.021957625
 40
16.2582268646
100
AcDbArc
 50
186.8214690732
 51
188.1809913133
  0
ARC
  5
280
100
AcDbEntity
  8
0
100
AcDbCircle
 62
7
  6
CONTINUOUS
 10
110.7579915607
 20
108.5894428152
 40
12.7408438324
100
AcDbArc
 50
156.8936731546
 51
176.6252870295
  0
ARC
  5
281
100
AcDbEntity
  8
0
100
AcDbCircle
 62
7
  6
CONTINUOUS
 10
110.7579915607
 20
108.5894428152
 40
12.7408438324
100
AcDbArc
 50
183.3747129705
 51
203.1063268454
  0
ARC
  5
282
100
AcDbEntity
  8
0
100
AcDbCircle
 62
7
  6
CONTINUOUS
 10
77.2603166464
 20
217.2914257743
 40
10.0597596521
100
AcDbArc
 50
194.7317758399
 51
196.376261681
  0
ARC
  5
283
100
AcDbEntity
  8
0
100
AcDbCircle
 62
7
  6
CONTINUOUS
 10
77.0469065587
 20
217.2364330983
 40
9.8393807548
100
AcDbArc
 50
193.3722297118
 51
194.7380885773
  0
ARC
  5
284
100
AcDbEntity
  8
0
100
AcDbCircle
 62
7
  6
CONTINUOUS
 10
76.9017308106
 20
217.1818436765
 40
9.68482616
100
AcDbArc
 50
196.3523885197
 51
196.7917173538
  0
ARC
  5
285
100
AcDbEntity
  8
0
100
AcDbCircle
 62
7
  6
CONTINUOUS
 10
76.83407946
 20
217.1864808705
 40
9.6207710549
100
AcDbArc
 50
191.4114438935
 51
193.3759456309
  0
ARC
  5
286
100
AcDbEntity
  8
0
100
AcDbCircle
 62
7
  6
CONTINUOUS
 10
76.4094914236
 20
217.1031256347
 40
9.1880846056
100
AcDbArc
 50
188.6870325219
 51
191.4257778667
  0
ARC
  5
287
100
AcDbEntity
  8
0
100
AcDbCircle
 62
7
  6
CONTINUOUS
 10
75.7195478312
 20
217.0076307271
 40
8.4916383704
100
AcDbArc
 50
182.9890475351
 51
188.7532080463
  0
ARC
  5
288
100
AcDbEntity
  8
0
100
AcDbCircle
 62
7
  6
CONTINUOUS
 10
74.6697782827
 20
216.7894428152
 40
7.4408333333
100
AcDbArc
 50
199.1332403462
 51
246.0384220125
  0
ARC
  5
289
100
AcDbEntity
  8
0
100
AcDbCircle
 62
7
  6
CONTINUOUS
 10
61.7073223626
 20
217.3166921567
 40
5.8908225324
100
AcDbArc
 50
4.9760848675
 51
5.6333572518
  0
ARC
  5
28A
100
AcDbEntity
  8
0
100
AcDbCircle
 62
7
  6
CONTINUOUS
 10
63.6107646917
 20
217.4847680719
 40
3.9799760909
100
AcDbArc
 50
4.5375288007
 51
4.9424271478
  0
ARC
  5
28B
100
AcDbEntity
  8
0
100
AcDbCircle
 62
7
  6
CONTINUOUS
 10
76.4289449493
 20
44.7894428152
 40
3.2
100
AcDbArc
 50
180.0
 51
270.0000000001
  0
ARC
  5
28C
100
AcDbEntity
  8
0
100
AcDbCircle
 62
7
  6
CONTINUOUS
 10
102.4392415607
 20
42.7894428152
 40
3.2
100
AcDbArc
 50
180.0
 51
270.0
  0
ARC
  5
28D
100
AcDbEntity
  8
0
100
AcDbCircle
 62
7
  6
CONTINUOUS
 10
76.4289449493
 20
44.7894428152
 40
2.2
100
AcDbArc
 50
242.0584693163
 51
270.0000000002
  0
ARC
  5
28E
100
AcDbEntity
  8
0
100
AcDbCircle
 62
7
  6
CONTINUOUS
 10
102.4392415607
 20
42.7894428152
 40
2.2
100
AcDbArc
 50
220.9399350148
 51
270.0
  0
ARC
  5
28F
100
AcDbEntity
  8
0
100
AcDbCircle
 62
7
  6
CONTINUOUS
 10
97.2392415607
 20
57.163248807
 40
2.0
100
AcDbArc
 50
0.0000000002
 51
101.0
  0
ARC
  5
290
100
AcDbEntity
  8
0
100
AcDbCircle
 62
7
  6
CONTINUOUS
 10
92.1289449493
 20
42.6894428152
 40
1.1
100
AcDbArc
 50
270.0
 51
30.1676994463
  0
ARC
  5
291
100
AcDbEntity
  8
0
100
AcDbCircle
 62
7
  6
CONTINUOUS
 10
68.0980211761
 20
235.9011093837
 40
0.8588452239
100
AcDbArc
 50
171.4719029139
 51
179.9685069893
  0
ARC
  5
292
100
AcDbEntity
  8
0
100
AcDbCircle
 62
7
  6
CONTINUOUS
 10
67.4391782472
 20
216.5753877967
 40
0.2
100
AcDbArc
 50
180.0
 51
182.9466546195
  0
ARC
  5
293
100
AcDbEntity
  8
0
100
AcDbCircle
 62
7
  6
CONTINUOUS
 10
67.4391782472
 20
218.0039788592
 40
0.2
100
AcDbArc
 50
180.0
 51
182.6051944204
  0
ARC
  5
294
100
AcDbEntity
  8
0
100
AcDbCircle
 62
7
  6
CONTINUOUS
 10
6.2118332283
 20
258.2717123795
 40
61.7089388718
100
AcDbArc
 50
353.9607293707
 51
354.1215030163
  0
ARC
  5
295
100
AcDbEntity
  8
0
100
AcDbCircle
 62
7
  6
CONTINUOUS
 10
90.4600360005
 20
249.4644786938
 40
23.3452617251
100
AcDbArc
 50
169.7594686218
 51
170.1520289318
  0
ARC
  5
296
100
AcDbEntity
  8
0
100
AcDbCircle
 62
7
  6
CONTINUOUS
 10
87.122187011
 20
250.0597824355
 40
19.9549693635
100
AcDbArc
 50
171.4608697563
 51
172.3887704335
  0
ARC
  5
297
100
AcDbEntity
  8
0
100
AcDbCircle
 62
7
  6
CONTINUOUS
 10
86.7285389434
 20
250.111878269
 40
19.5580179947
100
AcDbArc
 50
170.2606687271
 51
170.7682722704
  0
ARC
  5
298
100
AcDbEntity
  8
0
100
AcDbCircle
 62
7
  6
CONTINUOUS
 10
85.3628142433
 20
250.3310239867
 40
18.1748258866
100
AcDbArc
 50
170.7594675518
 51
171.4829200736
  0
ARC
  5
299
100
AcDbEntity
  8
0
100
AcDbCircle
 62
7
  6
CONTINUOUS
 10
84.561976352
 20
250.4041939334
 40
17.3716978041
100
AcDbArc
 50
172.3962755658
 51
172.71363004
  0
ARC
  5
29A
100
AcDbEntity
  8
0
100
AcDbCircle
 62
7
  6
CONTINUOUS
 10
82.5048198994
 20
250.6638407671
 40
15.2982233389
100
AcDbArc
 50
172.7010599414
 51
173.4863380205
  0
ARC
  5
29B
100
AcDbEntity
  8
0
100
AcDbCircle
 62
7
  6
CONTINUOUS
 10
110.7579915607
 20
370.5894428152
 40
12.7408438324
100
AcDbArc
 50
156.8936731546
 51
176.6252870295
  0
ARC
  5
29C
100
AcDbEntity
  8
0
100
AcDbCircle
 62
7
  6
CONTINUOUS
 10
110.7579915607
 20
370.5894428152
 40
12.7408438324
100
AcDbArc
 50
183.3747129705
 51
203.1063268454
  0
ARC
  5
29D
100
AcDbEntity
  8
0
100
AcDbCircle
 62
7
  6
CONTINUOUS
 10
77.2016198701
 20
252.3055661602
 40
9.9983657802
100
AcDbArc
 50
163.6303368679
 51
165.2674293405
  0
ARC
  5
29E
100
AcDbEntity
  8
0
100
AcDbCircle
 62
7
  6
CONTINUOUS
 10
77.1494014367
 20
252.3162513093
 40
9.9451472342
100
AcDbArc
 50
165.2504586575
 51
166.6061119346
  0
ARC
  5
29F
100
AcDbEntity
  8
0
100
AcDbCircle
 62
7
  6
CONTINUOUS
 10
76.7825471837
 20
252.4030582834
 40
9.5681628875
100
AcDbArc
 50
166.6029156931
 51
168.615465296
  0
ARC
  5
2A0
100
AcDbEntity
  8
0
100
AcDbCircle
 62
7
  6
CONTINUOUS
 10
76.5618972569
 20
252.4940317766
 40
9.3314592882
100
AcDbArc
 50
163.1687060699
 51
163.617540536
  0
ARC
  5
2A1
100
AcDbEntity
  8
0
100
AcDbCircle
 62
7
  6
CONTINUOUS
 10
76.4051292461
 20
252.4767815177
 40
9.1836186791
100
AcDbArc
 50
168.6015720647
 51
171.3667455895
  0
ARC
  5
2A2
100
AcDbEntity
  8
0
100
AcDbCircle
 62
7
  6
CONTINUOUS
 10
75.713723149
 20
252.5717626302
 40
8.4857948265
100
AcDbArc
 50
171.300026123
 51
177.0123735596
  0
ARC
  5
2A3
100
AcDbEntity
  8
0
100
AcDbCircle
 62
7
  6
CONTINUOUS
 10
74.6697782827
 20
252.7894428152
 40
7.4408333333
100
AcDbArc
 50
113.9615779875
 51
160.8665539307
  0
ARC
  5
2A4
100
AcDbEntity
  8
0
100
AcDbCircle
 62
7
  6
CONTINUOUS
 10
74.1163475499
 20
252.6432495558
 40
6.886874661
100
AcDbArc
 50
174.3537258075
 51
176.9136542515
  0
ARC
  5
2A5
100
AcDbEntity
  8
0
100
AcDbCircle
 62
7
  6
CONTINUOUS
 10
73.6871827271
 20
252.6869444868
 40
6.4554931575
100
AcDbArc
 50
172.2967593046
 51
174.3648987
  0
ARC
  5
2A6
100
AcDbEntity
  8
0
100
AcDbCircle
 62
7
  6
CONTINUOUS
 10
64.2210647106
 20
252.6046842225
 40
3.4190443005
100
AcDbArc
 50
358.0507735089
 51
359.2728994065
  0
ARC
  5
2A7
100
AcDbEntity
  8
0
100
AcDbCircle
 62
7
  6
CONTINUOUS
 10
76.4289449493
 20
434.3894428152
 40
3.2
100
AcDbArc
 50
89.9999999999
 51
180.0
  0
ARC
  5
2A8
100
AcDbEntity
  8
0
100
AcDbCircle
 62
7
  6
CONTINUOUS
 10
102.4392415607
 20
436.3894428152
 40
3.2
100
AcDbArc
 50
90.0
 51
172.9766847837
  0
ARC
  5
2A9
100
AcDbEntity
  8
0
100
AcDbCircle
 62
7
  6
CONTINUOUS
 10
76.4289449493
 20
434.3894428152
 40
2.2
100
AcDbArc
 50
89.9999999998
 51
117.9415306847
  0
ARC
  5
2AA
100
AcDbEntity
  8
0
100
AcDbCircle
 62
7
  6
CONTINUOUS
 10
102.4392415607
 20
436.3894428152
 40
2.2
100
AcDbArc
 50
90.0
 51
139.0496015574
  0
ARC
  5
2AB
100
AcDbEntity
  8
0
100
AcDbCircle
 62
7
  6
CONTINUOUS
 10
97.2392415607
 20
422.0156368234
 40
2.0
100
AcDbArc
 50
258.9999999986
 51
360.0
  0
ARC
  5
2AC
100
AcDbEntity
  8
0
100
AcDbCircle
 62
7
  6
CONTINUOUS
 10
92.1289449493
 20
436.4894428152
 40
1.1
100
AcDbArc
 50
329.9639515674
 51
90.0
  0
ARC
  5
2AD
100
AcDbEntity
  8
0
100
AcDbCircle
 62
7
  6
CONTINUOUS
 10
66.6352014059
 20
251.8311550464
 40
0.9444980572
100
AcDbArc
 50
355.3611090992
 51
356.8535465327
  0
ARC
  5
2AE
100
AcDbEntity
  8
0
100
AcDbCircle
 62
7
  6
CONTINUOUS
 10
68.0980082868
 20
243.2777750859
 40
0.8588322988
100
AcDbArc
 50
180.0314179212
 51
188.5270401847
  0
ARC
  5
2AF
100
AcDbEntity
  8
0
100
AcDbCircle
 62
7
  6
CONTINUOUS
 10
67.4391782472
 20
251.5749067712
 40
0.2
100
AcDbArc
 50
176.000855591
 51
180.0000000001
  0
ARC
  5
2B0
100
AcDbEntity
  8
0
100
AcDbCircle
 62
7
  6
CONTINUOUS
 10
67.4391782472
 20
253.0034978338
 40
0.2
100
AcDbArc
 50
177.0561905549
 51
180.0
  0
ARC
  5
2B1
100
AcDbEntity
  8
0
100
AcDbCircle
 62
7
  6
CONTINUOUS
 10
283.9741264722
 20
225.8947580552
 40
216.6179414785
100
AcDbArc
 50
181.3423797916
 51
181.546577178
  0
ARC
  5
2B2
100
AcDbEntity
  8
0
100
AcDbCircle
 62
7
  6
CONTINUOUS
 10
255.8142415607
 20
61.5894428152
 40
21.625
100
AcDbArc
 50
342.5076754749
 51
17.4923245251
  0
ARC
  5
2B3
100
AcDbEntity
  8
0
100
AcDbCircle
 62
7
  6
CONTINUOUS
 10
274.0392415607
 20
41.7894428152
 40
2.2
100
AcDbArc
 50
269.9999999999
 51
360.0
  0
ARC
  5
2B4
100
AcDbEntity
  8
0
100
AcDbCircle
 62
7
  6
CONTINUOUS
 10
342.9548496296
 20
242.1737836844
 40
275.61795026
100
AcDbArc
 50
178.4704841476
 51
178.6283625997
  0
ARC
  5
2B5
100
AcDbEntity
  8
0
100
AcDbCircle
 62
7
  6
CONTINUOUS
 10
255.8142415607
 20
417.5894428152
 40
21.625
100
AcDbArc
 50
342.5076754749
 51
17.4923245251
  0
ARC
  5
2B6
100
AcDbEntity
  8
0
100
AcDbCircle
 62
7
  6
CONTINUOUS
 10
274.0392415607
 20
437.3894428152
 40
2.2
100
AcDbArc
 50
0.0
 51
90.0000000001
  0
SPLINE
  5
2B7
100
AcDbEntity
  8
0
100
AcDbSpline
 62
7
  6
CONTINUOUS
 70
0
 71
3
 72
8
 73
4
 74
0
 42
0.0000001
 43
0.0000001
 44
0.0000000001
 40
0.0
 40
0.0
 40
0.0
 40
0.0
 40
1.0
 40
1.0
 40
1.0
 40
1.0
 10
67.5782790988
 20
217.7996355509
 30
0.0
 10
67.5740519286
 20
217.8086616801
 30
0.0
 10
67.5712089799
 20
217.8184922522
 30
0.0
 10
67.5701077082
 20
217.8283981685
 30
0.0
  0
SPLINE
  5
2B8
100
AcDbEntity
  8
0
100
AcDbSpline
 62
7
  6
CONTINUOUS
 70
0
 71
3
 72
9
 73
5
 74
0
 42
0.0000001
 43
0.0000001
 44
0.0000000001
 40
0.0
 40
0.0
 40
0.0
 40
0.0
 40
0.6927383382
 40
1.0
 40
1.0
 40
1.0
 40
1.0
 10
67.2394623654
 20
217.9942517388
 30
0.0
 10
67.2396145328
 20
217.9960577022
 30
0.0
 10
67.2412024862
 20
217.9984724102
 30
0.0
 10
67.2431262371
 20
218.0001990469
 30
0.0
 10
67.2437481026
 20
218.0007084442
 30
0.0
  0
SPLINE
  5
2B9
100
AcDbEntity
  8
0
100
AcDbSpline
 62
7
  6
CONTINUOUS
 70
0
 71
3
 72
8
 73
4
 74
0
 42
0.0000001
 43
0.0000001
 44
0.0000000001
 40
0.0
 40
0.0
 40
0.0
 40
0.0
 40
1.0
 40
1.0
 40
1.0
 40
1.0
 10
67.2437481026
 20
218.0007084442
 30
0.0
 10
67.2452648191
 20
218.0019508531
 30
0.0
 10
67.2469289675
 20
218.0030161128
 30
0.0
 10
67.248637007
 20
218.0039787186
 30
0.0
  0
SPLINE
  5
2BA
100
AcDbEntity
  8
0
100
AcDbSpline
 62
7
  6
CONTINUOUS
 70
0
 71
3
 72
9
 73
5
 74
0
 42
0.0000001
 43
0.0000001
 44
0.0000000001
 40
0.0
 40
0.0
 40
0.0
 40
0.0
 40
0.6931465248
 40
1.0
 40
1.0
 40
1.0
 40
1.0
 10
67.2394623762
 20
216.564829499
 30
0.0
 10
67.2394435527
 20
216.5667304238
 30
0.0
 10
67.2409511593
 20
216.5694083687
 30
0.0
 10
67.2429140441
 20
216.5712741569
 30
0.0
 10
67.2435501537
 20
216.571825166
 30
0.0
  0
SPLINE
  5
2BB
100
AcDbEntity
  8
0
100
AcDbSpline
 62
7
  6
CONTINUOUS
 70
0
 71
3
 72
8
 73
4
 74
0
 42
0.0000001
 43
0.0000001
 44
0.0000000001
 40
0.0
 40
0.0
 40
0.0
 40
0.0
 40
1.0
 40
1.0
 40
1.0
 40
1.0
 10
67.2435501537
 20
216.571825166
 30
0.0
 10
67.2451194815
 20
216.5731845446
 30
0.0
 10
67.2468651396
 20
216.5743431302
 30
0.0
 10
67.2486596182
 20
216.5753874227
 30
0.0
  0
SPLINE
  5
2BC
100
AcDbEntity
  8
0
100
AcDbSpline
 62
7
  6
CONTINUOUS
 70
0
 71
3
 72
23
 73
19
 74
0
 42
0.0000001
 43
0.0000001
 44
0.0000000001
 40
0.0
 40
0.0
 40
0.0
 40
0.0
 40
0.2291048881
 40
0.4399425471
 40
0.6136027056
 40
0.6804751394
 40
0.7317213806
 40
0.7670566182
 40
0.7794947388
 40
0.7892251891
 40
0.7973185802
 40
0.8053180939
 40
0.8146268166
 40
0.8260280154
 40
0.8560795316
 40
0.8957913892
 40
0.9441513705
 40
1.0
 40
1.0
 40
1.0
 40
1.0
 10
67.2492072022
 20
217.9958100187
 30
0.0
 10
67.2576890562
 20
217.8666122406
 30
0.0
 10
67.276184207
 20
217.6185559976
 30
0.0
 10
67.3260222761
 20
217.2750593772
 30
0.0
 10
67.3846129442
 20
217.0262419068
 30
0.0
 10
67.4388772822
 20
216.8702602714
 30
0.0
 10
67.4751398377
 20
216.7914681135
 30
0.0
 10
67.5060759754
 20
216.7440318396
 30
0.0
 10
67.5304520644
 20
216.7222303205
 30
0.0
 10
67.5459333269
 20
216.7142880845
 30
0.0
 10
67.5610309971
 20
216.7132405068
 30
0.0
 10
67.5745106636
 20
216.7195074783
 30
0.0
 10
67.5857324927
 20
216.7315621441
 30
0.0
 10
67.599864981
 20
216.7567043773
 30
0.0
 10
67.6124830587
 20
216.8012591862
 30
0.0
 10
67.6223413811
 20
216.8672811076
 30
0.0
 10
67.6279342037
 20
216.9485146876
 30
0.0
 10
67.6289544816
 20
217.0074079895
 30
0.0
 10
67.6289493129
 20
217.0389701763
 30
0.0
  0
SPLINE
  5
2BD
100
AcDbEntity
  8
0
100
AcDbSpline
 62
7
  6
CONTINUOUS
 70
0
 71
3
 72
9
 73
5
 74
0
 42
0.0000001
 43
0.0000001
 44
0.0000000001
 40
0.0
 40
0.0
 40
0.0
 40
0.0
 40
0.5825075334
 40
1.0
 40
1.0
 40
1.0
 40
1.0
 10
67.5609426552
 20
254.0317406184
 30
0.0
 10
67.5787664968
 20
254.132293553
 30
0.0
 10
67.6086413008
 20
254.3049570758
 30
0.0
 10
67.6332789111
 20
254.478808248
 30
0.0
 10
67.6381747313
 20
254.5518356668
 30
0.0
  0
SPLINE
  5
2BE
100
AcDbEntity
  8
0
100
AcDbSpline
 62
7
  6
CONTINUOUS
 70
0
 71
3
 72
19
 73
15
 74
0
 42
0.0000001
 43
0.0000001
 44
0.0000000001
 40
0.0
 40
0.0
 40
0.0
 40
0.0
 40
0.1648276454
 40
0.2300611974
 40
0.2835707329
 40
0.3254514269
 40
0.356480075
 40
0.3793709806
 40
0.4010726851
 40
0.4298222562
 40
0.4699114228
 40
0.5896640461
 40
0.7657944706
 40
1.0
 40
1.0
 40
1.0
 40
1.0
 10
67.6381747313
 20
254.5518356668
 30
0.0
 10
67.6394402391
 20
254.5707123348
 30
0.0
 10
67.6406548231
 20
254.5971295331
 30
0.0
 10
67.6395581793
 20
254.6296778607
 30
0.0
 10
67.6375962008
 20
254.6480323707
 30
0.0
 10
67.6343419912
 20
254.6622338289
 30
0.0
 10
67.6299262277
 20
254.6723847588
 30
0.0
 10
67.6231397711
 20
254.6786924303
 30
0.0
 10
67.6140688818
 20
254.6785605408
 30
0.0
 10
67.6050452448
 20
254.6729499924
 30
0.0
 10
67.5896677752
 20
254.6576450057
 30
0.0
 10
67.5686772032
 20
254.6248974743
 30
0.0
 10
67.5412132595
 20
254.5706641905
 30
0.0
 10
67.5230514457
 20
254.5271291592
 30
0.0
 10
67.5132443971
 20
254.5020995943
 30
0.0
  0
SPLINE
  5
2BF
100
AcDbEntity
  8
0
100
AcDbSpline
 62
7
  6
CONTINUOUS
 70
0
 71
3
 72
10
 73
6
 74
0
 42
0.0000001
 43
0.0000001
 44
0.0000000001
 40
0.0
 40
0.0
 40
0.0
 40
0.0
 40
0.1827491834
 40
0.4160499782
 40
1.0
 40
1.0
 40
1.0
 40
1.0
 10
67.5132443971
 20
254.5020995943
 30
0.0
 10
67.4915229131
 20
254.4466619887
 30
0.0
 10
67.4482110659
 20
254.3180543888
 30
0.0
 10
67.3629821062
 20
254.0034832976
 30
0.0
 10
67.3155107518
 20
253.7407835468
 30
0.0
 10
67.2899463945
 20
253.5522532242
 30
0.0
  0
SPLINE
  5
2C0
100
AcDbEntity
  8
0
100
AcDbSpline
 62
7
  6
CONTINUOUS
 70
0
 71
3
 72
9
 73
5
 74
0
 42
0.0000001
 43
0.0000001
 44
0.0000000001
 40
0.0
 40
0.0
 40
0.0
 40
0.0
 40
0.5320252858
 40
1.0
 40
1.0
 40
1.0
 40
1.0
 10
67.4866621722
 20
253.6148208437
 30
0.0
 10
67.4997000976
 20
253.6887824875
 30
0.0
 10
67.5259622358
 20
253.827488179
 30
0.0
 10
67.5494728278
 20
253.9666834948
 30
0.0
 10
67.5609426552
 20
254.0317406184
 30
0.0
  0
LINE
  5
2C1
100
AcDbEntity
  8
0
100
AcDbLine
 62
7
  6
CONTINUOUS
 10
67.4523994045
 20
253.4204296677
 11
67.4587656636
 21
253.4573232817
  0
SPLINE
  5
2C2
100
AcDbEntity
  8
0
100
AcDbSpline
 62
7
  6
CONTINUOUS
 70
0
 71
3
 72
9
 73
5
 74
0
 42
0.0000001
 43
0.0000001
 44
0.0000000001
 40
0.0
 40
0.0
 40
0.0
 40
0.0
 40
0.2536079825
 40
1.0
 40
1.0
 40
1.0
 40
1.0
 10
67.2399852912
 20
251.594375664
 30
0.0
 10
67.2431193504
 20
251.6625781881
 30
0.0
 10
67.2580227423
 20
251.9313885769
 30
0.0
 10
67.2825903414
 20
252.1996279188
 30
0.0
 10
67.3053491237
 20
252.3992731242
 30
0.0
  0
LINE
  5
2C3
100
AcDbEntity
  8
0
100
AcDbLine
 62
7
  6
CONTINUOUS
 10
67.2486663274
 20
253.0033923254
 11
67.2492368731
 21
253.012943139
  0
SPLINE
  5
2C4
100
AcDbEntity
  8
0
100
AcDbSpline
 62
7
  6
CONTINUOUS
 70
0
 71
3
 72
25
 73
21
 74
0
 42
0.0000001
 43
0.0000001
 44
0.0000000001
 40
0.0
 40
0.0
 40
0.0
 40
0.0
 40
0.2271586732
 40
0.4386518362
 40
0.5350659641
 40
0.6236085402
 40
0.7033120351
 40
0.7731875554
 40
0.8320135363
 40
0.8786487187
 40
0.9132679291
 40
0.936808534
 40
0.9446948702
 40
0.9502657363
 40
0.9543987026
 40
0.9590428475
 40
0.9656865081
 40
0.9747292803
 40
0.9861964004
 40
1.0
 40
1.0
 40
1.0
 40
1.0
 10
67.2492368731
 20
253.012943139
 30
0.0
 10
67.2571912836
 20
253.1450040426
 30
0.0
 10
67.2774615038
 20
253.3997968171
 30
0.0
 10
67.3208882706
 20
253.7086290411
 30
0.0
 10
67.3645692498
 20
253.9353937751
 30
0.0
 10
67.3986377516
 20
254.0857533004
 30
0.0
 10
67.4337368009
 20
254.2199472056
 30
0.0
 10
67.4684827208
 20
254.3362818974
 30
0.0
 10
67.5016620097
 20
254.4328739287
 30
0.0
 10
67.5323993527
 20
254.5085737566
 30
0.0
 10
67.5598872516
 20
254.5630179089
 30
0.0
 10
67.5806451645
 20
254.5957846372
 30
0.0
 10
67.5955655753
 20
254.6113200187
 30
0.0
 10
67.604269133
 20
254.6172347729
 30
0.0
 10
67.6134126217
 20
254.6171474669
 30
0.0
 10
67.6197571229
 20
254.6098390858
 30
0.0
 10
67.6238019128
 20
254.5987422387
 30
0.0
 10
67.6268287336
 20
254.5831342396
 30
0.0
 10
67.6285776156
 20
254.5632215891
 30
0.0
 10
67.6289284635
 20
254.5484956642
 30
0.0
 10
67.6289439798
 20
254.5404562784
 30
0.0
  0
SPLINE
  5
2C5
100
AcDbEntity
  8
0
100
AcDbSpline
 62
7
  6
CONTINUOUS
 70
0
 71
3
 72
11
 73
7
 74
0
 42
0.0000001
 43
0.0000001
 44
0.0000000001
 40
0.0
 40
0.0
 40
0.0
 40
0.0
 40
0.2492453876
 40
0.4991374345
 40
0.7494687785
 40
1.0
 40
1.0
 40
1.0
 40
1.0
 10
67.5782885864
 20
251.7793096299
 30
0.0
 10
67.7309829703
 20
252.3056791303
 30
0.0
 10
68.1374632471
 20
253.333730647
 30
0.0
 10
69.0380799909
 20
254.7270272867
 30
0.0
 10
70.2107995602
 20
255.9063519514
 30
0.0
 10
71.151019068
 20
256.501833491
 30
0.0
 10
71.6478777574
 20
256.7397812436
 30
0.0
  0
SPLINE
  5
2C6
100
AcDbEntity
  8
0
100
AcDbSpline
 62
7
  6
CONTINUOUS
 70
0
 71
3
 72
11
 73
7
 74
0
 42
0.0000001
 43
0.0000001
 44
0.0000000001
 40
0.0
 40
0.0
 40
0.0
 40
0.0
 40
0.3073959383
 40
0.5880323797
 40
0.8243622162
 40
1.0
 40
1.0
 40
1.0
 40
1.0
 10
67.2394621575
 20
216.5648337289
 30
0.0
 10
67.2478350131
 20
216.409550739
 30
0.0
 10
67.2736458126
 20
216.1129238765
 30
0.0
 10
67.3385442386
 20
215.7005913818
 30
0.0
 10
67.4179938172
 20
215.3590904428
 30
0.0
 10
67.4807346252
 20
215.1599243752
 30
0.0
 10
67.5131130879
 20
215.0771804069
 30
0.0
  0
SPLINE
  5
2C7
100
AcDbEntity
  8
0
100
AcDbSpline
 62
7
  6
CONTINUOUS
 70
0
 71
3
 72
19
 73
15
 74
0
 42
0.0000001
 43
0.0000001
 44
0.0000000001
 40
0.0
 40
0.0
 40
0.0
 40
0.0
 40
0.2349317005
 40
0.41187656
 40
0.5315282201
 40
0.5713181358
 40
0.5998142227
 40
0.6214126732
 40
0.6443161324
 40
0.6753293229
 40
0.7171280836
 40
0.7704923758
 40
0.8355448172
 40
1.0
 40
1.0
 40
1.0
 40
1.0
 10
67.5131130879
 20
215.0771804069
 30
0.0
 10
67.5229445998
 20
215.0520557332
 30
0.0
 10
67.5411592132
 20
215.0083227045
 30
0.0
 10
67.5686317246
 20
214.9538816255
 30
0.0
 10
67.5896218182
 20
214.921036705
 30
0.0
 10
67.6049961914
 20
214.9058204158
 30
0.0
 10
67.6140082922
 20
214.9003027284
 30
0.0
 10
67.6230377349
 20
214.9002916041
 30
0.0
 10
67.6297741594
 20
214.9066211312
 30
0.0
 10
67.6341865638
 20
214.9167671485
 30
0.0
 10
67.6374410575
 20
214.9309479223
 30
0.0
 10
67.6394122222
 20
214.9492637188
 30
0.0
 10
67.6405204744
 20
214.9817486923
 30
0.0
 10
67.639315032
 20
215.0081165627
 30
0.0
 10
67.6380543088
 20
215.0269606176
 30
0.0
  0
SPLINE
  5
2C8
100
AcDbEntity
  8
0
100
AcDbSpline
 62
7
  6
CONTINUOUS
 70
0
 71
3
 72
9
 73
5
 74
0
 42
0.0000001
 43
0.0000001
 44
0.0000000001
 40
0.0
 40
0.0
 40
0.0
 40
0.0
 40
0.2308590448
 40
1.0
 40
1.0
 40
1.0
 40
1.0
 10
67.6380543088
 20
215.0269606176
 30
0.0
 10
67.6376865975
 20
215.0324568062
 30
0.0
 10
67.6359197268
 20
215.056252721
 30
0.0
 10
67.6335476911
 20
215.080000812
 30
0.0
 10
67.6315140758
 20
215.0982400896
 30
0.0
  0
SPLINE
  5
2C9
100
AcDbEntity
  8
0
100
AcDbSpline
 62
7
  6
CONTINUOUS
 70
0
 71
3
 72
12
 73
8
 74
0
 42
0.0000001
 43
0.0000001
 44
0.0000000001
 40
0.0
 40
0.0
 40
0.0
 40
0.0
 40
0.250439427
 40
0.3757882708
 40
0.5010449827
 40
0.7508452864
 40
1.0
 40
1.0
 40
1.0
 40
1.0
 10
71.6478777574
 20
212.8391083935
 30
0.0
 10
71.1510150655
 20
213.0770581446
 30
0.0
 10
70.4446505821
 20
213.524604145
 30
0.0
 10
69.6240805672
 20
214.2626090608
 30
0.0
 10
68.8881610432
 20
215.083905946
 30
0.0
 10
68.1373133581
 20
216.2453403857
 30
0.0
 10
67.7309731499
 20
217.2732598254
 30
0.0
 10
67.5782794106
 20
217.7996356339
 30
0.0
  0
LINE
  5
2CA
100
AcDbEntity
  8
0
100
AcDbLine
 62
7
  6
CONTINUOUS
 10
67.6085545069
 20
255.1234403966
 11
67.6092918039
 21
255.1259489583
  0
SPLINE
  5
2CB
100
AcDbEntity
  8
0
100
AcDbSpline
 62
7
  6
CONTINUOUS
 70
0
 71
3
 72
9
 73
5
 74
0
 42
0.0000001
 43
0.0000001
 44
0.0000000001
 40
0.0
 40
0.0
 40
0.0
 40
0.0
 40
0.3054816516
 40
1.0
 40
1.0
 40
1.0
 40
1.0
 10
67.2486672835
 20
253.003485013
 30
0.0
 10
67.2477086277
 20
253.0040429404
 30
0.0
 10
67.2446590433
 20
253.0059723884
 30
0.0
 10
67.2417459273
 20
253.0084051973
 30
0.0
 10
67.2404726452
 20
253.0105819052
 30
0.0
  0
SPLINE
  5
2CC
100
AcDbEntity
  8
0
100
AcDbSpline
 62
7
  6
CONTINUOUS
 70
0
 71
3
 72
8
 73
4
 74
0
 42
0.0000001
 43
0.0000001
 44
0.0000000001
 40
0.0
 40
0.0
 40
0.0
 40
0.0
 40
1.0
 40
1.0
 40
1.0
 40
1.0
 10
67.2404726452
 20
253.0105819052
 30
0.0
 10
67.2398663239
 20
253.0116184269
 30
0.0
 10
67.2394514313
 20
253.0128389013
 30
0.0
 10
67.2394618304
 20
253.0140396905
 30
0.0
  0
SPLINE
  5
2CD
100
AcDbEntity
  8
0
100
AcDbSpline
 62
7
  6
CONTINUOUS
 70
0
 71
3
 72
8
 73
4
 74
0
 42
0.0000001
 43
0.0000001
 44
0.0000000001
 40
0.0
 40
0.0
 40
0.0
 40
0.0
 40
1.0
 40
1.0
 40
1.0
 40
1.0
 10
67.5701098769
 20
251.7505124399
 30
0.0
 10
67.5712130216
 20
251.7604299717
 30
0.0
 10
67.574058339
 20
251.7702719367
 30
0.0
 10
67.5782884423
 20
251.7793096683
 30
0.0
  0
SPLINE
  5
2CE
100
AcDbEntity
  8
0
100
AcDbSpline
 62
7
  6
CONTINUOUS
 70
0
 71
3
 72
9
 73
5
 74
0
 42
0.0000001
 43
0.0000001
 44
0.0000000001
 40
0.0
 40
0.0
 40
0.0
 40
0.0
 40
0.2492553489
 40
1.0
 40
1.0
 40
1.0
 40
1.0
 10
71.647884599
 20
212.83913526
 30
0.0
 10
71.7066322015
 20
212.8160221717
 30
0.0
 10
71.9464583344
 20
212.7341324882
 30
0.0
 10
72.2002738938
 20
212.6934979513
 30
0.0
 10
72.3903296744
 20
212.6876165738
 30
0.0
  0
SPLINE
  5
2CF
100
AcDbEntity
  8
0
100
AcDbSpline
 62
7
  6
CONTINUOUS
 70
0
 71
3
 72
9
 73
5
 74
0
 42
0.0000001
 43
0.0000001
 44
0.0000000001
 40
0.0
 40
0.0
 40
0.0
 40
0.0
 40
0.2576679626
 40
1.0
 40
1.0
 40
1.0
 40
1.0
 10
67.5432680991
 20
218.1590730034
 30
0.0
 10
67.5453968688
 20
218.1363738242
 30
0.0
 10
67.5537883688
 20
218.0482907698
 30
0.0
 10
67.5632610371
 20
217.9603154445
 30
0.0
 10
67.5696946913
 20
217.8949488364
 30
0.0
  0
SPLINE
  5
2D0
100
AcDbEntity
  8
0
100
AcDbSpline
 62
7
  6
CONTINUOUS
 70
0
 71
3
 72
11
 73
7
 74
0
 42
0.0000001
 43
0.0000001
 44
0.0000000001
 40
0.0
 40
0.0
 40
0.0
 40
0.0
 40
0.2606393035
 40
0.5175433468
 40
0.7648898009
 40
1.0
 40
1.0
 40
1.0
 40
1.0
 10
67.4352540675
 20
220.0416942974
 30
0.0
 10
67.4376533615
 20
219.8778529392
 30
0.0
 10
67.4487044086
 20
219.5526045121
 30
0.0
 10
67.4763127213
 20
219.072516594
 30
0.0
 10
67.5045535419
 20
218.6085698625
 30
0.0
 10
67.5279959397
 20
218.3060911676
 30
0.0
 10
67.5432680991
 20
218.1590730034
 30
0.0
  0
SPLINE
  5
2D1
100
AcDbEntity
  8
0
100
AcDbSpline
 62
7
  6
CONTINUOUS
 70
0
 71
3
 72
9
 73
5
 74
0
 42
0.0000001
 43
0.0000001
 44
0.0000000001
 40
0.0
 40
0.0
 40
0.0
 40
0.0
 40
0.2489601895
 40
1.0
 40
1.0
 40
1.0
 40
1.0
 10
67.4556792193
 20
250.1309207755
 30
0.0
 10
67.4531633651
 20
250.0816829888
 30
0.0
 10
67.4437636219
 20
249.8838752894
 30
0.0
 10
67.4375232578
 20
249.6859057231
 30
0.0
 10
67.4352540773
 20
249.5371933133
 30
0.0
  0
SPLINE
  5
2D2
100
AcDbEntity
  8
0
100
AcDbSpline
 62
7
  6
CONTINUOUS
 70
0
 71
3
 72
14
 73
10
 74
0
 42
0.0000001
 43
0.0000001
 44
0.0000000001
 40
0.0
 40
0.0
 40
0.0
 40
0.0
 40
0.052623902
 40
0.1086543905
 40
0.2252744596
 40
0.3474065586
 40
0.4726049886
 40
0.731391575
 40
1.0
 40
1.0
 40
1.0
 40
1.0
 10
67.5766054875
 20
251.7547682998
 30
0.0
 10
67.5743310146
 20
251.7262917142
 30
0.0
 10
67.5679122918
 20
251.6676470567
 30
0.0
 10
67.5554035016
 20
251.5460015316
 30
0.0
 10
67.5399543279
 20
251.3867207679
 30
0.0
 10
67.522024655
 20
251.1899591798
 30
0.0
 10
67.501387106
 20
250.9159751261
 30
0.0
 10
67.4799627898
 20
250.5623566782
 30
0.0
 10
67.4625234464
 20
250.2765761305
 30
0.0
 10
67.4556792193
 20
250.1309207755
 30
0.0
  0
SPLINE
  5
2D3
100
AcDbEntity
  8
0
100
AcDbSpline
 62
7
  6
CONTINUOUS
 70
0
 71
3
 72
13
 73
9
 74
0
 42
0.0000001
 43
0.0000001
 44
0.0000000001
 40
0.0
 40
0.0
 40
0.0
 40
0.0
 40
0.1610464066
 40
0.3162525867
 40
0.5985118352
 40
0.8280508776
 40
0.9205030631
 40
1.0
 40
1.0
 40
1.0
 40
1.0
 10
73.2289449698
 20
255.6892480983
 30
0.0
 10
73.1284841703
 20
255.7210722407
 30
0.0
 10
72.9316977327
 20
255.785236088
 30
0.0
 10
72.5664085991
 20
255.9274403447
 30
0.0
 10
72.1776338381
 20
256.1274714432
 30
0.0
 10
71.858497608
 20
256.3707976271
 30
0.0
 10
71.699967287
 20
256.581819699
 30
0.0
 10
71.655878117
 20
256.6883724744
 30
0.0
 10
71.6478675733
 20
256.7397709354
 30
0.0
  0
SPLINE
  5
2D4
100
AcDbEntity
  8
0
100
AcDbSpline
 62
7
  6
CONTINUOUS
 70
0
 71
3
 72
13
 73
9
 74
0
 42
0.0000001
 43
0.0000001
 44
0.0000000001
 40
0.0
 40
0.0
 40
0.0
 40
0.0
 40
0.0668747752
 40
0.1557425196
 40
0.266147979
 40
0.3950621754
 40
0.6906954112
 40
1.0
 40
1.0
 40
1.0
 40
1.0
 10
67.43525405
 20
249.5371932988
 30
0.0
 10
67.5082812142
 20
249.575826498
 30
0.0
 10
67.6879228831
 20
249.6471811927
 30
0.0
 10
68.0046365057
 20
249.7362184092
 30
0.0
 10
68.4022390779
 20
249.8171979218
 30
0.0
 10
69.0559248509
 20
249.915637794
 30
0.0
 10
69.9599611197
 20
249.994105042
 30
0.0
 10
70.7072418929
 20
250.0175062271
 30
0.0
 10
71.0893468682
 20
250.0198654099
 30
0.0
  0
SPLINE
  5
2D5
100
AcDbEntity
  8
0
100
AcDbSpline
 62
7
  6
CONTINUOUS
 70
0
 71
3
 72
9
 73
5
 74
0
 42
0.0000001
 43
0.0000001
 44
0.0000000001
 40
0.0
 40
0.0
 40
0.0
 40
0.0
 40
0.3794610186
 40
1.0
 40
1.0
 40
1.0
 40
1.0
 10
67.4352784415
 20
249.5371886585
 30
0.0
 10
67.4337997148
 20
249.5367550821
 30
0.0
 10
67.4302723408
 20
249.5355370417
 30
0.0
 10
67.4252418582
 20
249.533319259
 30
0.0
 10
67.4251367615
 20
249.5308014602
 30
0.0
  0
SPLINE
  5
2D6
100
AcDbEntity
  8
0
100
AcDbSpline
 62
7
  6
CONTINUOUS
 70
0
 71
3
 72
9
 73
5
 74
0
 42
0.0000001
 43
0.0000001
 44
0.0000000001
 40
0.0
 40
0.0
 40
0.0
 40
0.0
 40
0.4995601818
 40
1.0
 40
1.0
 40
1.0
 40
1.0
 10
67.4158744604
 20
248.7713338514
 30
0.0
 10
67.3611728011
 20
246.5025053813
 30
0.0
 10
67.2826981453
 20
241.960036357
 30
0.0
 10
67.2647920112
 20
237.4170097235
 30
0.0
 10
67.2638442852
 20
235.1435259527
 30
0.0
  0
LINE
  5
2D7
100
AcDbEntity
  8
0
100
AcDbLine
 62
7
  6
CONTINUOUS
 10
67.2638442852
 20
235.1435259527
 11
67.2638513383
 21
234.4200711217
  0
SPLINE
  5
2D8
100
AcDbEntity
  8
0
100
AcDbSpline
 62
7
  6
CONTINUOUS
 70
0
 71
3
 72
9
 73
5
 74
0
 42
0.0000001
 43
0.0000001
 44
0.0000000001
 40
0.0
 40
0.0
 40
0.0
 40
0.0
 40
0.5004365401
 40
1.0
 40
1.0
 40
1.0
 40
1.0
 10
67.2638513383
 20
234.4200711217
 30
0.0
 10
67.2648354172
 20
232.1512448054
 30
0.0
 10
67.2825953459
 20
227.6174916087
 30
0.0
 10
67.3614113067
 20
223.0843111098
 30
0.0
 10
67.4156347542
 20
220.8200920371
 30
0.0
  0
SPLINE
  5
2D9
100
AcDbEntity
  8
0
100
AcDbSpline
 62
7
  6
CONTINUOUS
 70
0
 71
3
 72
12
 73
8
 74
0
 42
0.0000001
 43
0.0000001
 44
0.0000000001
 40
0.0
 40
0.0
 40
0.0
 40
0.0
 40
0.2657014157
 40
0.5220098005
 40
0.6462711242
 40
0.7674604744
 40
1.0
 40
1.0
 40
1.0
 40
1.0
 10
71.0893456602
 20
219.5590083321
 30
0.0
 10
71.089347125
 20
219.1017404872
 30
0.0
 10
71.1689264123
 20
218.2008350891
 30
0.0
 10
71.4969088978
 20
217.1268686035
 30
0.0
 10
71.9052437349
 20
216.3626594334
 30
0.0
 10
72.3933774855
 20
215.698783774
 30
0.0
 10
72.8751293666
 20
215.2981283084
 30
0.0
 10
73.2289460783
 20
215.11112246
 30
0.0
  0
SPLINE
  5
2DA
100
AcDbEntity
  8
0
100
AcDbSpline
 62
7
  6
CONTINUOUS
 70
0
 71
3
 72
12
 73
8
 74
0
 42
0.0000001
 43
0.0000001
 44
0.0000000001
 40
0.0
 40
0.0
 40
0.0
 40
0.0
 40
0.2325395296
 40
0.3537288809
 40
0.4779902054
 40
0.7342985904
 40
1.0
 40
1.0
 40
1.0
 40
1.0
 10
73.2289460868
 20
254.4677631748
 30
0.0
 10
72.8751294686
 20
254.280757378
 30
0.0
 10
72.3933777007
 20
253.8801020528
 30
0.0
 10
71.905244013
 20
253.2162266255
 30
0.0
 10
71.4969091936
 20
252.452017722
 30
0.0
 10
71.1689266391
 20
251.3780516032
 30
0.0
 10
71.0893472123
 20
250.4771464879
 30
0.0
 10
71.0893456555
 20
250.0198787835
 30
0.0
  0
SPLINE
  5
2DB
100
AcDbEntity
  8
0
100
AcDbSpline
 62
7
  6
CONTINUOUS
 70
0
 71
3
 72
9
 73
5
 74
0
 42
0.0000001
 43
0.0000001
 44
0.0000000001
 40
0.0
 40
0.0
 40
0.0
 40
0.0
 40
0.2730028948
 40
1.0
 40
1.0
 40
1.0
 40
1.0
 10
67.5962648425
 20
251.9515310458
 30
0.0
 10
67.6012496197
 20
252.0002837293
 30
0.0
 10
67.6189966791
 20
252.1788936911
 30
0.0
 10
67.6337203028
 20
252.3579603394
 30
0.0
 10
67.6381306198
 20
252.488389335
 30
0.0
  0
SPLINE
  5
2DC
100
AcDbEntity
  8
0
100
AcDbSpline
 62
7
  6
CONTINUOUS
 70
0
 71
3
 72
25
 73
21
 74
0
 42
0.0000001
 43
0.0000001
 44
0.0000000001
 40
0.0
 40
0.0
 40
0.0
 40
0.0
 40
0.0574028491
 40
0.1072597485
 40
0.1485123008
 40
0.1802779821
 40
0.1925261057
 40
0.202561632
 40
0.2109872403
 40
0.2190292122
 40
0.2283107946
 40
0.2401462842
 40
0.2740863544
 40
0.3234933425
 40
0.3886296992
 40
0.4681478414
 40
0.5598790865
 40
0.6611856949
 40
0.7697655201
 40
1.0
 40
1.0
 40
1.0
 40
1.0
 10
67.639833707
 20
252.5612966914
 30
0.0
 10
67.640238562
 20
252.5950759987
 30
0.0
 10
67.63993235
 20
252.6582094605
 30
0.0
 10
67.6352766457
 20
252.7455649291
 30
0.0
 10
67.6259840577
 20
252.8172981504
 30
0.0
 10
67.613546445
 20
252.8662978956
 30
0.0
 10
67.5994794011
 20
252.8949837025
 30
0.0
 10
67.5882166801
 20
252.9093601573
 30
0.0
 10
67.5747027983
 20
252.9180517307
 30
0.0
 10
67.5589918002
 20
252.9193296842
 30
0.0
 10
67.5426519517
 20
252.9128324306
 30
0.0
 10
67.5171785375
 20
252.8924038647
 30
0.0
 10
67.4846942493
 20
252.8458197243
 30
0.0
 10
67.4462110374
 20
252.7673755257
 30
0.0
 10
67.4065654924
 20
252.6600338935
 30
0.0
 10
67.3677752788
 20
252.5263794589
 30
0.0
 10
67.3317951986
 20
252.3699835856
 30
0.0
 10
67.3002038282
 20
252.1952588502
 30
0.0
 10
67.2645516556
 20
251.9386569737
 30
0.0
 10
67.2480414622
 20
251.7397587682
 30
0.0
 10
67.2405381406
 20
251.6044730661
 30
0.0
  0
LINE
  5
2DD
100
AcDbEntity
  8
0
100
AcDbLine
 62
7
  6
CONTINUOUS
 10
67.2405381406
 20
251.6044730661
 11
67.2399852912
 21
251.594375664
  0
LINE
  5
2DE
100
AcDbEntity
  8
0
100
AcDbLine
 62
7
  6
CONTINUOUS
 10
67.2486695236
 20
251.5749269769
 11
67.2494793376
 21
251.5881276646
  0
SPLINE
  5
2DF
100
AcDbEntity
  8
0
100
AcDbSpline
 62
7
  6
CONTINUOUS
 70
0
 71
3
 72
23
 73
19
 74
0
 42
0.0000001
 43
0.0000001
 44
0.0000000001
 40
0.0
 40
0.0
 40
0.0
 40
0.0
 40
0.2292162125
 40
0.4399916666
 40
0.6134895154
 40
0.6801549246
 40
0.7312597368
 40
0.766601873
 40
0.7790401275
 40
0.7887522419
 40
0.796838072
 40
0.8048897489
 40
0.8143028273
 40
0.8258160342
 40
0.8559753793
 40
0.8956713473
 40
0.944037389
 40
1.0
 40
1.0
 40
1.0
 40
1.0
 10
67.2494793376
 20
251.5881276646
 30
0.0
 10
67.2574606311
 20
251.7170543889
 30
0.0
 10
67.2764286874
 20
251.964423991
 30
0.0
 10
67.3267284051
 20
252.3067722272
 30
0.0
 10
67.3851042166
 20
252.5546569156
 30
0.0
 10
67.4394302825
 20
252.7098269486
 30
0.0
 10
67.4756951967
 20
252.7881307837
 30
0.0
 10
67.5064876762
 20
252.8353694172
 30
0.0
 10
67.5307554403
 20
252.8571374426
 30
0.0
 10
67.5462030077
 20
252.8650437258
 30
0.0
 10
67.5613079877
 20
252.8658929067
 30
0.0
 10
67.5747079619
 20
252.8593566103
 30
0.0
 10
67.5858506063
 20
252.8471040654
 30
0.0
 10
67.5998910856
 20
252.8218006544
 30
0.0
 10
67.6125082696
 20
252.7772788731
 30
0.0
 10
67.6223616476
 20
252.7113825185
 30
0.0
 10
67.6279372228
 20
252.6303214775
 30
0.0
 10
67.6289522684
 20
252.5715260439
 30
0.0
 10
67.6289513423
 20
252.5399886233
 30
0.0
  0
SPLINE
  5
2E0
100
AcDbEntity
  8
0
100
AcDbSpline
 62
7
  6
CONTINUOUS
 70
0
 71
3
 72
9
 73
5
 74
0
 42
0.0000001
 43
0.0000001
 44
0.0000000001
 40
0.0
 40
0.0
 40
0.0
 40
0.0
 40
0.3760889613
 40
1.0
 40
1.0
 40
1.0
 40
1.0
 10
67.2402270687
 20
251.5943569883
 30
0.0
 10
67.2400964277
 20
251.5922507604
 30
0.0
 10
67.2398971671
 20
251.5868409986
 30
0.0
 10
67.2406893874
 20
251.5803428743
 30
0.0
 10
67.2433228422
 20
251.5780362013
 30
0.0
  0
SPLINE
  5
2E1
100
AcDbEntity
  8
0
100
AcDbSpline
 62
7
  6
CONTINUOUS
 70
0
 71
3
 72
8
 73
4
 74
0
 42
0.0000001
 43
0.0000001
 44
0.0000000001
 40
0.0
 40
0.0
 40
0.0
 40
0.0
 40
1.0
 40
1.0
 40
1.0
 40
1.0
 10
67.2433228422
 20
251.5780362013
 30
0.0
 10
67.2448901362
 20
251.5766633906
 30
0.0
 10
67.2466912926
 20
251.575344285
 30
0.0
 10
67.2487252035
 20
251.5748923706
 30
0.0
  0
SPLINE
  5
2E2
100
AcDbEntity
  8
0
100
AcDbSpline
 62
7
  6
CONTINUOUS
 70
0
 71
3
 72
9
 73
5
 74
0
 42
0.0000001
 43
0.0000001
 44
0.0000000001
 40
0.0
 40
0.0
 40
0.0
 40
0.0
 40
0.2492552785
 40
1.0
 40
1.0
 40
1.0
 40
1.0
 10
71.6478846652
 20
256.7397548858
 30
0.0
 10
71.7066322638
 20
256.7628678401
 30
0.0
 10
71.9464584351
 20
256.8447569827
 30
0.0
 10
72.2002739664
 20
256.8853908726
 30
0.0
 10
72.3903296749
 20
256.8912717623
 30
0.0
  0
SPLINE
  5
2E3
100
AcDbEntity
  8
0
100
AcDbSpline
 62
7
  6
CONTINUOUS
 70
0
 71
3
 72
24
 73
20
 74
0
 42
0.0000001
 43
0.0000001
 44
0.0000000001
 40
0.0
 40
0.0
 40
0.0
 40
0.0
 40
0.0248604572
 40
0.0337195306
 40
0.0403163345
 40
0.0450821712
 40
0.0492460673
 40
0.0545828249
 40
0.0621367231
 40
0.0853702358
 40
0.1204325505
 40
0.1674313945
 40
0.2261355267
 40
0.2958289051
 40
0.3755661988
 40
0.4642701376
 40
0.5607812081
 40
0.7724635733
 40
1.0
 40
1.0
 40
1.0
 40
1.0
 10
67.6289416975
 20
215.0392444625
 30
0.0
 10
67.6289478263
 20
215.0247737525
 30
0.0
 10
67.6284162897
 20
215.0050678606
 30
0.0
 10
67.6239531929
 20
214.9819221379
 30
0.0
 10
67.6198096252
 20
214.9708962907
 30
0.0
 10
67.6136931254
 20
214.9635396368
 30
0.0
 10
67.6047726018
 20
214.9623376834
 30
0.0
 10
67.5957652936
 20
214.9673377401
 30
0.0
 10
67.5806389499
 20
214.9819615535
 30
0.0
 10
67.559960939
 20
215.0147464319
 30
0.0
 10
67.5329350328
 20
215.0696503673
 30
0.0
 10
67.502226032
 20
215.1457442883
 30
0.0
 10
67.4688425413
 20
215.2422326808
 30
0.0
 10
67.4339727347
 20
215.3582978705
 30
0.0
 10
67.398918663
 20
215.4924300854
 30
0.0
 10
67.3649035354
 20
215.6428840133
 30
0.0
 10
67.3210642123
 20
215.8697449451
 30
0.0
 10
67.2774425002
 20
216.1787718256
 30
0.0
 10
67.2574730571
 20
216.433764675
 30
0.0
 10
67.2492551844
 20
216.5659532993
 30
0.0
  0
SPLINE
  5
2E4
100
AcDbEntity
  8
0
100
AcDbSpline
 62
7
  6
CONTINUOUS
 70
0
 71
3
 72
13
 73
9
 74
0
 42
0.0000001
 43
0.0000001
 44
0.0000000001
 40
0.0
 40
0.0
 40
0.0
 40
0.0
 40
0.3093058709
 40
0.6049393357
 40
0.7338532627
 40
0.8442583064
 40
0.9331256013
 40
1.0
 40
1.0
 40
1.0
 40
1.0
 10
71.0893468682
 20
219.5590215689
 30
0.0
 10
70.7072403006
 20
219.5613808294
 30
0.0
 10
69.9599576467
 20
219.5847822798
 30
0.0
 10
69.0559198592
 20
219.6632500824
 30
0.0
 10
68.4022346911
 20
219.7616903007
 30
0.0
 10
68.0046335461
 20
219.842669836
 30
0.0
 10
67.6879214578
 20
219.9317068777
 30
0.0
 10
67.5082807935
 20
220.0030613178
 30
0.0
 10
67.4352540439
 20
220.0416943099
 30
0.0
  0
SPLINE
  5
2E5
100
AcDbEntity
  8
0
100
AcDbSpline
 62
7
  6
CONTINUOUS
 70
0
 71
3
 72
13
 73
9
 74
0
 42
0.0000001
 43
0.0000001
 44
0.0000000001
 40
0.0
 40
0.0
 40
0.0
 40
0.0
 40
0.0794924384
 40
0.1720070005
 40
0.4014688882
 40
0.5372585535
 40
0.6839606406
 40
1.0
 40
1.0
 40
1.0
 40
1.0
 10
71.6478676667
 20
212.8391186558
 30
0.0
 10
71.6560981932
 20
212.8904887168
 30
0.0
 10
71.6992677901
 20
212.997423841
 30
0.0
 10
71.8592590755
 20
213.2075775943
 30
0.0
 10
72.1003996709
 20
213.3929456663
 30
0.0
 10
72.3901807463
 20
213.5605861807
 30
0.0
 10
72.7441863498
 20
213.7298374274
 30
0.0
 10
73.032104523
 20
213.8260927257
 30
0.0
 10
73.2289449655
 20
213.8896191827
 30
0.0
  0
SPLINE
  5
2E6
100
AcDbEntity
  8
0
100
AcDbSpline
 62
7
  6
CONTINUOUS
 70
0
 71
3
 72
13
 73
9
 74
0
 42
0.0000001
 43
0.0000001
 44
0.0000000001
 40
0.0
 40
0.0
 40
0.0
 40
0.0
 40
0.0789453046
 40
0.1648925647
 40
0.2644192881
 40
0.380585182
 40
0.6625913183
 40
1.0
 40
1.0
 40
1.0
 40
1.0
 10
72.3903482188
 20
256.8912659741
 30
0.0
 10
72.3903621928
 20
256.8645626464
 30
0.0
 10
72.4011043472
 20
256.8083167402
 30
0.0
 10
72.4484431341
 20
256.7306672527
 30
0.0
 10
72.5245265421
 20
256.6612192838
 30
0.0
 10
72.6696219355
 20
256.574325557
 30
0.0
 10
72.9086865259
 20
256.4969479412
 30
0.0
 10
73.115638467
 20
256.4629460664
 30
0.0
 10
73.2289454175
 20
256.4492739588
 30
0.0
  0
SPLINE
  5
2E7
100
AcDbEntity
  8
0
100
AcDbSpline
 62
7
  6
CONTINUOUS
 70
0
 71
3
 72
9
 73
5
 74
0
 42
0.0000001
 43
0.0000001
 44
0.0000000001
 40
0.0
 40
0.0
 40
0.0
 40
0.0
 40
0.3795131344
 40
1.0
 40
1.0
 40
1.0
 40
1.0
 10
67.4352520434
 20
220.0416940095
 30
0.0
 10
67.4337748955
 20
220.0421277038
 30
0.0
 10
67.4302520394
 20
220.0433448497
 30
0.0
 10
67.425228149
 20
220.0455680996
 30
0.0
 10
67.4251281454
 20
220.0480831234
 30
0.0
  0
SPLINE
  5
2E8
100
AcDbEntity
  8
0
100
AcDbSpline
 62
7
  6
CONTINUOUS
 70
0
 71
3
 72
13
 73
9
 74
0
 42
0.0000001
 43
0.0000001
 44
0.0000000001
 40
0.0
 40
0.0
 40
0.0
 40
0.0
 40
0.3374078029
 40
0.6194138669
 40
0.7355800505
 40
0.8351071732
 40
0.9210547707
 40
1.0
 40
1.0
 40
1.0
 40
1.0
 10
73.2289454225
 20
213.1296116162
 30
0.0
 10
73.1156392903
 20
213.1159395905
 30
0.0
 10
72.9086886088
 20
213.0819379333
 30
0.0
 10
72.6696252894
 20
213.004561165
 30
0.0
 10
72.5245298736
 20
212.9176686394
 30
0.0
 10
72.4484458983
 20
212.8482215331
 30
0.0
 10
72.4011060145
 20
212.7705730109
 30
0.0
 10
72.390362704
 20
212.7143275185
 30
0.0
 10
72.3903482
 20
212.6876243393
 30
0.0
  0
SPLINE
  5
2E9
100
AcDbEntity
  8
0
100
AcDbSpline
 62
7
  6
CONTINUOUS
 70
0
 71
3
 72
9
 73
5
 74
0
 42
0.0000001
 43
0.0000001
 44
0.0000000001
 40
0.0
 40
0.0
 40
0.0
 40
0.0
 40
0.2537039038
 40
1.0
 40
1.0
 40
1.0
 40
1.0
 10
67.2394628914
 20
217.9942416171
 30
0.0
 10
67.241022222
 20
217.9644242716
 30
0.0
 10
67.2479035612
 20
217.8469368152
 30
0.0
 10
67.2578123955
 20
217.7296181758
 30
0.0
 10
67.2672073449
 20
217.6422914523
 30
0.0
  0
SPLINE
  5
2EA
100
AcDbEntity
  8
0
100
AcDbSpline
 62
7
  6
CONTINUOUS
 70
0
 71
3
 72
22
 73
18
 74
0
 42
0.0000001
 43
0.0000001
 44
0.0000000001
 40
0.0
 40
0.0
 40
0.0
 40
0.0
 40
0.2390056759
 40
0.3471932374
 40
0.4447431093
 40
0.5293690709
 40
0.5991728388
 40
0.6531877485
 40
0.6915333422
 40
0.7054599145
 40
0.7165697858
 40
0.7258376852
 40
0.7347041221
 40
0.756182364
 40
0.7867863995
 40
0.876670059
 40
1.0
 40
1.0
 40
1.0
 40
1.0
 10
67.2672073449
 20
217.6422914523
 30
0.0
 10
67.2795740259
 20
217.527342273
 30
0.0
 10
67.30249265
 20
217.3607732429
 30
0.0
 10
67.3446528162
 20
217.1497603783
 30
0.0
 10
67.3784598493
 20
217.0133668485
 30
0.0
 10
67.4142067716
 20
216.8967802409
 30
0.0
 10
67.4504056691
 20
216.802504552
 30
0.0
 10
67.4854386313
 20
216.732273282
 30
0.0
 10
67.5150449612
 20
216.6895879371
 30
0.0
 10
67.5381784244
 20
216.669209863
 30
0.0
 10
67.5530160522
 20
216.6612956054
 30
0.0
 10
67.5674562168
 20
216.6593525209
 30
0.0
 10
67.5861791187
 20
216.6658140131
 30
0.0
 10
67.6049044645
 20
216.6907587925
 30
0.0
 10
67.627186964
 20
216.7556086667
 30
0.0
 10
67.6397492971
 20
216.8741928858
 30
0.0
 10
67.6405911654
 20
216.9770777015
 30
0.0
 10
67.6394540926
 20
217.0367243678
 30
0.0
  0
SPLINE
  5
2EB
100
AcDbEntity
  8
0
100
AcDbSpline
 62
7
  6
CONTINUOUS
 70
0
 71
3
 72
9
 73
5
 74
0
 42
0.0000001
 43
0.0000001
 44
0.0000000001
 40
0.0
 40
0.0
 40
0.0
 40
0.0
 40
0.2244318102
 40
1.0
 40
1.0
 40
1.0
 40
1.0
 10
67.6394540926
 20
217.0367243678
 30
0.0
 10
67.6388070158
 20
217.0706676379
 30
0.0
 10
67.6335419766
 20
217.2218636338
 30
0.0
 10
67.621347317
 20
217.3727269028
 30
0.0
 10
67.6104467223
 20
217.489538342
 30
0.0
  0
SPLINE
  5
2EC
100
AcDbEntity
  8
0
100
AcDbSpline
 62
7
  6
CONTINUOUS
 70
0
 71
3
 72
10
 73
6
 74
0
 42
0.0000001
 43
0.0000001
 44
0.0000000001
 40
0.0
 40
0.0
 40
0.0
 40
0.0
 40
0.1796913717
 40
0.4129125161
 40
1.0
 40
1.0
 40
1.0
 40
1.0
 10
67.6315140758
 20
215.0982400896
 30
0.0
 10
67.622892232
 20
215.1755684838
 30
0.0
 10
67.5955560329
 20
215.3523612275
 30
0.0
 10
67.5199662229
 20
215.7786699206
 30
0.0
 10
67.4566219651
 20
216.1282297037
 30
0.0
 10
67.4162029239
 20
216.3792086801
 30
0.0
  0
SPLINE
  5
2ED
100
AcDbEntity
  8
0
100
AcDbSpline
 62
7
  6
CONTINUOUS
 70
0
 71
3
 72
9
 73
5
 74
0
 42
0.0000001
 43
0.0000001
 44
0.0000000001
 40
0.0
 40
0.0
 40
0.0
 40
0.0
 40
0.2435692238
 40
1.0
 40
1.0
 40
1.0
 40
1.0
 10
67.3155970694
 20
217.090869981
 30
0.0
 10
67.3068919911
 20
217.1639664651
 30
0.0
 10
67.2734016069
 20
217.4643280249
 30
0.0
 10
67.2499153511
 20
217.7658674825
 30
0.0
 10
67.2394628914
 20
217.9942416171
 30
0.0
  0
SPLINE
  5
2EE
100
AcDbEntity
  8
0
100
AcDbSpline
 62
7
  6
CONTINUOUS
 70
0
 71
3
 72
9
 73
5
 74
0
 42
0.0000001
 43
0.0000001
 44
0.0000000001
 40
0.0
 40
0.0
 40
0.0
 40
0.0
 40
0.2229134064
 40
1.0
 40
1.0
 40
1.0
 40
1.0
 10
93.2288696188
 20
43.4812192179
 30
0.0
 10
93.2288680466
 20
43.4565194213
 30
0.0
 10
93.2146128164
 20
43.3452421667
 30
0.0
 10
93.1443372449
 20
43.2495962294
 30
0.0
 10
93.0847411984
 20
43.1874486468
 30
0.0
  0
SPLINE
  5
2EF
100
AcDbEntity
  8
0
100
AcDbSpline
 62
7
  6
CONTINUOUS
 70
0
 71
3
 72
9
 73
5
 74
0
 42
0.0000001
 43
0.0000001
 44
0.0000000001
 40
0.0
 40
0.0
 40
0.0
 40
0.0
 40
0.2136632255
 40
1.0
 40
1.0
 40
1.0
 40
1.0
 10
93.0847411984
 20
43.1874486468
 30
0.0
 10
93.0552208733
 20
43.156664443
 30
0.0
 10
92.9068293976
 20
43.0224149799
 30
0.0
 10
92.7350228212
 20
42.9175851324
 30
0.0
 10
92.598711229
 20
42.8397527934
 30
0.0
  0
SPLINE
  5
2F0
100
AcDbEntity
  8
0
100
AcDbSpline
 62
7
  6
CONTINUOUS
 70
0
 71
3
 72
9
 73
5
 74
0
 42
0.0000001
 43
0.0000001
 44
0.0000000001
 40
0.0
 40
0.0
 40
0.0
 40
0.0
 40
0.2424936428
 40
1.0
 40
1.0
 40
1.0
 40
1.0
 10
92.598711229
 20
42.8397527934
 30
0.0
 10
92.5680210666
 20
42.8222290664
 30
0.0
 10
92.4407493771
 20
42.7512065138
 30
0.0
 10
92.3115030715
 20
42.6838095417
 30
0.0
 10
92.2134485731
 20
42.6330843434
 30
0.0
  0
LINE
  5
2F1
100
AcDbEntity
  8
0
100
AcDbLine
 62
7
  6
CONTINUOUS
 10
92.2134485731
 20
42.6330843434
 11
92.1289449493
 21
42.5894428152
  0
SPLINE
  5
2F2
100
AcDbEntity
  8
0
100
AcDbSpline
 62
7
  6
CONTINUOUS
 70
0
 71
3
 72
9
 73
5
 74
0
 42
0.0000001
 43
0.0000001
 44
0.0000000001
 40
0.0
 40
0.0
 40
0.0
 40
0.0
 40
0.2226123515
 40
1.0
 40
1.0
 40
1.0
 40
1.0
 10
93.228839392
 20
435.6976693687
 30
0.0
 10
93.22883823
 20
435.7223001473
 30
0.0
 10
93.2145742845
 20
435.8334078425
 30
0.0
 10
93.1445330678
 20
435.9289615809
 30
0.0
 10
93.0850934584
 20
435.9911327284
 30
0.0
  0
SPLINE
  5
2F3
100
AcDbEntity
  8
0
100
AcDbSpline
 62
7
  6
CONTINUOUS
 70
0
 71
3
 72
9
 73
5
 74
0
 42
0.0000001
 43
0.0000001
 44
0.0000000001
 40
0.0
 40
0.0
 40
0.0
 40
0.0
 40
0.2138464776
 40
1.0
 40
1.0
 40
1.0
 40
1.0
 10
93.0850934584
 20
435.9911327284
 30
0.0
 10
93.055792389
 20
436.021780324
 30
0.0
 10
92.9086041048
 20
436.1553621854
 30
0.0
 10
92.7379314607
 20
436.2594930847
 30
0.0
 10
92.6026089147
 20
436.3368567848
 30
0.0
  0
SPLINE
  5
2F4
100
AcDbEntity
  8
0
100
AcDbSpline
 62
7
  6
CONTINUOUS
 70
0
 71
3
 72
9
 73
5
 74
0
 42
0.0000001
 43
0.0000001
 44
0.0000000001
 40
0.0
 40
0.0
 40
0.0
 40
0.0
 40
0.2423467732
 40
1.0
 40
1.0
 40
1.0
 40
1.0
 10
92.6026089147
 20
436.3368567848
 30
0.0
 10
92.5716383758
 20
436.3545625962
 30
0.0
 10
92.4431220935
 20
436.4263626329
 30
0.0
 10
92.3125993414
 20
436.4944830572
 30
0.0
 10
92.2135468399
 20
436.54574231
 30
0.0
  0
LINE
  5
2F5
100
AcDbEntity
  8
0
100
AcDbLine
 62
7
  6
CONTINUOUS
 10
92.2135468399
 20
436.54574231
 11
92.1289449493
 21
436.5894428152
  0
SPLINE
  5
2F6
100
AcDbEntity
  8
0
100
AcDbSpline
 62
7
  6
CONTINUOUS
 70
0
 71
3
 72
9
 73
5
 74
0
 42
0.0000001
 43
0.0000001
 44
0.0000000001
 40
0.0
 40
0.0
 40
0.0
 40
0.0
 40
0.2600646559
 40
1.0
 40
1.0
 40
1.0
 40
1.0
 10
73.8076584076
 20
435.8650075087
 30
0.0
 10
73.7769494714
 20
435.8245930901
 30
0.0
 10
73.6615958822
 20
435.6671747061
 30
0.0
 10
73.5577635498
 20
435.501028418
 30
0.0
 10
73.4906529976
 20
435.3731525965
 30
0.0
  0
SPLINE
  5
2F7
100
AcDbEntity
  8
0
100
AcDbSpline
 62
7
  6
CONTINUOUS
 70
0
 71
3
 72
9
 73
5
 74
0
 42
0.0000001
 43
0.0000001
 44
0.0000000001
 40
0.0
 40
0.0
 40
0.0
 40
0.0
 40
0.2647057265
 40
1.0
 40
1.0
 40
1.0
 40
1.0
 10
73.4906529976
 20
435.3731525965
 30
0.0
 10
73.4486904079
 20
435.2931949676
 30
0.0
 10
73.3042014168
 20
434.984361135
 30
0.0
 10
73.2289449493
 20
434.6402762165
 30
0.0
 10
73.2289449493
 20
434.3894428152
 30
0.0
  0
SPLINE
  5
2F8
100
AcDbEntity
  8
0
100
AcDbSpline
 62
7
  6
CONTINUOUS
 70
0
 71
3
 72
9
 73
5
 74
0
 42
0.0000001
 43
0.0000001
 44
0.0000000001
 40
0.0
 40
0.0
 40
0.0
 40
0.0
 40
0.240649044
 40
1.0
 40
1.0
 40
1.0
 40
1.0
 10
73.2289449493
 20
44.7894428152
 30
0.0
 10
73.2289449493
 20
44.7073078415
 30
0.0
 10
73.2519478662
 20
44.365863606
 30
0.0
 10
73.3702156207
 20
44.0352204695
 30
0.0
 10
73.4906529976
 20
43.805733034
 30
0.0
  0
SPLINE
  5
2F9
100
AcDbEntity
  8
0
100
AcDbSpline
 62
7
  6
CONTINUOUS
 70
0
 71
3
 72
9
 73
5
 74
0
 42
0.0000001
 43
0.0000001
 44
0.0000000001
 40
0.0
 40
0.0
 40
0.0
 40
0.0
 40
0.2403080807
 40
1.0
 40
1.0
 40
1.0
 40
1.0
 10
73.4906529976
 20
43.805733034
 30
0.0
 10
73.5124497096
 20
43.7642004827
 30
0.0
 10
73.6074220336
 20
43.5936139583
 30
0.0
 10
73.7179472385
 20
43.4319422813
 30
0.0
 10
73.8076584076
 20
43.3138781218
 30
0.0
  0
LINE
  5
2FA
100
AcDbEntity
  8
0
100
AcDbLine
 62
7
  6
CONTINUOUS
 10
97.2392545431
 20
59.787433651
 11
97.3638379294
 21
59.6833115881
  0
SPLINE
  5
2FB
100
AcDbEntity
  8
0
100
AcDbSpline
 62
7
  6
CONTINUOUS
 70
0
 71
3
 72
9
 73
5
 74
0
 42
0.0000001
 43
0.0000001
 44
0.0000000001
 40
0.0
 40
0.0
 40
0.0
 40
0.0
 40
0.2596861376
 40
1.0
 40
1.0
 40
1.0
 40
1.0
 10
97.3638379294
 20
59.6833115881
 30
0.0
 10
97.458375044
 20
59.6041959336
 30
0.0
 10
97.8215267015
 20
59.2986927732
 30
0.0
 10
98.1777079074
 20
58.9832197862
 30
0.0
 10
98.4218508684
 20
58.7304397866
 30
0.0
  0
SPLINE
  5
2FC
100
AcDbEntity
  8
0
100
AcDbSpline
 62
7
  6
CONTINUOUS
 70
0
 71
3
 72
9
 73
5
 74
0
 42
0.0000001
 43
0.0000001
 44
0.0000000001
 40
0.0
 40
0.0
 40
0.0
 40
0.0
 40
0.5485384179
 40
1.0
 40
1.0
 40
1.0
 40
1.0
 10
98.4218508684
 20
58.7304397866
 30
0.0
 10
98.6505716058
 20
58.4936276022
 30
0.0
 10
99.045301435
 20
58.0334056189
 30
0.0
 10
99.2392415607
 20
57.4342147702
 30
0.0
 10
99.2392415607
 20
57.1632488071
 30
0.0
  0
SPLINE
  5
2FD
100
AcDbEntity
  8
0
100
AcDbSpline
 62
7
  6
CONTINUOUS
 70
0
 71
3
 72
9
 73
5
 74
0
 42
0.0000001
 43
0.0000001
 44
0.0000000001
 40
0.0
 40
0.0
 40
0.0
 40
0.0
 40
0.7557723858
 40
1.0
 40
1.0
 40
1.0
 40
1.0
 10
274.0392415607
 20
40.5894428152
 30
0.0
 10
274.2345919812
 20
40.6572776917
 30
0.0
 10
274.4931016317
 20
40.7469771877
 30
0.0
 10
274.750176926
 20
40.8406901805
 30
0.0
 10
274.8128306324
 20
40.8639303955
 30
0.0
  0
SPLINE
  5
2FE
100
AcDbEntity
  8
0
100
AcDbSpline
 62
7
  6
CONTINUOUS
 70
0
 71
3
 72
9
 73
5
 74
0
 42
0.0000001
 43
0.0000001
 44
0.0000000001
 40
0.0
 40
0.0
 40
0.0
 40
0.0
 40
0.2806467969
 40
1.0
 40
1.0
 40
1.0
 40
1.0
 10
274.8128306324
 20
40.8639303955
 30
0.0
 10
274.9052215095
 20
40.8982010553
 30
0.0
 10
275.2330105576
 20
41.023421331
 30
0.0
 10
275.5579225725
 20
41.1609763027
 30
0.0
 10
275.7776706661
 20
41.2855111556
 30
0.0
  0
SPLINE
  5
2FF
100
AcDbEntity
  8
0
100
AcDbSpline
 62
7
  6
CONTINUOUS
 70
0
 71
3
 72
9
 73
5
 74
0
 42
0.0000001
 43
0.0000001
 44
0.0000000001
 40
0.0
 40
0.0
 40
0.0
 40
0.0
 40
0.6046223669
 40
1.0
 40
1.0
 40
1.0
 40
1.0
 10
275.7776706661
 20
41.2855111556
 30
0.0
 10
275.9011153765
 20
41.3554693
 30
0.0
 10
276.1017730074
 20
41.4755507068
 30
0.0
 10
276.2392415607
 20
41.6966574858
 30
0.0
 10
276.2392415607
 20
41.7894428153
 30
0.0
  0
SPLINE
  5
300
100
AcDbEntity
  8
0
100
AcDbSpline
 62
7
  6
CONTINUOUS
 70
0
 71
3
 72
9
 73
5
 74
0
 42
0.0000001
 43
0.0000001
 44
0.0000000001
 40
0.0
 40
0.0
 40
0.0
 40
0.0
 40
0.3953768863
 40
1.0
 40
1.0
 40
1.0
 40
1.0
 10
276.2392415607
 20
437.3894428152
 30
0.0
 10
276.2392415607
 20
437.4822285509
 30
0.0
 10
276.1017724349
 20
437.7033370004
 30
0.0
 10
275.9011126417
 20
437.8234179953
 30
0.0
 10
275.7776669472
 20
437.8933765621
 30
0.0
  0
SPLINE
  5
301
100
AcDbEntity
  8
0
100
AcDbSpline
 62
7
  6
CONTINUOUS
 70
0
 71
3
 72
9
 73
5
 74
0
 42
0.0000001
 43
0.0000001
 44
0.0000000001
 40
0.0
 40
0.0
 40
0.0
 40
0.0
 40
0.2357423755
 40
1.0
 40
1.0
 40
1.0
 40
1.0
 10
275.7776669472
 20
437.8933765621
 30
0.0
 10
275.7574339054
 20
437.9048429369
 30
0.0
 10
275.6710018403
 20
437.9524147744
 30
0.0
 10
275.5824913989
 20
437.9961408261
 30
0.0
 10
275.5142006477
 20
438.028090256
 30
0.0
  0
SPLINE
  5
302
100
AcDbEntity
  8
0
100
AcDbSpline
 62
7
  6
CONTINUOUS
 70
0
 71
3
 72
9
 73
5
 74
0
 42
0.0000001
 43
0.0000001
 44
0.0000000001
 40
0.0
 40
0.0
 40
0.0
 40
0.0
 40
0.2306002679
 40
1.0
 40
1.0
 40
1.0
 40
1.0
 10
275.5142006477
 20
438.028090256
 30
0.0
 10
275.4614375379
 20
438.0527751693
 30
0.0
 10
275.230819525
 20
438.1559581431
 30
0.0
 10
274.9951215593
 20
438.2473370852
 30
0.0
 10
274.8128959988
 20
438.3149309873
 30
0.0
  0
SPLINE
  5
303
100
AcDbEntity
  8
0
100
AcDbSpline
 62
7
  6
CONTINUOUS
 70
0
 71
3
 72
9
 73
5
 74
0
 42
0.0000001
 43
0.0000001
 44
0.0000000001
 40
0.0
 40
0.0
 40
0.0
 40
0.0
 40
0.2442271008
 40
1.0
 40
1.0
 40
1.0
 40
1.0
 10
274.8128959988
 20
438.3149309873
 30
0.0
 10
274.7502371874
 20
438.3381733554
 30
0.0
 10
274.4931403067
 20
438.4318949915
 30
0.0
 10
274.2346087053
 20
438.5216021314
 30
0.0
 10
274.0392415607
 20
438.5894428153
 30
0.0
  0
SPLINE
  5
304
100
AcDbEntity
  8
0
100
AcDbSpline
 62
7
  6
CONTINUOUS
 70
0
 71
3
 72
9
 73
5
 74
0
 42
0.0000001
 43
0.0000001
 44
0.0000000001
 40
0.0
 40
0.0
 40
0.0
 40
0.0
 40
0.4514447078
 40
1.0
 40
1.0
 40
1.0
 40
1.0
 10
99.2392415607
 20
422.0156368234
 30
0.0
 10
99.2392415607
 20
421.744588913
 30
0.0
 10
99.0451721004
 20
421.1452016272
 30
0.0
 10
98.6502495398
 20
420.6848779041
 30
0.0
 10
98.4214206039
 20
420.4480005983
 30
0.0
  0
SPLINE
  5
305
100
AcDbEntity
  8
0
100
AcDbSpline
 62
7
  6
CONTINUOUS
 70
0
 71
3
 72
9
 73
5
 74
0
 42
0.0000001
 43
0.0000001
 44
0.0000000001
 40
0.0
 40
0.0
 40
0.0
 40
0.0
 40
0.2378160141
 40
1.0
 40
1.0
 40
1.0
 40
1.0
 10
98.4214206039
 20
420.4480005983
 30
0.0
 10
98.3430096549
 20
420.36683178
 30
0.0
 10
98.0041322426
 20
420.0343339527
 30
0.0
 10
97.6412457115
 20
419.7277296025
 30
0.0
 10
97.3638651289
 20
419.4955968144
 30
0.0
  0
LINE
  5
306
100
AcDbEntity
  8
0
100
AcDbLine
 62
7
  6
CONTINUOUS
 10
97.3638651289
 20
419.4955968144
 11
97.2392545374
 21
419.3914519847
  0
SPLINE
  5
307
100
AcDbEntity
  8
0
100
AcDbSpline
 62
7
  6
CONTINUOUS
 70
0
 71
3
 72
10
 73
6
 74
0
 42
0.0000001
 43
0.0000001
 44
0.0000000001
 40
0.0
 40
0.0
 40
0.0
 40
0.0
 40
0.4039679975
 40
0.6753462611
 40
1.0
 40
1.0
 40
1.0
 40
1.0
 10
99.2392415607
 20
42.7894428153
 30
0.0
 10
99.2392415607
 20
42.5889785116
 30
0.0
 10
99.4230214468
 20
42.2655011904
 30
0.0
 10
99.7929783973
 20
41.9419504066
 30
0.0
 10
100.0392063812
 20
41.7744289494
 30
0.0
 10
100.17619107
 20
41.6896339454
 30
0.0
  0
SPLINE
  5
308
100
AcDbEntity
  8
0
100
AcDbSpline
 62
7
  6
CONTINUOUS
 70
0
 71
3
 72
9
 73
5
 74
0
 42
0.0000001
 43
0.0000001
 44
0.0000000001
 40
0.0
 40
0.0
 40
0.0
 40
0.0
 40
0.2372103257
 40
1.0
 40
1.0
 40
1.0
 40
1.0
 10
100.17619107
 20
41.6896339454
 30
0.0
 10
100.2183242283
 20
41.6635530647
 30
0.0
 10
100.3973362897
 20
41.55585313
 30
0.0
 10
100.5809777621
 20
41.4559983907
 30
0.0
 10
100.722424246
 20
41.3826283223
 30
0.0
  0
SPLINE
  5
309
100
AcDbEntity
  8
0
100
AcDbSpline
 62
7
  6
CONTINUOUS
 70
0
 71
3
 72
9
 73
5
 74
0
 42
0.0000001
 43
0.0000001
 44
0.0000000001
 40
0.0
 40
0.0
 40
0.0
 40
0.0
 40
0.2352280601
 40
1.0
 40
1.0
 40
1.0
 40
1.0
 10
100.722424246
 20
41.3826283223
 30
0.0
 10
100.8540737438
 20
41.3143400737
 30
0.0
 10
101.419220011
 20
41.0345635382
 30
0.0
 10
101.9975231054
 20
40.7827724242
 30
0.0
 10
102.4392415607
 20
40.5894428162
 30
0.0
  0
SPLINE
  5
30A
100
AcDbEntity
  8
0
100
AcDbSpline
 62
7
  6
CONTINUOUS
 70
0
 71
3
 72
9
 73
5
 74
0
 42
0.0000001
 43
0.0000001
 44
0.0000000001
 40
0.0
 40
0.0
 40
0.0
 40
0.0
 40
0.2600327839
 40
1.0
 40
1.0
 40
1.0
 40
1.0
 10
102.4392415607
 20
438.5894428152
 30
0.0
 10
102.2890994379
 20
438.5237291974
 30
0.0
 10
101.7118844006
 20
438.2708249739
 30
0.0
 10
101.1368588323
 20
438.0112082585
 30
0.0
 10
100.7228471513
 20
437.7964766305
 30
0.0
  0
SPLINE
  5
30B
100
AcDbEntity
  8
0
100
AcDbSpline
 62
7
  6
CONTINUOUS
 70
0
 71
3
 72
9
 73
5
 74
0
 42
0.0000001
 43
0.0000001
 44
0.0000000001
 40
0.0
 40
0.0
 40
0.0
 40
0.0
 40
0.2623323801
 40
1.0
 40
1.0
 40
1.0
 40
1.0
 10
100.7228471513
 20
437.7964766305
 30
0.0
 10
100.6742210337
 20
437.7712561696
 30
0.0
 10
100.4895501395
 20
437.6738171318
 30
0.0
 10
100.3077841879
 20
437.5706872
 30
0.0
 10
100.1768042014
 20
437.4896311688
 30
0.0
  0
SPLINE
  5
30C
100
AcDbEntity
  8
0
100
AcDbSpline
 62
7
  6
CONTINUOUS
 70
0
 71
3
 72
10
 73
6
 74
0
 42
0.0000001
 43
0.0000001
 44
0.0000000001
 40
0.0
 40
0.0
 40
0.0
 40
0.0
 40
0.324673542
 40
0.5960620401
 40
1.0
 40
1.0
 40
1.0
 40
1.0
 10
100.1768042014
 20
437.4896311688
 30
0.0
 10
100.0397355744
 20
437.4048072258
 30
0.0
 10
99.7933546186
 20
437.2372298899
 30
0.0
 10
99.4231731302
 20
436.9135900998
 30
0.0
 10
99.2392415607
 20
436.5899877335
 30
0.0
 10
99.2392415607
 20
436.3894428153
 30
0.0
  0
ENDSEC
  0
SECTION
  2
OBJECTS
  0
DICTIONARY
  5
C
100
AcDbDictionary
280
0
281
1
  3
ACAD_GROUP
350
D
  3
ACAD_MLINESTYLE
350
17
  3
ACAD_LAYOUT
350
1A
  3
ACAD_PLOTSETTINGS
350
19
  3
ACAD_PLOTSTYLENAME
350
E
  0
DICTIONARY
  5
D
102
{ACAD_REACTORS
330
C
102
}
100
AcDbDictionary
280
0
281
1
  0
ACDBDICTIONARYWDFLT
  5
E
102
{ACAD_REACTORS
330
C
102
}
100
AcDbDictionary
281
1
  3
Normal
350
F
100
AcDbDictionaryWithDefault
340
F
  0
DICTIONARY
  5
17
102
{ACAD_REACTORS
330
C
102
}
100
AcDbDictionary
280
0
281
1
  3
Standard
350
18
  0
DICTIONARY
  5
19
102
{ACAD_REACTORS
330
C
102
}
100
AcDbDictionary
281
1
  0
DICTIONARY
  5
1A
102
{ACAD_REACTORS
330
C
102
}
100
AcDbDictionary
281
1
  3
Model
350
30D
  3
Layout1
350
30E
  0
ACDBPLACEHOLDER
  5
F
102
{ACAD_REACTORS
330
E
102
}
  0
MLINESTYLE
  5
18
102
{ACAD_REACTORS
330
17
102
}
100
AcDbMlineStyle
  2
STANDARD
 70
0
  3

 62
256
 51
90.0
 52
90.0
 71
2
 49
0.5
 62
256
  6
BYLAYER
 49
-0.5
 62
256
  6
BYLAYER
  0
LAYOUT
  5
30D
102
{ACAD_REACTORS
330
1A
102
}
100
AcDbPlotSettings
  1

  2
none_device
  4

  6

 40
0.0
 41
0.0
 42
0.0
 43
0.0
 44
210.0
 45
297.0
 46
0.0
 47
0.0
 48
0.0
 49
0.0
140
0.0
141
0.0
142
1.0
143
1.0
 70
1024
 72
1
 73
0
 74
0
  7

 75
0
147
1.0
148
0.0
149
0.0
100
AcDbLayout
  1
Model
 70
0
 71
0
 10
0.0
 20
0.0
 11
210.0
 21
297.0
 12
0.0
 22
0.0
 32
0.0
 14
0.0
 24
0.0
 34
0.0
 15
0.0
 25
0.0
 35
0.0
146
0.0
 13
0.0
 23
0.0
 33
0.0
 16
1.0
 26
0.0
 36
0.0
 17
0.0
 27
1.0
 37
0.0
 76
0
330
210
345
0
346
0
  0
LAYOUT
  5
30E
102
{ACAD_REACTORS
330
1A
102
}
100
AcDbPlotSettings
  1

  2
none_device
  4

  6

 40
0.0
 41
0.0
 42
0.0
 43
0.0
 44
210.0
 45
297.0
 46
0.0
 47
0.0
 48
0.0
 49
0.0
140
0.0
141
0.0
142
1.0
143
1.0
 70
0
 72
1
 73
0
 74
0
  7

 75
0
147
1.0
148
0.0
149
0.0
100
AcDbLayout
  1
Layout1
 70
0
 71
1
 10
0.0
 20
0.0
 11
210.0
 21
297.0
 12
0.0
 22
0.0
 32
0.0
 14
0.0
 24
0.0
 34
0.0
 15
0.0
 25
0.0
 35
0.0
146
0.0
 13
0.0
 23
0.0
 33
0.0
 16
1.0
 26
0.0
 36
0.0
 17
0.0
 27
1.0
 37
0.0
 76
0
330
211
345
0
346
0
  0
ENDSEC
  0
EOF
