999
DXF file: C:\Users\sesa63760\Dev\_Creo\CAD\MCADID0004838_3D-CAD\drw0001_2.dxf
999
Pro/ENGINEER 2019471 by Parametric Technology Corporation
  0
SECTION
  2
HEADER
  9
$ACADVER
  1
AC1024
  9
$DWGCODEPAGE
  3
ANSI_1252
  9
$EXTMAX
 10
63.3805721652
 20
89.6382377765
 30
0.0
  9
$EXTMIN
 10
0.0
 20
0.0
 30
0.0
  9
$LIMMIN
 10
0.0
 20
0.0
  9
$LIMMAX
 10
63.3805721652
 20
89.6382377765
  9
$VIEWCTR
 10
31.6902860826
 20
44.8191188882
  9
$VIEWSIZE
 40
89.6382377765
  9
$CLAYER
  8
0
  9
$LTSCALE
 40
5.8430851291
  9
$CELTYPE
  6
BYLAYER
  9
$DIMSCALE
 40
1.0
  9
$DIMASZ
 40
0.754530621
  9
$DIMEXO
 40
1.0
  9
$DIMDLI
 40
4.0370406347
  9
$DIMEXE
 40
1.0
  9
$DIMCEN
 40
0.9561412029
  9
$DIMLFAC
 40
1.0
  9
$DIMBLK
  1
_FILLED
  9
$DIMALT
 70
0
  9
$DIMALTF
 40
0.0393700787
  9
$DIMTXT
 40
1.0563428694
  9
$DIMTOL
 70
1
  9
$DIMLIM
 70
0
  9
$DIMTFAC
 40
1.0
  9
$DIMTP
 40
0.01
  9
$DIMTM
 40
0.01
  9
$DIMGAP
 40
0.625
  9
$DIMDSEP
 70
46
  9
$AUNITS
 70
0
  9
$PDMODE
 70
3
  9
$PDSIZE
 40
0.3125
  9
$HANDSEED
  5
2AE
  9
$TILEMODE
 70
1
  9
$MEASUREMENT
 70
1
  9
$INSUNITS
 70
4
  0
ENDSEC
  0
SECTION
  2
CLASSES
  0
CLASS
  1
ACDBDICTIONARYWDFLT
  2
AcDbDictionaryWithDefault
  3
AutoCAD 2000
 90
0
 91
1
280
0
281
0
  0
CLASS
  1
ACDBPLACEHOLDER
  2
AcDbPlaceHolder
  3
AutoCAD 2000
 90
0
 91
1
280
0
281
0
  0
CLASS
  1
LAYOUT
  2
AcDbLayout
  3
AutoCAD 2000
 90
0
 91
0
280
0
281
0
  0
ENDSEC
  0
SECTION
  2
TABLES
  0
TABLE
  2
VPORT
  5
8
100
AcDbSymbolTable
 70
2
  0
VPORT
  5
1F4
100
AcDbSymbolTableRecord
100
AcDbViewportTableRecord
  2
*ACTIVE
 70
0
 10
0.0
 20
0.0
 11
1.0
 21
1.0
 12
31.6902860826
 22
44.8191188882
 13
0.0
 23
0.0
 14
1.0
 24
1.0
 15
0.0
 25
0.0
 16
0.0
 26
0.0
 36
1.0
 17
0.0
 27
0.0
 37
0.0
 40
89.6382377765
 41
0.7070707071
 42
50.0
 43
0.0
 44
0.0
 50
0.0
 51
0.0
 71
0
 72
100
 73
1
 74
1
 75
0
 76
0
 77
0
 78
0
  0
ENDTAB
  0
TABLE
  2
LTYPE
  5
5
100
AcDbSymbolTable
 70
6
  0
LTYPE
  5
14
100
AcDbSymbolTableRecord
100
AcDbLinetypeTableRecord
  2
BYBLOCK
 70
0
  3

 72
65
 73
0
 40
0.0
  0
LTYPE
  5
15
100
AcDbSymbolTableRecord
100
AcDbLinetypeTableRecord
  2
BYLAYER
 70
0
  3

 72
65
 73
0
 40
0.0
  0
LTYPE
  5
16
100
AcDbSymbolTableRecord
100
AcDbLinetypeTableRecord
  2
CONTINUOUS
 70
64
  3
Solid line
 72
65
 73
0
 40
0.0
  0
LTYPE
  5
1F5
100
AcDbSymbolTableRecord
100
AcDbLinetypeTableRecord
  2
CENTER
 70
64
  3
____ _ ____ _ ____ _ ____ _ ____ _ ____ _ ____
 72
65
 73
4
 40
0.6
 49
0.375
 74
0
 49
-0.075
 74
0
 49
0.075
 74
0
 49
-0.075
 74
0
  0
LTYPE
  5
1F6
100
AcDbSymbolTableRecord
100
AcDbLinetypeTableRecord
  2
HIDDEN
 70
64
  3
- - - - - - - - - - - - - - - - - - - -
 72
65
 73
2
 40
0.2
 49
0.1
 74
0
 49
-0.1
 74
0
  0
LTYPE
  5
1F7
100
AcDbSymbolTableRecord
100
AcDbLinetypeTableRecord
  2
PHANTOM
 70
64
  3
_____ _ _ _____ _ _ _____ _ _ _____
 72
65
 73
6
 40
0.8
 49
0.45
 74
0
 49
-0.05
 74
0
 49
0.1
 74
0
 49
-0.05
 74
0
 49
0.1
 74
0
 49
-0.05
 74
0
  0
LTYPE
  5
1F8
100
AcDbSymbolTableRecord
100
AcDbLinetypeTableRecord
  2
DOT
 70
64
  3
. . . . . . . . . . . . . . . . . . . .
 72
65
 73
2
 40
0.2
 49
0.1
 74
0
 49
-0.1
 74
0
  0
LTYPE
  5
1F9
100
AcDbSymbolTableRecord
100
AcDbLinetypeTableRecord
  2
DASHED
 70
64
  3
- - - - - - - - - - - - - - - - - - - -
 72
65
 73
2
 40
0.2
 49
0.1
 74
0
 49
-0.1
 74
0
  0
ENDTAB
  0
TABLE
  2
LAYER
  5
2
100
AcDbSymbolTable
 70
36
  0
LAYER
  5
10
100
AcDbSymbolTableRecord
100
AcDbLayerTableRecord
  2
0
 70
0
 62
7
  6
CONTINUOUS
370
-3
390
F
  0
LAYER
  5
1FA
100
AcDbSymbolTableRecord
100
AcDbLayerTableRecord
  2
DEFAULT_1
 70
0
 62
7
  6
CENTER
370
-3
390
F
  0
LAYER
  5
1FB
100
AcDbSymbolTableRecord
100
AcDbLayerTableRecord
  2
DEFAULT_2
 70
0
 62
7
  6
HIDDEN
370
-3
390
F
  0
LAYER
  5
1FC
100
AcDbSymbolTableRecord
100
AcDbLayerTableRecord
  2
DEFAULT_3
 70
0
 62
7
  6
PHANTOM
370
-3
390
F
  0
LAYER
  5
1FD
100
AcDbSymbolTableRecord
100
AcDbLayerTableRecord
  2
00_COMPONENTS
 70
0
 62
7
  6
CONTINUOUS
370
-3
390
F
  0
LAYER
  5
1FE
100
AcDbSymbolTableRecord
100
AcDbLayerTableRecord
  2
01_1_DEFAULT_DATUMS
 70
0
 62
7
  6
CONTINUOUS
370
-3
390
F
  0
LAYER
  5
1FF
100
AcDbSymbolTableRecord
100
AcDbLayerTableRecord
  2
01_PLANES
 70
0
 62
7
  6
CONTINUOUS
370
-3
390
F
  0
LAYER
  5
200
100
AcDbSymbolTableRecord
100
AcDbLayerTableRecord
  2
02_COORD_SYS
 70
0
 62
7
  6
CONTINUOUS
370
-3
390
F
  0
LAYER
  5
201
100
AcDbSymbolTableRecord
100
AcDbLayerTableRecord
  2
03_AXES
 70
0
 62
7
  6
CONTINUOUS
370
-3
390
F
  0
LAYER
  5
202
100
AcDbSymbolTableRecord
100
AcDbLayerTableRecord
  2
04_POINTS
 70
0
 62
7
  6
CONTINUOUS
370
-3
390
F
  0
LAYER
  5
203
100
AcDbSymbolTableRecord
100
AcDbLayerTableRecord
  2
05_CURVES
 70
0
 62
7
  6
CONTINUOUS
370
-3
390
F
  0
LAYER
  5
204
100
AcDbSymbolTableRecord
100
AcDbLayerTableRecord
  2
06_SURFS
 70
0
 62
7
  6
CONTINUOUS
370
-3
390
F
  0
LAYER
  5
205
100
AcDbSymbolTableRecord
100
AcDbLayerTableRecord
  2
07_COSMETICS
 70
0
 62
7
  6
CONTINUOUS
370
-3
390
F
  0
LAYER
  5
206
100
AcDbSymbolTableRecord
100
AcDbLayerTableRecord
  2
10_NOTES
 70
0
 62
7
  6
CONTINUOUS
370
-3
390
F
  0
LAYER
  5
207
100
AcDbSymbolTableRecord
100
AcDbLayerTableRecord
  2
11_NOTES_PUB
 70
0
 62
7
  6
CONTINUOUS
370
-3
390
F
  0
LAYER
  5
208
100
AcDbSymbolTableRecord
100
AcDbLayerTableRecord
  2
13_REF_GTOL
 70
0
 62
7
  6
CONTINUOUS
370
-3
390
F
  0
LAYER
  5
209
100
AcDbSymbolTableRecord
100
AcDbLayerTableRecord
  2
16_MISC
 70
0
 62
7
  6
CONTINUOUS
370
-3
390
F
  0
LAYER
  5
20A
100
AcDbSymbolTableRecord
100
AcDbLayerTableRecord
  2
17_NO_PRINT
 70
0
 62
7
  6
CONTINUOUS
370
-3
390
F
  0
LAYER
  5
20B
100
AcDbSymbolTableRecord
100
AcDbLayerTableRecord
  2
18_DATUM_CAMS_JOINTS
 70
0
 62
7
  6
CONTINUOUS
370
-3
390
F
  0
LAYER
  5
20C
100
AcDbSymbolTableRecord
100
AcDbLayerTableRecord
  2
19_DATUM_FUNCTIONAL
 70
0
 62
7
  6
CONTINUOUS
370
-3
390
F
  0
LAYER
  5
20D
100
AcDbSymbolTableRecord
100
AcDbLayerTableRecord
  2
20_DATUM_KINEMATIC_SCHEME
 70
0
 62
7
  6
CONTINUOUS
370
-3
390
F
  0
ENDTAB
  0
TABLE
  2
STYLE
  5
3
100
AcDbSymbolTable
 70
1
  0
STYLE
  5
11
100
AcDbSymbolTableRecord
100
AcDbTextStyleTableRecord
  2
STANDARD
 70
0
 40
0.0
 41
1.0
 50
0.0
 71
0
 42
0.2
  3
ARIAL.TTF
  4

  0
STYLE
  5
20E
100
AcDbSymbolTableRecord
100
AcDbTextStyleTableRecord
  2
TEXTSTYLE_1
 70
0
 40
0.0
 41
0.8
 50
0.0
 71
0
 42
0.2
  3
gdt
  4

  0
ENDTAB
  0
TABLE
  2
VIEW
  5
6
100
AcDbSymbolTable
 70
0
  0
ENDTAB
  0
TABLE
  2
UCS
  5
7
100
AcDbSymbolTable
 70
0
  0
ENDTAB
  0
TABLE
  2
APPID
  5
9
100
AcDbSymbolTable
 70
1
  0
APPID
  5
20F
100
AcDbSymbolTableRecord
100
AcDbRegAppTableRecord
  2
ACAD
 70
0
  0
ENDTAB
  0
TABLE
  2
BLOCK_RECORD
  5
1
100
AcDbSymbolTable
 70
0
  0
BLOCK_RECORD
  5
210
100
AcDbSymbolTableRecord
100
AcDbBlockTableRecord
  2
*Model_Space
  0
BLOCK_RECORD
  5
211
100
AcDbSymbolTableRecord
100
AcDbBlockTableRecord
  2
*Paper_Space
  0
BLOCK_RECORD
  5
212
100
AcDbSymbolTableRecord
100
AcDbBlockTableRecord
  2
_FILLED
  0
ENDTAB
  0
TABLE
  2
DIMSTYLE
  5
A
100
AcDbSymbolTable
 70
1
100
AcDbDimStyleTable
 71
0
  0
DIMSTYLE
105
213
100
AcDbSymbolTableRecord
100
AcDbDimStyleTableRecord
  2
STANDARD
 70
0
  3

  4

 40
1.0
 41
0.754530621
 42
1.0
 43
0.38
 44
1.0
 45
0.0
 46
0.0
 47
0.01
 48
0.01
140
1.0563428694
141
0.09
142
0.0
143
25.4
144
1.0
145
0.0
146
1.0
147
0.625
 71
1
 72
0
 73
0
 74
0
 75
0
 76
0
 77
1
 78
8
 79
2
170
0
171
1
172
0
173
0
174
0
175
0
176
0
177
0
178
0
270
2
179
2
271
2
272
2
273
2
274
2
275
0
280
0
281
0
282
0
283
1
284
8
285
0
286
0
287
3
288
0
340
11
278
46
341
212
342
212
343
212
344
212
  0
ENDTAB
  0
ENDSEC
  0
SECTION
  2
BLOCKS
  0
BLOCK
  5
20
100
AcDbEntity
  8
0
100
AcDbBlockBegin
  2
*Model_Space
 70
0
 10
0.0
 20
0.0
 30
0.0
  3
*Model_Space
  1

  0
ENDBLK
  5
21
100
AcDbEntity
  8
0
100
AcDbBlockEnd
  0
BLOCK
  5
1C
100
AcDbEntity
  8
0
100
AcDbBlockBegin
  2
*Paper_Space
 70
0
 10
0.0
 20
0.0
 30
0.0
  3
*Paper_Space
  1

  0
ENDBLK
  5
1D
100
AcDbEntity
  8
0
100
AcDbBlockEnd
  0
BLOCK
  5
214
100
AcDbEntity
  8
0
100
AcDbBlockBegin
  2
_FILLED
 70
64
 10
0.0
 20
0.0
  3
_FILLED
  1

  0
SOLID
  5
215
100
AcDbEntity
  8
0
  6
BYBLOCK
 62
0
100
AcDbTrace
 10
0.0
 20
0.0
 11
-1.0
 21
0.25
 12
-1.0
 22
-0.25
 13
-1.0
 23
-0.25
  0
ENDBLK
  5
216
100
AcDbEntity
  8
0
  6
BYBLOCK
 62
0
100
AcDbBlockEnd
  0
ENDSEC
  0
SECTION
  2
ENTITIES
  0
LINE
  5
217
100
AcDbEntity
  8
0
100
AcDbLine
 62
7
  6
BYLAYER
 10
36.1291012263
 20
5.9795490713
 11
28.1744073972
 21
5.9795490713
  0
LINE
  5
218
100
AcDbEntity
  8
0
100
AcDbLine
 62
7
  6
BYLAYER
 10
36.2291513838
 20
6.0795490713
 11
28.0732914257
 21
6.0795490713
  0
LINE
  5
219
100
AcDbEntity
  8
0
100
AcDbLine
 62
7
  6
BYLAYER
 10
42.1291513838
 20
6.3295490713
 11
22.1291513838
 21
6.3295490713
  0
LINE
  5
21A
100
AcDbEntity
  8
0
100
AcDbLine
 62
7
  6
BYLAYER
 10
26.2113775541
 20
82.8295490713
 11
26.1348534103
 21
82.7853098002
  0
LINE
  5
21B
100
AcDbEntity
  8
0
100
AcDbLine
 62
7
  6
BYLAYER
 10
26.6370136767
 20
82.0764157182
 11
26.13611405
 21
81.7868262703
  0
LINE
  5
21C
100
AcDbEntity
  8
0
100
AcDbLine
 62
7
  6
BYLAYER
 10
26.6395698826
 20
81.0764317199
 11
26.1358849359
 21
80.785108312
  0
LINE
  5
21D
100
AcDbEntity
  8
0
100
AcDbLine
 62
7
  6
BYLAYER
 10
26.6386173986
 20
80.0759306958
 11
26.1349779543
 21
79.7846841031
  0
LINE
  5
21E
100
AcDbEntity
  8
0
100
AcDbLine
 62
7
  6
BYLAYER
 10
26.6362128862
 20
79.0758061501
 11
26.1348029736
 21
78.7859748467
  0
LINE
  5
21F
100
AcDbEntity
  8
0
100
AcDbLine
 62
7
  6
BYLAYER
 10
26.1348520606
 20
82.7864779055
 11
26.1291513838
 21
82.7795490877
  0
LINE
  5
220
100
AcDbEntity
  8
0
100
AcDbLine
 62
7
  6
BYLAYER
 10
26.1361135509
 20
81.787216931
 11
26.1291513838
 21
81.7795490713
  0
LINE
  5
221
100
AcDbEntity
  8
0
100
AcDbLine
 62
7
  6
BYLAYER
 10
26.1291513838
 20
80.7795490713
 11
26.1358827237
 21
80.7869078779
  0
LINE
  5
222
100
AcDbEntity
  8
0
100
AcDbLine
 62
7
  6
BYLAYER
 10
27.3666539212
 20
78.1503092784
 11
26.9336978843
 21
77.8615225532
  0
LINE
  5
223
100
AcDbEntity
  8
0
100
AcDbLine
 62
7
  6
BYLAYER
 10
26.6393885047
 20
78.0765652789
 11
26.1361500313
 21
77.7855095453
  0
LINE
  5
224
100
AcDbEntity
  8
0
100
AcDbLine
 62
7
  6
BYLAYER
 10
26.6392479185
 20
77.0760900785
 11
26.1352547478
 21
76.7846055841
  0
LINE
  5
225
100
AcDbEntity
  8
0
100
AcDbLine
 62
7
  6
BYLAYER
 10
37.6203230421
 20
82.5598653137
 11
38.0868008243
 21
82.8295490713
  0
LINE
  5
226
100
AcDbEntity
  8
0
100
AcDbLine
 62
7
  6
BYLAYER
 10
26.636931892
 20
76.0757659702
 11
26.1347174845
 21
75.7854320303
  0
LINE
  5
227
100
AcDbEntity
  8
0
100
AcDbLine
 62
7
  6
BYLAYER
 10
37.6216106669
 20
81.5601583722
 11
38.1224255586
 21
81.8496821869
  0
LINE
  5
228
100
AcDbEntity
  8
0
100
AcDbLine
 62
7
  6
BYLAYER
 10
26.6360826402
 20
75.0762146997
 11
26.1355527707
 21
74.7868981144
  0
LINE
  5
229
100
AcDbEntity
  8
0
100
AcDbLine
 62
7
  6
BYLAYER
 10
26.1291513838
 20
78.7795490713
 11
26.1348029209
 21
78.7860234217
  0
LINE
  5
22A
100
AcDbEntity
  8
0
100
AcDbLine
 62
7
  6
BYLAYER
 10
26.1291513838
 20
79.7795490713
 11
26.134976555
 21
79.785976385
  0
LINE
  5
22B
100
AcDbEntity
  8
0
100
AcDbLine
 62
7
  6
BYLAYER
 10
26.1291513838
 20
76.7795490712
 11
26.135252946
 21
76.7862125734
  0
LINE
  5
22C
100
AcDbEntity
  8
0
100
AcDbLine
 62
7
  6
BYLAYER
 10
26.1291513838
 20
77.7796291278
 11
26.1361480209
 21
77.7871157695
  0
LINE
  5
22D
100
AcDbEntity
  8
0
100
AcDbLine
 62
7
  6
BYLAYER
 10
37.325068451
 20
81.7740236508
 11
36.8920751615
 21
81.485310269
  0
LINE
  5
22E
100
AcDbEntity
  8
0
100
AcDbLine
 62
7
  6
BYLAYER
 10
37.6196853686
 20
79.5605177156
 11
38.1233248137
 21
79.8517643088
  0
LINE
  5
22F
100
AcDbEntity
  8
0
100
AcDbLine
 62
7
  6
BYLAYER
 10
37.6187328847
 20
78.5600166916
 11
38.1224178321
 21
78.8513400999
  0
LINE
  5
230
100
AcDbEntity
  8
0
100
AcDbLine
 62
7
  6
BYLAYER
 10
37.622089881
 20
80.5606422613
 11
38.1234997944
 21
80.8504735653
  0
LINE
  5
231
100
AcDbEntity
  8
0
100
AcDbLine
 62
7
  6
BYLAYER
 10
22.1291513838
 20
16.8295490713
 11
42.1291513838
 21
16.8295490713
  0
LINE
  5
232
100
AcDbEntity
  8
0
100
AcDbLine
 62
7
  6
BYLAYER
 10
42.2291513838
 20
17.0795490713
 11
22.0291513838
 21
17.0795490713
  0
LINE
  5
233
100
AcDbEntity
  8
0
100
AcDbLine
 62
7
  6
BYLAYER
 10
51.6288983528
 20
17.4295490713
 11
12.6294044148
 21
17.4295490713
  0
LINE
  5
234
100
AcDbEntity
  8
0
100
AcDbLine
 62
7
  6
BYLAYER
 10
52.6274986079
 20
18.4295490713
 11
11.6308041597
 21
18.4295490713
  0
LINE
  5
235
100
AcDbEntity
  8
0
100
AcDbLine
 62
7
  6
BYLAYER
 10
26.1355527665
 20
74.7869015682
 11
26.1291513838
 21
74.7795490713
  0
LINE
  5
236
100
AcDbEntity
  8
0
100
AcDbLine
 62
7
  6
BYLAYER
 10
26.1291513838
 20
75.7795490712
 11
26.1347170235
 21
75.7858662189
  0
LINE
  5
237
100
AcDbEntity
  8
0
100
AcDbLine
 62
7
  6
BYLAYER
 10
37.6187195398
 20
75.5601821671
 11
38.1227291064
 21
75.8516939363
  0
LINE
  5
238
100
AcDbEntity
  8
0
100
AcDbLine
 62
7
  6
BYLAYER
 10
37.6224487569
 20
77.5604959289
 11
38.1232289731
 21
77.849944776
  0
LINE
  5
239
100
AcDbEntity
  8
0
100
AcDbLine
 62
7
  6
BYLAYER
 10
37.6205071025
 20
76.5606338552
 11
38.1235161753
 21
76.851472617
  0
LINE
  5
23A
100
AcDbEntity
  8
0
100
AcDbLine
 62
7
  6
BYLAYER
 10
11.7190623932
 20
71.8295490713
 11
11.6308041597
 21
18.4295490713
  0
LINE
  5
23B
100
AcDbEntity
  8
0
100
AcDbLine
 62
7
  6
BYLAYER
 10
38.1224259459
 20
81.849370752
 11
38.1291513838
 21
81.8568192254
  0
LINE
  5
23C
100
AcDbEntity
  8
0
100
AcDbLine
 62
7
  6
BYLAYER
 10
12.1342107235
 20
71.8295490713
 11
12.1342107235
 21
18.4295490713
  0
LINE
  5
23D
100
AcDbEntity
  8
0
100
AcDbLine
 62
7
  6
BYLAYER
 10
38.1291513838
 20
80.8568993405
 11
38.1234998473
 21
80.8504248332
  0
LINE
  5
23E
100
AcDbEntity
  8
0
100
AcDbLine
 62
7
  6
BYLAYER
 10
38.1291513838
 20
77.8568993404
 11
38.1232287726
 21
77.8501219233
  0
LINE
  5
23F
100
AcDbEntity
  8
0
100
AcDbLine
 62
7
  6
BYLAYER
 10
38.1291513838
 20
79.8568993405
 11
38.1233262121
 21
79.850472805
  0
LINE
  5
240
100
AcDbEntity
  8
0
100
AcDbLine
 62
7
  6
BYLAYER
 10
38.1291513838
 20
78.8568993404
 11
38.1224200442
 21
78.8495406242
  0
LINE
  5
241
100
AcDbEntity
  8
0
100
AcDbLine
 62
7
  6
BYLAYER
 10
38.1291513838
 20
76.8568993404
 11
38.1235171059
 21
76.8505959385
  0
LINE
  5
242
100
AcDbEntity
  8
0
100
AcDbLine
 62
7
  6
BYLAYER
 10
38.1291513838
 20
75.8568993404
 11
38.1227311844
 21
75.8499198752
  0
LINE
  5
243
100
AcDbEntity
  8
0
100
AcDbLine
 62
7
  6
BYLAYER
 10
22.0291513838
 20
17.4295490713
 11
22.0291513838
 21
17.0795490713
  0
LINE
  5
244
100
AcDbEntity
  8
0
100
AcDbLine
 62
7
  6
BYLAYER
 10
22.1291513838
 20
16.8295490713
 11
22.1291513838
 21
6.3295490713
  0
LINE
  5
245
100
AcDbEntity
  8
0
100
AcDbLine
 62
7
  6
BYLAYER
 10
26.1291513838
 20
82.7795490877
 11
26.1291513838
 21
82.3568993593
  0
LINE
  5
246
100
AcDbEntity
  8
0
100
AcDbLine
 62
7
  6
BYLAYER
 10
26.1291513838
 20
81.7795490713
 11
26.1291513838
 21
81.3568993405
  0
LINE
  5
247
100
AcDbEntity
  8
0
100
AcDbLine
 62
7
  6
BYLAYER
 10
26.1291513838
 20
80.7795490713
 11
26.1291513838
 21
80.3568993405
  0
LINE
  5
248
100
AcDbEntity
  8
0
100
AcDbLine
 62
7
  6
BYLAYER
 10
26.1291513838
 20
79.7795490713
 11
26.1291513838
 21
79.3568993404
  0
LINE
  5
249
100
AcDbEntity
  8
0
100
AcDbLine
 62
7
  6
BYLAYER
 10
26.1291513838
 20
78.7795490713
 11
26.1291513838
 21
78.3568993405
  0
LINE
  5
24A
100
AcDbEntity
  8
0
100
AcDbLine
 62
7
  6
BYLAYER
 10
26.1291513838
 20
77.7796291278
 11
26.1291513838
 21
77.3568993404
  0
LINE
  5
24B
100
AcDbEntity
  8
0
100
AcDbLine
 62
7
  6
BYLAYER
 10
26.1291513838
 20
76.7795490712
 11
26.1291513838
 21
76.3568993404
  0
LINE
  5
24C
100
AcDbEntity
  8
0
100
AcDbLine
 62
7
  6
BYLAYER
 10
26.1291513838
 20
75.7795490712
 11
26.1291513838
 21
75.3568993404
  0
LINE
  5
24D
100
AcDbEntity
  8
0
100
AcDbLine
 62
7
  6
BYLAYER
 10
26.1291513838
 20
74.7795490713
 11
26.1291513838
 21
72.8295490713
  0
LINE
  5
24E
100
AcDbEntity
  8
0
100
AcDbLine
 62
7
  6
BYLAYER
 10
26.9541513838
 20
82.8295490713
 11
26.9541513838
 21
83.3295490713
  0
LINE
  5
24F
100
AcDbEntity
  8
0
100
AcDbLine
 62
7
  6
BYLAYER
 10
27.0791513838
 20
16.8295490713
 11
27.0791513838
 21
17.0795490713
  0
LINE
  5
250
100
AcDbEntity
  8
0
100
AcDbLine
 62
7
  6
BYLAYER
 10
28.0732914257
 20
6.3295490713
 11
28.0732914257
 21
6.0795490713
  0
LINE
  5
251
100
AcDbEntity
  8
0
100
AcDbLine
 62
7
  6
BYLAYER
 10
36.2291513838
 20
6.0795490713
 11
36.2291513838
 21
6.3295490713
  0
LINE
  5
252
100
AcDbEntity
  8
0
100
AcDbLine
 62
7
  6
BYLAYER
 10
37.1791513838
 20
16.8295490713
 11
37.1791513838
 21
17.0795490713
  0
LINE
  5
253
100
AcDbEntity
  8
0
100
AcDbLine
 62
7
  6
BYLAYER
 10
37.3041513838
 20
82.8295490713
 11
37.3041513838
 21
83.3295490713
  0
LINE
  5
254
100
AcDbEntity
  8
0
100
AcDbLine
 62
7
  6
BYLAYER
 10
38.1291513838
 20
82.2795490713
 11
38.1291513838
 21
81.8568993405
  0
LINE
  5
255
100
AcDbEntity
  8
0
100
AcDbLine
 62
7
  6
BYLAYER
 10
38.1291513838
 20
81.2795490713
 11
38.1291513838
 21
80.8568993405
  0
LINE
  5
256
100
AcDbEntity
  8
0
100
AcDbLine
 62
7
  6
BYLAYER
 10
38.1291513838
 20
80.2795490713
 11
38.1291513838
 21
79.8568993405
  0
LINE
  5
257
100
AcDbEntity
  8
0
100
AcDbLine
 62
7
  6
BYLAYER
 10
38.1291513838
 20
79.2795490713
 11
38.1291513838
 21
78.8568993404
  0
LINE
  5
258
100
AcDbEntity
  8
0
100
AcDbLine
 62
7
  6
BYLAYER
 10
38.1291513838
 20
78.2795490713
 11
38.1291513838
 21
77.8568993404
  0
LINE
  5
259
100
AcDbEntity
  8
0
100
AcDbLine
 62
7
  6
BYLAYER
 10
38.1291513838
 20
77.2795490713
 11
38.1291513838
 21
76.8568993404
  0
LINE
  5
25A
100
AcDbEntity
  8
0
100
AcDbLine
 62
7
  6
BYLAYER
 10
38.1291513838
 20
76.2795490712
 11
38.1291513838
 21
75.8568993404
  0
LINE
  5
25B
100
AcDbEntity
  8
0
100
AcDbLine
 62
7
  6
BYLAYER
 10
38.1291513838
 20
75.2795490713
 11
38.1291513838
 21
72.8295490713
  0
LINE
  5
25C
100
AcDbEntity
  8
0
100
AcDbLine
 62
7
  6
BYLAYER
 10
42.1291513838
 20
16.8295490713
 11
42.1291513838
 21
6.3295490713
  0
LINE
  5
25D
100
AcDbEntity
  8
0
100
AcDbLine
 62
7
  6
BYLAYER
 10
42.2291513838
 20
17.4295490713
 11
42.2291513838
 21
17.0795490713
  0
LINE
  5
25E
100
AcDbEntity
  8
0
100
AcDbLine
 62
7
  6
BYLAYER
 10
26.1361315241
 20
77.3492215966
 11
26.1291513838
 21
77.3568993404
  0
LINE
  5
25F
100
AcDbEntity
  8
0
100
AcDbLine
 62
7
  6
BYLAYER
 10
26.1360039127
 20
76.3492921196
 11
26.1291513838
 21
76.3568993404
  0
LINE
  5
260
100
AcDbEntity
  8
0
100
AcDbLine
 62
7
  6
BYLAYER
 10
52.5392403744
 20
71.8295490713
 11
52.6274986079
 21
18.4295490713
  0
LINE
  5
261
100
AcDbEntity
  8
0
100
AcDbLine
 62
7
  6
BYLAYER
 10
52.1240920441
 20
18.4295490713
 11
52.1240920441
 21
71.8295490713
  0
LINE
  5
262
100
AcDbEntity
  8
0
100
AcDbLine
 62
7
  6
BYLAYER
 10
26.1291513838
 20
78.3568993405
 11
26.135255095
 21
78.3502583845
  0
LINE
  5
263
100
AcDbEntity
  8
0
100
AcDbLine
 62
7
  6
BYLAYER
 10
26.1362646758
 20
80.3491486977
 11
26.1291513838
 21
80.3568993405
  0
LINE
  5
264
100
AcDbEntity
  8
0
100
AcDbLine
 62
7
  6
BYLAYER
 10
26.1291513838
 20
79.3568993404
 11
26.1355590389
 21
79.3496857985
  0
LINE
  5
265
100
AcDbEntity
  8
0
100
AcDbLine
 62
7
  6
BYLAYER
 10
26.1355707805
 20
81.3495364975
 11
26.1291513838
 21
81.3568993405
  0
LINE
  5
266
100
AcDbEntity
  8
0
100
AcDbLine
 62
7
  6
BYLAYER
 10
26.1348108448
 20
75.3504602531
 11
26.6226711568
 21
75.0684620104
  0
LINE
  5
267
100
AcDbEntity
  8
0
100
AcDbLine
 62
7
  6
BYLAYER
 10
26.1360041786
 20
76.3495018754
 11
26.6232248819
 21
76.0678412305
  0
LINE
  5
268
100
AcDbEntity
  8
0
100
AcDbLine
 62
7
  6
BYLAYER
 10
26.1361335961
 20
77.3508413009
 11
26.6252235413
 21
77.0679784358
  0
LINE
  5
269
100
AcDbEntity
  8
0
100
AcDbLine
 62
7
  6
BYLAYER
 10
26.135256985
 20
78.35194861
 11
26.6253928064
 21
78.0684700152
  0
LINE
  5
26A
100
AcDbEntity
  8
0
100
AcDbLine
 62
7
  6
BYLAYER
 10
26.9336399127
 20
78.4415490553
 11
27.3665982324
 21
78.1527623711
  0
LINE
  5
26B
100
AcDbEntity
  8
0
100
AcDbLine
 62
7
  6
BYLAYER
 10
38.1220689807
 20
76.2872828576
 11
38.1291513838
 21
76.2795490712
  0
LINE
  5
26C
100
AcDbEntity
  8
0
100
AcDbLine
 62
7
  6
BYLAYER
 10
38.1224205483
 20
75.2870884375
 11
38.1291513838
 21
75.2795490713
  0
LINE
  5
26D
100
AcDbEntity
  8
0
100
AcDbLine
 62
7
  6
BYLAYER
 10
38.1227319868
 20
78.286911916
 11
38.1291513838
 21
78.2795490713
  0
LINE
  5
26E
100
AcDbEntity
  8
0
100
AcDbLine
 62
7
  6
BYLAYER
 10
11.7190623932
 20
71.8295490713
 11
52.5392403744
 21
71.8295490713
  0
LINE
  5
26F
100
AcDbEntity
  8
0
100
AcDbLine
 62
7
  6
BYLAYER
 10
12.7209682001
 20
72.8295490713
 11
51.5373345675
 21
72.8295490713
  0
LINE
  5
270
100
AcDbEntity
  8
0
100
AcDbLine
 62
7
  6
BYLAYER
 10
26.1355588725
 20
79.349547251
 11
26.6226785851
 21
79.0679822843
  0
LINE
  5
271
100
AcDbEntity
  8
0
100
AcDbLine
 62
7
  6
BYLAYER
 10
26.1362661465
 20
80.3502876086
 11
26.6246617223
 21
80.0678597157
  0
LINE
  5
272
100
AcDbEntity
  8
0
100
AcDbLine
 62
7
  6
BYLAYER
 10
26.1355734272
 20
81.3516938709
 11
26.6255301706
 21
81.0683107309
  0
LINE
  5
273
100
AcDbEntity
  8
0
100
AcDbLine
 62
7
  6
BYLAYER
 10
38.1224180604
 20
75.2851079427
 11
37.6327722508
 21
75.5683107128
  0
LINE
  5
274
100
AcDbEntity
  8
0
100
AcDbLine
 62
7
  6
BYLAYER
 10
38.1220380914
 20
79.2872997145
 11
38.1291513838
 21
79.2795490713
  0
LINE
  5
275
100
AcDbEntity
  8
0
100
AcDbLine
 62
7
  6
BYLAYER
 10
38.1291513838
 20
80.2795490713
 11
38.1227437283
 21
80.2867625918
  0
LINE
  5
276
100
AcDbEntity
  8
0
100
AcDbLine
 62
7
  6
BYLAYER
 10
38.1225385994
 20
82.2870220063
 11
38.1291513838
 21
82.2795490713
  0
LINE
  5
277
100
AcDbEntity
  8
0
100
AcDbLine
 62
7
  6
BYLAYER
 10
26.1351907601
 20
82.3498663754
 11
26.6226516796
 21
82.06811186
  0
LINE
  5
278
100
AcDbEntity
  8
0
100
AcDbLine
 62
7
  6
BYLAYER
 10
38.1232287798
 20
77.2865038634
 11
37.6358186554
 21
77.5682242722
  0
LINE
  5
279
100
AcDbEntity
  8
0
100
AcDbLine
 62
7
  6
BYLAYER
 10
38.1220681679
 20
76.2866520686
 11
37.6343559092
 21
76.5686418505
  0
LINE
  5
27A
100
AcDbEntity
  8
0
100
AcDbLine
 62
7
  6
BYLAYER
 10
38.12272934
 20
78.2847545411
 11
37.6327725971
 21
78.5681376993
  0
LINE
  5
27B
100
AcDbEntity
  8
0
100
AcDbLine
 62
7
  6
BYLAYER
 10
38.1227438947
 20
80.286901161
 11
37.635624182
 21
80.5684661444
  0
LINE
  5
27C
100
AcDbEntity
  8
0
100
AcDbLine
 62
7
  6
BYLAYER
 10
38.1235230621
 20
81.2858493134
 11
37.635293934
 21
81.5680693693
  0
LINE
  5
27D
100
AcDbEntity
  8
0
100
AcDbLine
 62
7
  6
BYLAYER
 10
38.1220366207
 20
79.2861608034
 11
37.6336410451
 21
79.5685887142
  0
LINE
  5
27E
100
AcDbEntity
  8
0
100
AcDbLine
 62
7
  6
BYLAYER
 10
36.8918391155
 20
81.4839615182
 11
37.3247796203
 21
81.1952217997
  0
LINE
  5
27F
100
AcDbEntity
  8
0
100
AcDbLine
 62
7
  6
BYLAYER
 10
26.2089342386
 20
82.8295490713
 11
38.0882973375
 21
82.8295490713
  0
LINE
  5
280
100
AcDbEntity
  8
0
100
AcDbLine
 62
7
  6
BYLAYER
 10
38.122536243
 20
82.2851294804
 11
37.633917913
 21
82.5677254628
  0
LINE
  5
281
100
AcDbEntity
  8
0
100
AcDbLine
 62
7
  6
BYLAYER
 10
26.9541513838
 20
83.3295490713
 11
37.3041513838
 21
83.3295490713
  0
ARC
  5
282
100
AcDbEntity
  8
0
100
AcDbCircle
 62
7
  6
BYLAYER
 10
13.1341484737
 20
18.4294692399
 40
0.9999339676
100
AcDbArc
 50
179.9954257156
 51
269.9890718369
  0
ARC
  5
283
100
AcDbEntity
  8
0
100
AcDbCircle
 62
7
  6
BYLAYER
 10
13.1341484767
 20
71.8296289055
 40
0.9999339676
100
AcDbArc
 50
90.0109283315
 51
180.0045744494
  0
ARC
  5
284
100
AcDbEntity
  8
0
100
AcDbCircle
 62
7
  6
BYLAYER
 10
51.124154291
 20
71.8296289054
 40
0.9999339677
100
AcDbArc
 50
359.9954255544
 51
89.9890716714
  0
ARC
  5
285
100
AcDbEntity
  8
0
100
AcDbCircle
 62
7
  6
BYLAYER
 10
51.1241542657
 20
18.429469178
 40
0.9999339052
100
AcDbArc
 50
270.0109297786
 51
0.004577831
  0
ARC
  5
286
100
AcDbEntity
  8
0
100
AcDbCircle
 62
7
  6
BYLAYER
 10
36.1291513838
 20
6.0795490713
 40
0.1
100
AcDbArc
 50
270.0
 51
360.0
  0
SPLINE
  5
287
100
AcDbEntity
  8
0
100
AcDbSpline
 62
7
  6
BYLAYER
 70
0
 71
3
 72
11
 73
7
 74
0
 42
0.0000001
 43
0.0000001
 44
0.0000000001
 40
0.0
 40
0.0
 40
0.0
 40
0.0
 40
0.2500561399
 40
0.5000700167
 40
0.7500384811
 40
1.0
 40
1.0
 40
1.0
 40
1.0
 10
28.1744073972
 20
5.9795490713
 30
0.0
 10
28.1613262051
 20
5.9795490713
 30
0.0
 10
28.1349015012
 20
5.9847202666
 30
0.0
 10
28.1012535488
 20
6.0067486795
 30
0.0
 10
28.0786607399
 20
6.0400428365
 30
0.0
 10
28.0732914257
 20
6.0664728291
 30
0.0
 10
28.0732914257
 20
6.0795490713
 30
0.0
  0
SPLINE
  5
288
100
AcDbEntity
  8
0
100
AcDbSpline
 62
7
  6
BYLAYER
 70
0
 71
3
 72
46
 73
42
 74
0
 42
0.0000001
 43
0.0000001
 44
0.0000000001
 40
0.0
 40
0.0
 40
0.0
 40
0.0
 40
0.0007553061
 40
0.0017840542
 40
0.0046863289
 40
0.0087289845
 40
0.0139133549
 40
0.0202278319
 40
0.0276568455
 40
0.0361845269
 40
0.0457939116
 40
0.0681625467
 40
0.0945575368
 40
0.1247375945
 40
0.1584204991
 40
0.1952943965
 40
0.2350125523
 40
0.2772057104
 40
0.3214755695
 40
0.4145780808
 40
0.5108489636
 40
0.6067020572
 40
0.698559897
 40
0.7419091933
 40
0.7829942751
 40
0.8214281523
 40
0.8568561231
 40
0.8889432086
 40
0.9173945567
 40
0.9419390286
 40
0.9623568673
 40
0.9709556139
 40
0.9784564257
 40
0.9848446062
 40
0.9901064238
 40
0.994231732
 40
0.997221845
 40
0.9982964273
 40
0.9990982692
 40
0.9996455593
 40
1.0
 40
1.0
 40
1.0
 40
1.0
 10
26.1352774051
 20
76.7863969051
 30
0.0
 10
26.13792145
 20
76.7878656311
 30
0.0
 10
26.1445736746
 20
76.7905714881
 30
0.0
 10
26.1625699862
 20
76.7959001569
 30
0.0
 10
26.1939434593
 20
76.8021206429
 30
0.0
 10
26.2419511207
 20
76.8094397424
 30
0.0
 10
26.3037209671
 20
76.8171327976
 30
0.0
 10
26.3790986941
 20
76.825090429
 30
0.0
 10
26.4679241732
 20
76.8331176793
 30
0.0
 10
26.5699955957
 20
76.8410633812
 30
0.0
 10
26.731841266
 20
76.8518664489
 30
0.0
 10
26.9652578429
 20
76.8645112773
 30
0.0
 10
27.2810553519
 20
76.8789473215
 30
0.0
 10
27.6421897039
 20
76.893680181
 30
0.0
 10
28.0452937037
 20
76.909029742
 30
0.0
 10
28.4865972347
 20
76.9249675592
 30
0.0
 10
28.9620008056
 20
76.9408952463
 30
0.0
 10
29.467047314
 20
76.956485754
 30
0.0
 10
30.1858210364
 20
76.9768556398
 30
0.0
 10
31.121129245
 20
77.0007742228
 30
0.0
 10
32.2628815376
 20
77.0318880984
 30
0.0
 10
33.3996232351
 20
77.0638858245
 30
0.0
 10
34.3245796848
 20
77.0879873952
 30
0.0
 10
35.0302468712
 20
77.1081188252
 30
0.0
 10
35.5220310966
 20
77.1233784238
 30
0.0
 10
35.9820568557
 20
77.139277644
 30
0.0
 10
36.4060248748
 20
77.1552305608
 30
0.0
 10
36.7900041339
 20
77.1707662763
 30
0.0
 10
37.1303848176
 20
77.1857836811
 30
0.0
 10
37.4240124295
 20
77.2002182915
 30
0.0
 10
37.6381359341
 20
77.2127781359
 30
0.0
 10
37.7839793629
 20
77.2234688051
 30
0.0
 10
37.8737062073
 20
77.231143671
 30
0.0
 10
37.9500035605
 20
77.2389062995
 30
0.0
 10
38.0127044727
 20
77.2466995564
 30
0.0
 10
38.0616543573
 20
77.254499317
 30
0.0
 10
38.0937671572
 20
77.2613870146
 30
0.0
 10
38.1123881861
 20
77.2671932348
 30
0.0
 10
38.1213146834
 20
77.2710867788
 30
0.0
 10
38.1271177827
 20
77.2747063223
 30
0.0
 10
38.1291513838
 20
77.2781297302
 30
0.0
 10
38.1291513838
 20
77.2795490713
 30
0.0
  0
SPLINE
  5
289
100
AcDbEntity
  8
0
100
AcDbSpline
 62
7
  6
BYLAYER
 70
0
 71
3
 72
16
 73
12
 74
0
 42
0.0000001
 43
0.0000001
 44
0.0000000001
 40
0.0
 40
0.0
 40
0.0
 40
0.0
 40
0.2096321803
 40
0.3961533475
 40
0.5588772618
 40
0.6971385696
 40
0.8104753883
 40
0.8987034829
 40
0.9617524463
 40
0.9839094679
 40
1.0
 40
1.0
 40
1.0
 40
1.0
 10
27.3666305
 20
78.1503527073
 30
0.0
 10
27.3153820685
 20
78.1473961839
 30
0.0
 10
27.218543237
 20
78.1416622512
 30
0.0
 10
27.0819751942
 20
78.1327955422
 30
0.0
 10
26.9629192014
 20
78.123978844
 30
0.0
 10
26.8618597193
 20
78.1149897978
 30
0.0
 10
26.7791353561
 20
78.1057782842
 30
0.0
 10
26.7150244387
 20
78.0964394041
 30
0.0
 10
26.6732769418
 20
78.0882015948
 30
0.0
 10
26.6495233984
 20
78.081046382
 30
0.0
 10
26.640830257
 20
78.0774168297
 30
0.0
 10
26.6374183758
 20
78.0754460492
 30
0.0
  0
SPLINE
  5
28A
100
AcDbEntity
  8
0
100
AcDbSpline
 62
7
  6
BYLAYER
 70
0
 71
3
 72
13
 73
9
 74
0
 42
0.0000001
 43
0.0000001
 44
0.0000000001
 40
0.0
 40
0.0
 40
0.0
 40
0.0
 40
0.386119201
 40
0.6816809531
 40
0.7952238332
 40
0.8859498287
 40
0.9540305584
 40
1.0
 40
1.0
 40
1.0
 40
1.0
 10
26.4228122858
 20
82.8295490713
 30
0.0
 10
26.3853715416
 20
82.826188358
 30
0.0
 10
26.319296785
 20
82.8200247139
 30
0.0
 10
26.2423620913
 20
82.8110831095
 30
0.0
 10
26.1943223135
 20
82.8033259613
 30
0.0
 10
26.1683110332
 20
82.7980397368
 30
0.0
 10
26.1491042589
 20
82.7927605543
 30
0.0
 10
26.1386785891
 20
82.7886535515
 30
0.0
 10
26.1348565273
 20
82.7863251777
 30
0.0
  0
SPLINE
  5
28B
100
AcDbEntity
  8
0
100
AcDbSpline
 62
7
  6
BYLAYER
 70
0
 71
3
 72
46
 73
42
 74
0
 42
0.0000001
 43
0.0000001
 44
0.0000000001
 40
0.0
 40
0.0
 40
0.0
 40
0.0
 40
0.0007325714
 40
0.001738396
 40
0.0045951167
 40
0.0085929978
 40
0.0137337058
 40
0.0200066584
 40
0.0273970093
 40
0.0358892549
 40
0.0454667325
 40
0.0677804075
 40
0.0941275455
 40
0.1242674846
 40
0.1579169314
 40
0.1947661378
 40
0.2344676267
 40
0.2766533356
 40
0.3209248294
 40
0.414055479
 40
0.5103763745
 40
0.6062948227
 40
0.6982324767
 40
0.7416227132
 40
0.7827484369
 40
0.8212220859
 40
0.8566883503
 40
0.8888118088
 40
0.9172972408
 40
0.9418727784
 40
0.9623156082
 40
0.9709234913
 40
0.97843129
 40
0.9848244741
 40
0.9900898368
 40
0.9942186107
 40
0.9958574796
 40
0.9972144158
 40
0.9982928263
 40
0.9991003752
 40
1.0
 40
1.0
 40
1.0
 40
1.0
 10
26.1347385582
 20
75.7859968675
 30
0.0
 10
26.1372798895
 20
75.7874625077
 30
0.0
 10
26.1437417508
 20
75.7901589003
 30
0.0
 10
26.1613600168
 20
75.7954772921
 30
0.0
 10
26.1922841755
 20
75.8016615627
 30
0.0
 10
26.2397685047
 20
75.8088657332
 30
0.0
 10
26.3010497209
 20
75.8163012703
 30
0.0
 10
26.3759613593
 20
75.8239714679
 30
0.0
 10
26.4643437597
 20
75.8317935273
 30
0.0
 10
26.5659936634
 20
75.8397303953
 30
0.0
 10
26.7273238316
 20
75.8509836238
 30
0.0
 10
26.960148129
 20
75.8647254418
 30
0.0
 10
27.2753538608
 20
75.8799312475
 30
0.0
 10
27.6360292386
 20
75.8944079573
 30
0.0
 10
28.0387877119
 20
75.9089449918
 30
0.0
 10
28.4798439697
 20
75.9239410276
 30
0.0
 10
28.9550838645
 20
75.9395303227
 30
0.0
 10
29.4600454081
 20
75.9556614747
 30
0.0
 10
30.1789052786
 20
75.9772432826
 30
0.0
 10
31.1145507225
 20
76.0021261573
 30
0.0
 10
32.2569926776
 20
76.0307945898
 30
0.0
 10
33.3945794899
 20
76.0623771097
 30
0.0
 10
34.320250581
 20
76.0890788279
 30
0.0
 10
35.0266007047
 20
76.1090219452
 30
0.0
 10
35.5189144904
 20
76.1235594159
 30
0.0
 10
35.979468009
 20
76.1385144308
 30
0.0
 10
36.4039329819
 20
76.1539704852
 30
0.0
 10
36.7883462659
 20
76.1699986109
 30
0.0
 10
37.1291091475
 20
76.1858988536
 30
0.0
 10
37.4230744325
 20
76.201070717
 30
0.0
 10
37.6374542456
 20
76.2138201454
 30
0.0
 10
37.7834972239
 20
76.2241052527
 30
0.0
 10
37.8733470324
 20
76.231366516
 30
0.0
 10
37.9497528428
 20
76.2386876284
 30
0.0
 10
38.0125476013
 20
76.2461581132
 30
0.0
 10
38.0562072223
 20
76.2529216582
 30
0.0
 10
38.0841921006
 20
76.2587011795
 30
0.0
 10
38.0999445406
 20
76.2626540678
 30
0.0
 10
38.1125164665
 20
76.2667509694
 30
0.0
 10
38.1222043619
 20
76.2709436518
 30
0.0
 10
38.1291513838
 20
76.2759464061
 30
0.0
 10
38.1291513838
 20
76.2795490712
 30
0.0
  0
SPLINE
  5
28C
100
AcDbEntity
  8
0
100
AcDbSpline
 62
7
  6
BYLAYER
 70
0
 71
3
 72
33
 73
29
 74
0
 42
0.0000001
 43
0.0000001
 44
0.0000000001
 40
0.0
 40
0.0
 40
0.0
 40
0.0
 40
0.0007366187
 40
0.0013738942
 40
0.0022187651
 40
0.0045551979
 40
0.0077697083
 40
0.0118674187
 40
0.0168466464
 40
0.0294157763
 40
0.0454003685
 40
0.0647011192
 40
0.0871821711
 40
0.1126978772
 40
0.1410713886
 40
0.1721118004
 40
0.205609682
 40
0.2413335603
 40
0.3184821974
 40
0.401458832
 40
0.4880063594
 40
0.5757712519
 40
0.6623669648
 40
0.7454383529
 40
0.8227254301
 40
0.8921260471
 40
0.9517573119
 40
1.0
 40
1.0
 40
1.0
 40
1.0
 10
26.1291513838
 20
82.3568993593
 30
0.0
 10
26.1291513838
 20
82.3596697534
 30
0.0
 10
26.1340460239
 20
82.3637042864
 30
0.0
 10
26.1412556935
 20
82.3671097009
 30
0.0
 10
26.1549653052
 20
82.3720224601
 30
0.0
 10
26.1782936785
 20
82.3775394995
 30
0.0
 10
26.2140680767
 20
82.3839683414
 30
0.0
 10
26.2598373216
 20
82.3903851424
 30
0.0
 10
26.3407178895
 20
82.3997696921
 30
0.0
 10
26.4663454871
 20
82.4109904893
 30
0.0
 10
26.6458707593
 20
82.4238321077
 30
0.0
 10
26.8627476181
 20
82.4367434418
 30
0.0
 10
27.115519391
 20
82.4497296134
 30
0.0
 10
27.4024514115
 20
82.4627414699
 30
0.0
 10
27.7216029777
 20
82.4757799788
 30
0.0
 10
28.0707972306
 20
82.4888347031
 30
0.0
 10
28.4476531984
 20
82.5019019911
 30
0.0
 10
28.9978557901
 20
82.519800558
 30
0.0
 10
29.7341076164
 20
82.5418532036
 30
0.0
 10
30.6614731302
 20
82.5677478698
 30
0.0
 10
31.6287799822
 20
82.5936703036
 30
0.0
 10
32.6097024786
 20
82.6196031487
 30
0.0
 10
33.5775470353
 20
82.6455264907
 30
0.0
 10
34.5059714313
 20
82.6714195745
 30
0.0
 10
35.3697007208
 20
82.6972527819
 30
0.0
 10
36.1452343734
 20
82.7229867115
 30
0.0
 10
36.811469111
 20
82.7485372979
 30
0.0
 10
37.2167500042
 20
82.7674609351
 30
0.0
 10
37.3979098179
 20
82.7775197929
 30
0.0
  0
SPLINE
  5
28D
100
AcDbEntity
  8
0
100
AcDbSpline
 62
7
  6
BYLAYER
 70
0
 71
3
 72
11
 73
7
 74
0
 42
0.0000001
 43
0.0000001
 44
0.0000000001
 40
0.0
 40
0.0
 40
0.0
 40
0.0
 40
0.3366872169
 40
0.6167397139
 40
0.8382996924
 40
1.0
 40
1.0
 40
1.0
 40
1.0
 10
37.3979098179
 20
82.7775197929
 30
0.0
 10
37.4702013432
 20
82.7815337635
 30
0.0
 10
37.6025963663
 20
82.7893796913
 30
0.0
 10
37.7824352473
 20
82.8020266469
 30
0.0
 10
37.9245244802
 20
82.8145373528
 30
0.0
 10
38.0064270729
 20
82.8241310657
 30
0.0
 10
38.0407752162
 20
82.8295490713
 30
0.0
  0
SPLINE
  5
28E
100
AcDbEntity
  8
0
100
AcDbSpline
 62
7
  6
BYLAYER
 70
0
 71
3
 72
33
 73
29
 74
0
 42
0.0000001
 43
0.0000001
 44
0.0000000001
 40
0.0
 40
0.0
 40
0.0
 40
0.0
 40
0.0498319957
 40
0.1107198618
 40
0.1810153446
 40
0.2588622017
 40
0.3421781633
 40
0.4287406303
 40
0.5162350875
 40
0.6023308415
 40
0.684730814
 40
0.7612318614
 40
0.7966224063
 40
0.8297904393
 40
0.8605100249
 40
0.8885816037
 40
0.913816171
 40
0.936044691
 40
0.9551237464
 40
0.9709192732
 40
0.9833377019
 40
0.9882570226
 40
0.9923063566
 40
0.9954848106
 40
0.9977974073
 40
0.9986348241
 40
0.9992673945
 40
1.0
 40
1.0
 40
1.0
 40
1.0
 10
26.9329989627
 20
77.8628824047
 30
0.0
 10
27.1189300134
 20
77.8730806272
 30
0.0
 10
27.5322810069
 20
77.8912504485
 30
0.0
 10
28.2082223112
 20
77.9164483511
 30
0.0
 10
28.9889397691
 20
77.9409402499
 30
0.0
 10
29.8534816074
 20
77.9659926596
 30
0.0
 10
30.7787772825
 20
77.9930691186
 30
0.0
 10
31.7401553397
 20
78.0195759124
 30
0.0
 10
32.7119844896
 20
78.0437605429
 30
0.0
 10
33.6682341451
 20
78.0687602068
 30
0.0
 10
34.5833387682
 20
78.09556425
 30
0.0
 10
35.309002938
 20
78.1183647348
 30
0.0
 10
35.8507840416
 20
78.1355612867
 30
0.0
 10
36.2215582108
 20
78.1479053057
 30
0.0
 10
36.5649645807
 20
78.1603197807
 30
0.0
 10
36.8786954101
 20
78.1729716402
 30
0.0
 10
37.1606489173
 20
78.1860757743
 30
0.0
 10
37.4089369851
 20
78.1995827821
 30
0.0
 10
37.6219009496
 20
78.2129627579
 30
0.0
 10
37.7981658834
 20
78.2257145897
 30
0.0
 10
37.9215069639
 20
78.2366274666
 30
0.0
 10
38.0009034379
 20
78.245866958
 30
0.0
 10
38.0458275039
 20
78.2522971694
 30
0.0
 10
38.0809385607
 20
78.2588049009
 30
0.0
 10
38.103831113
 20
78.2644148406
 30
0.0
 10
38.1172777109
 20
78.269372942
 30
0.0
 10
38.124355866
 20
78.2728111898
 30
0.0
 10
38.1291513838
 20
78.2768114957
 30
0.0
 10
38.1291513838
 20
78.2795490713
 30
0.0
  0
SPLINE
  5
28F
100
AcDbEntity
  8
0
100
AcDbSpline
 62
7
  6
BYLAYER
 70
0
 71
3
 72
30
 73
26
 74
0
 42
0.0000001
 43
0.0000001
 44
0.0000000001
 40
0.0
 40
0.0
 40
0.0
 40
0.0
 40
0.0015567179
 40
0.0039348662
 40
0.0071517767
 40
0.0112118239
 40
0.0161133277
 40
0.0218480242
 40
0.0357781073
 40
0.0529215042
 40
0.0731710024
 40
0.0963966892
 40
0.1224567185
 40
0.1511769551
 40
0.182375643
 40
0.2513865865
 40
0.3277187475
 40
0.4094075022
 40
0.4943453308
 40
0.5803488027
 40
0.6652090367
 40
0.7467379885
 40
0.8228398043
 40
0.89155119
 40
1.0
 40
1.0
 40
1.0
 40
1.0
 10
38.1223918291
 20
78.8493721191
 30
0.0
 10
38.1173026145
 20
78.8465658289
 30
0.0
 10
38.1032160681
 20
78.8419137445
 30
0.0
 10
38.0772344972
 20
78.8359558192
 30
0.0
 10
38.0416593012
 20
78.8299213441
 30
0.0
 10
37.9966256658
 20
78.823717119
 30
0.0
 10
37.9421213911
 20
78.8173750287
 30
0.0
 10
37.850866537
 20
78.8082116142
 30
0.0
 10
37.7138880844
 20
78.7971075595
 30
0.0
 10
37.5226715594
 20
78.7848735256
 30
0.0
 10
37.296677432
 20
78.772941796
 30
0.0
 10
37.0373669029
 20
78.760799687
 30
0.0
 10
36.7464250965
 20
78.7481141254
 30
0.0
 10
36.4257068754
 20
78.7350643778
 30
0.0
 10
35.9447256225
 20
78.7167143057
 30
0.0
 10
35.2860226797
 20
78.6943129205
 30
0.0
 10
34.4387821886
 20
78.6705069974
 30
0.0
 10
33.5320763471
 20
78.6461973424
 30
0.0
 10
32.5893012134
 20
78.6200397938
 30
0.0
 10
31.6346890132
 20
78.593607967
 30
0.0
 10
30.6927551348
 20
78.5691426559
 30
0.0
 10
29.7877808756
 20
78.5453635908
 30
0.0
 10
28.9431743795
 20
78.5195136077
 30
0.0
 10
27.9982277803
 20
78.487400957
 30
0.0
 10
27.3373391484
 20
78.4608962549
 30
0.0
 10
26.9329994793
 20
78.4401926452
 30
0.0
  0
SPLINE
  5
290
100
AcDbEntity
  8
0
100
AcDbSpline
 62
7
  6
BYLAYER
 70
0
 71
3
 72
31
 73
27
 74
0
 42
0.0000001
 43
0.0000001
 44
0.0000000001
 40
0.0
 40
0.0
 40
0.0
 40
0.0
 40
0.0487352077
 40
0.1082102186
 40
0.1768053503
 40
0.2527594277
 40
0.3341087974
 40
0.4188069388
 40
0.5046754818
 40
0.5895016268
 40
0.671129035
 40
0.7474539846
 40
0.8164841214
 40
0.8477031473
 40
0.8764678569
 40
0.9025977223
 40
0.9259300647
 40
0.9463063113
 40
0.9635911313
 40
0.9776676042
 40
0.9834694961
 40
0.9884386296
 40
0.992573266
 40
0.9958734228
 40
0.9983432873
 40
1.0
 40
1.0
 40
1.0
 40
1.0
 10
36.8917052739
 20
81.4836860834
 30
0.0
 10
36.7252141908
 20
81.4740285932
 30
0.0
 10
36.3552969425
 20
81.4570105921
 30
0.0
 10
35.7507963782
 20
81.4319579796
 30
0.0
 10
35.0531214981
 20
81.40563972
 30
0.0
 10
34.280519932
 20
81.3801148374
 30
0.0
 10
33.4527365578
 20
81.356303432
 30
0.0
 10
32.5910388192
 20
81.3316024908
 30
0.0
 10
31.7174774171
 20
81.3055582144
 30
0.0
 10
30.8544334583
 20
81.2793620021
 30
0.0
 10
30.0240042422
 20
81.2551065426
 30
0.0
 10
29.2476492832
 20
81.2309406677
 30
0.0
 10
28.6438074302
 20
81.2090695981
 30
0.0
 10
28.2027055745
 20
81.1907107344
 30
0.0
 10
27.9083163872
 20
81.1776366067
 30
0.0
 10
27.6409225166
 20
81.165014129
 30
0.0
 10
27.4022531953
 20
81.1527037861
 30
0.0
 10
27.1938813518
 20
81.1406314558
 30
0.0
 10
27.0172438091
 20
81.1285993649
 30
0.0
 10
26.89050818
 20
81.1179001548
 30
0.0
 10
26.8059724264
 20
81.1087402527
 30
0.0
 10
26.7553740747
 20
81.1022394136
 30
0.0
 10
26.7134350144
 20
81.0957109257
 30
0.0
 10
26.6801293329
 20
81.0892449513
 30
0.0
 10
26.6555562984
 20
81.0828694244
 30
0.0
 10
26.6421891012
 20
81.0779412246
 30
0.0
 10
26.6372825215
 20
81.0751011983
 30
0.0
  0
SPLINE
  5
291
100
AcDbEntity
  8
0
100
AcDbSpline
 62
7
  6
BYLAYER
 70
0
 71
3
 72
43
 73
39
 74
0
 42
0.0000001
 43
0.0000001
 44
0.0000000001
 40
0.0
 40
0.0
 40
0.0
 40
0.0
 40
0.0008672729
 40
0.001663954
 40
0.0027330917
 40
0.0040816056
 40
0.0057124941
 40
0.0098257835
 40
0.0150751076
 40
0.0214502447
 40
0.0289370561
 40
0.0375205402
 40
0.0579035054
 40
0.0824058098
 40
0.1108068416
 40
0.1428380426
 40
0.1782073733
 40
0.2165812519
 40
0.257606369
 40
0.3008956054
 40
0.3926354442
 40
0.4883852616
 40
0.5845858874
 40
0.6776550378
 40
0.7641263598
 40
0.8038672362
 40
0.8407785445
 40
0.874514221
 40
0.9047636719
 40
0.9312424373
 40
0.9537082477
 40
0.9719514832
 40
0.9794365995
 40
0.9858097153
 40
0.9910561696
 40
0.9951651977
 40
0.9981391489
 40
1.0
 40
1.0
 40
1.0
 40
1.0
 10
38.1291513838
 20
82.2795490713
 30
0.0
 10
38.1291513838
 20
82.2760765587
 30
0.0
 10
38.1220876296
 20
82.2714302102
 30
0.0
 10
38.1125622154
 20
82.2675400723
 30
0.0
 10
38.1000112409
 20
82.263694982
 30
0.0
 10
38.0843234871
 20
82.2599651858
 30
0.0
 10
38.0564152448
 20
82.2544594191
 30
0.0
 10
38.0129025414
 20
82.2478828616
 30
0.0
 10
37.9503257878
 20
82.2403533446
 30
0.0
 10
37.8741796383
 20
82.2327885648
 30
0.0
 10
37.7846286589
 20
82.225181458
 30
0.0
 10
37.6390699022
 20
82.2143870216
 30
0.0
 10
37.4253802277
 20
82.2012469726
 30
0.0
 10
37.1323339691
 20
82.1861188203
 30
0.0
 10
36.7925974247
 20
82.170941383
 30
0.0
 10
36.4093146539
 20
82.1557135143
 30
0.0
 10
35.9860737214
 20
82.1404626498
 30
0.0
 10
35.5268012055
 20
82.1251884136
 30
0.0
 10
35.0358019542
 20
82.1099020118
 30
0.0
 10
34.33119747
 20
82.0891016268
 30
0.0
 10
33.4075254016
 20
82.0635127485
 30
0.0
 10
32.27204674
 20
82.0333164352
 30
0.0
 10
31.1312436572
 20
82.0031189472
 30
0.0
 10
30.0276036428
 20
81.9729524374
 30
0.0
 10
29.1499890041
 20
81.9472225979
 30
0.0
 10
28.4971876267
 20
81.926257285
 30
0.0
 10
28.0554637846
 20
81.9109957276
 30
0.0
 10
27.6517668711
 20
81.8957491521
 30
0.0
 10
27.2898728805
 20
81.880537482
 30
0.0
 10
26.9731424484
 20
81.8654054866
 30
0.0
 10
26.7045458393
 20
81.850350226
 30
0.0
 10
26.5120183563
 20
81.8371409829
 30
0.0
 10
26.3839520235
 20
81.826212498
 30
0.0
 10
26.3078212019
 20
81.8186458127
 30
0.0
 10
26.2453077526
 20
81.8111720965
 30
0.0
 10
26.1964022073
 20
81.8039506364
 30
0.0
 10
26.1614272282
 20
81.7967462901
 30
0.0
 10
26.1426449347
 20
81.7911217623
 30
0.0
 10
26.1361391705
 20
81.7874901474
 30
0.0
  0
SPLINE
  5
292
100
AcDbEntity
  8
0
100
AcDbSpline
 62
7
  6
BYLAYER
 70
0
 71
3
 72
45
 73
41
 74
0
 42
0.0000001
 43
0.0000001
 44
0.0000000001
 40
0.0
 40
0.0
 40
0.0
 40
0.0
 40
0.0007514605
 40
0.0017744496
 40
0.0046621909
 40
0.0086883105
 40
0.0138552107
 40
0.0201527781
 40
0.0275666639
 40
0.0456811449
 40
0.0680357933
 40
0.0944189965
 40
0.1245882582
 40
0.1582602078
 40
0.1951247721
 40
0.2348360938
 40
0.277026157
 40
0.3212969752
 40
0.4144129352
 40
0.5107072028
 40
0.606583295
 40
0.6984678896
 40
0.7418320755
 40
0.7829318686
 40
0.8213784114
 40
0.8568175157
 40
0.8889148641
 40
0.9173774818
 40
0.9419350778
 40
0.9623634415
 40
0.9709644599
 40
0.978465444
 40
0.984852164
 40
0.9901118456
 40
0.9942362504
 40
0.9958733566
 40
0.9972286571
 40
0.99830534
 40
0.9991106452
 40
1.0
 40
1.0
 40
1.0
 40
1.0
 10
38.1232065011
 20
77.8499098791
 30
0.0
 10
38.1206054052
 20
77.8483967795
 30
0.0
 10
38.114022009
 20
77.845614868
 30
0.0
 10
38.0961560502
 20
77.8401851248
 30
0.0
 10
38.064924259
 20
77.8339697399
 30
0.0
 10
38.0170818852
 20
77.8268579975
 30
0.0
 10
37.9554581845
 20
77.8196415063
 30
0.0
 10
37.8802222042
 20
77.812259191
 30
0.0
 10
37.7532281176
 20
77.8015006191
 30
0.0
 10
37.5619495084
 20
77.7880381279
 30
0.0
 10
37.2947102463
 20
77.7721673102
 30
0.0
 10
36.9791163467
 20
77.756481502
 30
0.0
 10
36.618135086
 20
77.7412868793
 30
0.0
 10
36.2151339709
 20
77.726508367
 30
0.0
 10
35.7738915798
 20
77.71197401
 30
0.0
 10
35.2985345323
 20
77.6970409896
 30
0.0
 10
34.7935252964
 20
77.6814602548
 30
0.0
 10
34.0747466028
 20
77.659791441
 30
0.0
 10
33.1393615384
 20
77.6331375213
 30
0.0
 10
31.9972929634
 20
77.6050534227
 30
0.0
 10
30.8602062918
 20
77.5750118119
 30
0.0
 10
29.9350830407
 20
77.5476685005
 30
0.0
 10
29.2292124776
 20
77.5268388895
 30
0.0
 10
28.7372487019
 20
77.5119725425
 30
0.0
 10
28.2770264397
 20
77.4973981059
 30
0.0
 10
27.8528795656
 20
77.482618028
 30
0.0
 10
27.4687651449
 20
77.4671693072
 30
0.0
 10
27.1282806504
 20
77.4513593918
 30
0.0
 10
26.8345872513
 20
77.4354578274
 30
0.0
 10
26.6204179869
 20
77.4220277062
 30
0.0
 10
26.4745032717
 20
77.411633789
 30
0.0
 10
26.3847340597
 20
77.4044333411
 30
0.0
 10
26.308396553
 20
77.3972407051
 30
0.0
 10
26.245654811
 20
77.3899049418
 30
0.0
 10
26.2020359705
 20
77.3832057875
 30
0.0
 10
26.1740740426
 20
77.3774677491
 30
0.0
 10
26.1583402231
 20
77.3735427883
 30
0.0
 10
26.1457712278
 20
77.3694852679
 30
0.0
 10
26.1361454872
 20
77.3653456268
 30
0.0
 10
26.1291513838
 20
77.3604607116
 30
0.0
 10
26.1291513838
 20
77.3568993404
 30
0.0
  0
SPLINE
  5
293
100
AcDbEntity
  8
0
100
AcDbSpline
 62
7
  6
BYLAYER
 70
0
 71
3
 72
40
 73
36
 74
0
 42
0.0000001
 43
0.0000001
 44
0.0000000001
 40
0.0
 40
0.0
 40
0.0
 40
0.0
 40
0.0018644743
 40
0.0048051789
 40
0.0088439651
 40
0.0139772424
 40
0.0201942775
 40
0.0274822714
 40
0.0452122469
 40
0.0670234278
 40
0.0927509831
 40
0.1221731942
 40
0.1550185555
 40
0.1909866452
 40
0.2297341886
 40
0.314145363
 40
0.4052682166
 40
0.4998199318
 40
0.594374313
 40
0.6855449442
 40
0.7288186178
 40
0.7700068457
 40
0.808751194
 40
0.8447104011
 40
0.8775739168
 40
0.9070492033
 40
0.9328615192
 40
0.9547551334
 40
0.9725202623
 40
0.979814114
 40
0.9860294429
 40
0.9911546444
 40
0.9951866476
 40
0.9981286607
 40
1.0
 40
1.0
 40
1.0
 40
1.0
 10
37.6225161953
 20
77.560276623
 30
0.0
 10
37.6166621896
 20
77.556742321
 30
0.0
 10
37.5997725284
 20
77.5509747475
 30
0.0
 10
37.5682886089
 20
77.5435128569
 30
0.0
 10
37.5244443175
 20
77.5359698133
 30
0.0
 10
37.468538852
 20
77.5283000149
 30
0.0
 10
37.4005979163
 20
77.5206539781
 30
0.0
 10
37.2865514582
 20
77.509826296
 30
0.0
 10
37.1152486218
 20
77.4971916976
 30
0.0
 10
36.8762892754
 20
77.4829763665
 30
0.0
 10
36.5943941036
 20
77.4685107784
 30
0.0
 10
36.2720053694
 20
77.4536083143
 30
0.0
 10
35.9120417435
 20
77.4382429613
 30
0.0
 10
35.5178614372
 20
77.4225367512
 30
0.0
 10
34.9346293949
 20
77.401325766
 30
0.0
 10
34.1491018469
 20
77.3769289296
 30
0.0
 10
33.1589418504
 20
77.3484169336
 30
0.0
 10
32.1316469854
 20
77.3170719549
 30
0.0
 10
31.104144134
 20
77.2868327261
 30
0.0
 10
30.2646036715
 20
77.2629616608
 30
0.0
 10
29.620756803
 20
77.2430851914
 30
0.0
 10
29.1691464243
 20
77.2276469174
 30
0.0
 10
28.7443915656
 20
77.2118882621
 30
0.0
 10
28.3501805932
 20
77.196400304
 30
0.0
 10
27.9899748925
 20
77.1813499004
 30
0.0
 10
27.6669964083
 20
77.1668236299
 30
0.0
 10
27.3842772829
 20
77.1526506707
 30
0.0
 10
27.144583995
 20
77.1382214773
 30
0.0
 10
26.9728697885
 20
77.1250188158
 30
0.0
 10
26.8587021998
 20
77.1139470256
 30
0.0
 10
26.7907865658
 20
77.1062148205
 30
0.0
 10
26.7349419686
 20
77.0985382387
 30
0.0
 10
26.6911447486
 20
77.091050861
 30
0.0
 10
26.6596209111
 20
77.0836988536
 30
0.0
 10
26.6426773176
 20
77.0780658687
 30
0.0
 10
26.6367346593
 20
77.0746321437
 30
0.0
  0
SPLINE
  5
294
100
AcDbEntity
  8
0
100
AcDbSpline
 62
7
  6
BYLAYER
 70
0
 71
3
 72
16
 73
12
 74
0
 42
0.0000001
 43
0.0000001
 44
0.0000000001
 40
0.0
 40
0.0
 40
0.0
 40
0.0
 40
0.2112280349
 40
0.3989925194
 40
0.5625085409
 40
0.7010896642
 40
0.8143364497
 40
0.9019269971
 40
0.9636766668
 40
0.984948519
 40
1.0
 40
1.0
 40
1.0
 40
1.0
 10
37.3253038222
 20
81.773566008
 30
0.0
 10
37.3816924044
 20
81.7766327453
 30
0.0
 10
37.4881977397
 20
81.782581866
 30
0.0
 10
37.6383022261
 20
81.7918021799
 30
0.0
 10
37.7689479738
 20
81.8010048635
 30
0.0
 10
37.8795908384
 20
81.8104164836
 30
0.0
 10
37.9698696252
 20
81.8197908484
 30
0.0
 10
38.0394427576
 20
81.8290300241
 30
0.0
 10
38.0844625231
 20
81.83686226
 30
0.0
 10
38.1097632733
 20
81.8437201729
 30
0.0
 10
38.1188911082
 20
81.8472228984
 30
0.0
 10
38.1224046368
 20
81.8491844942
 30
0.0
  0
SPLINE
  5
295
100
AcDbEntity
  8
0
100
AcDbSpline
 62
7
  6
BYLAYER
 70
0
 71
3
 72
31
 73
27
 74
0
 42
0.0000001
 43
0.0000001
 44
0.0000000001
 40
0.0
 40
0.0
 40
0.0
 40
0.0
 40
0.001641991
 40
0.0040988346
 40
0.0073884372
 40
0.0115154758
 40
0.0164802994
 40
0.0222814173
 40
0.0363612164
 40
0.0536505796
 40
0.0740315613
 40
0.0973661779
 40
0.1234965956
 40
0.1522610473
 40
0.1834795666
 40
0.2525128047
 40
0.3288404417
 40
0.4104684389
 40
0.4952941667
 40
0.5811600463
 40
0.6658589765
 40
0.7472203059
 40
0.8231818429
 40
0.8917783385
 40
0.9512573987
 40
1.0
 40
1.0
 40
1.0
 40
1.0
 10
37.6210322076
 20
78.5586831019
 30
0.0
 10
37.6161120012
 20
78.5559700383
 30
0.0
 10
37.6027285203
 20
78.5513721346
 30
0.0
 10
37.5781642748
 20
78.5455209615
 30
0.0
 10
37.5448649828
 20
78.5396215439
 30
0.0
 10
37.5029288489
 20
78.5336177726
 30
0.0
 10
37.452327728
 20
78.5275190166
 30
0.0
 10
37.3677751769
 20
78.5186239941
 30
0.0
 10
37.2410645417
 20
78.5074786933
 30
0.0
 10
37.0644599056
 20
78.4944551635
 30
0.0
 10
36.8561164062
 20
78.4813804673
 30
0.0
 10
36.6174621729
 20
78.4684459837
 30
0.0
 10
36.3500711582
 20
78.4557729423
 30
0.0
 10
36.0556579475
 20
78.4435207821
 30
0.0
 10
35.6144987376
 20
78.4268459134
 30
0.0
 10
35.0106427591
 20
78.4056349669
 30
0.0
 10
34.2343591746
 20
78.3795589557
 30
0.0
 10
33.4040052635
 20
78.353515522
 30
0.0
 10
32.5409438586
 20
78.3293433742
 30
0.0
 10
31.6673762988
 20
78.304974618
 30
0.0
 10
30.8057068845
 20
78.2792379081
 30
0.0
 10
29.9779695992
 20
78.2527236584
 30
0.0
 10
29.2053012801
 20
78.2280697978
 30
0.0
 10
28.5075196272
 20
78.204341319
 30
0.0
 10
27.902971921
 20
78.1795606438
 30
0.0
 10
27.5331637682
 20
78.1599678803
 30
0.0
 10
27.3666539212
 20
78.1503092784
 30
0.0
  0
SPLINE
  5
296
100
AcDbEntity
  8
0
100
AcDbSpline
 62
7
  6
BYLAYER
 70
0
 71
3
 72
46
 73
42
 74
0
 42
0.0000001
 43
0.0000001
 44
0.0000000001
 40
0.0
 40
0.0
 40
0.0
 40
0.0
 40
0.0007346913
 40
0.0017430068
 40
0.0046053524
 40
0.0086093884
 40
0.013756598
 40
0.0200359512
 40
0.0274322106
 40
0.0359296294
 40
0.0455114544
 40
0.0678322165
 40
0.0941853247
 40
0.1243307972
 40
0.1579855113
 40
0.1948395829
 40
0.2345441149
 40
0.2767308273
 40
0.321001698
 40
0.4141281143
 40
0.5104413286
 40
0.6063508671
 40
0.6982785812
 40
0.7416637147
 40
0.7827840857
 40
0.8212520029
 40
0.8567129139
 40
0.888831824
 40
0.917312814
 40
0.9418834052
 40
0.962322105
 40
0.9709288188
 40
0.9784360127
 40
0.9848290586
 40
0.9900945076
 40
0.994223088
 40
0.9958616593
 40
0.9972181523
 40
0.9982959547
 40
0.9991026982
 40
1.0
 40
1.0
 40
1.0
 40
1.0
 10
38.123495129
 20
76.8504497593
 30
0.0
 10
38.1209385989
 20
76.8489936098
 30
0.0
 10
38.1144505469
 20
76.8463147405
 30
0.0
 10
38.0967812256
 20
76.8410248006
 30
0.0
 10
38.0657989963
 20
76.8348505351
 30
0.0
 10
38.018247004
 20
76.8276078215
 30
0.0
 10
37.9569039447
 20
76.8200575857
 30
0.0
 10
37.8819320664
 20
76.8122409216
 30
0.0
 10
37.793491562
 20
76.8042878322
 30
0.0
 10
37.691785547
 20
76.7962817528
 30
0.0
 10
37.530384732
 20
76.7850975153
 30
0.0
 10
37.2974730022
 20
76.7716790146
 30
0.0
 10
36.9821806537
 20
76.7567964842
 30
0.0
 10
36.6214381121
 20
76.7423989459
 30
0.0
 10
36.2186255215
 20
76.7277128588
 30
0.0
 10
35.7775314978
 20
76.7123785882
 30
0.0
 10
35.3022677055
 20
76.6965398916
 30
0.0
 10
34.7972968453
 20
76.6803887022
 30
0.0
 10
34.0784488426
 20
76.6591008206
 30
0.0
 10
33.1428410579
 20
76.6349824586
 30
0.0
 10
32.0005114838
 20
76.605520979
 30
0.0
 10
30.8630544861
 20
76.5734249882
 30
0.0
 10
29.9374619107
 20
76.5475894743
 30
0.0
 10
29.2311944747
 20
76.5278032982
 30
0.0
 10
28.7389522485
 20
76.5131594986
 30
0.0
 10
28.2784786533
 20
76.4978778679
 30
0.0
 10
27.8540906883
 20
76.4821259643
 30
0.0
 10
27.4697402651
 20
76.4660502192
 30
0.0
 10
27.1290278439
 20
76.4503294052
 30
0.0
 10
26.8350996589
 20
76.4355494207
 30
0.0
 10
26.6207470965
 20
76.423040848
 30
0.0
 10
26.4747337359
 20
76.4126811209
 30
0.0
 10
26.3849019808
 20
76.405297831
 30
0.0
 10
26.3085130183
 20
76.3978345804
 30
0.0
 10
26.2457338258
 20
76.3902476843
 30
0.0
 10
26.2020833115
 20
76.3834454357
 30
0.0
 10
26.1741024926
 20
76.3776652403
 30
0.0
 10
26.158354226
 20
76.3737215886
 30
0.0
 10
26.1457837737
 20
76.3696404077
 30
0.0
 10
26.1361063498
 20
76.3654708331
 30
0.0
 10
26.1291513838
 20
76.3604926755
 30
0.0
 10
26.1291513838
 20
76.3568993404
 30
0.0
  0
SPLINE
  5
297
100
AcDbEntity
  8
0
100
AcDbSpline
 62
7
  6
BYLAYER
 70
0
 71
3
 72
39
 73
35
 74
0
 42
0.0000001
 43
0.0000001
 44
0.0000000001
 40
0.0
 40
0.0
 40
0.0
 40
0.0
 40
0.0018517925
 40
0.0047696929
 40
0.0087760394
 40
0.0138738284
 40
0.0200577444
 40
0.0273176335
 40
0.045018135
 40
0.0668513924
 40
0.0926137988
 40
0.1220754873
 40
0.1549491738
 40
0.1909272601
 40
0.2296859449
 40
0.314176556
 40
0.4054096867
 40
0.500057009
 40
0.5947044866
 40
0.6859273674
 40
0.7704042436
 40
0.8091655945
 40
0.8451473907
 40
0.878018973
 40
0.9074681909
 40
0.9332037892
 40
0.9550124674
 40
0.9727087531
 40
0.9799710967
 40
0.9861585478
 40
0.9912587949
 40
0.9952625282
 40
0.9981700341
 40
1.0
 40
1.0
 40
1.0
 40
1.0
 10
37.6222974205
 20
76.5596305269
 30
0.0
 10
37.6165274023
 20
76.5560475216
 30
0.0
 10
37.5997651348
 20
76.5502534215
 30
0.0
 10
37.5685203493
 20
76.5428802195
 30
0.0
 10
37.5249699845
 20
76.5355524181
 30
0.0
 10
37.4693886136
 20
76.5282402629
 30
0.0
 10
37.4017542822
 20
76.5210216055
 30
0.0
 10
37.2879872332
 20
76.5107400755
 30
0.0
 10
37.1167987164
 20
76.4982854754
 30
0.0
 10
36.8777578898
 20
76.4835741058
 30
0.0
 10
36.5955317362
 20
76.4684162977
 30
0.0
 10
36.2727832791
 20
76.4528214384
 30
0.0
 10
35.9125250395
 20
76.4372461354
 30
0.0
 10
35.5181166042
 20
76.4222411075
 30
0.0
 10
34.93444649
 20
76.4022248763
 30
0.0
 10
34.1481418282
 20
76.3780194222
 30
0.0
 10
33.1569612328
 20
76.3470767866
 30
0.0
 10
32.1285017537
 20
76.316356659
 30
0.0
 10
31.1000119277
 20
76.2880495091
 30
0.0
 10
30.1088593576
 20
76.2589695947
 30
0.0
 10
29.3227201259
 20
76.232045382
 30
0.0
 10
28.7391086934
 20
76.2111514281
 30
0.0
 10
28.3446767869
 20
76.196383145
 30
0.0
 10
27.9844067682
 20
76.1820836076
 30
0.0
 10
27.661752798
 20
76.1676976023
 30
0.0
 10
27.3797529262
 20
76.1526444078
 30
0.0
 10
27.140956318
 20
76.1372517169
 30
0.0
 10
26.9699389302
 20
76.1237958424
 30
0.0
 10
26.8562298302
 20
76.112825709
 30
0.0
 10
26.7886007557
 20
76.1052839463
 30
0.0
 10
26.7330182878
 20
76.09789728
 30
0.0
 10
26.6894749728
 20
76.0908065063
 30
0.0
 10
26.6582661813
 20
76.0838493382
 30
0.0
 10
26.6415056551
 20
76.0784942072
 30
0.0
 10
26.6356967012
 20
76.075131763
 30
0.0
  0
SPLINE
  5
298
100
AcDbEntity
  8
0
100
AcDbSpline
 62
7
  6
BYLAYER
 70
0
 71
3
 72
40
 73
36
 74
0
 42
0.0000001
 43
0.0000001
 44
0.0000000001
 40
0.0
 40
0.0
 40
0.0
 40
0.0
 40
0.0018567766
 40
0.004784231
 40
0.0088037471
 40
0.0139152937
 40
0.0201099441
 40
0.0273761738
 40
0.0450705783
 40
0.0668630373
 40
0.092585887
 40
0.1220244441
 40
0.1548854741
 40
0.1908603068
 40
0.2296136555
 40
0.3140573253
 40
0.4052363699
 40
0.4998425966
 40
0.5944545926
 40
0.6856687234
 40
0.7289570402
 40
0.7701605068
 40
0.8089177822
 40
0.8448918233
 40
0.8777640933
 40
0.9072356243
 40
0.933027172
 40
0.9548951356
 40
0.9726268908
 40
0.9799021801
 40
0.9861002346
 40
0.99120961
 40
0.9952249208
 40
0.9981487005
 40
1.0
 40
1.0
 40
1.0
 40
1.0
 10
37.62272229
 20
80.560299742
 30
0.0
 10
37.6169399701
 20
80.5567018339
 30
0.0
 10
37.6001512008
 20
80.550835158
 30
0.0
 10
37.568837217
 20
80.5433038754
 30
0.0
 10
37.525185503
 20
80.5357771432
 30
0.0
 10
37.4694984487
 20
80.5282092373
 30
0.0
 10
37.4017809948
 20
80.5207037719
 30
0.0
 10
37.288003542
 20
80.5100794388
 30
0.0
 10
37.1169620022
 20
80.4975880614
 30
0.0
 10
36.8782029633
 20
80.4834457427
 30
0.0
 10
36.5963284858
 20
80.468811517
 30
0.0
 10
36.2738440017
 20
80.4534551395
 30
0.0
 10
35.9137290255
 20
80.4378522749
 30
0.0
 10
35.5194163639
 20
80.4223487289
 30
0.0
 10
34.9359755766
 20
80.4015001019
 30
0.0
 10
34.1500449916
 20
80.3776322626
 30
0.0
 10
33.1593413533
 20
80.3480026028
 30
0.0
 10
32.1313744524
 20
80.3166880862
 30
0.0
 10
31.1032249761
 20
80.2872177868
 30
0.0
 10
30.2632188389
 20
80.2632346315
 30
0.0
 10
29.6190861112
 20
80.2428199837
 30
0.0
 10
29.1672990759
 20
80.2272751958
 30
0.0
 10
28.7423642153
 20
80.2115211441
 30
0.0
 10
28.3479920125
 20
80.1962093953
 30
0.0
 10
27.9876806501
 20
80.1815022246
 30
0.0
 10
27.6647377266
 20
80.1670873325
 30
0.0
 10
27.3821975314
 20
80.1527210545
 30
0.0
 10
27.1427967379
 20
80.1380931666
 30
0.0
 10
26.9713737519
 20
80.1246963507
 30
0.0
 10
26.8574666703
 20
80.113509855
 30
0.0
 10
26.7897416721
 20
80.1057477096
 30
0.0
 10
26.7340734054
 20
80.0981194155
 30
0.0
 10
26.6904411106
 20
80.0907529052
 30
0.0
 10
26.6590946214
 20
80.0835440087
 30
0.0
 10
26.6422546711
 20
80.0780263889
 30
0.0
 10
26.6363749353
 20
80.0746299711
 30
0.0
  0
SPLINE
  5
299
100
AcDbEntity
  8
0
100
AcDbSpline
 62
7
  6
BYLAYER
 70
0
 71
3
 72
44
 73
40
 74
0
 42
0.0000001
 43
0.0000001
 44
0.0000000001
 40
0.0
 40
0.0
 40
0.0
 40
0.0
 40
0.0018099354
 40
0.0047390808
 40
0.008807065
 40
0.0140153136
 40
0.0203522437
 40
0.027802403
 40
0.0363500093
 40
0.0459780826
 40
0.0683805694
 40
0.0948054974
 40
0.1250106407
 40
0.1587132716
 40
0.1956007644
 40
0.2353273729
 40
0.3217937257
 40
0.4148846447
 40
0.5111286184
 40
0.6069445771
 40
0.6987578517
 40
0.7420837709
 40
0.7831455364
 40
0.8215570416
 40
0.8569632056
 40
0.8890295893
 40
0.9174618652
 40
0.941990465
 40
0.9623957706
 40
0.9709896178
 40
0.9784866305
 40
0.9848717987
 40
0.9901310333
 40
0.9942540535
 40
0.9972416856
 40
0.9983143965
 40
0.9991133121
 40
0.9996554106
 40
1.0
 40
1.0
 40
1.0
 40
1.0
 10
38.1227056169
 20
75.8497284797
 30
0.0
 10
38.1163588429
 20
75.8462293167
 30
0.0
 10
38.0979116209
 20
75.8408403182
 30
0.0
 10
38.0634719924
 20
75.8337611559
 30
0.0
 10
38.0150694693
 20
75.8265101198
 30
0.0
 10
37.9530463316
 20
75.8188029451
 30
0.0
 10
37.8773809905
 20
75.810920549
 30
0.0
 10
37.7882998694
 20
75.8029869737
 30
0.0
 10
37.6859818554
 20
75.7951716696
 30
0.0
 10
37.5238394189
 20
75.7845832512
 30
0.0
 10
37.2900909221
 20
75.7721742603
 30
0.0
 10
36.9739539253
 20
75.7577139083
 30
0.0
 10
36.6125501149
 20
75.7426643246
 30
0.0
 10
36.2092432232
 20
75.7269945794
 30
0.0
 10
35.7677980533
 20
75.7109126903
 30
0.0
 10
35.1151372693
 20
75.6892970068
 30
0.0
 10
34.2374158903
 20
75.6644134311
 30
0.0
 10
33.1334105616
 20
75.6356211352
 30
0.0
 10
31.9920319594
 20
75.6038774769
 30
0.0
 10
30.8557571995
 20
75.5726650684
 30
0.0
 10
29.9312572765
 20
75.5488498748
 30
0.0
 10
29.2259990382
 20
75.5283529744
 30
0.0
 10
28.734524874
 20
75.5127674459
 30
0.0
 10
28.2747980019
 20
75.4966776246
 30
0.0
 10
27.8511065277
 20
75.480822391
 30
0.0
 10
27.4673745639
 20
75.4657326286
 30
0.0
 10
27.1272163344
 20
75.4510863577
 30
0.0
 10
26.8337949379
 20
75.4365905585
 30
0.0
 10
26.6198292001
 20
75.4237818165
 30
0.0
 10
26.4740928519
 20
75.4128890237
 30
0.0
 10
26.3844281328
 20
75.4050887411
 30
0.0
 10
26.3081826378
 20
75.3972251965
 30
0.0
 10
26.2455253731
 20
75.3893615565
 30
0.0
 10
26.1966127836
 20
75.3815349626
 30
0.0
 10
26.1645245137
 20
75.3746692645
 30
0.0
 10
26.1459160293
 20
75.3689393935
 30
0.0
 10
26.1369990785
 20
75.3651138547
 30
0.0
 10
26.1312266658
 20
75.3616164175
 30
0.0
 10
26.1291513838
 20
75.3582791675
 30
0.0
 10
26.1291513838
 20
75.3568993404
 30
0.0
  0
SPLINE
  5
29A
100
AcDbEntity
  8
0
100
AcDbSpline
 62
7
  6
BYLAYER
 70
0
 71
3
 72
40
 73
36
 74
0
 42
0.0000001
 43
0.0000001
 44
0.0000000001
 40
0.0
 40
0.0
 40
0.0
 40
0.0
 40
0.0018820886
 40
0.0048325706
 40
0.0088737067
 40
0.0140101551
 40
0.0202409201
 40
0.0275554864
 40
0.0453625299
 40
0.067277529
 40
0.0930926181
 40
0.1225544087
 40
0.1553959954
 40
0.1913318397
 40
0.2300577047
 40
0.3144693954
 40
0.4055674608
 40
0.5000425733
 40
0.5945209952
 40
0.6855780115
 40
0.7287979183
 40
0.7699661967
 40
0.808712978
 40
0.844681983
 40
0.877526946
 40
0.9069510298
 40
0.9327046525
 40
0.9545666839
 40
0.9723607737
 40
0.9796806647
 40
0.9859276301
 40
0.9910885736
 40
0.995152715
 40
0.9981157846
 40
1.0
 40
1.0
 40
1.0
 40
1.0
 10
37.6212584577
 20
75.5587159718
 30
0.0
 10
37.6152579908
 20
75.5553056719
 30
0.0
 10
37.598176555
 20
75.5498444825
 30
0.0
 10
37.566466488
 20
75.5428838947
 30
0.0
 10
37.5224829569
 20
75.5359085935
 30
0.0
 10
37.4664427736
 20
75.5287792786
 30
0.0
 10
37.3983084795
 20
75.5215362549
 30
0.0
 10
37.2838206006
 20
75.5109854411
 30
0.0
 10
37.1118147773
 20
75.4979341235
 30
0.0
 10
36.8719699024
 20
75.4825915619
 30
0.0
 10
36.5893186709
 20
75.4670750574
 30
0.0
 10
36.26652903
 20
75.4519319292
 30
0.0
 10
35.9065663638
 20
75.4373545385
 30
0.0
 10
35.5126017382
 20
75.4229138845
 30
0.0
 10
34.9295996503
 20
75.4029657631
 30
0.0
 10
34.1443980714
 20
75.3770200599
 30
0.0
 10
33.1548124494
 20
75.346002948
 30
0.0
 10
32.128222374
 20
75.3174684514
 30
0.0
 10
31.1017818969
 20
75.2889506773
 30
0.0
 10
30.2633296622
 20
75.2622470783
 30
0.0
 10
29.6202869874
 20
75.2414033517
 30
0.0
 10
29.1689817075
 20
75.2264742334
 30
0.0
 10
28.7442642442
 20
75.2120559767
 30
0.0
 10
28.3500824731
 20
75.1977818988
 30
0.0
 10
27.9901333573
 20
75.1829610714
 30
0.0
 10
27.6677100352
 20
75.1675158465
 30
0.0
 10
27.3856188346
 20
75.1519888824
 30
0.0
 10
27.1462367381
 20
75.1367262734
 30
0.0
 10
26.9744481185
 20
75.1237645548
 30
0.0
 10
26.8599108856
 20
75.1134135875
 30
0.0
 10
26.7915946991
 20
75.1062825201
 30
0.0
 10
26.7353137733
 20
75.0991988756
 30
0.0
 10
26.6911066825
 20
75.0922073895
 30
0.0
 10
26.6592782642
 20
75.0851475829
 30
0.0
 10
26.6421703328
 20
75.0795606658
 30
0.0
 10
26.6361982614
 20
75.076085348
 30
0.0
  0
SPLINE
  5
29B
100
AcDbEntity
  8
0
100
AcDbSpline
 62
7
  6
BYLAYER
 70
0
 71
3
 72
30
 73
26
 74
0
 42
0.0000001
 43
0.0000001
 44
0.0000000001
 40
0.0
 40
0.0
 40
0.0
 40
0.0
 40
0.0015567185
 40
0.0039348682
 40
0.0071517832
 40
0.01121184
 40
0.0161133619
 40
0.0218480821
 40
0.03577821
 40
0.0529216278
 40
0.0731711517
 40
0.0963968436
 40
0.1224568717
 40
0.151177101
 40
0.1823757464
 40
0.2513865414
 40
0.3277185138
 40
0.4094072832
 40
0.4943452097
 40
0.5803487197
 40
0.6652089858
 40
0.7467381023
 40
0.8228399877
 40
0.8915513431
 40
1.0
 40
1.0
 40
1.0
 40
1.0
 10
26.1359109244
 20
80.7870763303
 30
0.0
 10
26.1410001282
 20
80.7898826442
 30
0.0
 10
26.155086665
 20
80.7945347866
 30
0.0
 10
26.1810682466
 20
80.8004927771
 30
0.0
 10
26.216643496
 20
80.8065272914
 30
0.0
 10
26.2616772566
 20
80.8127314897
 30
0.0
 10
26.3161817318
 20
80.8190735187
 30
0.0
 10
26.4074369191
 20
80.8282368503
 30
0.0
 10
26.5444157079
 20
80.839340876
 30
0.0
 10
26.7356325693
 20
80.8515750369
 30
0.0
 10
26.9616269431
 20
80.8635058191
 30
0.0
 10
27.2209376143
 20
80.8756472244
 30
0.0
 10
27.5118793662
 20
80.888333734
 30
0.0
 10
27.8325973353
 20
80.9013850191
 30
0.0
 10
28.3135778325
 20
80.9197355543
 30
0.0
 10
28.9722794328
 20
80.9421348029
 30
0.0
 10
29.8195187209
 20
80.9659405338
 30
0.0
 10
30.7262241782
 20
80.9902540122
 30
0.0
 10
31.6689999425
 20
81.0164091743
 30
0.0
 10
32.6236128883
 20
81.0428367296
 30
0.0
 10
33.5655474898
 20
81.067307942
 30
0.0
 10
34.4705228171
 20
81.0910843184
 30
0.0
 10
35.3151300747
 20
81.1169345109
 30
0.0
 10
36.2600762179
 20
81.1490480748
 30
0.0
 10
36.9209641891
 20
81.1755521875
 30
0.0
 10
37.3253032883
 20
81.1962557681
 30
0.0
  0
SPLINE
  5
29C
100
AcDbEntity
  8
0
100
AcDbSpline
 62
7
  6
BYLAYER
 70
0
 71
3
 72
16
 73
12
 74
0
 42
0.0000001
 43
0.0000001
 44
0.0000000001
 40
0.0
 40
0.0
 40
0.0
 40
0.0
 40
0.0158734328
 40
0.0379182503
 40
0.1010050376
 40
0.1894896754
 40
0.3031745575
 40
0.4417630665
 40
0.6046587763
 40
0.791023912
 40
1.0
 40
1.0
 40
1.0
 40
1.0
 10
37.6217911133
 20
81.5599542916
 30
0.0
 10
37.6183961949
 20
81.5580533419
 30
0.0
 10
37.6097270542
 20
81.5545597167
 30
0.0
 10
37.5859694556
 20
81.547592097
 30
0.0
 10
37.5441297988
 20
81.5394084042
 30
0.0
 10
37.4798114487
 20
81.5299503024
 30
0.0
 10
37.3968057052
 20
81.5204647997
 30
0.0
 10
37.2954710049
 20
81.5110847789
 30
0.0
 10
37.1762411673
 20
81.5018627817
 30
0.0
 10
37.0397124968
 20
81.4926941664
 30
0.0
 10
36.9429789876
 20
81.4869001821
 30
0.0
 10
36.8918391155
 20
81.4839615182
 30
0.0
  0
SPLINE
  5
29D
100
AcDbEntity
  8
0
100
AcDbSpline
 62
7
  6
BYLAYER
 70
0
 71
3
 72
43
 73
39
 74
0
 42
0.0000001
 43
0.0000001
 44
0.0000000001
 40
0.0
 40
0.0
 40
0.0
 40
0.0
 40
0.0008706053
 40
0.0016683473
 40
0.0027386672
 40
0.0040886227
 40
0.0057212781
 40
0.0098392056
 40
0.0150946917
 40
0.0214774065
 40
0.0289731123
 40
0.0375667358
 40
0.057973267
 40
0.0825035655
 40
0.1109367826
 40
0.1430032979
 40
0.1784101793
 40
0.2168230618
 40
0.2578881478
 40
0.3012175888
 40
0.3930358125
 40
0.4888515396
 40
0.5851007666
 40
0.6781947119
 40
0.7646612382
 40
0.804387433
 40
0.8412756387
 40
0.8749790429
 40
0.9051871442
 40
0.9316151212
 40
0.9540211816
 40
0.9721959115
 40
0.9796439119
 40
0.9859781039
 40
0.9911839574
 40
0.9952511808
 40
0.9981823957
 40
1.0
 40
1.0
 40
1.0
 40
1.0
 10
38.1291513838
 20
75.2795490713
 30
0.0
 10
38.1291513838
 20
75.2760630183
 30
0.0
 10
38.1220936367
 20
75.2713808151
 30
0.0
 10
38.1125394355
 20
75.267486211
 30
0.0
 10
38.099974757
 20
75.2636405539
 30
0.0
 10
38.0842653152
 20
75.2599177694
 30
0.0
 10
38.0563212945
 20
75.2544251306
 30
0.0
 10
38.0127523695
 20
75.247866265
 30
0.0
 10
37.9500976543
 20
75.2403411198
 30
0.0
 10
37.8738565557
 20
75.2327711617
 30
0.0
 10
37.7841944734
 20
75.2251531582
 30
0.0
 10
37.6384575509
 20
75.2143424161
 30
0.0
 10
37.4245086683
 20
75.2011935572
 30
0.0
 10
37.1311102219
 20
75.1860606017
 30
0.0
 10
36.7909720242
 20
75.1708739613
 30
0.0
 10
36.407246937
 20
75.1556350236
 30
0.0
 10
35.9835340719
 20
75.1403744377
 30
0.0
 10
35.5237689343
 20
75.1250909747
 30
0.0
 10
35.0322646522
 20
75.1097950634
 30
0.0
 10
34.3269853603
 20
75.0889817291
 30
0.0
 10
33.4025222238
 20
75.0633771153
 30
0.0
 10
32.2662069071
 20
75.0331625512
 30
0.0
 10
31.1247815358
 20
75.0029463707
 30
0.0
 10
30.0208045582
 20
74.9727614586
 30
0.0
 10
29.1431192504
 20
74.9470148839
 30
0.0
 10
28.4904518992
 20
74.9260330887
 30
0.0
 10
28.0489839959
 20
74.910761373
 30
0.0
 10
27.6456519918
 20
74.8955072885
 30
0.0
 10
27.284236314
 20
74.8802888962
 30
0.0
 10
26.9680973336
 20
74.8651422056
 30
0.0
 10
26.7002045881
 20
74.8500699778
 30
0.0
 10
26.5083287486
 20
74.8368729309
 30
0.0
 10
26.3808354386
 20
74.8259545641
 30
0.0
 10
26.3051686928
 20
74.8183869226
 30
0.0
 10
26.243145525
 20
74.810891441
 30
0.0
 10
26.1947443746
 20
74.8036216758
 30
0.0
 10
26.1603115415
 20
74.7963645203
 30
0.0
 10
26.1418739888
 20
74.7907278851
 30
0.0
 10
26.1355768845
 20
74.7870788093
 30
0.0
  0
SPLINE
  5
29E
100
AcDbEntity
  8
0
100
AcDbSpline
 62
7
  6
BYLAYER
 70
0
 71
3
 72
46
 73
42
 74
0
 42
0.0000001
 43
0.0000001
 44
0.0000000001
 40
0.0
 40
0.0
 40
0.0
 40
0.0
 40
0.0007428868
 40
0.0017594517
 40
0.0046381883
 40
0.0086583595
 40
0.0138213573
 40
0.0201157782
 40
0.0275260832
 40
0.0360363591
 40
0.0456297443
 40
0.0679704132
 40
0.0943407631
 40
0.124500619
 40
0.1581672872
 40
0.1950301527
 40
0.2347409258
 40
0.2769308826
 40
0.3212015674
 40
0.4143180853
 40
0.5106148577
 40
0.6065020944
 40
0.6984016411
 40
0.7417724313
 40
0.7828784524
 40
0.8213321724
 40
0.8567794181
 40
0.8888856911
 40
0.917354948
 40
0.9419149299
 40
0.9623451242
 40
0.97094872
 40
0.9784535668
 40
0.9848449415
 40
0.9901091686
 40
0.9942364866
 40
0.995874253
 40
0.9972297352
 40
0.9983061827
 40
0.9991109581
 40
1.0
 40
1.0
 40
1.0
 40
1.0
 10
38.123303169
 20
79.8503049063
 30
0.0
 10
38.120709772
 20
79.8488474199
 30
0.0
 10
38.1141532914
 20
79.8461649471
 30
0.0
 10
38.0963479191
 20
79.8408717545
 30
0.0
 10
38.0652038922
 20
79.8346859171
 30
0.0
 10
38.0174634182
 20
79.8274032528
 30
0.0
 10
37.9559443252
 20
79.8197595773
 30
0.0
 10
37.88080442
 20
79.8118366479
 30
0.0
 10
37.7922041412
 20
79.8038064054
 30
0.0
 10
37.6903463003
 20
79.7957939705
 30
0.0
 10
37.5287599895
 20
79.7847722618
 30
0.0
 10
37.2956353464
 20
79.7717630086
 30
0.0
 10
36.9801320318
 20
79.7571699599
 30
0.0
 10
36.6192285804
 20
79.742664721
 30
0.0
 10
36.2162964688
 20
79.727673868
 30
0.0
 10
35.7751169143
 20
79.7120064066
 30
0.0
 10
35.2997955682
 20
79.696046597
 30
0.0
 10
34.7947933508
 20
79.6800990857
 30
0.0
 10
34.075977695
 20
79.6592532523
 30
0.0
 10
33.1404918765
 20
79.6354439666
 30
0.0
 10
31.9984072854
 20
79.6051458139
 30
0.0
 10
30.8612522901
 20
79.5728576284
 30
0.0
 10
29.935915772
 20
79.5479808353
 30
0.0
 10
29.229895102
 20
79.5281386093
 30
0.0
 10
28.7378446158
 20
79.5132329198
 30
0.0
 10
28.2775631684
 20
79.4976059512
 30
0.0
 10
27.8533552218
 20
79.4816729893
 30
0.0
 10
27.4691595275
 20
79.465783283
 30
0.0
 10
27.1285808271
 20
79.4503903848
 30
0.0
 10
26.8347710215
 20
79.4358652421
 30
0.0
 10
26.620508558
 20
79.4234099174
 30
0.0
 10
26.4745651451
 20
79.4129020357
 30
0.0
 10
26.3847763477
 20
79.4053706959
 30
0.0
 10
26.3084254466
 20
79.3977556081
 30
0.0
 10
26.2456787598
 20
79.3900505144
 30
0.0
 10
26.2020511808
 20
79.383206097
 30
0.0
 10
26.1740814471
 20
79.3774315154
 30
0.0
 10
26.1583451701
 20
79.3735061906
 30
0.0
 10
26.1457754249
 20
79.3694602763
 30
0.0
 10
26.1361436581
 20
79.3653437356
 30
0.0
 10
26.1291513838
 20
79.3604595095
 30
0.0
 10
26.1291513838
 20
79.3568993404
 30
0.0
  0
SPLINE
  5
29F
100
AcDbEntity
  8
0
100
AcDbSpline
 62
7
  6
BYLAYER
 70
0
 71
3
 72
46
 73
42
 74
0
 42
0.0000001
 43
0.0000001
 44
0.0000000001
 40
0.0
 40
0.0
 40
0.0
 40
0.0
 40
0.0007428946
 40
0.0017594673
 40
0.004638213
 40
0.0086583744
 40
0.0138213386
 40
0.0201157125
 40
0.0275259649
 40
0.0360361902
 40
0.0456295188
 40
0.0679700134
 40
0.0943402114
 40
0.1244998515
 40
0.1581663831
 40
0.1950291114
 40
0.2347399275
 40
0.2769300024
 40
0.321200723
 40
0.414316959
 40
0.5106137994
 40
0.6065012744
 40
0.698400817
 40
0.741771659
 40
0.7828777567
 40
0.8213316068
 40
0.8567789747
 40
0.8888853591
 40
0.9173547076
 40
0.9419147923
 40
0.9623450823
 40
0.9709487031
 40
0.9784535665
 40
0.984844952
 40
0.9901091867
 40
0.9942365059
 40
0.9958742698
 40
0.9972297483
 40
0.9983061915
 40
0.9991109627
 40
1.0
 40
1.0
 40
1.0
 40
1.0
 10
26.1349996601
 20
79.7861435696
 30
0.0
 10
26.1375930789
 20
79.7876010812
 30
0.0
 10
26.1441496032
 20
79.7902836115
 30
0.0
 10
26.1619550442
 20
79.7955769222
 30
0.0
 10
26.1930990794
 20
79.8017628748
 30
0.0
 10
26.2408394199
 20
79.8090455131
 30
0.0
 10
26.3023581719
 20
79.8166889967
 30
0.0
 10
26.3774975613
 20
79.8246117225
 30
0.0
 10
26.4660972585
 20
79.8326417195
 30
0.0
 10
26.5679544835
 20
79.8406538185
 30
0.0
 10
26.7295396728
 20
79.8516753565
 30
0.0
 10
26.9626626901
 20
79.8646861779
 30
0.0
 10
27.2781638706
 20
79.8792785754
 30
0.0
 10
27.6390653756
 20
79.893781819
 30
0.0
 10
28.0419954504
 20
79.9087745898
 30
0.0
 10
28.4831740381
 20
79.9244432316
 30
0.0
 10
28.9584954756
 20
79.9404031308
 30
0.0
 10
29.4634985318
 20
79.9563490692
 30
0.0
 10
30.1823137953
 20
79.977190525
 30
0.0
 10
31.1177987096
 20
80.0010067194
 30
0.0
 10
32.259883487
 20
80.0313014098
 30
0.0
 10
33.3970396558
 20
80.063590796
 30
0.0
 10
34.3223773273
 20
80.0884671719
 30
0.0
 10
35.028398445
 20
80.1083111519
 30
0.0
 10
35.5204499188
 20
80.1232182573
 30
0.0
 10
35.9807327944
 20
80.1388417622
 30
0.0
 10
36.4049423191
 20
80.1547716279
 30
0.0
 10
36.7891391947
 20
80.1706643514
 30
0.0
 10
37.1297190129
 20
80.1860595327
 30
0.0
 10
37.4235300311
 20
80.2005835425
 30
0.0
 10
37.637793453
 20
80.2130378719
 30
0.0
 10
37.783737414
 20
80.2235458099
 30
0.0
 10
37.8735264045
 20
80.2310773674
 30
0.0
 10
37.9498774179
 20
80.2386927383
 30
0.0
 10
38.012624157
 20
80.2463980392
 30
0.0
 10
38.0562517552
 20
80.2532424849
 30
0.0
 10
38.0842214722
 20
80.2590170452
 30
0.0
 10
38.0999577145
 20
80.2629423374
 30
0.0
 10
38.1125274179
 20
80.2669882151
 30
0.0
 10
38.1221591529
 20
80.2711047107
 30
0.0
 10
38.1291513838
 20
80.2759889206
 30
0.0
 10
38.1291513838
 20
80.2795490713
 30
0.0
  0
SPLINE
  5
2A0
100
AcDbEntity
  8
0
100
AcDbSpline
 62
7
  6
BYLAYER
 70
0
 71
3
 72
18
 73
14
 74
0
 42
0.0000001
 43
0.0000001
 44
0.0000000001
 40
0.0
 40
0.0
 40
0.0
 40
0.0
 40
0.2280261751
 40
0.4279480366
 40
0.5987378314
 40
0.7395982544
 40
0.8500857621
 40
0.9298754434
 40
0.9582615599
 40
0.979064983
 40
0.9867016476
 40
0.9925902775
 40
1.0
 40
1.0
 40
1.0
 40
1.0
 10
26.9329994793
 20
78.4401926452
 30
0.0
 10
26.8713401254
 20
78.4368106511
 30
0.0
 10
26.7556293611
 20
78.4303087915
 30
0.0
 10
26.5937914917
 20
78.420303214
 30
0.0
 10
26.4556074967
 20
78.4103549017
 30
0.0
 10
26.3417191201
 20
78.4003035229
 30
0.0
 10
26.2526163278
 20
78.3901448177
 30
0.0
 10
26.1940452807
 20
78.381134696
 30
0.0
 10
26.1599792084
 20
78.3732599636
 30
0.0
 10
26.1452710273
 20
78.3687624287
 30
0.0
 10
26.1367273313
 20
78.364871547
 30
0.0
 10
26.1319947111
 20
78.3620438468
 30
0.0
 10
26.1291513838
 20
78.3589059761
 30
0.0
 10
26.1291513838
 20
78.3568993405
 30
0.0
  0
SPLINE
  5
2A1
100
AcDbEntity
  8
0
100
AcDbSpline
 62
7
  6
BYLAYER
 70
0
 71
3
 72
39
 73
35
 74
0
 42
0.0000001
 43
0.0000001
 44
0.0000000001
 40
0.0
 40
0.0
 40
0.0
 40
0.0
 40
0.0018503398
 40
0.0047689347
 40
0.0087788259
 40
0.0138848648
 40
0.0200862997
 40
0.0273731333
 40
0.0451248209
 40
0.0669771124
 40
0.0927240607
 40
0.1221178627
 40
0.154897371
 40
0.1907799318
 40
0.2294644026
 40
0.3137975553
 40
0.4048219639
 40
0.4992552743
 40
0.5937229314
 40
0.6848049524
 40
0.7692632207
 40
0.8080504816
 40
0.8440614745
 40
0.8769548747
 40
0.9064344179
 40
0.9322604581
 40
0.9542113379
 40
0.9721004606
 40
0.9794669686
 40
0.9857588237
 40
0.9909632731
 40
0.9950699462
 40
0.9980747878
 40
1.0
 40
1.0
 40
1.0
 40
1.0
 10
37.6216895938
 20
82.5590751567
 30
0.0
 10
37.6158252019
 20
82.5556618955
 30
0.0
 10
37.5989696059
 20
82.550224727
 30
0.0
 10
37.5676187983
 20
82.5432842421
 30
0.0
 10
37.5239784189
 20
82.536315462
 30
0.0
 10
37.468278922
 20
82.5291674899
 30
0.0
 10
37.4004723325
 20
82.5218775969
 30
0.0
 10
37.2864099355
 20
82.5112160022
 30
0.0
 10
37.1149517448
 20
82.4980231658
 30
0.0
 10
36.8757921863
 20
82.4826834501
 30
0.0
 10
36.5938649138
 20
82.4673197672
 30
0.0
 10
36.2717980213
 20
82.4523384798
 30
0.0
 10
35.9125057204
 20
82.4378981781
 30
0.0
 10
35.519119861
 20
82.4234527867
 30
0.0
 10
34.9367709221
 20
82.403133215
 30
0.0
 10
34.1522925722
 20
82.3769715992
 30
0.0
 10
33.1634103347
 20
82.3464712767
 30
0.0
 10
32.1372839072
 20
82.3182200003
 30
0.0
 10
31.1109751134
 20
82.2889094201
 30
0.0
 10
30.1213273332
 20
82.2574604301
 30
0.0
 10
29.3357590503
 20
82.2326108517
 30
0.0
 10
28.7520863222
 20
82.212755053
 30
0.0
 10
28.3574385766
 20
82.1981698868
 30
0.0
 10
27.9969678682
 20
82.1830879626
 30
0.0
 10
27.6739077905
 20
82.1674828664
 30
0.0
 10
27.3910204611
 20
82.1520148143
 30
0.0
 10
27.1506758157
 20
82.1371310252
 30
0.0
 10
26.9780161456
 20
82.124495322
 30
0.0
 10
26.8627856552
 20
82.1142197512
 30
0.0
 10
26.7939743239
 20
82.1070704257
 30
0.0
 10
26.7372174074
 20
82.0999134072
 30
0.0
 10
26.692558516
 20
82.0927971139
 30
0.0
 10
26.6602853888
 20
82.085586982
 30
0.0
 10
26.6429153328
 20
82.079846661
 30
0.0
 10
26.6368030275
 20
82.0763135875
 30
0.0
  0
SPLINE
  5
2A2
100
AcDbEntity
  8
0
100
AcDbSpline
 62
7
  6
BYLAYER
 70
0
 71
3
 72
33
 73
29
 74
0
 42
0.0000001
 43
0.0000001
 44
0.0000000001
 40
0.0
 40
0.0
 40
0.0
 40
0.0
 40
0.049832001
 40
0.1107198482
 40
0.1810152803
 40
0.2588621208
 40
0.3421780406
 40
0.4287402564
 40
0.5162345162
 40
0.6023303323
 40
0.6847304794
 40
0.7612316621
 40
0.7966222746
 40
0.8297903698
 40
0.8605099959
 40
0.8885815998
 40
0.9138161817
 40
0.9360447027
 40
0.9551237586
 40
0.9709192834
 40
0.9833377017
 40
0.9882570204
 40
0.9923063526
 40
0.9954848009
 40
0.997797394
 40
0.9986348114
 40
0.9992673847
 40
1.0
 40
1.0
 40
1.0
 40
1.0
 10
37.3253038222
 20
81.773566008
 30
0.0
 10
37.1393727455
 20
81.7633677851
 30
0.0
 10
36.7260217801
 20
81.7451981897
 30
0.0
 10
36.0500807239
 20
81.7199994891
 30
0.0
 10
35.2693635364
 20
81.6955083319
 30
0.0
 10
34.4048220685
 20
81.6704562525
 30
0.0
 10
33.4795275486
 20
81.6433787898
 30
0.0
 10
32.5181512746
 20
81.6168726218
 30
0.0
 10
31.5463234904
 20
81.5926898107
 30
0.0
 10
30.5900737542
 20
81.5676863856
 30
0.0
 10
29.6749676938
 20
81.5408830647
 30
0.0
 10
28.9493019973
 20
81.5180854555
 30
0.0
 10
28.4075199522
 20
81.5008867543
 30
0.0
 10
28.0367451852
 20
81.4885412192
 30
0.0
 10
27.693338296
 20
81.4761276502
 30
0.0
 10
27.3796070749
 20
81.4634778184
 30
0.0
 10
27.0976533624
 20
81.4503745187
 30
0.0
 10
26.8493652948
 20
81.4368661575
 30
0.0
 10
26.6364014333
 20
81.4234844943
 30
0.0
 10
26.4601365375
 20
81.4107327781
 30
0.0
 10
26.3367954058
 20
81.3998211085
 30
0.0
 10
26.2573988772
 20
81.3905825234
 30
0.0
 10
26.2124748002
 20
81.3841525801
 30
0.0
 10
26.1773638222
 20
81.3776446331
 30
0.0
 10
26.1544713818
 20
81.372034302
 30
0.0
 10
26.1410249129
 20
81.3670758735
 30
0.0
 10
26.1339468025
 20
81.3636373735
 30
0.0
 10
26.1291513838
 20
81.3596369527
 30
0.0
 10
26.1291513838
 20
81.3568993405
 30
0.0
  0
SPLINE
  5
2A3
100
AcDbEntity
  8
0
100
AcDbSpline
 62
7
  6
BYLAYER
 70
0
 71
3
 72
39
 73
35
 74
0
 42
0.0000001
 43
0.0000001
 44
0.0000000001
 40
0.0
 40
0.0
 40
0.0
 40
0.0
 40
0.0018595361
 40
0.0047837271
 40
0.0087958235
 40
0.0139001006
 40
0.0200925426
 40
0.0273630066
 40
0.0450903738
 40
0.066961362
 40
0.0927582398
 40
0.1222333496
 40
0.1551067627
 40
0.1910806037
 40
0.2298376258
 40
0.3143316328
 40
0.4055505744
 40
0.5001692631
 40
0.594781349
 40
0.6859630974
 40
0.7704098027
 40
0.8091641352
 40
0.8451386138
 40
0.8779981015
 40
0.9074345431
 40
0.933158338
 40
0.9549590639
 40
0.9726621492
 40
0.9799314702
 40
0.986127268
 40
0.9912367148
 40
0.9952492187
 40
0.9981637909
 40
1.0
 40
1.0
 40
1.0
 40
1.0
 10
37.6219193241
 20
79.5592232491
 30
0.0
 10
37.616088782
 20
79.5556850651
 30
0.0
 10
37.5992488308
 20
79.5499838949
 30
0.0
 10
37.5678962242
 20
79.5427465977
 30
0.0
 10
37.5242586272
 20
79.5355564681
 30
0.0
 10
37.4685883617
 20
79.5283527141
 30
0.0
 10
37.4008545599
 20
79.521212918
 30
0.0
 10
37.2869180749
 20
79.5109857773
 30
0.0
 10
37.1154667342
 20
79.4984564082
 30
0.0
 10
36.8760940569
 20
79.4833832492
 30
0.0
 10
36.593581475
 20
79.467901958
 30
0.0
 10
36.270666596
 20
79.4523834755
 30
0.0
 10
35.9103773886
 20
79.4371015184
 30
0.0
 10
35.5159971245
 20
79.4223673733
 30
0.0
 10
34.9323478996
 20
79.4026987477
 30
0.0
 10
34.1461448307
 20
79.377730435
 30
0.0
 10
33.1551548867
 20
79.3465521342
 30
0.0
 10
32.1270007442
 20
79.3165948547
 30
0.0
 10
31.0989339196
 20
79.2884116926
 30
0.0
 10
30.108235282
 20
79.2585551019
 30
0.0
 10
29.3224125614
 20
79.2317232756
 30
0.0
 10
28.7389716396
 20
79.2112796384
 30
0.0
 10
28.3446436996
 20
79.1967408999
 30
0.0
 10
27.9845095773
 20
79.1823465022
 30
0.0
 10
27.6620120767
 20
79.1677570832
 30
0.0
 10
27.380153818
 20
79.152497502
 30
0.0
 10
27.1414267294
 20
79.1369185174
 30
0.0
 10
26.9703905295
 20
79.1235411053
 30
0.0
 10
26.8565852483
 20
79.1127755167
 30
0.0
 10
26.7888520601
 20
79.1053833158
 30
0.0
 10
26.7331578395
 20
79.0981220564
 30
0.0
 10
26.6895115392
 20
79.0911017405
 30
0.0
 10
26.6582131842
 20
79.0841795816
 30
0.0
 10
26.641400621
 20
79.0788249075
 30
0.0
 10
26.6355694081
 20
79.0754557461
 30
0.0
  0
SPLINE
  5
2A4
100
AcDbEntity
  8
0
100
AcDbSpline
 62
7
  6
BYLAYER
 70
0
 71
3
 72
45
 73
41
 74
0
 42
0.0000001
 43
0.0000001
 44
0.0000000001
 40
0.0
 40
0.0
 40
0.0
 40
0.0
 40
0.0007378719
 40
0.001748297
 40
0.0046128771
 40
0.0086174645
 40
0.0137640496
 40
0.0200424055
 40
0.0274379879
 40
0.0455181609
 40
0.0678422173
 40
0.0941986645
 40
0.1243459598
 40
0.1580003995
 40
0.1948522355
 40
0.2345554234
 40
0.2767420727
 40
0.3210135683
 40
0.4141411221
 40
0.5104574089
 40
0.6063664774
 40
0.6982903055
 40
0.7416743631
 40
0.7827940902
 40
0.8212611365
 40
0.8567204432
 40
0.8888370528
 40
0.9173168103
 40
0.9418887423
 40
0.9623288209
 40
0.9709350446
 40
0.978440982
 40
0.9848322202
 40
0.9900957737
 40
0.9942232518
 40
0.9958616778
 40
0.9972182546
 40
0.9982963133
 40
0.9991033684
 40
1.0
 40
1.0
 40
1.0
 40
1.0
 10
26.1348245979
 20
78.7861675921
 30
0.0
 10
26.1373790697
 20
78.787652825
 30
0.0
 10
26.1438695024
 20
78.7903852591
 30
0.0
 10
26.161546964
 20
78.7957548285
 30
0.0
 10
26.1925469038
 20
78.8019589669
 30
0.0
 10
26.2401196378
 20
78.8091236755
 30
0.0
 10
26.3014867371
 20
78.8164453205
 30
0.0
 10
26.3764790667
 20
78.8239648533
 30
0.0
 10
26.5031707185
 20
78.8349371608
 30
0.0
 10
26.694108291
 20
78.8486048226
 30
0.0
 10
26.96098648
 20
78.8645320306
 30
0.0
 10
27.2762840175
 20
78.8800160634
 30
0.0
 10
27.6370293949
 20
78.8947957187
 30
0.0
 10
28.0398418638
 20
78.9093749008
 30
0.0
 10
28.4809399702
 20
78.9240757715
 30
0.0
 10
28.9562057911
 20
78.9393333138
 30
0.0
 10
29.4611780951
 20
78.9552586653
 30
0.0
 10
30.1800155364
 20
78.9769863249
 30
0.0
 10
31.1155932828
 20
79.0028106314
 30
0.0
 10
32.2579660761
 20
79.030948894
 30
0.0
 10
33.395447593
 20
79.0618044458
 30
0.0
 10
34.3209736235
 20
79.0890596743
 30
0.0
 10
35.0272005574
 20
79.1093606065
 30
0.0
 10
35.5194306653
 20
79.1239701369
 30
0.0
 10
35.9799074595
 20
79.1386876434
 30
0.0
 10
36.4042974542
 20
79.1538065936
 30
0.0
 10
36.7886383324
 20
79.1695878975
 30
0.0
 10
37.1293322063
 20
79.1855042281
 30
0.0
 10
37.4232244424
 20
79.2010975919
 30
0.0
 10
37.6375476666
 20
79.2141916447
 30
0.0
 10
37.783562519
 20
79.2244865363
 30
0.0
 10
37.8733945255
 20
79.2316793614
 30
0.0
 10
37.9497860261
 20
79.2389003699
 30
0.0
 10
38.0125707304
 20
79.2462796335
 30
0.0
 10
38.0562210677
 20
79.2530075118
 30
0.0
 10
38.0842004407
 20
79.2587731499
 30
0.0
 10
38.0999482972
 20
79.2627201151
 30
0.0
 10
38.1125203451
 20
79.2668089585
 30
0.0
 10
38.1221890193
 20
79.2709908092
 30
0.0
 10
38.1291513838
 20
79.2759584372
 30
0.0
 10
38.1291513838
 20
79.2795490713
 30
0.0
  0
SPLINE
  5
2A5
100
AcDbEntity
  8
0
100
AcDbSpline
 62
7
  6
BYLAYER
 70
0
 71
3
 72
45
 73
41
 74
0
 42
0.0000001
 43
0.0000001
 44
0.0000000001
 40
0.0
 40
0.0
 40
0.0
 40
0.0
 40
0.0007378759
 40
0.0017483051
 40
0.0046128914
 40
0.0086174798
 40
0.0137640618
 40
0.0200424164
 40
0.0274379987
 40
0.045518172
 40
0.0678422234
 40
0.0941986236
 40
0.1243458331
 40
0.1580002259
 40
0.1948520519
 40
0.234555255
 40
0.2767419097
 40
0.3210134044
 40
0.41414107
 40
0.5104577882
 40
0.6063669716
 40
0.6982905942
 40
0.7416747466
 40
0.7827946063
 40
0.8212616451
 40
0.8567208905
 40
0.8888374189
 40
0.9173171063
 40
0.9418889567
 40
0.9623289646
 40
0.9709351597
 40
0.978441057
 40
0.9848322551
 40
0.9900957796
 40
0.9942232455
 40
0.9958616699
 40
0.9972182473
 40
0.998296308
 40
0.9991033655
 40
1.0
 40
1.0
 40
1.0
 40
1.0
 10
38.1234781488
 20
80.8502807682
 30
0.0
 10
38.12092367
 20
80.8487955153
 30
0.0
 10
38.1144332213
 20
80.8460630351
 30
0.0
 10
38.0967557275
 20
80.8406933717
 30
0.0
 10
38.065755755
 20
80.8344891521
 30
0.0
 10
38.0181829961
 20
80.8273244849
 30
0.0
 10
37.9568158794
 20
80.8200030922
 30
0.0
 10
37.8818235384
 20
80.8124838595
 30
0.0
 10
37.7551318636
 20
80.8015118831
 30
0.0
 10
37.5641943485
 20
80.7878437875
 30
0.0
 10
37.2973164523
 20
80.7719150927
 30
0.0
 10
36.9820194379
 20
80.7564314824
 30
0.0
 10
36.6212746828
 20
80.7416542072
 30
0.0
 10
36.2184627698
 20
80.7270755699
 30
0.0
 10
35.7773649039
 20
80.7123724984
 30
0.0
 10
35.3020990822
 20
80.6971136227
 30
0.0
 10
34.797126645
 20
80.6811899693
 30
0.0
 10
34.0782887182
 20
80.6594630278
 30
0.0
 10
33.1427089302
 20
80.6336338635
 30
0.0
 10
32.000333351
 20
80.6055012997
 30
0.0
 10
30.8628505045
 20
80.5746443354
 30
0.0
 10
29.9373244296
 20
80.5473900625
 30
0.0
 10
29.2310974753
 20
80.527086775
 30
0.0
 10
28.7388664985
 20
80.5124768333
 30
0.0
 10
28.278389442
 20
80.4977595648
 30
0.0
 10
27.8539999993
 20
80.4826419924
 30
0.0
 10
27.4696599688
 20
80.4668606976
 30
0.0
 10
27.1289670756
 20
80.4509433996
 30
0.0
 10
26.8350756846
 20
80.435350968
 30
0.0
 10
26.6207531655
 20
80.4222571775
 30
0.0
 10
26.4747389031
 20
80.4119618492
 30
0.0
 10
26.3849073396
 20
80.4047689506
 30
0.0
 10
26.3085162785
 20
80.3975479423
 30
0.0
 10
26.2457318923
 20
80.3901687716
 30
0.0
 10
26.202081718
 20
80.3834409562
 30
0.0
 10
26.1741023974
 20
80.377675324
 30
0.0
 10
26.1583545394
 20
80.3737283489
 30
0.0
 10
26.1457824736
 20
80.3696394911
 30
0.0
 10
26.1361137818
 20
80.3654576189
 30
0.0
 10
26.1291513838
 20
80.3604899861
 30
0.0
 10
26.1291513838
 20
80.3568993405
 30
0.0
  0
SPLINE
  5
2A6
100
AcDbEntity
  8
0
100
AcDbSpline
 62
7
  6
BYLAYER
 70
0
 71
3
 72
16
 73
12
 74
0
 42
0.0000001
 43
0.0000001
 44
0.0000000001
 40
0.0
 40
0.0
 40
0.0
 40
0.0
 40
0.0151929324
 40
0.0365919906
 40
0.0985416803
 40
0.1862544757
 40
0.299547774
 40
0.4381034425
 40
0.6015177708
 40
0.7890829624
 40
1.0
 40
1.0
 40
1.0
 40
1.0
 10
26.1361697256
 20
77.7874016596
 30
0.0
 10
26.1397371947
 20
77.7893398869
 30
0.0
 10
26.1489526763
 20
77.7927941017
 30
0.0
 10
26.174403989
 20
77.7995308643
 30
0.0
 10
26.2195487899
 20
77.8071997729
 30
0.0
 10
26.2892127378
 20
77.816262441
 30
0.0
 10
26.3794953594
 20
77.8255536445
 30
0.0
 10
26.4900560315
 20
77.8350704095
 30
0.0
 10
26.6205263777
 20
77.8446609528
 30
0.0
 10
26.7703816416
 20
77.8541700701
 30
0.0
 10
26.8767095124
 20
77.8600001752
 30
0.0
 10
26.9329989627
 20
77.8628824047
 30
0.0
  0
SPLINE
  5
2A7
100
AcDbEntity
  8
0
100
AcDbSpline
 62
7
  6
BYLAYER
 70
0
 71
3
 72
18
 73
14
 74
0
 42
0.0000001
 43
0.0000001
 44
0.0000000001
 40
0.0
 40
0.0
 40
0.0
 40
0.0
 40
0.2279817778
 40
0.4278729241
 40
0.5986588187
 40
0.7395528464
 40
0.8500972109
 40
0.9299307673
 40
0.9583234956
 40
0.9791218858
 40
0.9867507498
 40
0.9926274538
 40
1.0
 40
1.0
 40
1.0
 40
1.0
 10
37.3253032883
 20
81.1962557681
 30
0.0
 10
37.3869664885
 20
81.1993740491
 30
0.0
 10
37.502685001
 20
81.2054304458
 30
0.0
 10
37.6645310381
 20
81.2150465257
 30
0.0
 10
37.8027201286
 20
81.2250132209
 30
0.0
 10
37.9166025955
 20
81.2354566524
 30
0.0
 10
38.0056902529
 20
81.2461005906
 30
0.0
 10
38.0642490308
 20
81.2553566742
 30
0.0
 10
38.0983187481
 20
81.2632739014
 30
0.0
 10
38.1130262632
 20
81.2677620163
 30
0.0
 10
38.121573312
 20
81.2716321429
 30
0.0
 10
38.1262997814
 20
81.2744354668
 30
0.0
 10
38.1291513838
 20
81.2775524393
 30
0.0
 10
38.1291513838
 20
81.2795490713
 30
0.0
  0
ELLIPSE
  5
2A8
100
AcDbEntity
  8
0
100
AcDbEllipse
 62
7
  6
BYLAYER
 10
51.6272455769
 20
18.4295490713
 30
0.0
 11
-0.7597262362
 21
0.6517228856
 31
0.0
 40
0.9983295758
 41
-4.0025351882
 42
-2.4317388614
  0
ELLIPSE
  5
2A9
100
AcDbEntity
  8
0
100
AcDbEllipse
 62
7
  6
BYLAYER
 10
12.6310571907
 20
18.4295490713
 30
0.0
 11
0.7597262362
 21
0.6517228856
 31
0.0
 40
0.9983295758
 41
-3.8514464457
 42
-2.2806501189
  0
ELLIPSE
  5
2AA
100
AcDbEntity
  8
0
100
AcDbEllipse
 62
7
  6
BYLAYER
 10
51.5389873434
 20
71.8295490713
 30
0.0
 11
-0.7597262362
 21
0.6517228856
 31
0.0
 40
0.9983295758
 41
-2.4317388614
 42
-0.8609425346
  0
ELLIPSE
  5
2AB
100
AcDbEntity
  8
0
100
AcDbEllipse
 62
7
  6
BYLAYER
 10
12.7193154242
 20
71.8295490713
 30
0.0
 11
0.7597262362
 21
0.6517228856
 31
0.0
 40
0.9983295758
 41
0.8609425346
 42
2.4317388614
  0
ENDSEC
  0
SECTION
  2
OBJECTS
  0
DICTIONARY
  5
C
100
AcDbDictionary
280
0
281
1
  3
ACAD_GROUP
350
D
  3
ACAD_MLINESTYLE
350
17
  3
ACAD_LAYOUT
350
1A
  3
ACAD_PLOTSETTINGS
350
19
  3
ACAD_PLOTSTYLENAME
350
E
  0
DICTIONARY
  5
D
102
{ACAD_REACTORS
330
C
102
}
100
AcDbDictionary
280
0
281
1
  0
ACDBDICTIONARYWDFLT
  5
E
102
{ACAD_REACTORS
330
C
102
}
100
AcDbDictionary
281
1
  3
Normal
350
F
100
AcDbDictionaryWithDefault
340
F
  0
DICTIONARY
  5
17
102
{ACAD_REACTORS
330
C
102
}
100
AcDbDictionary
280
0
281
1
  3
Standard
350
18
  0
DICTIONARY
  5
19
102
{ACAD_REACTORS
330
C
102
}
100
AcDbDictionary
281
1
  0
DICTIONARY
  5
1A
102
{ACAD_REACTORS
330
C
102
}
100
AcDbDictionary
281
1
  3
Model
350
2AC
  3
Layout1
350
2AD
  0
ACDBPLACEHOLDER
  5
F
102
{ACAD_REACTORS
330
E
102
}
  0
MLINESTYLE
  5
18
102
{ACAD_REACTORS
330
17
102
}
100
AcDbMlineStyle
  2
STANDARD
 70
0
  3

 62
256
 51
90.0
 52
90.0
 71
2
 49
0.5
 62
256
  6
BYLAYER
 49
-0.5
 62
256
  6
BYLAYER
  0
LAYOUT
  5
2AC
102
{ACAD_REACTORS
330
1A
102
}
100
AcDbPlotSettings
  1

  2
none_device
  4

  6

 40
0.0
 41
0.0
 42
0.0
 43
0.0
 44
210.0
 45
297.0
 46
0.0
 47
0.0
 48
0.0
 49
0.0
140
0.0
141
0.0
142
1.0
143
1.0
 70
1024
 72
1
 73
0
 74
0
  7

 75
0
147
1.0
148
0.0
149
0.0
100
AcDbLayout
  1
Model
 70
0
 71
0
 10
0.0
 20
0.0
 11
210.0
 21
297.0
 12
0.0
 22
0.0
 32
0.0
 14
0.0
 24
0.0
 34
0.0
 15
0.0
 25
0.0
 35
0.0
146
0.0
 13
0.0
 23
0.0
 33
0.0
 16
1.0
 26
0.0
 36
0.0
 17
0.0
 27
1.0
 37
0.0
 76
0
330
210
345
0
346
0
  0
LAYOUT
  5
2AD
102
{ACAD_REACTORS
330
1A
102
}
100
AcDbPlotSettings
  1

  2
none_device
  4

  6

 40
0.0
 41
0.0
 42
0.0
 43
0.0
 44
210.0
 45
297.0
 46
0.0
 47
0.0
 48
0.0
 49
0.0
140
0.0
141
0.0
142
1.0
143
1.0
 70
0
 72
1
 73
0
 74
0
  7

 75
0
147
1.0
148
0.0
149
0.0
100
AcDbLayout
  1
Layout1
 70
0
 71
1
 10
0.0
 20
0.0
 11
210.0
 21
297.0
 12
0.0
 22
0.0
 32
0.0
 14
0.0
 24
0.0
 34
0.0
 15
0.0
 25
0.0
 35
0.0
146
0.0
 13
0.0
 23
0.0
 33
0.0
 16
1.0
 26
0.0
 36
0.0
 17
0.0
 27
1.0
 37
0.0
 76
0
330
211
345
0
346
0
  0
ENDSEC
  0
EOF
