999
DXF file: C:\Users\sesa63760\Dev\_Creo\CAD\MCADUE0002459_3D-CAD\drw0001_6.dxf
999
Pro/ENGINEER 2019471 by Parametric Technology Corporation
  0
SECTION
  2
HEADER
  9
$ACADVER
  1
AC1024
  9
$DWGCODEPAGE
  3
ANSI_1252
  9
$EXTMAX
 10
848.0498237506
 20
1199.384750733
 30
0.0
  9
$EXTMIN
 10
0.0
 20
0.0
 30
0.0
  9
$LIMMIN
 10
0.0
 20
0.0
  9
$LIMMAX
 10
848.0498237506
 20
1199.384750733
  9
$VIEWCTR
 10
424.0249118753
 20
599.6923753665
  9
$VIEWSIZE
 40
1199.384750733
  9
$CLAYER
  8
0
  9
$LTSCALE
 40
78.1821170848
  9
$CELTYPE
  6
BYLAYER
  9
$DIMSCALE
 40
1.0
  9
$DIMASZ
 40
10.0958312351
  9
$DIMEXO
 40
1.0
  9
$DIMDLI
 40
54.0167354404
  9
$DIMEXE
 40
1.0
  9
$DIMCEN
 40
12.7934373412
  9
$DIMLFAC
 40
1.0
  9
$DIMBLK
  1
_FILLED
  9
$DIMALT
 70
0
  9
$DIMALTF
 40
0.0393700787
  9
$DIMTXT
 40
14.1341637292
  9
$DIMTOL
 70
1
  9
$DIMLIM
 70
0
  9
$DIMTFAC
 40
1.0
  9
$DIMTP
 40
0.01
  9
$DIMTM
 40
0.01
  9
$DIMGAP
 40
0.625
  9
$DIMDSEP
 70
46
  9
$AUNITS
 70
0
  9
$PDMODE
 70
3
  9
$PDSIZE
 40
0.3125
  9
$HANDSEED
  5
329
  9
$TILEMODE
 70
1
  9
$MEASUREMENT
 70
1
  9
$INSUNITS
 70
4
  0
ENDSEC
  0
SECTION
  2
CLASSES
  0
CLASS
  1
ACDBDICTIONARYWDFLT
  2
AcDbDictionaryWithDefault
  3
AutoCAD 2000
 90
0
 91
1
280
0
281
0
  0
CLASS
  1
ACDBPLACEHOLDER
  2
AcDbPlaceHolder
  3
AutoCAD 2000
 90
0
 91
1
280
0
281
0
  0
CLASS
  1
LAYOUT
  2
AcDbLayout
  3
AutoCAD 2000
 90
0
 91
0
280
0
281
0
  0
ENDSEC
  0
SECTION
  2
TABLES
  0
TABLE
  2
VPORT
  5
8
100
AcDbSymbolTable
 70
2
  0
VPORT
  5
1F4
100
AcDbSymbolTableRecord
100
AcDbViewportTableRecord
  2
*ACTIVE
 70
0
 10
0.0
 20
0.0
 11
1.0
 21
1.0
 12
424.0249118753
 22
599.6923753665
 13
0.0
 23
0.0
 14
1.0
 24
1.0
 15
0.0
 25
0.0
 16
0.0
 26
0.0
 36
1.0
 17
0.0
 27
0.0
 37
0.0
 40
1199.384750733
 41
0.7070707071
 42
50.0
 43
0.0
 44
0.0
 50
0.0
 51
0.0
 71
0
 72
100
 73
1
 74
1
 75
0
 76
0
 77
0
 78
0
  0
ENDTAB
  0
TABLE
  2
LTYPE
  5
5
100
AcDbSymbolTable
 70
6
  0
LTYPE
  5
14
100
AcDbSymbolTableRecord
100
AcDbLinetypeTableRecord
  2
BYBLOCK
 70
0
  3

 72
65
 73
0
 40
0.0
  0
LTYPE
  5
15
100
AcDbSymbolTableRecord
100
AcDbLinetypeTableRecord
  2
BYLAYER
 70
0
  3

 72
65
 73
0
 40
0.0
  0
LTYPE
  5
16
100
AcDbSymbolTableRecord
100
AcDbLinetypeTableRecord
  2
CONTINUOUS
 70
64
  3
Solid line
 72
65
 73
0
 40
0.0
  0
LTYPE
  5
1F5
100
AcDbSymbolTableRecord
100
AcDbLinetypeTableRecord
  2
CENTER
 70
64
  3
____ _ ____ _ ____ _ ____ _ ____ _ ____ _ ____
 72
65
 73
4
 40
0.6
 49
0.375
 74
0
 49
-0.075
 74
0
 49
0.075
 74
0
 49
-0.075
 74
0
  0
LTYPE
  5
1F6
100
AcDbSymbolTableRecord
100
AcDbLinetypeTableRecord
  2
HIDDEN
 70
64
  3
- - - - - - - - - - - - - - - - - - - -
 72
65
 73
2
 40
0.2
 49
0.1
 74
0
 49
-0.1
 74
0
  0
LTYPE
  5
1F7
100
AcDbSymbolTableRecord
100
AcDbLinetypeTableRecord
  2
PHANTOM
 70
64
  3
_____ _ _ _____ _ _ _____ _ _ _____
 72
65
 73
6
 40
0.8
 49
0.45
 74
0
 49
-0.05
 74
0
 49
0.1
 74
0
 49
-0.05
 74
0
 49
0.1
 74
0
 49
-0.05
 74
0
  0
LTYPE
  5
1F8
100
AcDbSymbolTableRecord
100
AcDbLinetypeTableRecord
  2
DOT
 70
64
  3
. . . . . . . . . . . . . . . . . . . .
 72
65
 73
2
 40
0.2
 49
0.1
 74
0
 49
-0.1
 74
0
  0
LTYPE
  5
1F9
100
AcDbSymbolTableRecord
100
AcDbLinetypeTableRecord
  2
DASHED
 70
64
  3
- - - - - - - - - - - - - - - - - - - -
 72
65
 73
2
 40
0.2
 49
0.1
 74
0
 49
-0.1
 74
0
  0
ENDTAB
  0
TABLE
  2
LAYER
  5
2
100
AcDbSymbolTable
 70
36
  0
LAYER
  5
10
100
AcDbSymbolTableRecord
100
AcDbLayerTableRecord
  2
0
 70
0
 62
7
  6
CONTINUOUS
370
-3
390
F
  0
LAYER
  5
1FA
100
AcDbSymbolTableRecord
100
AcDbLayerTableRecord
  2
DEFAULT_1
 70
0
 62
7
  6
CENTER
370
-3
390
F
  0
LAYER
  5
1FB
100
AcDbSymbolTableRecord
100
AcDbLayerTableRecord
  2
DEFAULT_2
 70
0
 62
8
  6
HIDDEN
370
-3
390
F
  0
LAYER
  5
1FC
100
AcDbSymbolTableRecord
100
AcDbLayerTableRecord
  2
DEFAULT_3
 70
0
 62
7
  6
PHANTOM
370
-3
390
F
  0
LAYER
  5
1FD
100
AcDbSymbolTableRecord
100
AcDbLayerTableRecord
  2
00_COMPONENTS
 70
0
 62
7
  6
CONTINUOUS
370
-3
390
F
  0
LAYER
  5
1FE
100
AcDbSymbolTableRecord
100
AcDbLayerTableRecord
  2
01_1_DEFAULT_DATUMS
 70
0
 62
7
  6
CONTINUOUS
370
-3
390
F
  0
LAYER
  5
1FF
100
AcDbSymbolTableRecord
100
AcDbLayerTableRecord
  2
01_PLANES
 70
0
 62
7
  6
CONTINUOUS
370
-3
390
F
  0
LAYER
  5
200
100
AcDbSymbolTableRecord
100
AcDbLayerTableRecord
  2
02_COORD_SYS
 70
0
 62
7
  6
CONTINUOUS
370
-3
390
F
  0
LAYER
  5
201
100
AcDbSymbolTableRecord
100
AcDbLayerTableRecord
  2
03_AXES
 70
0
 62
7
  6
CONTINUOUS
370
-3
390
F
  0
LAYER
  5
202
100
AcDbSymbolTableRecord
100
AcDbLayerTableRecord
  2
04_POINTS
 70
0
 62
7
  6
CONTINUOUS
370
-3
390
F
  0
LAYER
  5
203
100
AcDbSymbolTableRecord
100
AcDbLayerTableRecord
  2
05_CURVES
 70
0
 62
7
  6
CONTINUOUS
370
-3
390
F
  0
LAYER
  5
204
100
AcDbSymbolTableRecord
100
AcDbLayerTableRecord
  2
06_SURFS
 70
0
 62
7
  6
CONTINUOUS
370
-3
390
F
  0
LAYER
  5
205
100
AcDbSymbolTableRecord
100
AcDbLayerTableRecord
  2
07_COSMETICS
 70
0
 62
7
  6
CONTINUOUS
370
-3
390
F
  0
LAYER
  5
206
100
AcDbSymbolTableRecord
100
AcDbLayerTableRecord
  2
10_NOTES
 70
0
 62
7
  6
CONTINUOUS
370
-3
390
F
  0
LAYER
  5
207
100
AcDbSymbolTableRecord
100
AcDbLayerTableRecord
  2
11_NOTES_PUB
 70
0
 62
7
  6
CONTINUOUS
370
-3
390
F
  0
LAYER
  5
208
100
AcDbSymbolTableRecord
100
AcDbLayerTableRecord
  2
13_REF_GTOL
 70
0
 62
7
  6
CONTINUOUS
370
-3
390
F
  0
LAYER
  5
209
100
AcDbSymbolTableRecord
100
AcDbLayerTableRecord
  2
16_MISC
 70
0
 62
7
  6
CONTINUOUS
370
-3
390
F
  0
LAYER
  5
20A
100
AcDbSymbolTableRecord
100
AcDbLayerTableRecord
  2
17_NO_PRINT
 70
0
 62
7
  6
CONTINUOUS
370
-3
390
F
  0
LAYER
  5
20B
100
AcDbSymbolTableRecord
100
AcDbLayerTableRecord
  2
18_DATUM_CAMS_JOINTS
 70
0
 62
7
  6
CONTINUOUS
370
-3
390
F
  0
LAYER
  5
20C
100
AcDbSymbolTableRecord
100
AcDbLayerTableRecord
  2
19_DATUM_FUNCTIONAL
 70
0
 62
7
  6
CONTINUOUS
370
-3
390
F
  0
LAYER
  5
20D
100
AcDbSymbolTableRecord
100
AcDbLayerTableRecord
  2
20_DATUM_KINEMATIC_SCHEME
 70
0
 62
7
  6
CONTINUOUS
370
-3
390
F
  0
ENDTAB
  0
TABLE
  2
STYLE
  5
3
100
AcDbSymbolTable
 70
1
  0
STYLE
  5
11
100
AcDbSymbolTableRecord
100
AcDbTextStyleTableRecord
  2
STANDARD
 70
0
 40
0.0
 41
0.8
 50
0.0
 71
0
 42
0.2
  3
txt
  4

  0
STYLE
  5
20E
100
AcDbSymbolTableRecord
100
AcDbTextStyleTableRecord
  2
TEXTSTYLE_1
 70
0
 40
0.0
 41
0.8
 50
0.0
 71
0
 42
0.2
  3
gdt
  4

  0
ENDTAB
  0
TABLE
  2
VIEW
  5
6
100
AcDbSymbolTable
 70
0
  0
ENDTAB
  0
TABLE
  2
UCS
  5
7
100
AcDbSymbolTable
 70
0
  0
ENDTAB
  0
TABLE
  2
APPID
  5
9
100
AcDbSymbolTable
 70
1
  0
APPID
  5
20F
100
AcDbSymbolTableRecord
100
AcDbRegAppTableRecord
  2
ACAD
 70
0
  0
ENDTAB
  0
TABLE
  2
BLOCK_RECORD
  5
1
100
AcDbSymbolTable
 70
0
  0
BLOCK_RECORD
  5
210
100
AcDbSymbolTableRecord
100
AcDbBlockTableRecord
  2
*Model_Space
  0
BLOCK_RECORD
  5
211
100
AcDbSymbolTableRecord
100
AcDbBlockTableRecord
  2
*Paper_Space
  0
BLOCK_RECORD
  5
212
100
AcDbSymbolTableRecord
100
AcDbBlockTableRecord
  2
_FILLED
  0
ENDTAB
  0
TABLE
  2
DIMSTYLE
  5
A
100
AcDbSymbolTable
 70
1
100
AcDbDimStyleTable
 71
0
  0
DIMSTYLE
105
213
100
AcDbSymbolTableRecord
100
AcDbDimStyleTableRecord
  2
STANDARD
 70
0
  3

  4

 40
1.0
 41
10.0958312351
 42
1.0
 43
0.38
 44
1.0
 45
0.0
 46
0.0
 47
0.01
 48
0.01
140
14.1341637292
141
0.09
142
0.0
143
25.4
144
1.0
145
0.0
146
1.0
147
0.625
 71
1
 72
0
 73
0
 74
0
 75
0
 76
0
 77
1
 78
8
 79
2
170
0
171
1
172
0
173
0
174
0
175
0
176
0
177
0
178
0
270
2
179
2
271
2
272
2
273
2
274
2
275
0
280
0
281
0
282
0
283
1
284
8
285
0
286
0
287
3
288
0
340
11
278
46
341
212
342
212
343
212
344
212
  0
ENDTAB
  0
ENDSEC
  0
SECTION
  2
BLOCKS
  0
BLOCK
  5
20
100
AcDbEntity
  8
0
100
AcDbBlockBegin
  2
*Model_Space
 70
0
 10
0.0
 20
0.0
 30
0.0
  3
*Model_Space
  1

  0
ENDBLK
  5
21
100
AcDbEntity
  8
0
100
AcDbBlockEnd
  0
BLOCK
  5
1C
100
AcDbEntity
  8
0
100
AcDbBlockBegin
  2
*Paper_Space
 70
0
 10
0.0
 20
0.0
 30
0.0
  3
*Paper_Space
  1

  0
ENDBLK
  5
1D
100
AcDbEntity
  8
0
100
AcDbBlockEnd
  0
BLOCK
  5
214
100
AcDbEntity
  8
0
100
AcDbBlockBegin
  2
_FILLED
 70
64
 10
0.0
 20
0.0
  3
_FILLED
  1

  0
SOLID
  5
215
100
AcDbEntity
  8
0
  6
BYBLOCK
 62
0
100
AcDbTrace
 10
0.0
 20
0.0
 11
-1.0
 21
0.25
 12
-1.0
 22
-0.25
 13
-1.0
 23
-0.25
  0
ENDBLK
  5
216
100
AcDbEntity
  8
0
  6
BYBLOCK
 62
0
100
AcDbBlockEnd
  0
ENDSEC
  0
SECTION
  2
ENTITIES
  0
LINE
  5
217
100
AcDbEntity
  8
0
100
AcDbLine
 62
7
  6
CONTINUOUS
 10
152.1650878283
 20
100.0923753666
 11
139.1650878283
 21
100.0923753666
  0
LINE
  5
218
100
AcDbEntity
  8
0
100
AcDbLine
 62
7
  6
CONTINUOUS
 10
132.5650878284
 20
100.2923753666
 11
729.1650878284
 21
100.2923753665
  0
LINE
  5
219
100
AcDbEntity
  8
0
100
AcDbLine
 62
7
  6
CONTINUOUS
 10
131.3650878284
 20
101.4923753665
 11
132.5650878284
 21
101.4923753665
  0
LINE
  5
21A
100
AcDbEntity
  8
0
100
AcDbLine
 62
7
  6
CONTINUOUS
 10
731.3650878284
 20
102.4923753665
 11
133.5650878284
 21
102.4923753666
  0
LINE
  5
21B
100
AcDbEntity
  8
0
100
AcDbLine
 62
7
  6
CONTINUOUS
 10
151.6891344592
 20
115.6923753665
 11
711.0410411967
 21
115.6923753665
  0
LINE
  5
21C
100
AcDbEntity
  8
0
100
AcDbLine
 62
7
  6
CONTINUOUS
 10
711.041041198
 20
116.2925318162
 11
151.6891344595
 21
116.2925318163
  0
LINE
  5
21D
100
AcDbEntity
  8
0
100
AcDbLine
 62
7
  6
CONTINUOUS
 10
148.7142592278
 20
118.2417032155
 11
149.3144156752
 21
118.2417032132
  0
LINE
  5
21E
100
AcDbEntity
  8
0
100
AcDbLine
 62
7
  6
CONTINUOUS
 10
713.4157599812
 20
118.2417032136
 11
714.0159164294
 21
118.2417032151
  0
LINE
  5
21F
100
AcDbEntity
  8
0
100
AcDbLine
 62
7
  6
CONTINUOUS
 10
715.9650878283
 20
120.6164219982
 11
715.3649313787
 21
120.6164219967
  0
LINE
  5
220
100
AcDbEntity
  8
0
100
AcDbLine
 62
7
  6
CONTINUOUS
 10
146.7650878284
 20
120.6164219986
 11
147.3652442781
 21
120.6164219964
  0
LINE
  5
221
100
AcDbEntity
  8
0
100
AcDbLine
 62
7
  6
CONTINUOUS
 10
151.7653746528
 20
120.6926621909
 11
710.964801004
 21
120.6926621909
  0
LINE
  5
222
100
AcDbEntity
  8
0
100
AcDbLine
 62
7
  6
CONTINUOUS
 10
709.8650878284
 20
121.7923753665
 11
152.8650878284
 21
121.7923753666
  0
LINE
  5
223
100
AcDbEntity
  8
0
100
AcDbLine
 62
7
  6
CONTINUOUS
 10
726.9650878283
 20
145.2923753665
 11
715.9650878283
 21
145.2923753665
  0
LINE
  5
224
100
AcDbEntity
  8
0
100
AcDbLine
 62
7
  6
CONTINUOUS
 10
716.0631752998
 20
156.5923753665
 11
726.9650878283
 21
156.5923753665
  0
LINE
  5
225
100
AcDbEntity
  8
0
100
AcDbLine
 62
7
  6
CONTINUOUS
 10
726.9650878283
 20
181.9923753665
 11
716.0631752998
 21
181.9923753665
  0
LINE
  5
226
100
AcDbEntity
  8
0
100
AcDbLine
 62
7
  6
CONTINUOUS
 10
715.9650878283
 20
193.2923753665
 11
726.9650878283
 21
193.2923753665
  0
LINE
  5
227
100
AcDbEntity
  8
0
100
AcDbLine
 62
7
  6
CONTINUOUS
 10
131.3650878284
 20
1098.0923753665
 11
131.3650878284
 21
101.4923753665
  0
LINE
  5
228
100
AcDbEntity
  8
0
100
AcDbLine
 62
7
  6
CONTINUOUS
 10
132.5650878284
 20
101.4923753666
 11
132.5650878284
 21
100.2923753666
  0
LINE
  5
229
100
AcDbEntity
  8
0
100
AcDbLine
 62
7
  6
CONTINUOUS
 10
133.5650878284
 20
102.4923753665
 11
133.5650878284
 21
1100.2923753665
  0
LINE
  5
22A
100
AcDbEntity
  8
0
100
AcDbLine
 62
7
  6
CONTINUOUS
 10
139.1650878283
 20
100.0923753666
 11
139.1650878283
 21
100.2923753666
  0
LINE
  5
22B
100
AcDbEntity
  8
0
100
AcDbLine
 62
7
  6
CONTINUOUS
 10
146.7650878284
 20
1079.9683287343
 11
146.7650878284
 21
120.6164219986
  0
LINE
  5
22C
100
AcDbEntity
  8
0
100
AcDbLine
 62
7
  6
CONTINUOUS
 10
147.3652442781
 20
120.6164219964
 11
147.3652442781
 21
1079.9683287365
  0
LINE
  5
22D
100
AcDbEntity
  8
0
100
AcDbLine
 62
7
  6
CONTINUOUS
 10
149.3144156765
 20
118.2417032146
 11
149.3144156762
 21
117.6415467646
  0
LINE
  5
22E
100
AcDbEntity
  8
0
100
AcDbLine
 62
7
  6
CONTINUOUS
 10
149.3144156751
 20
1082.3430475197
 11
149.3144156774
 21
1082.943203967
  0
LINE
  5
22F
100
AcDbEntity
  8
0
100
AcDbLine
 62
7
  6
CONTINUOUS
 10
151.6891344606
 20
1084.8923753664
 11
151.6891344583
 21
1084.2922189167
  0
LINE
  5
230
100
AcDbEntity
  8
0
100
AcDbLine
 62
7
  6
CONTINUOUS
 10
151.6891344592
 20
115.6923753665
 11
151.6891344595
 21
116.2925318163
  0
LINE
  5
231
100
AcDbEntity
  8
0
100
AcDbLine
 62
7
  6
CONTINUOUS
 10
151.7653746528
 20
1079.8920885421
 11
151.7653746528
 21
120.6926621909
  0
LINE
  5
232
100
AcDbEntity
  8
0
100
AcDbLine
 62
7
  6
CONTINUOUS
 10
152.1650878283
 20
100.2923753666
 11
152.1650878283
 21
100.0923753666
  0
LINE
  5
233
100
AcDbEntity
  8
0
100
AcDbLine
 62
7
  6
CONTINUOUS
 10
152.8650878284
 20
121.7923753665
 11
152.8650878284
 21
1078.7923753665
  0
LINE
  5
234
100
AcDbEntity
  8
0
100
AcDbLine
 62
7
  6
CONTINUOUS
 10
729.1650878284
 20
1098.0923753665
 11
710.9648010039
 21
1079.8920885421
  0
LINE
  5
235
100
AcDbEntity
  8
0
100
AcDbLine
 62
7
  6
CONTINUOUS
 10
729.1650878284
 20
102.4923753665
 11
710.964801004
 21
120.6926621909
  0
LINE
  5
236
100
AcDbEntity
  8
0
100
AcDbLine
 62
7
  6
CONTINUOUS
 10
726.9650878283
 20
1011.3923753665
 11
727.8650878283
 21
1012.2923753665
  0
LINE
  5
237
100
AcDbEntity
  8
0
100
AcDbLine
 62
7
  6
CONTINUOUS
 10
727.8650878283
 20
188.2923753665
 11
726.9650878283
 21
189.1923753665
  0
LINE
  5
238
100
AcDbEntity
  8
0
100
AcDbLine
 62
7
  6
CONTINUOUS
 10
726.9650878283
 20
576.2923753665
 11
715.9650878283
 21
576.2923753665
  0
LINE
  5
239
100
AcDbEntity
  8
0
100
AcDbLine
 62
7
  6
CONTINUOUS
 10
716.0631752998
 20
587.5923753665
 11
726.9650878283
 21
587.5923753665
  0
LINE
  5
23A
100
AcDbEntity
  8
0
100
AcDbLine
 62
7
  6
CONTINUOUS
 10
726.9650878283
 20
612.9923753665
 11
716.0631752998
 21
612.9923753665
  0
LINE
  5
23B
100
AcDbEntity
  8
0
100
AcDbLine
 62
7
  6
CONTINUOUS
 10
715.9650878283
 20
624.2923753665
 11
726.9650878283
 21
624.2923753665
  0
LINE
  5
23C
100
AcDbEntity
  8
0
100
AcDbLine
 62
7
  6
CONTINUOUS
 10
151.7653746528
 20
120.6926621909
 11
133.5650878284
 21
102.4923753666
  0
LINE
  5
23D
100
AcDbEntity
  8
0
100
AcDbLine
 62
7
  6
CONTINUOUS
 10
133.5650878284
 20
1098.0923753665
 11
151.7653746528
 21
1079.8920885421
  0
LINE
  5
23E
100
AcDbEntity
  8
0
100
AcDbLine
 62
7
  6
CONTINUOUS
 10
726.9650878283
 20
580.3923753665
 11
727.8650878283
 21
581.2923753665
  0
LINE
  5
23F
100
AcDbEntity
  8
0
100
AcDbLine
 62
7
  6
CONTINUOUS
 10
727.8650878283
 20
619.2923753665
 11
726.9650878283
 21
620.1923753665
  0
LINE
  5
240
100
AcDbEntity
  8
0
100
AcDbLine
 62
7
  6
CONTINUOUS
 10
709.8650878284
 20
1078.7923753665
 11
709.8650878284
 21
121.7923753665
  0
LINE
  5
241
100
AcDbEntity
  8
0
100
AcDbLine
 62
7
  6
CONTINUOUS
 10
710.964801004
 20
120.6926621909
 11
710.964801004
 21
1079.8920885421
  0
LINE
  5
242
100
AcDbEntity
  8
0
100
AcDbLine
 62
7
  6
CONTINUOUS
 10
711.0410411967
 20
1084.8923753664
 11
711.0410411981
 21
1084.2922189167
  0
LINE
  5
243
100
AcDbEntity
  8
0
100
AcDbLine
 62
7
  6
CONTINUOUS
 10
711.041041198
 20
116.2925318162
 11
711.0410411967
 21
115.6923753665
  0
LINE
  5
244
100
AcDbEntity
  8
0
100
AcDbLine
 62
7
  6
CONTINUOUS
 10
713.4157599797
 20
117.6415467654
 11
713.4157599811
 21
118.2417032137
  0
LINE
  5
245
100
AcDbEntity
  8
0
100
AcDbLine
 62
7
  6
CONTINUOUS
 10
713.4157599812
 20
1082.3430475192
 11
713.4157599798
 21
1082.9432039675
  0
LINE
  5
246
100
AcDbEntity
  8
0
100
AcDbLine
 62
7
  6
CONTINUOUS
 10
715.3649319595
 20
120.616419339
 11
715.36493196
 21
1079.9683313966
  0
LINE
  5
247
100
AcDbEntity
  8
0
100
AcDbLine
 62
7
  6
CONTINUOUS
 10
715.9650878283
 20
120.6164219982
 11
715.9650878283
 21
1079.9683287343
  0
LINE
  5
248
100
AcDbEntity
  8
0
100
AcDbLine
 62
7
  6
CONTINUOUS
 10
716.0631752998
 20
156.5923753665
 11
716.0631752998
 21
181.9923753665
  0
LINE
  5
249
100
AcDbEntity
  8
0
100
AcDbLine
 62
7
  6
CONTINUOUS
 10
716.0631752998
 20
587.5923753665
 11
716.0631752998
 21
612.9923753665
  0
LINE
  5
24A
100
AcDbEntity
  8
0
100
AcDbLine
 62
7
  6
CONTINUOUS
 10
716.0631752998
 20
1018.5923753665
 11
716.0631752998
 21
1043.9923753665
  0
LINE
  5
24B
100
AcDbEntity
  8
0
100
AcDbLine
 62
7
  6
CONTINUOUS
 10
717.3650878282
 20
145.2923753665
 11
717.3650878282
 21
156.5923753665
  0
LINE
  5
24C
100
AcDbEntity
  8
0
100
AcDbLine
 62
7
  6
CONTINUOUS
 10
717.3650878281
 20
181.9923753665
 11
717.3650878282
 21
193.2923753665
  0
LINE
  5
24D
100
AcDbEntity
  8
0
100
AcDbLine
 62
7
  6
CONTINUOUS
 10
717.3650878282
 20
576.2923753665
 11
717.3650878282
 21
587.5923753665
  0
LINE
  5
24E
100
AcDbEntity
  8
0
100
AcDbLine
 62
7
  6
CONTINUOUS
 10
717.3650878281
 20
612.9923753665
 11
717.3650878282
 21
624.2923753665
  0
LINE
  5
24F
100
AcDbEntity
  8
0
100
AcDbLine
 62
7
  6
CONTINUOUS
 10
717.3650878282
 20
1007.2923753665
 11
717.3650878282
 21
1018.5923753665
  0
LINE
  5
250
100
AcDbEntity
  8
0
100
AcDbLine
 62
7
  6
CONTINUOUS
 10
717.3650878281
 20
1043.9923753665
 11
717.3650878282
 21
1055.2923753665
  0
LINE
  5
251
100
AcDbEntity
  8
0
100
AcDbLine
 62
7
  6
CONTINUOUS
 10
718.7650878283
 20
1055.2923753665
 11
718.7650878283
 21
1043.9923753665
  0
LINE
  5
252
100
AcDbEntity
  8
0
100
AcDbLine
 62
7
  6
CONTINUOUS
 10
718.7650878283
 20
1018.5923753665
 11
718.7650878283
 21
1007.2923753665
  0
LINE
  5
253
100
AcDbEntity
  8
0
100
AcDbLine
 62
7
  6
CONTINUOUS
 10
718.7650878283
 20
624.2923753665
 11
718.7650878283
 21
612.9923753665
  0
LINE
  5
254
100
AcDbEntity
  8
0
100
AcDbLine
 62
7
  6
CONTINUOUS
 10
718.7650878283
 20
587.5923753665
 11
718.7650878283
 21
576.2923753665
  0
LINE
  5
255
100
AcDbEntity
  8
0
100
AcDbLine
 62
7
  6
CONTINUOUS
 10
718.7650878283
 20
193.2923753665
 11
718.7650878283
 21
181.9923753665
  0
LINE
  5
256
100
AcDbEntity
  8
0
100
AcDbLine
 62
7
  6
CONTINUOUS
 10
718.7650878283
 20
156.5923753665
 11
718.7650878283
 21
145.2923753665
  0
LINE
  5
257
100
AcDbEntity
  8
0
100
AcDbLine
 62
7
  6
CONTINUOUS
 10
726.9650878283
 20
145.2923753665
 11
726.9650878283
 21
156.5923753665
  0
LINE
  5
258
100
AcDbEntity
  8
0
100
AcDbLine
 62
7
  6
CONTINUOUS
 10
726.9650878283
 20
181.9923753665
 11
726.9650878283
 21
193.2923753665
  0
LINE
  5
259
100
AcDbEntity
  8
0
100
AcDbLine
 62
7
  6
CONTINUOUS
 10
726.9650878283
 20
576.2923753665
 11
726.9650878283
 21
587.5923753665
  0
LINE
  5
25A
100
AcDbEntity
  8
0
100
AcDbLine
 62
7
  6
CONTINUOUS
 10
726.9650878283
 20
612.9923753665
 11
726.9650878283
 21
624.2923753665
  0
LINE
  5
25B
100
AcDbEntity
  8
0
100
AcDbLine
 62
7
  6
CONTINUOUS
 10
726.9650878283
 20
1007.2923753665
 11
726.9650878283
 21
1018.5923753665
  0
LINE
  5
25C
100
AcDbEntity
  8
0
100
AcDbLine
 62
7
  6
CONTINUOUS
 10
726.9650878283
 20
1043.9923753665
 11
726.9650878283
 21
1055.2923753665
  0
LINE
  5
25D
100
AcDbEntity
  8
0
100
AcDbLine
 62
7
  6
CONTINUOUS
 10
727.8650878283
 20
1050.2923753665
 11
727.8650878283
 21
1012.2923753665
  0
LINE
  5
25E
100
AcDbEntity
  8
0
100
AcDbLine
 62
7
  6
CONTINUOUS
 10
727.8650878283
 20
619.2923753665
 11
727.8650878283
 21
581.2923753665
  0
LINE
  5
25F
100
AcDbEntity
  8
0
100
AcDbLine
 62
7
  6
CONTINUOUS
 10
727.8650878283
 20
188.2923753665
 11
727.8650878283
 21
150.2923753665
  0
LINE
  5
260
100
AcDbEntity
  8
0
100
AcDbLine
 62
7
  6
CONTINUOUS
 10
729.1650878284
 20
1100.2923753665
 11
729.1650878284
 21
100.2923753666
  0
LINE
  5
261
100
AcDbEntity
  8
0
100
AcDbLine
 62
7
  6
CONTINUOUS
 10
731.3650878284
 20
102.4923753665
 11
731.3650878284
 21
1098.0923753665
  0
LINE
  5
262
100
AcDbEntity
  8
0
100
AcDbLine
 62
7
  6
CONTINUOUS
 10
726.9650878283
 20
1007.2923753665
 11
715.9650878283
 21
1007.2923753665
  0
LINE
  5
263
100
AcDbEntity
  8
0
100
AcDbLine
 62
7
  6
CONTINUOUS
 10
716.0631752998
 20
1018.5923753665
 11
726.9650878283
 21
1018.5923753665
  0
LINE
  5
264
100
AcDbEntity
  8
0
100
AcDbLine
 62
7
  6
CONTINUOUS
 10
726.9650878283
 20
1043.9923753665
 11
716.0631752998
 21
1043.9923753665
  0
LINE
  5
265
100
AcDbEntity
  8
0
100
AcDbLine
 62
7
  6
CONTINUOUS
 10
715.9650878283
 20
1055.2923753665
 11
726.9650878283
 21
1055.2923753665
  0
LINE
  5
266
100
AcDbEntity
  8
0
100
AcDbLine
 62
7
  6
CONTINUOUS
 10
152.8650878284
 20
1078.7923753665
 11
709.8650878284
 21
1078.7923753665
  0
LINE
  5
267
100
AcDbEntity
  8
0
100
AcDbLine
 62
7
  6
CONTINUOUS
 10
710.9648010039
 20
1079.8920885421
 11
151.7653746528
 21
1079.892088542
  0
LINE
  5
268
100
AcDbEntity
  8
0
100
AcDbLine
 62
7
  6
CONTINUOUS
 10
715.9650878283
 20
1079.9683287343
 11
715.3649313786
 21
1079.9683287366
  0
LINE
  5
269
100
AcDbEntity
  8
0
100
AcDbLine
 62
7
  6
CONTINUOUS
 10
147.3652442781
 20
1079.9683287365
 11
146.7650878284
 21
1079.9683287343
  0
LINE
  5
26A
100
AcDbEntity
  8
0
100
AcDbLine
 62
7
  6
CONTINUOUS
 10
148.7142592278
 20
1082.3430475174
 11
149.3144156751
 21
1082.3430475197
  0
LINE
  5
26B
100
AcDbEntity
  8
0
100
AcDbLine
 62
7
  6
CONTINUOUS
 10
713.4157599816
 20
1082.3430475197
 11
714.015916429
 21
1082.3430475174
  0
LINE
  5
26C
100
AcDbEntity
  8
0
100
AcDbLine
 62
7
  6
CONTINUOUS
 10
711.0410438558
 20
1084.2922194976
 11
151.6891317983
 21
1084.292219498
  0
LINE
  5
26D
100
AcDbEntity
  8
0
100
AcDbLine
 62
7
  6
CONTINUOUS
 10
711.0410411967
 20
1084.8923753664
 11
151.6891344606
 21
1084.8923753664
  0
LINE
  5
26E
100
AcDbEntity
  8
0
100
AcDbLine
 62
7
  6
CONTINUOUS
 10
131.3650878284
 20
1098.0923753665
 11
731.3650878284
 21
1098.0923753665
  0
LINE
  5
26F
100
AcDbEntity
  8
0
100
AcDbLine
 62
7
  6
CONTINUOUS
 10
729.1650878284
 20
1100.2923753665
 11
133.5650878284
 21
1100.2923753665
  0
LINE
  5
270
100
AcDbEntity
  8
0
100
AcDbLine
 62
7
  6
CONTINUOUS
 10
726.9650878283
 20
149.3923753665
 11
727.8650878283
 21
150.2923753665
  0
LINE
  5
271
100
AcDbEntity
  8
0
100
AcDbLine
 62
7
  6
CONTINUOUS
 10
727.8650878283
 20
1050.2923753665
 11
726.9650878283
 21
1051.1923753665
  0
ARC
  5
272
100
AcDbEntity
  8
0
100
AcDbCircle
 62
7
  6
CONTINUOUS
 10
145.6650878283
 20
120.7173753666
 40
21.625
100
AcDbArc
 50
252.5076754749
 51
287.4923245251
  0
ARC
  5
273
100
AcDbEntity
  8
0
100
AcDbCircle
 62
7
  6
CONTINUOUS
 10
155.0115780528
 20
119.1457099212
 40
3.5830385135
100
AcDbArc
 50
143.483396039
 51
146.297894092
  0
ARC
  5
274
100
AcDbEntity
  8
0
100
AcDbCircle
 62
7
  6
CONTINUOUS
 10
142.6650878285
 20
169.2923753665
 40
5.5
100
AcDbArc
 50
39.1082644434
 51
320.8917355566
  0
CIRCLE
  5
275
100
AcDbEntity
  8
0
100
AcDbCircle
 62
7
  6
CONTINUOUS
 10
142.6650878285
 20
169.2923753665
 40
4.0305566978
  0
CIRCLE
  5
276
100
AcDbEntity
  8
0
100
AcDbCircle
 62
7
  6
CONTINUOUS
 10
142.6650878285
 20
169.2923753665
 40
1.8030312623
  0
CIRCLE
  5
277
100
AcDbEntity
  8
0
100
AcDbCircle
 62
7
  6
CONTINUOUS
 10
142.6650878285
 20
169.2923753665
 40
0.9924038765
  0
CIRCLE
  5
278
100
AcDbEntity
  8
0
100
AcDbCircle
 62
7
  6
CONTINUOUS
 10
142.6650878285
 20
169.2923753665
 40
0.5
  0
ARC
  5
279
100
AcDbEntity
  8
0
100
AcDbCircle
 62
7
  6
CONTINUOUS
 10
156.3650878284
 20
125.2923753665
 40
9.2131804531
100
AcDbArc
 50
336.3837757764
 51
0.0136173631
  0
ARC
  5
27A
100
AcDbEntity
  8
0
100
AcDbCircle
 62
7
  6
CONTINUOUS
 10
156.3650878284
 20
125.2923753665
 40
7.4814954576
100
AcDbArc
 50
333.6049109853
 51
125.7032019923
  0
ARC
  5
27B
100
AcDbEntity
  8
0
100
AcDbCircle
 62
7
  6
CONTINUOUS
 10
156.3650878284
 20
125.2923753665
 40
6.7886751346
100
AcDbArc
 50
330.9089303294
 51
128.5770697935
  0
ARC
  5
27C
100
AcDbEntity
  8
0
100
AcDbCircle
 62
7
  6
CONTINUOUS
 10
156.3650878284
 20
125.2923753665
 40
5.9226497308
100
AcDbArc
 50
322.1455008096
 51
127.4592204748
  0
ARC
  5
27D
100
AcDbEntity
  8
0
100
AcDbCircle
 62
7
  6
CONTINUOUS
 10
156.3650878284
 20
125.2923753665
 40
5.15
100
AcDbArc
 50
316.6996259336
 51
133.2867095522
  0
ARC
  5
27E
100
AcDbEntity
  8
0
100
AcDbCircle
 62
7
  6
CONTINUOUS
 10
163.429505035
 20
133.0472705616
 40
20.4586816147
100
AcDbArc
 50
232.0884090568
 51
234.9803203001
  0
ARC
  5
27F
100
AcDbEntity
  8
0
100
AcDbCircle
 62
7
  6
CONTINUOUS
 10
163.9471907478
 20
132.2294435525
 40
20.2440929519
100
AcDbArc
 50
215.005146605
 51
220.8290562377
  0
ARC
  5
280
100
AcDbEntity
  8
0
100
AcDbCircle
 62
7
  6
CONTINUOUS
 10
163.1820088774
 20
132.1041491352
 40
20.037046972
100
AcDbArc
 50
214.9823796221
 51
223.7760034277
  0
ARC
  5
281
100
AcDbEntity
  8
0
100
AcDbCircle
 62
7
  6
CONTINUOUS
 10
163.1768615646
 20
132.1092963779
 40
20.0370469281
100
AcDbArc
 50
226.2239965641
 51
235.0176203769
  0
ARC
  5
282
100
AcDbEntity
  8
0
100
AcDbCircle
 62
7
  6
CONTINUOUS
 10
163.1558217786
 20
132.6957488984
 40
20.0131818952
100
AcDbArc
 50
229.1533994454
 51
232.0882213135
  0
ARC
  5
283
100
AcDbEntity
  8
0
100
AcDbCircle
 62
7
  6
CONTINUOUS
 10
163.5012693146
 20
131.8538013253
 40
19.6610852525
100
AcDbArc
 50
220.8503605945
 51
222.6402620307
  0
ARC
  5
284
100
AcDbEntity
  8
0
100
AcDbCircle
 62
7
  6
CONTINUOUS
 10
162.8684395118
 20
132.363225169
 40
19.5736815085
100
AcDbArc
 50
226.1747078285
 51
229.1531407958
  0
ARC
  5
285
100
AcDbEntity
  8
0
100
AcDbCircle
 62
7
  6
CONTINUOUS
 10
163.3355468342
 20
131.7016899166
 40
19.4361370629
100
AcDbArc
 50
222.6413317409
 51
223.8302247704
  0
CIRCLE
  5
286
100
AcDbEntity
  8
0
100
AcDbCircle
 62
7
  6
CONTINUOUS
 10
168.8650878284
 20
137.7923753665
 40
7.0
  0
ARC
  5
287
100
AcDbEntity
  8
0
100
AcDbCircle
 62
7
  6
CONTINUOUS
 10
168.8902838571
 20
137.8236495462
 40
6.5356508179
100
AcDbArc
 50
261.6270913063
 51
269.9711427135
  0
ARC
  5
288
100
AcDbEntity
  8
0
100
AcDbCircle
 62
7
  6
CONTINUOUS
 10
168.8398917997
 20
137.7611011867
 40
6.5356508179
100
AcDbArc
 50
81.6270913063
 51
89.9711427135
  0
ARC
  5
289
100
AcDbEntity
  8
0
100
AcDbCircle
 62
7
  6
CONTINUOUS
 10
168.890325163
 20
137.7640775539
 40
6.5328437135
100
AcDbArc
 50
90.4134556537
 51
98.5390206017
  0
ARC
  5
28A
100
AcDbEntity
  8
0
100
AcDbCircle
 62
7
  6
CONTINUOUS
 10
168.8398504937
 20
137.8206731791
 40
6.5328437135
100
AcDbArc
 50
270.4134556537
 51
278.5390206017
  0
ARC
  5
28B
100
AcDbEntity
  8
0
100
AcDbCircle
 62
7
  6
CONTINUOUS
 10
168.8929535856
 20
137.7938217796
 40
4.5040666106
100
AcDbArc
 50
90.0031464182
 51
92.6168471796
  0
ARC
  5
28C
100
AcDbEntity
  8
0
100
AcDbCircle
 62
7
  6
CONTINUOUS
 10
168.8372220712
 20
137.7909289534
 40
4.5040666107
100
AcDbArc
 50
270.0031464182
 51
272.6168471795
  0
ARC
  5
28D
100
AcDbEntity
  8
0
100
AcDbCircle
 62
7
  6
CONTINUOUS
 10
168.8927540422
 20
137.7838742401
 40
4.4973517024
100
AcDbArc
 50
267.2274977245
 51
269.2956620081
  0
ARC
  5
28E
100
AcDbEntity
  8
0
100
AcDbCircle
 62
7
  6
CONTINUOUS
 10
168.8374216146
 20
137.8008764929
 40
4.4973517023
100
AcDbArc
 50
87.2274977244
 51
89.2956620081
  0
CIRCLE
  5
28F
100
AcDbEntity
  8
0
100
AcDbCircle
 62
7
  6
CONTINUOUS
 10
168.8650878284
 20
137.7923753665
 40
4.0
  0
CIRCLE
  5
290
100
AcDbEntity
  8
0
100
AcDbCircle
 62
7
  6
CONTINUOUS
 10
168.8650878284
 20
137.7923753665
 40
3.0
  0
ARC
  5
291
100
AcDbEntity
  8
0
100
AcDbCircle
 62
7
  6
CONTINUOUS
 10
142.6650878285
 20
600.2923753665
 40
5.5
100
AcDbArc
 50
39.1082644434
 51
320.8917355566
  0
CIRCLE
  5
292
100
AcDbEntity
  8
0
100
AcDbCircle
 62
7
  6
CONTINUOUS
 10
142.6650878285
 20
600.2923753665
 40
4.0305566978
  0
CIRCLE
  5
293
100
AcDbEntity
  8
0
100
AcDbCircle
 62
7
  6
CONTINUOUS
 10
142.6650878285
 20
600.2923753665
 40
1.8030312623
  0
CIRCLE
  5
294
100
AcDbEntity
  8
0
100
AcDbCircle
 62
7
  6
CONTINUOUS
 10
142.6650878285
 20
600.2923753665
 40
0.9924038765
  0
CIRCLE
  5
295
100
AcDbEntity
  8
0
100
AcDbCircle
 62
7
  6
CONTINUOUS
 10
142.6650878285
 20
600.2923753665
 40
0.5
  0
ARC
  5
296
100
AcDbEntity
  8
0
100
AcDbCircle
 62
7
  6
CONTINUOUS
 10
142.6650878285
 20
1031.2923753665
 40
5.5
100
AcDbArc
 50
39.1082644434
 51
320.8917355566
  0
CIRCLE
  5
297
100
AcDbEntity
  8
0
100
AcDbCircle
 62
7
  6
CONTINUOUS
 10
142.6650878285
 20
1031.2923753665
 40
4.0305566978
  0
ARC
  5
298
100
AcDbEntity
  8
0
100
AcDbCircle
 62
7
  6
CONTINUOUS
 10
150.2184223832
 20
1076.6458851421
 40
3.5830385134
100
AcDbArc
 50
53.4833960398
 51
56.2978940926
  0
ARC
  5
299
100
AcDbEntity
  8
0
100
AcDbCircle
 62
7
  6
CONTINUOUS
 10
133.5650878284
 20
1098.0923753665
 40
2.2
100
AcDbArc
 50
90.0
 51
180.0
  0
CIRCLE
  5
29A
100
AcDbEntity
  8
0
100
AcDbCircle
 62
7
  6
CONTINUOUS
 10
142.6650878285
 20
1031.2923753665
 40
1.8030312623
  0
ARC
  5
29B
100
AcDbEntity
  8
0
100
AcDbCircle
 62
7
  6
CONTINUOUS
 10
133.5650878284
 20
1098.0923753665
 40
1.0
100
AcDbArc
 50
90.0
 51
180.0
  0
CIRCLE
  5
29C
100
AcDbEntity
  8
0
100
AcDbCircle
 62
7
  6
CONTINUOUS
 10
142.6650878285
 20
1031.2923753665
 40
0.9924038765
  0
CIRCLE
  5
29D
100
AcDbEntity
  8
0
100
AcDbCircle
 62
7
  6
CONTINUOUS
 10
142.6650878285
 20
1031.2923753665
 40
0.5
  0
ARC
  5
29E
100
AcDbEntity
  8
0
100
AcDbCircle
 62
7
  6
CONTINUOUS
 10
156.3650878284
 20
1075.2923753665
 40
9.2133671758
100
AcDbArc
 50
359.9933163338
 51
23.6156608186
  0
ARC
  5
29F
100
AcDbEntity
  8
0
100
AcDbCircle
 62
7
  6
CONTINUOUS
 10
156.3650878284
 20
1075.2923753665
 40
7.4814954576
100
AcDbArc
 50
234.2967980077
 51
26.3950890158
  0
ARC
  5
2A0
100
AcDbEntity
  8
0
100
AcDbCircle
 62
7
  6
CONTINUOUS
 10
156.3650878284
 20
1075.2923753665
 40
6.7886751346
100
AcDbArc
 50
231.4229302065
 51
29.0910696718
  0
ARC
  5
2A1
100
AcDbEntity
  8
0
100
AcDbCircle
 62
7
  6
CONTINUOUS
 10
156.3650878284
 20
1075.2923753665
 40
5.9226497308
100
AcDbArc
 50
232.5417673692
 51
37.8557056978
  0
ARC
  5
2A2
100
AcDbEntity
  8
0
100
AcDbCircle
 62
7
  6
CONTINUOUS
 10
156.3650878284
 20
1075.2923753665
 40
5.15
100
AcDbArc
 50
226.7956040393
 51
43.3785261594
  0
ARC
  5
2A3
100
AcDbEntity
  8
0
100
AcDbCircle
 62
7
  6
CONTINUOUS
 10
164.1199832427
 20
1068.2279580009
 40
20.458681891
100
AcDbArc
 50
142.0884089186
 51
144.9803202724
  0
ARC
  5
2A4
100
AcDbEntity
  8
0
100
AcDbCircle
 62
7
  6
CONTINUOUS
 10
163.3021560145
 20
1067.7102724469
 40
20.2440929521
100
AcDbArc
 50
125.0051466051
 51
130.8290562378
  0
ARC
  5
2A5
100
AcDbEntity
  8
0
100
AcDbCircle
 62
7
  6
CONTINUOUS
 10
163.1768615972
 20
1068.4754543173
 40
20.0370469722
100
AcDbArc
 50
124.9823796222
 51
133.7760034276
  0
ARC
  5
2A6
100
AcDbEntity
  8
0
100
AcDbCircle
 62
7
  6
CONTINUOUS
 10
163.1820088775
 20
1068.4806015977
 40
20.0370469721
100
AcDbArc
 50
136.2239965725
 51
145.017620378
  0
ARC
  5
2A7
100
AcDbEntity
  8
0
100
AcDbCircle
 62
7
  6
CONTINUOUS
 10
163.7684600151
 20
1068.5016425212
 40
20.0131801605
100
AcDbArc
 50
139.1533989883
 51
142.0882212751
  0
ARC
  5
2A8
100
AcDbEntity
  8
0
100
AcDbCircle
 62
7
  6
CONTINUOUS
 10
162.9265137866
 20
1068.156193881
 40
19.6610852515
100
AcDbArc
 50
130.8503605945
 51
132.6402620308
  0
ARC
  5
2A9
100
AcDbEntity
  8
0
100
AcDbCircle
 62
7
  6
CONTINUOUS
 10
163.4359385382
 20
1068.7890227419
 40
19.573682816
100
AcDbArc
 50
136.1747076792
 51
139.15314011
  0
ARC
  5
2AA
100
AcDbEntity
  8
0
100
AcDbCircle
 62
7
  6
CONTINUOUS
 10
162.7744023778
 20
1068.3219163614
 40
19.4361370619
100
AcDbArc
 50
132.6413317409
 51
133.8302247705
  0
CIRCLE
  5
2AB
100
AcDbEntity
  8
0
100
AcDbCircle
 62
7
  6
CONTINUOUS
 10
168.8650878284
 20
1062.7923753665
 40
7.0
  0
ARC
  5
2AC
100
AcDbEntity
  8
0
100
AcDbCircle
 62
7
  6
CONTINUOUS
 10
168.8902838571
 20
1062.8236495462
 40
6.5356508179
100
AcDbArc
 50
261.6270913063
 51
269.9711427135
  0
ARC
  5
2AD
100
AcDbEntity
  8
0
100
AcDbCircle
 62
7
  6
CONTINUOUS
 10
168.8398917997
 20
1062.7611011867
 40
6.5356508179
100
AcDbArc
 50
81.6270913063
 51
89.9711427134
  0
ARC
  5
2AE
100
AcDbEntity
  8
0
100
AcDbCircle
 62
7
  6
CONTINUOUS
 10
168.890325163
 20
1062.7640775539
 40
6.5328437135
100
AcDbArc
 50
90.4134556537
 51
98.5390206017
  0
ARC
  5
2AF
100
AcDbEntity
  8
0
100
AcDbCircle
 62
7
  6
CONTINUOUS
 10
168.8398504937
 20
1062.820673179
 40
6.5328437134
100
AcDbArc
 50
270.4134556537
 51
278.5390206017
  0
ARC
  5
2B0
100
AcDbEntity
  8
0
100
AcDbCircle
 62
7
  6
CONTINUOUS
 10
168.8929535855
 20
1062.79382178
 40
4.5040666102
100
AcDbArc
 50
90.0031464181
 51
92.6168471797
  0
ARC
  5
2B1
100
AcDbEntity
  8
0
100
AcDbCircle
 62
7
  6
CONTINUOUS
 10
168.8372220712
 20
1062.7909289529
 40
4.5040666102
100
AcDbArc
 50
270.0031464181
 51
272.6168471797
  0
ARC
  5
2B2
100
AcDbEntity
  8
0
100
AcDbCircle
 62
7
  6
CONTINUOUS
 10
168.8927540421
 20
1062.7838742392
 40
4.4973517014
100
AcDbArc
 50
267.2274977243
 51
269.2956620083
  0
ARC
  5
2B3
100
AcDbEntity
  8
0
100
AcDbCircle
 62
7
  6
CONTINUOUS
 10
168.8374216146
 20
1062.8008764937
 40
4.4973517014
100
AcDbArc
 50
87.2274977243
 51
89.2956620083
  0
CIRCLE
  5
2B4
100
AcDbEntity
  8
0
100
AcDbCircle
 62
7
  6
CONTINUOUS
 10
168.8650878284
 20
1062.7923753665
 40
4.0
  0
CIRCLE
  5
2B5
100
AcDbEntity
  8
0
100
AcDbCircle
 62
7
  6
CONTINUOUS
 10
168.8650878284
 20
1062.7923753665
 40
3.0
  0
ARC
  5
2B6
100
AcDbEntity
  8
0
100
AcDbCircle
 62
7
  6
CONTINUOUS
 10
460.3326251851
 20
-224.8518097998
 40
462.5274160394
100
AcDbArc
 50
134.9475589787
 51
135.0692085966
  0
ARC
  5
2B7
100
AcDbEntity
  8
0
100
AcDbCircle
 62
7
  6
CONTINUOUS
 10
698.6101923956
 20
132.3567927469
 40
20.4586819129
100
AcDbArc
 50
322.0884089184
 51
324.9803202731
  0
ARC
  5
2B8
100
AcDbEntity
  8
0
100
AcDbCircle
 62
7
  6
CONTINUOUS
 10
699.4280196316
 20
132.8744782986
 40
20.2440929664
100
AcDbArc
 50
305.0051466029
 51
310.8290562365
  0
ARC
  5
2B9
100
AcDbEntity
  8
0
100
AcDbCircle
 62
7
  6
CONTINUOUS
 10
699.5481667897
 20
132.104149126
 40
20.0370469601
100
AcDbArc
 50
316.2239965706
 51
325.0176203773
  0
ARC
  5
2BA
100
AcDbEntity
  8
0
100
AcDbCircle
 62
7
  6
CONTINUOUS
 10
699.5533140698
 20
132.1092964045
 40
20.0370469592
100
AcDbArc
 50
304.982379622
 51
313.7760034288
  0
ARC
  5
2BB
100
AcDbEntity
  8
0
100
AcDbCircle
 62
7
  6
CONTINUOUS
 10
698.961715637
 20
132.0831082159
 40
20.013180165
100
AcDbArc
 50
319.153398989
 51
322.0882212747
  0
ARC
  5
2BC
100
AcDbEntity
  8
0
100
AcDbCircle
 62
7
  6
CONTINUOUS
 10
699.803661871
 20
132.4285568507
 40
19.6610852478
100
AcDbArc
 50
310.8503605943
 51
312.6402620321
  0
ARC
  5
2BD
100
AcDbEntity
  8
0
100
AcDbCircle
 62
7
  6
CONTINUOUS
 10
699.2942371228
 20
131.7957279875
 40
19.5736828087
100
AcDbArc
 50
316.1747076786
 51
319.1531401107
  0
ARC
  5
2BE
100
AcDbEntity
  8
0
100
AcDbCircle
 62
7
  6
CONTINUOUS
 10
699.9557732754
 20
132.262834375
 40
19.4361370646
100
AcDbArc
 50
312.6413317423
 51
313.8302247705
  0
CIRCLE
  5
2BF
100
AcDbEntity
  8
0
100
AcDbCircle
 62
7
  6
CONTINUOUS
 10
693.8650878284
 20
137.7923753665
 40
7.0
  0
ARC
  5
2C0
100
AcDbEntity
  8
0
100
AcDbCircle
 62
7
  6
CONTINUOUS
 10
693.8902838571
 20
137.8236495462
 40
6.5356508179
100
AcDbArc
 50
261.6270913063
 51
269.9711427134
  0
ARC
  5
2C1
100
AcDbEntity
  8
0
100
AcDbCircle
 62
7
  6
CONTINUOUS
 10
693.8398917997
 20
137.7611011867
 40
6.5356508179
100
AcDbArc
 50
81.6270913063
 51
89.9711427135
  0
ARC
  5
2C2
100
AcDbEntity
  8
0
100
AcDbCircle
 62
7
  6
CONTINUOUS
 10
693.890325163
 20
137.7640775539
 40
6.5328437135
100
AcDbArc
 50
90.4134556537
 51
98.5390206017
  0
ARC
  5
2C3
100
AcDbEntity
  8
0
100
AcDbCircle
 62
7
  6
CONTINUOUS
 10
693.8398504937
 20
137.8206731791
 40
6.5328437135
100
AcDbArc
 50
270.4134556537
 51
278.5390206017
  0
ARC
  5
2C4
100
AcDbEntity
  8
0
100
AcDbCircle
 62
7
  6
CONTINUOUS
 10
693.8929535856
 20
137.7938217796
 40
4.5040666106
100
AcDbArc
 50
90.0031464182
 51
92.6168471796
  0
ARC
  5
2C5
100
AcDbEntity
  8
0
100
AcDbCircle
 62
7
  6
CONTINUOUS
 10
693.8372220712
 20
137.7909289533
 40
4.5040666106
100
AcDbArc
 50
270.0031464182
 51
272.6168471796
  0
ARC
  5
2C6
100
AcDbEntity
  8
0
100
AcDbCircle
 62
7
  6
CONTINUOUS
 10
693.8927540422
 20
137.7838742401
 40
4.4973517024
100
AcDbArc
 50
267.2274977245
 51
269.2956620081
  0
ARC
  5
2C7
100
AcDbEntity
  8
0
100
AcDbCircle
 62
7
  6
CONTINUOUS
 10
693.8374216146
 20
137.8008764928
 40
4.4973517024
100
AcDbArc
 50
87.2274977245
 51
89.2956620081
  0
CIRCLE
  5
2C8
100
AcDbEntity
  8
0
100
AcDbCircle
 62
7
  6
CONTINUOUS
 10
693.8650878284
 20
137.7923753665
 40
4.0
  0
CIRCLE
  5
2C9
100
AcDbEntity
  8
0
100
AcDbCircle
 62
7
  6
CONTINUOUS
 10
693.8650878284
 20
137.7923753665
 40
3.0
  0
ARC
  5
2CA
100
AcDbEntity
  8
0
100
AcDbCircle
 62
7
  6
CONTINUOUS
 10
706.3650878284
 20
125.2923753665
 40
9.2133671758
100
AcDbArc
 50
179.9933163338
 51
203.6156608183
  0
ARC
  5
2CB
100
AcDbEntity
  8
0
100
AcDbCircle
 62
7
  6
CONTINUOUS
 10
706.3650878284
 20
125.2923753665
 40
7.4814954576
100
AcDbArc
 50
54.2967980077
 51
206.3950890154
  0
ARC
  5
2CC
100
AcDbEntity
  8
0
100
AcDbCircle
 62
7
  6
CONTINUOUS
 10
706.3650878284
 20
125.2923753665
 40
6.7886751346
100
AcDbArc
 50
51.4229302065
 51
209.0910696713
  0
ARC
  5
2CD
100
AcDbEntity
  8
0
100
AcDbCircle
 62
7
  6
CONTINUOUS
 10
706.3650878284
 20
125.2923753665
 40
5.9226497308
100
AcDbArc
 50
52.5417673692
 51
217.8557056972
  0
ARC
  5
2CE
100
AcDbEntity
  8
0
100
AcDbCircle
 62
7
  6
CONTINUOUS
 10
706.3650878284
 20
125.2923753665
 40
5.15
100
AcDbArc
 50
46.7956040393
 51
223.3785261588
  0
ARC
  5
2CF
100
AcDbEntity
  8
0
100
AcDbCircle
 62
7
  6
CONTINUOUS
 10
712.5117532746
 20
123.9388655922
 40
3.5830385151
100
AcDbArc
 50
233.48339604
 51
236.2978940914
  0
ARC
  5
2D0
100
AcDbEntity
  8
0
100
AcDbCircle
 62
7
  6
CONTINUOUS
 10
729.1650878284
 20
102.4923753665
 40
2.2
100
AcDbArc
 50
270.0
 51
360.0
  0
ARC
  5
2D1
100
AcDbEntity
  8
0
100
AcDbCircle
 62
7
  6
CONTINUOUS
 10
729.1650878284
 20
102.4923753665
 40
1.0
100
AcDbArc
 50
270.0
 51
360.0
  0
ARC
  5
2D2
100
AcDbEntity
  8
0
100
AcDbCircle
 62
7
  6
CONTINUOUS
 10
717.3650878283
 20
157.2923753665
 40
2.3682206767
100
AcDbArc
 50
342.3766544864
 51
126.5649177133
  0
ARC
  5
2D3
100
AcDbEntity
  8
0
100
AcDbCircle
 62
7
  6
CONTINUOUS
 10
717.3650878283
 20
157.2923753665
 40
0.8566550758
100
AcDbArc
 50
285.8789712605
 51
207.9789132539
  0
ARC
  5
2D4
100
AcDbEntity
  8
0
100
AcDbCircle
 62
7
  6
CONTINUOUS
 10
717.3650878283
 20
181.2923753665
 40
2.3682206767
100
AcDbArc
 50
233.7003685956
 51
18.0853989831
  0
ARC
  5
2D5
100
AcDbEntity
  8
0
100
AcDbCircle
 62
7
  6
CONTINUOUS
 10
717.3650878283
 20
181.2923753665
 40
0.8566550758
100
AcDbArc
 50
111.9916577602
 51
30.0
  0
ARC
  5
2D6
100
AcDbEntity
  8
0
100
AcDbCircle
 62
7
  6
CONTINUOUS
 10
720.0650878283
 20
169.2923753665
 40
5.05
100
AcDbArc
 50
211.6838078725
 51
148.0559632569
  0
ARC
  5
2D7
100
AcDbEntity
  8
0
100
AcDbCircle
 62
7
  6
CONTINUOUS
 10
720.0650878283
 20
169.2923753665
 40
4.0
100
AcDbArc
 50
189.5552963299
 51
170.6265467226
  0
CIRCLE
  5
2D8
100
AcDbEntity
  8
0
100
AcDbCircle
 62
7
  6
CONTINUOUS
 10
720.0650878283
 20
169.2923753665
 40
3.85
  0
ARC
  5
2D9
100
AcDbEntity
  8
0
100
AcDbCircle
 62
7
  6
CONTINUOUS
 10
699.300670448
 20
1067.5374799337
 40
20.4586819128
100
AcDbArc
 50
52.0884089183
 51
54.9803202731
  0
ARC
  5
2DA
100
AcDbEntity
  8
0
100
AcDbCircle
 62
7
  6
CONTINUOUS
 10
698.7829849089
 20
1068.3553071803
 40
20.2440929521
100
AcDbArc
 50
35.0051466051
 51
40.8290562379
  0
ARC
  5
2DB
100
AcDbEntity
  8
0
100
AcDbCircle
 62
7
  6
CONTINUOUS
 10
699.548166779
 20
1068.4806015974
 40
20.0370469725
100
AcDbArc
 50
34.9823796221
 51
43.7760034275
  0
ARC
  5
2DC
100
AcDbEntity
  8
0
100
AcDbCircle
 62
7
  6
CONTINUOUS
 10
699.5533140692
 20
1068.4754543281
 40
20.0370469597
100
AcDbArc
 50
46.2239965705
 51
55.0176203772
  0
ARC
  5
2DD
100
AcDbEntity
  8
0
100
AcDbCircle
 62
7
  6
CONTINUOUS
 10
699.5743549788
 20
1067.8890031749
 40
20.0131801652
100
AcDbArc
 50
49.1533989889
 51
52.0882212747
  0
ARC
  5
2DE
100
AcDbEntity
  8
0
100
AcDbCircle
 62
7
  6
CONTINUOUS
 10
699.228906342
 20
1068.7309494074
 40
19.6610852527
100
AcDbArc
 50
40.8503605946
 51
42.6402620308
  0
ARC
  5
2DF
100
AcDbEntity
  8
0
100
AcDbCircle
 62
7
  6
CONTINUOUS
 10
699.8617352067
 20
1068.2215246602
 40
19.5736828096
100
AcDbArc
 50
46.1747076786
 51
49.1531401106
  0
ARC
  5
2E0
100
AcDbEntity
  8
0
100
AcDbCircle
 62
7
  6
CONTINUOUS
 10
699.3946288224
 20
1068.8830608161
 40
19.4361370631
100
AcDbArc
 50
42.641331741
 51
43.8302247705
  0
CIRCLE
  5
2E1
100
AcDbEntity
  8
0
100
AcDbCircle
 62
7
  6
CONTINUOUS
 10
693.8650878284
 20
1062.7923753665
 40
7.0
  0
ARC
  5
2E2
100
AcDbEntity
  8
0
100
AcDbCircle
 62
7
  6
CONTINUOUS
 10
693.8902838571
 20
1062.8236495462
 40
6.5356508179
100
AcDbArc
 50
261.6270913063
 51
269.9711427134
  0
ARC
  5
2E3
100
AcDbEntity
  8
0
100
AcDbCircle
 62
7
  6
CONTINUOUS
 10
693.8398917997
 20
1062.7611011867
 40
6.5356508179
100
AcDbArc
 50
81.6270913063
 51
89.9711427135
  0
ARC
  5
2E4
100
AcDbEntity
  8
0
100
AcDbCircle
 62
7
  6
CONTINUOUS
 10
693.890325163
 20
1062.7640775538
 40
6.5328437135
100
AcDbArc
 50
90.4134556537
 51
98.5390206017
  0
ARC
  5
2E5
100
AcDbEntity
  8
0
100
AcDbCircle
 62
7
  6
CONTINUOUS
 10
693.8398504937
 20
1062.820673179
 40
6.5328437134
100
AcDbArc
 50
270.4134556537
 51
278.5390206017
  0
ARC
  5
2E6
100
AcDbEntity
  8
0
100
AcDbCircle
 62
7
  6
CONTINUOUS
 10
693.8929535855
 20
1062.79382178
 40
4.5040666102
100
AcDbArc
 50
90.0031464181
 51
92.6168471797
  0
ARC
  5
2E7
100
AcDbEntity
  8
0
100
AcDbCircle
 62
7
  6
CONTINUOUS
 10
693.8372220712
 20
1062.7909289532
 40
4.5040666105
100
AcDbArc
 50
270.0031464182
 51
272.6168471796
  0
ARC
  5
2E8
100
AcDbEntity
  8
0
100
AcDbCircle
 62
7
  6
CONTINUOUS
 10
693.8927540421
 20
1062.7838742392
 40
4.4973517014
100
AcDbArc
 50
267.2274977243
 51
269.2956620083
  0
ARC
  5
2E9
100
AcDbEntity
  8
0
100
AcDbCircle
 62
7
  6
CONTINUOUS
 10
693.8374216146
 20
1062.8008764932
 40
4.4973517019
100
AcDbArc
 50
87.2274977244
 51
89.2956620082
  0
CIRCLE
  5
2EA
100
AcDbEntity
  8
0
100
AcDbCircle
 62
7
  6
CONTINUOUS
 10
693.8650878284
 20
1062.7923753665
 40
4.0
  0
CIRCLE
  5
2EB
100
AcDbEntity
  8
0
100
AcDbCircle
 62
7
  6
CONTINUOUS
 10
693.8650878284
 20
1062.7923753665
 40
3.0
  0
ARC
  5
2EC
100
AcDbEntity
  8
0
100
AcDbCircle
 62
7
  6
CONTINUOUS
 10
706.3650878284
 20
1075.2923753665
 40
9.2131804531
100
AcDbArc
 50
156.3837757753
 51
180.0136173631
  0
ARC
  5
2ED
100
AcDbEntity
  8
0
100
AcDbCircle
 62
7
  6
CONTINUOUS
 10
706.3650878284
 20
1075.2923753665
 40
7.4814954576
100
AcDbArc
 50
153.6049109842
 51
305.7032019923
  0
ARC
  5
2EE
100
AcDbEntity
  8
0
100
AcDbCircle
 62
7
  6
CONTINUOUS
 10
706.3650878284
 20
1075.2923753665
 40
6.7886751346
100
AcDbArc
 50
150.9089303282
 51
308.5770697935
  0
ARC
  5
2EF
100
AcDbEntity
  8
0
100
AcDbCircle
 62
7
  6
CONTINUOUS
 10
706.3650878284
 20
1075.2923753665
 40
5.9226497308
100
AcDbArc
 50
142.145500808
 51
307.4592204749
  0
ARC
  5
2F0
100
AcDbEntity
  8
0
100
AcDbCircle
 62
7
  6
CONTINUOUS
 10
706.3650878284
 20
1075.2923753665
 40
5.15
100
AcDbArc
 50
136.6996259318
 51
313.2867095522
  0
ARC
  5
2F1
100
AcDbEntity
  8
0
100
AcDbCircle
 62
7
  6
CONTINUOUS
 10
707.7185975922
 20
1081.439040825
 40
3.5830385308
100
AcDbArc
 50
323.4833959798
 51
326.2978940204
  0
ARC
  5
2F2
100
AcDbEntity
  8
0
100
AcDbCircle
 62
7
  6
CONTINUOUS
 10
717.3650878283
 20
588.2923753665
 40
2.3682206767
100
AcDbArc
 50
342.3766544864
 51
126.5649177133
  0
ARC
  5
2F3
100
AcDbEntity
  8
0
100
AcDbCircle
 62
7
  6
CONTINUOUS
 10
717.3650878283
 20
588.2923753665
 40
0.8566550758
100
AcDbArc
 50
285.8789712605
 51
207.9789132539
  0
ARC
  5
2F4
100
AcDbEntity
  8
0
100
AcDbCircle
 62
7
  6
CONTINUOUS
 10
717.3650878283
 20
612.2923753665
 40
2.3682206767
100
AcDbArc
 50
233.7003685956
 51
18.0853989831
  0
ARC
  5
2F5
100
AcDbEntity
  8
0
100
AcDbCircle
 62
7
  6
CONTINUOUS
 10
717.3650878283
 20
612.2923753665
 40
0.8566550758
100
AcDbArc
 50
111.9916577603
 51
30.0
  0
ARC
  5
2F6
100
AcDbEntity
  8
0
100
AcDbCircle
 62
7
  6
CONTINUOUS
 10
720.0650878283
 20
600.2923753665
 40
5.05
100
AcDbArc
 50
211.6838078725
 51
148.0559632569
  0
ARC
  5
2F7
100
AcDbEntity
  8
0
100
AcDbCircle
 62
7
  6
CONTINUOUS
 10
720.0650878283
 20
600.2923753665
 40
4.0
100
AcDbArc
 50
193.0159021131
 51
167.0830797254
  0
CIRCLE
  5
2F8
100
AcDbEntity
  8
0
100
AcDbCircle
 62
7
  6
CONTINUOUS
 10
720.0650878283
 20
600.2923753665
 40
3.85
  0
ARC
  5
2F9
100
AcDbEntity
  8
0
100
AcDbCircle
 62
7
  6
CONTINUOUS
 10
717.3650878283
 20
1019.2923753665
 40
2.3682206767
100
AcDbArc
 50
342.3766544864
 51
126.5649177133
  0
ARC
  5
2FA
100
AcDbEntity
  8
0
100
AcDbCircle
 62
7
  6
CONTINUOUS
 10
717.3650878283
 20
1019.2923753665
 40
0.8566550758
100
AcDbArc
 50
285.8789712605
 51
207.9789132539
  0
ARC
  5
2FB
100
AcDbEntity
  8
0
100
AcDbCircle
 62
7
  6
CONTINUOUS
 10
717.3650878283
 20
1043.2923753665
 40
2.3682206767
100
AcDbArc
 50
233.7003685956
 51
18.0853989831
  0
ARC
  5
2FC
100
AcDbEntity
  8
0
100
AcDbCircle
 62
7
  6
CONTINUOUS
 10
717.3650878283
 20
1043.2923753665
 40
0.8566550758
100
AcDbArc
 50
111.9916577602
 51
30.0
  0
ARC
  5
2FD
100
AcDbEntity
  8
0
100
AcDbCircle
 62
7
  6
CONTINUOUS
 10
720.0650878283
 20
1031.2923753665
 40
5.05
100
AcDbArc
 50
211.6838078725
 51
148.0559632569
  0
ARC
  5
2FE
100
AcDbEntity
  8
0
100
AcDbCircle
 62
7
  6
CONTINUOUS
 10
720.0650878283
 20
1031.2923753665
 40
4.0
100
AcDbArc
 50
189.5552963299
 51
170.6265467226
  0
CIRCLE
  5
2FF
100
AcDbEntity
  8
0
100
AcDbCircle
 62
7
  6
CONTINUOUS
 10
720.0650878283
 20
1031.2923753665
 40
3.85
  0
ARC
  5
300
100
AcDbEntity
  8
0
100
AcDbCircle
 62
7
  6
CONTINUOUS
 10
729.1650878284
 20
1098.0923753665
 40
2.2
100
AcDbArc
 50
0.0
 51
90.0
  0
ARC
  5
301
100
AcDbEntity
  8
0
100
AcDbCircle
 62
7
  6
CONTINUOUS
 10
729.1650878284
 20
1098.0923753665
 40
1.0
100
AcDbArc
 50
0.0
 51
90.0
  0
SPLINE
  5
302
100
AcDbEntity
  8
0
100
AcDbSpline
 62
7
  6
CONTINUOUS
 70
0
 71
3
 72
9
 73
5
 74
0
 42
0.0000001
 43
0.0000001
 44
0.0000000001
 40
0.0
 40
0.0
 40
0.0
 40
0.0
 40
0.599128348
 40
1.0
 40
1.0
 40
1.0
 40
1.0
 10
133.5650878284
 20
102.4923753665
 30
0.0
 10
133.3215674951
 20
102.3373455073
 30
0.0
 10
132.9217233874
 20
102.1062676711
 30
0.0
 10
132.5650878284
 20
101.6855289948
 30
0.0
 10
132.5650878284
 20
101.4923753665
 30
0.0
  0
LINE
  5
303
100
AcDbEntity
  8
0
100
AcDbLine
 62
7
  6
CONTINUOUS
 10
132.7173585929
 20
101.6444010537
 11
132.8815343938
 21
101.8091669448
  0
LINE
  5
304
100
AcDbEntity
  8
0
100
AcDbLine
 62
7
  6
CONTINUOUS
 10
132.9576537766
 20
101.8843313444
 11
132.7150778548
 21
101.6426051585
  0
SPLINE
  5
305
100
AcDbEntity
  8
0
100
AcDbSpline
 62
7
  6
CONTINUOUS
 70
0
 71
3
 72
8
 73
4
 74
0
 42
0.0000001
 43
0.0000001
 44
0.0000000001
 40
0.0
 40
0.0
 40
0.0
 40
0.0
 40
1.0
 40
1.0
 40
1.0
 40
1.0
 10
710.5236147585
 20
120.958015002
 30
0.0
 10
710.6662628847
 20
120.8626088372
 30
0.0
 10
710.8145148243
 20
120.7755168126
 30
0.0
 10
710.964801004
 20
120.6926621909
 30
0.0
  0
SPLINE
  5
306
100
AcDbEntity
  8
0
100
AcDbSpline
 62
7
  6
CONTINUOUS
 70
0
 71
3
 72
9
 73
5
 74
0
 42
0.0000001
 43
0.0000001
 44
0.0000000001
 40
0.0
 40
0.0
 40
0.0
 40
0.0
 40
0.2982820441
 40
1.0
 40
1.0
 40
1.0
 40
1.0
 10
710.964801004
 20
1079.8920885421
 30
0.0
 10
710.8588093255
 20
1079.8336540244
 30
0.0
 10
710.5107417698
 20
1079.6301311682
 30
0.0
 10
710.1633607996
 20
1079.3905456319
 30
0.0
 10
709.9977275815
 20
1079.1589464262
 30
0.0
  0
SPLINE
  5
307
100
AcDbEntity
  8
0
100
AcDbSpline
 62
7
  6
CONTINUOUS
 70
0
 71
3
 72
9
 73
5
 74
0
 42
0.0000001
 43
0.0000001
 44
0.0000000001
 40
0.0
 40
0.0
 40
0.0
 40
0.0
 40
0.2982820441
 40
1.0
 40
1.0
 40
1.0
 40
1.0
 10
151.7653746528
 20
120.6926621909
 30
0.0
 10
151.8713663312
 20
120.7510967085
 30
0.0
 10
152.2194338869
 20
120.9546195648
 30
0.0
 10
152.5668148572
 20
121.194205101
 30
0.0
 10
152.7324480753
 20
121.4258043068
 30
0.0
  0
SPLINE
  5
308
100
AcDbEntity
  8
0
100
AcDbSpline
 62
7
  6
CONTINUOUS
 70
0
 71
3
 72
8
 73
4
 74
0
 42
0.0000001
 43
0.0000001
 44
0.0000000001
 40
0.0
 40
0.0
 40
0.0
 40
0.0
 40
1.0
 40
1.0
 40
1.0
 40
1.0
 10
152.2065608982
 20
1079.626735731
 30
0.0
 10
152.0639127721
 20
1079.7221418957
 30
0.0
 10
151.9156608325
 20
1079.8092339203
 30
0.0
 10
151.7653746528
 20
1079.8920885421
 30
0.0
  0
SPLINE
  5
309
100
AcDbEntity
  8
0
100
AcDbSpline
 62
7
  6
CONTINUOUS
 70
0
 71
3
 72
9
 73
5
 74
0
 42
0.0000001
 43
0.0000001
 44
0.0000000001
 40
0.0
 40
0.0
 40
0.0
 40
0.0
 40
0.2982820441
 40
1.0
 40
1.0
 40
1.0
 40
1.0
 10
151.7653746528
 20
1079.8920885421
 30
0.0
 10
151.8238091705
 20
1079.7860968636
 30
0.0
 10
152.0273320267
 20
1079.4380293079
 30
0.0
 10
152.266917563
 20
1079.0906483377
 30
0.0
 10
152.4985167687
 20
1078.9250151195
 30
0.0
  0
SPLINE
  5
30A
100
AcDbEntity
  8
0
100
AcDbSpline
 62
7
  6
CONTINUOUS
 70
0
 71
3
 72
8
 73
4
 74
0
 42
0.0000001
 43
0.0000001
 44
0.0000000001
 40
0.0
 40
0.0
 40
0.0
 40
0.0
 40
1.0
 40
1.0
 40
1.0
 40
1.0
 10
710.6994481931
 20
1079.4509022965
 30
0.0
 10
710.794854358
 20
1079.5935504226
 30
0.0
 10
710.8819463827
 20
1079.7418023621
 30
0.0
 10
710.964801004
 20
1079.8920885421
 30
0.0
  0
SPLINE
  5
30B
100
AcDbEntity
  8
0
100
AcDbSpline
 62
7
  6
CONTINUOUS
 70
0
 71
3
 72
9
 73
5
 74
0
 42
0.0000001
 43
0.0000001
 44
0.0000000001
 40
0.0
 40
0.0
 40
0.0
 40
0.0
 40
0.4008718196
 40
1.0
 40
1.0
 40
1.0
 40
1.0
 10
132.5650878284
 20
101.4923753666
 30
0.0
 10
132.7582415369
 20
101.4923753666
 30
0.0
 10
133.1789801856
 20
101.8490110052
 30
0.0
 10
133.410058013
 20
102.2488551021
 30
0.0
 10
133.5650878284
 20
102.4923753666
 30
0.0
  0
SPLINE
  5
30C
100
AcDbEntity
  8
0
100
AcDbSpline
 62
7
  6
CONTINUOUS
 70
0
 71
3
 72
8
 73
4
 74
0
 42
0.0000001
 43
0.0000001
 44
0.0000000001
 40
0.0
 40
0.0
 40
0.0
 40
0.0
 40
1.0
 40
1.0
 40
1.0
 40
1.0
 10
152.0307274639
 20
121.1338484364
 30
0.0
 10
151.9353212991
 20
120.9912003102
 30
0.0
 10
151.8482292746
 20
120.8429483706
 30
0.0
 10
151.7653746528
 20
120.6926621909
 30
0.0
  0
SPLINE
  5
30D
100
AcDbEntity
  8
0
100
AcDbSpline
 62
7
  6
CONTINUOUS
 70
0
 71
3
 72
9
 73
5
 74
0
 42
0.0000001
 43
0.0000001
 44
0.0000000001
 40
0.0
 40
0.0
 40
0.0
 40
0.0
 40
0.2982820441
 40
1.0
 40
1.0
 40
1.0
 40
1.0
 10
710.964801004
 20
120.6926621909
 30
0.0
 10
710.9063664863
 20
120.7986538693
 30
0.0
 10
710.7028436301
 20
121.1467214251
 30
0.0
 10
710.4632580938
 20
121.4941023953
 30
0.0
 10
710.2316588881
 20
121.6597356134
 30
0.0
  0
SPLINE
  5
30E
100
AcDbEntity
  8
0
100
AcDbSpline
 62
7
  6
CONTINUOUS
 70
0
 71
3
 72
11
 73
7
 74
0
 42
0.0000001
 43
0.0000001
 44
0.0000000001
 40
0.0
 40
0.0
 40
0.0
 40
0.0
 40
0.2499830574
 40
0.499984681
 40
0.7500053504
 40
1.0
 40
1.0
 40
1.0
 40
1.0
 10
165.5782758819
 20
125.2945650448
 30
0.0
 10
165.5663469032
 20
126.8012025475
 30
0.0
 10
164.8127523628
 20
129.8663932152
 30
0.0
 10
161.616088711
 20
133.3240539005
 30
0.0
 10
157.1707421468
 20
134.8565787372
 30
0.0
 10
154.0533764192
 20
134.3341774234
 30
0.0
 10
152.6728891373
 20
133.7303858436
 30
0.0
  0
SPLINE
  5
30F
100
AcDbEntity
  8
0
100
AcDbSpline
 62
7
  6
CONTINUOUS
 70
0
 71
3
 72
11
 73
7
 74
0
 42
0.0000001
 43
0.0000001
 44
0.0000000001
 40
0.0
 40
0.0
 40
0.0
 40
0.0
 40
0.2499962023
 40
0.5000134585
 40
0.7500177932
 40
1.0
 40
1.0
 40
1.0
 40
1.0
 10
152.6730824549
 20
1066.8552455396
 30
0.0
 10
154.0537986216
 20
1066.2517635704
 30
0.0
 10
157.1708446765
 20
1065.7266959919
 30
0.0
 10
161.6164211654
 20
1067.2618950613
 30
0.0
 10
164.8119530813
 20
1070.7190584406
 30
0.0
 10
165.5689065154
 20
1073.7845749681
 30
0.0
 10
165.5784587346
 20
1075.2913006085
 30
0.0
  0
SPLINE
  5
310
100
AcDbEntity
  8
0
100
AcDbSpline
 62
7
  6
CONTINUOUS
 70
0
 71
3
 72
9
 73
5
 74
0
 42
0.0000001
 43
0.0000001
 44
0.0000000001
 40
0.0
 40
0.0
 40
0.0
 40
0.0
 40
0.3379882737
 40
1.0
 40
1.0
 40
1.0
 40
1.0
 10
131.3650878284
 20
101.4923753665
 30
0.0
 10
131.3650878284
 20
101.6406971329
 30
0.0
 10
131.8132803829
 20
101.9453064562
 30
0.0
 10
132.1895653964
 20
102.0670324481
 30
0.0
 10
132.4651216765
 20
102.1590533604
 30
0.0
  0
SPLINE
  5
311
100
AcDbEntity
  8
0
100
AcDbSpline
 62
7
  6
CONTINUOUS
 70
0
 71
3
 72
8
 73
4
 74
0
 42
0.0000001
 43
0.0000001
 44
0.0000000001
 40
0.0
 40
0.0
 40
0.0
 40
0.0
 40
1.0
 40
1.0
 40
1.0
 40
1.0
 10
132.4651216765
 20
102.1590533604
 30
0.0
 10
132.8285144712
 20
102.2804069238
 30
0.0
 10
133.1970664197
 20
102.3858800458
 30
0.0
 10
133.5650878284
 20
102.4923753665
 30
0.0
  0
SPLINE
  5
312
100
AcDbEntity
  8
0
100
AcDbSpline
 62
7
  6
CONTINUOUS
 70
0
 71
3
 72
11
 73
7
 74
0
 42
0.0000001
 43
0.0000001
 44
0.0000000001
 40
0.0
 40
0.0
 40
0.0
 40
0.0
 40
0.2500842198
 40
0.4999968718
 40
0.7499098916
 40
1.0
 40
1.0
 40
1.0
 40
1.0
 10
168.6752152905
 20
1058.2917868382
 30
0.0
 10
167.5561824867
 20
1058.345941886
 30
0.0
 10
165.2702322941
 20
1059.360555375
 30
0.0
 10
163.9106006274
 20
1062.7988951834
 30
0.0
 10
165.279281759
 20
1066.2337811718
 30
0.0
 10
167.5681096759
 20
1067.2420939473
 30
0.0
 10
168.6873126674
 20
1067.2931914961
 30
0.0
  0
SPLINE
  5
313
100
AcDbEntity
  8
0
100
AcDbSpline
 62
7
  6
CONTINUOUS
 70
0
 71
3
 72
11
 73
7
 74
0
 42
0.0000001
 43
0.0000001
 44
0.0000000001
 40
0.0
 40
0.0
 40
0.0
 40
0.0
 40
0.2500842198
 40
0.4999968718
 40
0.7499098916
 40
1.0
 40
1.0
 40
1.0
 40
1.0
 10
169.0549603663
 20
1067.2929638947
 30
0.0
 10
170.1739931701
 20
1067.2388088469
 30
0.0
 10
172.4599433626
 20
1066.2241953579
 30
0.0
 10
173.8195750294
 20
1062.7858555496
 30
0.0
 10
172.4508938977
 20
1059.3509695611
 30
0.0
 10
170.1620659809
 20
1058.3426567856
 30
0.0
 10
169.0428629893
 20
1058.2915592368
 30
0.0
  0
SPLINE
  5
314
100
AcDbEntity
  8
0
100
AcDbSpline
 62
7
  6
CONTINUOUS
 70
0
 71
3
 72
11
 73
7
 74
0
 42
0.0000001
 43
0.0000001
 44
0.0000000001
 40
0.0
 40
0.0
 40
0.0
 40
0.0
 40
0.2500820594
 40
0.5000007836
 40
0.7499193625
 40
1.0
 40
1.0
 40
1.0
 40
1.0
 10
167.92030936
 20
1069.2245045
 30
0.0
 10
166.4237913547
 20
1069.0002682876
 30
0.0
 10
163.4929941431
 20
1067.4123682174
 30
0.0
 10
161.7982118188
 20
1062.7823357398
 30
0.0
 10
163.5061402985
 20
1058.1571907094
 30
0.0
 10
166.4414383051
 20
1056.5775433542
 30
0.0
 10
167.9385934153
 20
1056.3576603012
 30
0.0
  0
SPLINE
  5
315
100
AcDbEntity
  8
0
100
AcDbSpline
 62
7
  6
CONTINUOUS
 70
0
 71
3
 72
11
 73
7
 74
0
 42
0.0000001
 43
0.0000001
 44
0.0000000001
 40
0.0
 40
0.0
 40
0.0
 40
0.0
 40
0.2500820594
 40
0.5000007836
 40
0.7499193625
 40
1.0
 40
1.0
 40
1.0
 40
1.0
 10
169.8098662967
 20
1056.3602462329
 30
0.0
 10
171.306384302
 20
1056.5844824453
 30
0.0
 10
174.2371815136
 20
1058.1723825155
 30
0.0
 10
175.931963838
 20
1062.8024149931
 30
0.0
 10
174.2240353583
 20
1067.4275600235
 30
0.0
 10
171.2887373517
 20
1069.0072073787
 30
0.0
 10
169.7915822415
 20
1069.2270904317
 30
0.0
  0
SPLINE
  5
316
100
AcDbEntity
  8
0
100
AcDbSpline
 62
7
  6
CONTINUOUS
 70
0
 71
3
 72
11
 73
7
 74
0
 42
0.0000001
 43
0.0000001
 44
0.0000000001
 40
0.0
 40
0.0
 40
0.0
 40
0.0
 40
0.2500842198
 40
0.4999968718
 40
0.7499098916
 40
1.0
 40
1.0
 40
1.0
 40
1.0
 10
168.6752152905
 20
133.2917868382
 30
0.0
 10
167.5561824867
 20
133.345941886
 30
0.0
 10
165.2702322941
 20
134.360555375
 30
0.0
 10
163.9106006274
 20
137.7988951834
 30
0.0
 10
165.279281759
 20
141.2337811718
 30
0.0
 10
167.5681096759
 20
142.2420939473
 30
0.0
 10
168.6873126674
 20
142.2931914961
 30
0.0
  0
SPLINE
  5
317
100
AcDbEntity
  8
0
100
AcDbSpline
 62
7
  6
CONTINUOUS
 70
0
 71
3
 72
11
 73
7
 74
0
 42
0.0000001
 43
0.0000001
 44
0.0000000001
 40
0.0
 40
0.0
 40
0.0
 40
0.0
 40
0.2500842198
 40
0.4999968718
 40
0.7499098916
 40
1.0
 40
1.0
 40
1.0
 40
1.0
 10
169.0549603663
 20
142.2929638947
 30
0.0
 10
170.1739931701
 20
142.2388088469
 30
0.0
 10
172.4599433626
 20
141.2241953579
 30
0.0
 10
173.8195750294
 20
137.7858555496
 30
0.0
 10
172.4508938977
 20
134.3509695611
 30
0.0
 10
170.1620659809
 20
133.3426567856
 30
0.0
 10
169.0428629893
 20
133.2915592368
 30
0.0
  0
SPLINE
  5
318
100
AcDbEntity
  8
0
100
AcDbSpline
 62
7
  6
CONTINUOUS
 70
0
 71
3
 72
11
 73
7
 74
0
 42
0.0000001
 43
0.0000001
 44
0.0000000001
 40
0.0
 40
0.0
 40
0.0
 40
0.0
 40
0.2500820594
 40
0.5000007836
 40
0.7499193625
 40
1.0
 40
1.0
 40
1.0
 40
1.0
 10
167.92030936
 20
144.2245045
 30
0.0
 10
166.4237913547
 20
144.0002682876
 30
0.0
 10
163.4929941431
 20
142.4123682174
 30
0.0
 10
161.7982118188
 20
137.7823357398
 30
0.0
 10
163.5061402985
 20
133.1571907094
 30
0.0
 10
166.4414383051
 20
131.5775433542
 30
0.0
 10
167.9385934153
 20
131.3576603012
 30
0.0
  0
SPLINE
  5
319
100
AcDbEntity
  8
0
100
AcDbSpline
 62
7
  6
CONTINUOUS
 70
0
 71
3
 72
11
 73
7
 74
0
 42
0.0000001
 43
0.0000001
 44
0.0000000001
 40
0.0
 40
0.0
 40
0.0
 40
0.0
 40
0.2500820594
 40
0.5000007836
 40
0.7499193625
 40
1.0
 40
1.0
 40
1.0
 40
1.0
 10
169.8098662967
 20
131.3602462329
 30
0.0
 10
171.306384302
 20
131.5844824453
 30
0.0
 10
174.2371815136
 20
133.1723825155
 30
0.0
 10
175.931963838
 20
137.8024149931
 30
0.0
 10
174.2240353583
 20
142.4275600235
 30
0.0
 10
171.2887373517
 20
144.0072073787
 30
0.0
 10
169.7915822415
 20
144.2270904317
 30
0.0
  0
SPLINE
  5
31A
100
AcDbEntity
  8
0
100
AcDbSpline
 62
7
  6
CONTINUOUS
 70
0
 71
3
 72
11
 73
7
 74
0
 42
0.0000001
 43
0.0000001
 44
0.0000000001
 40
0.0
 40
0.0
 40
0.0
 40
0.0
 40
0.2500842198
 40
0.4999968718
 40
0.7499098916
 40
1.0
 40
1.0
 40
1.0
 40
1.0
 10
693.6752152905
 20
1058.2917868382
 30
0.0
 10
692.5561824867
 20
1058.345941886
 30
0.0
 10
690.2702322941
 20
1059.360555375
 30
0.0
 10
688.9106006274
 20
1062.7988951834
 30
0.0
 10
690.279281759
 20
1066.2337811718
 30
0.0
 10
692.5681096759
 20
1067.2420939473
 30
0.0
 10
693.6873126674
 20
1067.2931914961
 30
0.0
  0
SPLINE
  5
31B
100
AcDbEntity
  8
0
100
AcDbSpline
 62
7
  6
CONTINUOUS
 70
0
 71
3
 72
11
 73
7
 74
0
 42
0.0000001
 43
0.0000001
 44
0.0000000001
 40
0.0
 40
0.0
 40
0.0
 40
0.0
 40
0.2500842198
 40
0.4999968718
 40
0.7499098916
 40
1.0
 40
1.0
 40
1.0
 40
1.0
 10
694.0549603663
 20
1067.2929638947
 30
0.0
 10
695.1739931701
 20
1067.2388088469
 30
0.0
 10
697.4599433626
 20
1066.2241953579
 30
0.0
 10
698.8195750294
 20
1062.7858555496
 30
0.0
 10
697.4508938977
 20
1059.3509695611
 30
0.0
 10
695.1620659809
 20
1058.3426567856
 30
0.0
 10
694.0428629893
 20
1058.2915592368
 30
0.0
  0
SPLINE
  5
31C
100
AcDbEntity
  8
0
100
AcDbSpline
 62
7
  6
CONTINUOUS
 70
0
 71
3
 72
11
 73
7
 74
0
 42
0.0000001
 43
0.0000001
 44
0.0000000001
 40
0.0
 40
0.0
 40
0.0
 40
0.0
 40
0.2500820594
 40
0.5000007836
 40
0.7499193625
 40
1.0
 40
1.0
 40
1.0
 40
1.0
 10
692.92030936
 20
1069.2245045
 30
0.0
 10
691.4237913547
 20
1069.0002682876
 30
0.0
 10
688.4929941431
 20
1067.4123682174
 30
0.0
 10
686.7982118188
 20
1062.7823357398
 30
0.0
 10
688.5061402985
 20
1058.1571907094
 30
0.0
 10
691.4414383051
 20
1056.5775433542
 30
0.0
 10
692.9385934153
 20
1056.3576603012
 30
0.0
  0
SPLINE
  5
31D
100
AcDbEntity
  8
0
100
AcDbSpline
 62
7
  6
CONTINUOUS
 70
0
 71
3
 72
11
 73
7
 74
0
 42
0.0000001
 43
0.0000001
 44
0.0000000001
 40
0.0
 40
0.0
 40
0.0
 40
0.0
 40
0.2500820594
 40
0.5000007836
 40
0.7499193625
 40
1.0
 40
1.0
 40
1.0
 40
1.0
 10
694.8098662967
 20
1056.3602462329
 30
0.0
 10
696.306384302
 20
1056.5844824453
 30
0.0
 10
699.2371815136
 20
1058.1723825155
 30
0.0
 10
700.931963838
 20
1062.8024149931
 30
0.0
 10
699.2240353583
 20
1067.4275600235
 30
0.0
 10
696.2887373517
 20
1069.0072073787
 30
0.0
 10
694.7915822415
 20
1069.2270904317
 30
0.0
  0
SPLINE
  5
31E
100
AcDbEntity
  8
0
100
AcDbSpline
 62
7
  6
CONTINUOUS
 70
0
 71
3
 72
8
 73
4
 74
0
 42
0.0000001
 43
0.0000001
 44
0.0000000001
 40
0.0
 40
0.0
 40
0.0
 40
0.0
 40
1.0
 40
1.0
 40
1.0
 40
1.0
 10
133.5650878284
 20
102.4923753666
 30
0.0
 10
133.4672839386
 20
102.1543893867
 30
0.0
 10
133.3700656634
 20
101.8160932187
 30
0.0
 10
133.2611417119
 20
101.481525294
 30
0.0
  0
SPLINE
  5
31F
100
AcDbEntity
  8
0
100
AcDbSpline
 62
7
  6
CONTINUOUS
 70
0
 71
3
 72
9
 73
5
 74
0
 42
0.0000001
 43
0.0000001
 44
0.0000000001
 40
0.0
 40
0.0
 40
0.0
 40
0.0
 40
0.2926012924
 40
1.0
 40
1.0
 40
1.0
 40
1.0
 10
133.2611417119
 20
101.481525294
 30
0.0
 10
133.2319788817
 20
101.3919495172
 30
0.0
 10
133.1283961038
 20
101.0875790407
 30
0.0
 10
133.0128237298
 20
100.7840229581
 30
0.0
 10
132.8984098345
 20
100.5870999364
 30
0.0
  0
SPLINE
  5
320
100
AcDbEntity
  8
0
100
AcDbSpline
 62
7
  6
CONTINUOUS
 70
0
 71
3
 72
9
 73
5
 74
0
 42
0.0000001
 43
0.0000001
 44
0.0000000001
 40
0.0
 40
0.0
 40
0.0
 40
0.0
 40
0.3355616917
 40
1.0
 40
1.0
 40
1.0
 40
1.0
 10
132.8984098345
 20
100.5870999364
 30
0.0
 10
132.8729638746
 20
100.5433037237
 30
0.0
 10
132.7949834077
 20
100.4203107041
 30
0.0
 10
132.6653823464
 20
100.2923753666
 30
0.0
 10
132.5650878284
 20
100.2923753666
 30
0.0
  0
SPLINE
  5
321
100
AcDbEntity
  8
0
100
AcDbSpline
 62
7
  6
CONTINUOUS
 70
0
 71
3
 72
11
 73
7
 74
0
 42
0.0000001
 43
0.0000001
 44
0.0000000001
 40
0.0
 40
0.0
 40
0.0
 40
0.0
 40
0.2500842198
 40
0.4999968718
 40
0.7499098916
 40
1.0
 40
1.0
 40
1.0
 40
1.0
 10
693.6752152905
 20
133.2917868382
 30
0.0
 10
692.5561824867
 20
133.345941886
 30
0.0
 10
690.2702322941
 20
134.360555375
 30
0.0
 10
688.9106006274
 20
137.7988951834
 30
0.0
 10
690.279281759
 20
141.2337811718
 30
0.0
 10
692.5681096759
 20
142.2420939473
 30
0.0
 10
693.6873126674
 20
142.2931914961
 30
0.0
  0
SPLINE
  5
322
100
AcDbEntity
  8
0
100
AcDbSpline
 62
7
  6
CONTINUOUS
 70
0
 71
3
 72
11
 73
7
 74
0
 42
0.0000001
 43
0.0000001
 44
0.0000000001
 40
0.0
 40
0.0
 40
0.0
 40
0.0
 40
0.2500842198
 40
0.4999968718
 40
0.7499098916
 40
1.0
 40
1.0
 40
1.0
 40
1.0
 10
694.0549603663
 20
142.2929638947
 30
0.0
 10
695.1739931701
 20
142.2388088469
 30
0.0
 10
697.4599433626
 20
141.2241953579
 30
0.0
 10
698.8195750294
 20
137.7858555496
 30
0.0
 10
697.4508938977
 20
134.3509695611
 30
0.0
 10
695.1620659809
 20
133.3426567856
 30
0.0
 10
694.0428629893
 20
133.2915592368
 30
0.0
  0
SPLINE
  5
323
100
AcDbEntity
  8
0
100
AcDbSpline
 62
7
  6
CONTINUOUS
 70
0
 71
3
 72
11
 73
7
 74
0
 42
0.0000001
 43
0.0000001
 44
0.0000000001
 40
0.0
 40
0.0
 40
0.0
 40
0.0
 40
0.2500820594
 40
0.5000007836
 40
0.7499193625
 40
1.0
 40
1.0
 40
1.0
 40
1.0
 10
692.92030936
 20
144.2245045
 30
0.0
 10
691.4237913547
 20
144.0002682876
 30
0.0
 10
688.4929941431
 20
142.4123682174
 30
0.0
 10
686.7982118188
 20
137.7823357398
 30
0.0
 10
688.5061402985
 20
133.1571907094
 30
0.0
 10
691.4414383051
 20
131.5775433542
 30
0.0
 10
692.9385934153
 20
131.3576603012
 30
0.0
  0
SPLINE
  5
324
100
AcDbEntity
  8
0
100
AcDbSpline
 62
7
  6
CONTINUOUS
 70
0
 71
3
 72
11
 73
7
 74
0
 42
0.0000001
 43
0.0000001
 44
0.0000000001
 40
0.0
 40
0.0
 40
0.0
 40
0.0
 40
0.2500820594
 40
0.5000007836
 40
0.7499193625
 40
1.0
 40
1.0
 40
1.0
 40
1.0
 10
694.8098662967
 20
131.3602462329
 30
0.0
 10
696.306384302
 20
131.5844824453
 30
0.0
 10
699.2371815136
 20
133.1723825155
 30
0.0
 10
700.931963838
 20
137.8024149931
 30
0.0
 10
699.2240353583
 20
142.4275600235
 30
0.0
 10
696.2887373517
 20
144.0072073787
 30
0.0
 10
694.7915822415
 20
144.2270904317
 30
0.0
  0
SPLINE
  5
325
100
AcDbEntity
  8
0
100
AcDbSpline
 62
7
  6
CONTINUOUS
 70
0
 71
3
 72
11
 73
7
 74
0
 42
0.0000001
 43
0.0000001
 44
0.0000000001
 40
0.0
 40
0.0
 40
0.0
 40
0.0
 40
0.2499962023
 40
0.5000134585
 40
0.7500177932
 40
1.0
 40
1.0
 40
1.0
 40
1.0
 10
710.0570932019
 20
133.7295051933
 30
0.0
 10
708.6763770352
 20
134.3329871625
 30
0.0
 10
705.5593309803
 20
134.858054741
 30
0.0
 10
701.1137544914
 20
133.3228556717
 30
0.0
 10
697.9182225755
 20
129.8656922923
 30
0.0
 10
697.1612691414
 20
126.8001757649
 30
0.0
 10
697.1517169222
 20
125.2934501244
 30
0.0
  0
SPLINE
  5
326
100
AcDbEntity
  8
0
100
AcDbSpline
 62
7
  6
CONTINUOUS
 70
0
 71
3
 72
11
 73
7
 74
0
 42
0.0000001
 43
0.0000001
 44
0.0000000001
 40
0.0
 40
0.0
 40
0.0
 40
0.0
 40
0.2499830574
 40
0.499984681
 40
0.7500053504
 40
1.0
 40
1.0
 40
1.0
 40
1.0
 10
697.1518997749
 20
1075.2901856881
 30
0.0
 10
697.1638287536
 20
1073.7835481854
 30
0.0
 10
697.917423294
 20
1070.7183575177
 30
0.0
 10
701.1140869458
 20
1067.2606968324
 30
0.0
 10
705.55943351
 20
1065.7281719957
 30
0.0
 10
708.6767992376
 20
1066.2505733095
 30
0.0
 10
710.0572865195
 20
1066.8543648893
 30
0.0
  0
ENDSEC
  0
SECTION
  2
OBJECTS
  0
DICTIONARY
  5
C
100
AcDbDictionary
280
0
281
1
  3
ACAD_GROUP
350
D
  3
ACAD_MLINESTYLE
350
17
  3
ACAD_LAYOUT
350
1A
  3
ACAD_PLOTSETTINGS
350
19
  3
ACAD_PLOTSTYLENAME
350
E
  0
DICTIONARY
  5
D
102
{ACAD_REACTORS
330
C
102
}
100
AcDbDictionary
280
0
281
1
  0
ACDBDICTIONARYWDFLT
  5
E
102
{ACAD_REACTORS
330
C
102
}
100
AcDbDictionary
281
1
  3
Normal
350
F
100
AcDbDictionaryWithDefault
340
F
  0
DICTIONARY
  5
17
102
{ACAD_REACTORS
330
C
102
}
100
AcDbDictionary
280
0
281
1
  3
Standard
350
18
  0
DICTIONARY
  5
19
102
{ACAD_REACTORS
330
C
102
}
100
AcDbDictionary
281
1
  0
DICTIONARY
  5
1A
102
{ACAD_REACTORS
330
C
102
}
100
AcDbDictionary
281
1
  3
Model
350
327
  3
Layout1
350
328
  0
ACDBPLACEHOLDER
  5
F
102
{ACAD_REACTORS
330
E
102
}
  0
MLINESTYLE
  5
18
102
{ACAD_REACTORS
330
17
102
}
100
AcDbMlineStyle
  2
STANDARD
 70
0
  3

 62
256
 51
90.0
 52
90.0
 71
2
 49
0.5
 62
256
  6
BYLAYER
 49
-0.5
 62
256
  6
BYLAYER
  0
LAYOUT
  5
327
102
{ACAD_REACTORS
330
1A
102
}
100
AcDbPlotSettings
  1

  2
none_device
  4

  6

 40
0.0
 41
0.0
 42
0.0
 43
0.0
 44
210.0
 45
297.0
 46
0.0
 47
0.0
 48
0.0
 49
0.0
140
0.0
141
0.0
142
1.0
143
1.0
 70
1024
 72
1
 73
0
 74
0
  7

 75
0
147
1.0
148
0.0
149
0.0
100
AcDbLayout
  1
Model
 70
0
 71
0
 10
0.0
 20
0.0
 11
210.0
 21
297.0
 12
0.0
 22
0.0
 32
0.0
 14
0.0
 24
0.0
 34
0.0
 15
0.0
 25
0.0
 35
0.0
146
0.0
 13
0.0
 23
0.0
 33
0.0
 16
1.0
 26
0.0
 36
0.0
 17
0.0
 27
1.0
 37
0.0
 76
0
330
210
345
0
346
0
  0
LAYOUT
  5
328
102
{ACAD_REACTORS
330
1A
102
}
100
AcDbPlotSettings
  1

  2
none_device
  4

  6

 40
0.0
 41
0.0
 42
0.0
 43
0.0
 44
210.0
 45
297.0
 46
0.0
 47
0.0
 48
0.0
 49
0.0
140
0.0
141
0.0
142
1.0
143
1.0
 70
0
 72
1
 73
0
 74
0
  7

 75
0
147
1.0
148
0.0
149
0.0
100
AcDbLayout
  1
Layout1
 70
0
 71
1
 10
0.0
 20
0.0
 11
210.0
 21
297.0
 12
0.0
 22
0.0
 32
0.0
 14
0.0
 24
0.0
 34
0.0
 15
0.0
 25
0.0
 35
0.0
146
0.0
 13
0.0
 23
0.0
 33
0.0
 16
1.0
 26
0.0
 36
0.0
 17
0.0
 27
1.0
 37
0.0
 76
0
330
211
345
0
346
0
  0
ENDSEC
  0
EOF
