999
DXF file: C:\Users\sesa63760\Dev\_Creo\CAD\MCADUE0003265_3D-CAD\drw0001_1.dxf
999
Pro/ENGINEER 2019471 by Parametric Technology Corporation
  0
SECTION
  2
HEADER
  9
$ACADVER
  1
AC1024
  9
$DWGCODEPAGE
  3
ANSI_1252
  9
$EXTMAX
 10
431.3905573759
 20
610.1095025745
 30
0.0
  9
$EXTMIN
 10
0.0
 20
0.0
 30
0.0
  9
$LIMMIN
 10
0.0
 20
0.0
  9
$LIMMAX
 10
431.3905573759
 20
610.1095025745
  9
$VIEWCTR
 10
215.695278688
 20
305.0547512872
  9
$VIEWSIZE
 40
610.1095025745
  9
$CLAYER
  8
0
  9
$LTSCALE
 40
39.7701009086
  9
$CELTYPE
  6
BYLAYER
  9
$DIMSCALE
 40
1.0
  9
$DIMASZ
 40
5.1356018735
  9
$DIMEXO
 40
1.0
  9
$DIMDLI
 40
27.4775242641
  9
$DIMEXE
 40
1.0
  9
$DIMCEN
 40
6.5078346941
  9
$DIMLFAC
 40
1.0
  9
$DIMBLK
  1
_FILLED
  9
$DIMALT
 70
0
  9
$DIMALTF
 40
0.0393700787
  9
$DIMTXT
 40
7.1898426229
  9
$DIMTOL
 70
1
  9
$DIMLIM
 70
0
  9
$DIMTFAC
 40
1.0
  9
$DIMTP
 40
0.01
  9
$DIMTM
 40
0.01
  9
$DIMGAP
 40
0.625
  9
$DIMDSEP
 70
46
  9
$AUNITS
 70
0
  9
$PDMODE
 70
3
  9
$PDSIZE
 40
0.3125
  9
$HANDSEED
  5
2B7
  9
$TILEMODE
 70
1
  9
$MEASUREMENT
 70
1
  9
$INSUNITS
 70
4
  0
ENDSEC
  0
SECTION
  2
CLASSES
  0
CLASS
  1
ACDBDICTIONARYWDFLT
  2
AcDbDictionaryWithDefault
  3
AutoCAD 2000
 90
0
 91
1
280
0
281
0
  0
CLASS
  1
ACDBPLACEHOLDER
  2
AcDbPlaceHolder
  3
AutoCAD 2000
 90
0
 91
1
280
0
281
0
  0
CLASS
  1
LAYOUT
  2
AcDbLayout
  3
AutoCAD 2000
 90
0
 91
0
280
0
281
0
  0
ENDSEC
  0
SECTION
  2
TABLES
  0
TABLE
  2
VPORT
  5
8
100
AcDbSymbolTable
 70
2
  0
VPORT
  5
1F4
100
AcDbSymbolTableRecord
100
AcDbViewportTableRecord
  2
*ACTIVE
 70
0
 10
0.0
 20
0.0
 11
1.0
 21
1.0
 12
215.695278688
 22
305.0547512872
 13
0.0
 23
0.0
 14
1.0
 24
1.0
 15
0.0
 25
0.0
 16
0.0
 26
0.0
 36
1.0
 17
0.0
 27
0.0
 37
0.0
 40
610.1095025745
 41
0.7070707071
 42
50.0
 43
0.0
 44
0.0
 50
0.0
 51
0.0
 71
0
 72
100
 73
1
 74
1
 75
0
 76
0
 77
0
 78
0
  0
ENDTAB
  0
TABLE
  2
LTYPE
  5
5
100
AcDbSymbolTable
 70
6
  0
LTYPE
  5
14
100
AcDbSymbolTableRecord
100
AcDbLinetypeTableRecord
  2
BYBLOCK
 70
0
  3

 72
65
 73
0
 40
0.0
  0
LTYPE
  5
15
100
AcDbSymbolTableRecord
100
AcDbLinetypeTableRecord
  2
BYLAYER
 70
0
  3

 72
65
 73
0
 40
0.0
  0
LTYPE
  5
16
100
AcDbSymbolTableRecord
100
AcDbLinetypeTableRecord
  2
CONTINUOUS
 70
64
  3
Solid line
 72
65
 73
0
 40
0.0
  0
LTYPE
  5
1F5
100
AcDbSymbolTableRecord
100
AcDbLinetypeTableRecord
  2
CENTER
 70
64
  3
____ _ ____ _ ____ _ ____ _ ____ _ ____ _ ____
 72
65
 73
4
 40
0.6
 49
0.375
 74
0
 49
-0.075
 74
0
 49
0.075
 74
0
 49
-0.075
 74
0
  0
LTYPE
  5
1F6
100
AcDbSymbolTableRecord
100
AcDbLinetypeTableRecord
  2
HIDDEN
 70
64
  3
- - - - - - - - - - - - - - - - - - - -
 72
65
 73
2
 40
0.2
 49
0.1
 74
0
 49
-0.1
 74
0
  0
LTYPE
  5
1F7
100
AcDbSymbolTableRecord
100
AcDbLinetypeTableRecord
  2
PHANTOM
 70
64
  3
_____ _ _ _____ _ _ _____ _ _ _____
 72
65
 73
6
 40
0.8
 49
0.45
 74
0
 49
-0.05
 74
0
 49
0.1
 74
0
 49
-0.05
 74
0
 49
0.1
 74
0
 49
-0.05
 74
0
  0
LTYPE
  5
1F8
100
AcDbSymbolTableRecord
100
AcDbLinetypeTableRecord
  2
DOT
 70
64
  3
. . . . . . . . . . . . . . . . . . . .
 72
65
 73
2
 40
0.2
 49
0.1
 74
0
 49
-0.1
 74
0
  0
LTYPE
  5
1F9
100
AcDbSymbolTableRecord
100
AcDbLinetypeTableRecord
  2
DASHED
 70
64
  3
- - - - - - - - - - - - - - - - - - - -
 72
65
 73
2
 40
0.2
 49
0.1
 74
0
 49
-0.1
 74
0
  0
ENDTAB
  0
TABLE
  2
LAYER
  5
2
100
AcDbSymbolTable
 70
36
  0
LAYER
  5
10
100
AcDbSymbolTableRecord
100
AcDbLayerTableRecord
  2
0
 70
0
 62
7
  6
CONTINUOUS
370
-3
390
F
  0
LAYER
  5
1FA
100
AcDbSymbolTableRecord
100
AcDbLayerTableRecord
  2
DEFAULT_1
 70
0
 62
7
  6
CENTER
370
-3
390
F
  0
LAYER
  5
1FB
100
AcDbSymbolTableRecord
100
AcDbLayerTableRecord
  2
DEFAULT_2
 70
0
 62
8
  6
HIDDEN
370
-3
390
F
  0
LAYER
  5
1FC
100
AcDbSymbolTableRecord
100
AcDbLayerTableRecord
  2
DEFAULT_3
 70
0
 62
7
  6
PHANTOM
370
-3
390
F
  0
LAYER
  5
1FD
100
AcDbSymbolTableRecord
100
AcDbLayerTableRecord
  2
00_COMPONENTS
 70
0
 62
7
  6
CONTINUOUS
370
-3
390
F
  0
LAYER
  5
1FE
100
AcDbSymbolTableRecord
100
AcDbLayerTableRecord
  2
01_1_DEFAULT_DATUMS
 70
0
 62
7
  6
CONTINUOUS
370
-3
390
F
  0
LAYER
  5
1FF
100
AcDbSymbolTableRecord
100
AcDbLayerTableRecord
  2
01_PLANES
 70
0
 62
7
  6
CONTINUOUS
370
-3
390
F
  0
LAYER
  5
200
100
AcDbSymbolTableRecord
100
AcDbLayerTableRecord
  2
02_COORD_SYS
 70
0
 62
7
  6
CONTINUOUS
370
-3
390
F
  0
LAYER
  5
201
100
AcDbSymbolTableRecord
100
AcDbLayerTableRecord
  2
03_AXES
 70
0
 62
7
  6
CONTINUOUS
370
-3
390
F
  0
LAYER
  5
202
100
AcDbSymbolTableRecord
100
AcDbLayerTableRecord
  2
04_POINTS
 70
0
 62
7
  6
CONTINUOUS
370
-3
390
F
  0
LAYER
  5
203
100
AcDbSymbolTableRecord
100
AcDbLayerTableRecord
  2
05_CURVES
 70
0
 62
7
  6
CONTINUOUS
370
-3
390
F
  0
LAYER
  5
204
100
AcDbSymbolTableRecord
100
AcDbLayerTableRecord
  2
06_SURFS
 70
0
 62
7
  6
CONTINUOUS
370
-3
390
F
  0
LAYER
  5
205
100
AcDbSymbolTableRecord
100
AcDbLayerTableRecord
  2
07_COSMETICS
 70
0
 62
7
  6
CONTINUOUS
370
-3
390
F
  0
LAYER
  5
206
100
AcDbSymbolTableRecord
100
AcDbLayerTableRecord
  2
10_NOTES
 70
0
 62
7
  6
CONTINUOUS
370
-3
390
F
  0
LAYER
  5
207
100
AcDbSymbolTableRecord
100
AcDbLayerTableRecord
  2
11_NOTES_PUB
 70
0
 62
7
  6
CONTINUOUS
370
-3
390
F
  0
LAYER
  5
208
100
AcDbSymbolTableRecord
100
AcDbLayerTableRecord
  2
13_REF_GTOL
 70
0
 62
7
  6
CONTINUOUS
370
-3
390
F
  0
LAYER
  5
209
100
AcDbSymbolTableRecord
100
AcDbLayerTableRecord
  2
16_MISC
 70
0
 62
7
  6
CONTINUOUS
370
-3
390
F
  0
LAYER
  5
20A
100
AcDbSymbolTableRecord
100
AcDbLayerTableRecord
  2
17_NO_PRINT
 70
0
 62
7
  6
CONTINUOUS
370
-3
390
F
  0
LAYER
  5
20B
100
AcDbSymbolTableRecord
100
AcDbLayerTableRecord
  2
18_DATUM_CAMS_JOINTS
 70
0
 62
7
  6
CONTINUOUS
370
-3
390
F
  0
LAYER
  5
20C
100
AcDbSymbolTableRecord
100
AcDbLayerTableRecord
  2
19_DATUM_FUNCTIONAL
 70
0
 62
7
  6
CONTINUOUS
370
-3
390
F
  0
LAYER
  5
20D
100
AcDbSymbolTableRecord
100
AcDbLayerTableRecord
  2
20_DATUM_KINEMATIC_SCHEME
 70
0
 62
7
  6
CONTINUOUS
370
-3
390
F
  0
ENDTAB
  0
TABLE
  2
STYLE
  5
3
100
AcDbSymbolTable
 70
1
  0
STYLE
  5
11
100
AcDbSymbolTableRecord
100
AcDbTextStyleTableRecord
  2
STANDARD
 70
0
 40
0.0
 41
0.8
 50
0.0
 71
0
 42
0.2
  3
txt
  4

  0
STYLE
  5
20E
100
AcDbSymbolTableRecord
100
AcDbTextStyleTableRecord
  2
TEXTSTYLE_1
 70
0
 40
0.0
 41
0.8
 50
0.0
 71
0
 42
0.2
  3
gdt
  4

  0
ENDTAB
  0
TABLE
  2
VIEW
  5
6
100
AcDbSymbolTable
 70
0
  0
ENDTAB
  0
TABLE
  2
UCS
  5
7
100
AcDbSymbolTable
 70
0
  0
ENDTAB
  0
TABLE
  2
APPID
  5
9
100
AcDbSymbolTable
 70
1
  0
APPID
  5
20F
100
AcDbSymbolTableRecord
100
AcDbRegAppTableRecord
  2
ACAD
 70
0
  0
ENDTAB
  0
TABLE
  2
BLOCK_RECORD
  5
1
100
AcDbSymbolTable
 70
0
  0
BLOCK_RECORD
  5
210
100
AcDbSymbolTableRecord
100
AcDbBlockTableRecord
  2
*Model_Space
  0
BLOCK_RECORD
  5
211
100
AcDbSymbolTableRecord
100
AcDbBlockTableRecord
  2
*Paper_Space
  0
BLOCK_RECORD
  5
212
100
AcDbSymbolTableRecord
100
AcDbBlockTableRecord
  2
_FILLED
  0
ENDTAB
  0
TABLE
  2
DIMSTYLE
  5
A
100
AcDbSymbolTable
 70
1
100
AcDbDimStyleTable
 71
0
  0
DIMSTYLE
105
213
100
AcDbSymbolTableRecord
100
AcDbDimStyleTableRecord
  2
STANDARD
 70
0
  3

  4

 40
1.0
 41
5.1356018735
 42
1.0
 43
0.38
 44
1.0
 45
0.0
 46
0.0
 47
0.01
 48
0.01
140
7.1898426229
141
0.09
142
0.0
143
25.4
144
1.0
145
0.0
146
1.0
147
0.625
 71
1
 72
0
 73
0
 74
0
 75
0
 76
0
 77
1
 78
8
 79
2
170
0
171
1
172
0
173
0
174
0
175
0
176
0
177
0
178
0
270
2
179
2
271
2
272
2
273
2
274
2
275
0
280
0
281
0
282
0
283
1
284
8
285
0
286
0
287
3
288
0
340
11
278
46
341
212
342
212
343
212
344
212
  0
ENDTAB
  0
ENDSEC
  0
SECTION
  2
BLOCKS
  0
BLOCK
  5
20
100
AcDbEntity
  8
0
100
AcDbBlockBegin
  2
*Model_Space
 70
0
 10
0.0
 20
0.0
 30
0.0
  3
*Model_Space
  1

  0
ENDBLK
  5
21
100
AcDbEntity
  8
0
100
AcDbBlockEnd
  0
BLOCK
  5
1C
100
AcDbEntity
  8
0
100
AcDbBlockBegin
  2
*Paper_Space
 70
0
 10
0.0
 20
0.0
 30
0.0
  3
*Paper_Space
  1

  0
ENDBLK
  5
1D
100
AcDbEntity
  8
0
100
AcDbBlockEnd
  0
BLOCK
  5
214
100
AcDbEntity
  8
0
100
AcDbBlockBegin
  2
_FILLED
 70
64
 10
0.0
 20
0.0
  3
_FILLED
  1

  0
SOLID
  5
215
100
AcDbEntity
  8
0
  6
BYBLOCK
 62
0
100
AcDbTrace
 10
0.0
 20
0.0
 11
-1.0
 21
0.25
 12
-1.0
 22
-0.25
 13
-1.0
 23
-0.25
  0
ENDBLK
  5
216
100
AcDbEntity
  8
0
  6
BYBLOCK
 62
0
100
AcDbBlockEnd
  0
ENDSEC
  0
SECTION
  2
ENTITIES
  0
LINE
  5
217
100
AcDbEntity
  8
0
100
AcDbLine
 62
7
  6
CONTINUOUS
 10
50.6676038126
 20
429.2372303001
 11
52.7889153242
 21
430.4619627617
  0
LINE
  5
218
100
AcDbEntity
  8
0
100
AcDbLine
 62
7
  6
CONTINUOUS
 10
54.2889086089
 20
430.3133899246
 11
52.1675970973
 21
429.088657463
  0
LINE
  5
219
100
AcDbEntity
  8
0
100
AcDbLine
 62
7
  6
CONTINUOUS
 10
50.0462679218
 20
427.8638724752
 11
50.0462679218
 21
376.424220196
  0
LINE
  5
21A
100
AcDbEntity
  8
0
100
AcDbLine
 62
7
  6
CONTINUOUS
 10
58.4608559873
 20
411.0848196801
 11
56.3395444757
 21
409.8600872185
  0
LINE
  5
21B
100
AcDbEntity
  8
0
100
AcDbLine
 62
7
  6
CONTINUOUS
 10
59.9459336084
 20
409.0848484301
 11
73.3809065155
 21
416.8414873536
  0
LINE
  5
21C
100
AcDbEntity
  8
0
100
AcDbLine
 62
7
  6
CONTINUOUS
 10
77.2595925246
 20
416.6313271466
 11
77.6235295388
 21
416.8414450255
  0
LINE
  5
21D
100
AcDbEntity
  8
0
100
AcDbLine
 62
7
  6
CONTINUOUS
 10
56.3395444757
 20
387.1613200223
 11
56.3395444757
 21
409.8600872185
  0
LINE
  5
21E
100
AcDbEntity
  8
0
100
AcDbLine
 62
7
  6
CONTINUOUS
 10
58.4608559873
 20
388.3860524839
 11
58.4608559873
 21
411.0848196801
  0
LINE
  5
21F
100
AcDbEntity
  8
0
100
AcDbLine
 62
7
  6
CONTINUOUS
 10
59.0672627839
 20
349.0719521332
 11
59.0672627839
 21
346.6224448818
  0
LINE
  5
220
100
AcDbEntity
  8
0
100
AcDbLine
 62
7
  6
CONTINUOUS
 10
59.0672627839
 20
405.4106189151
 11
59.0672627839
 21
407.8601261665
  0
LINE
  5
221
100
AcDbEntity
  8
0
100
AcDbLine
 62
7
  6
CONTINUOUS
 10
59.9459512722
 20
406.6353937049
 11
59.9459512722
 21
404.1858864535
  0
LINE
  5
222
100
AcDbEntity
  8
0
100
AcDbLine
 62
7
  6
CONTINUOUS
 10
59.9459512722
 20
347.8472196716
 11
59.9459512722
 21
345.3977124202
  0
LINE
  5
223
100
AcDbEntity
  8
0
100
AcDbLine
 62
7
  6
CONTINUOUS
 10
61.4307344967
 20
403.3286658521
 11
61.4307344967
 21
384.2219865897
  0
LINE
  5
224
100
AcDbEntity
  8
0
100
AcDbLine
 62
7
  6
CONTINUOUS
 10
77.6235295388
 20
416.4212127669
 11
77.6235295388
 21
416.8414450255
  0
LINE
  5
225
100
AcDbEntity
  8
0
100
AcDbLine
 62
7
  6
CONTINUOUS
 10
56.3395444757
 20
387.1613200223
 11
58.4608559873
 21
388.3860524839
  0
LINE
  5
226
100
AcDbEntity
  8
0
100
AcDbLine
 62
7
  6
CONTINUOUS
 10
99.5439486821
 20
368.6681790164
 11
99.5439486821
 21
378.466208022
  0
LINE
  5
227
100
AcDbEntity
  8
0
100
AcDbLine
 62
7
  6
CONTINUOUS
 10
101.6652601938
 20
369.892911478
 11
101.6652601938
 21
377.2414959564
  0
LINE
  5
228
100
AcDbEntity
  8
0
100
AcDbLine
 62
7
  6
CONTINUOUS
 10
73.3809065155
 20
358.0533133203
 11
59.9459336084
 21
350.2966743967
  0
LINE
  5
229
100
AcDbEntity
  8
0
100
AcDbLine
 62
7
  6
CONTINUOUS
 10
99.5439486821
 20
368.6681790164
 11
101.6652601938
 21
369.892911478
  0
LINE
  5
22A
100
AcDbEntity
  8
0
100
AcDbLine
 62
7
  6
CONTINUOUS
 10
124.2927890623
 20
364.1777816137
 11
124.2927890623
 21
354.3797526082
  0
LINE
  5
22B
100
AcDbEntity
  8
0
100
AcDbLine
 62
7
  6
CONTINUOUS
 10
134.8994349395
 20
348.2561412904
 11
134.8994349395
 21
358.0541702959
  0
LINE
  5
22C
100
AcDbEntity
  8
0
100
AcDbLine
 62
7
  6
CONTINUOUS
 10
137.0207464511
 20
349.480873752
 11
137.0207464511
 21
356.8294582304
  0
LINE
  5
22D
100
AcDbEntity
  8
0
100
AcDbLine
 62
7
  6
CONTINUOUS
 10
134.8994349395
 20
348.2561412904
 11
137.0207464511
 21
349.480873752
  0
LINE
  5
22E
100
AcDbEntity
  8
0
100
AcDbLine
 62
7
  6
CONTINUOUS
 10
159.6482753196
 20
343.7657438877
 11
159.6482753196
 21
333.9677148822
  0
LINE
  5
22F
100
AcDbEntity
  8
0
100
AcDbLine
 62
7
  6
CONTINUOUS
 10
170.2549211968
 20
327.8441035644
 11
170.2549211968
 21
337.6421325699
  0
LINE
  5
230
100
AcDbEntity
  8
0
100
AcDbLine
 62
7
  6
CONTINUOUS
 10
172.3762327085
 20
329.068836026
 11
172.3762327085
 21
336.4174205043
  0
LINE
  5
231
100
AcDbEntity
  8
0
100
AcDbLine
 62
7
  6
CONTINUOUS
 10
170.2549211968
 20
327.8441035644
 11
172.3762327085
 21
329.068836026
  0
LINE
  5
232
100
AcDbEntity
  8
0
100
AcDbLine
 62
7
  6
CONTINUOUS
 10
340.6685121556
 20
183.3261328756
 11
59.9459512722
 21
345.3977124202
  0
LINE
  5
233
100
AcDbEntity
  8
0
100
AcDbLine
 62
7
  6
CONTINUOUS
 10
340.6685121556
 20
185.775640127
 11
59.9459512722
 21
347.8472196716
  0
LINE
  5
234
100
AcDbEntity
  8
0
100
AcDbLine
 62
7
  6
CONTINUOUS
 10
358.3461257497
 20
193.5322892486
 11
73.3809065155
 21
358.0533133203
  0
LINE
  5
235
100
AcDbEntity
  8
0
100
AcDbLine
 62
7
  6
CONTINUOUS
 10
195.003761577
 20
323.3537061617
 11
195.003761577
 21
313.5556771562
  0
LINE
  5
236
100
AcDbEntity
  8
0
100
AcDbLine
 62
7
  6
CONTINUOUS
 10
205.6104074542
 20
307.4320658384
 11
205.6104074542
 21
317.2300948439
  0
LINE
  5
237
100
AcDbEntity
  8
0
100
AcDbLine
 62
7
  6
CONTINUOUS
 10
52.1675970973
 20
372.7499906811
 11
74.8625282594
 21
359.6473624864
  0
LINE
  5
238
100
AcDbEntity
  8
0
100
AcDbLine
 62
7
  6
CONTINUOUS
 10
360.4674372614
 20
194.7570217102
 11
383.8020581912
 21
181.285076811
  0
LINE
  5
239
100
AcDbEntity
  8
0
100
AcDbLine
 62
7
  6
CONTINUOUS
 10
75.5022180271
 20
361.7275530333
 11
360.4674372614
 21
197.2065289616
  0
LINE
  5
23A
100
AcDbEntity
  8
0
100
AcDbLine
 62
7
  6
CONTINUOUS
 10
207.7317189658
 20
308.6567983
 11
207.7317189658
 21
316.0053827783
  0
LINE
  5
23B
100
AcDbEntity
  8
0
100
AcDbLine
 62
7
  6
CONTINUOUS
 10
205.6104074542
 20
307.4320658384
 11
207.7317189658
 21
308.6567983
  0
LINE
  5
23C
100
AcDbEntity
  8
0
100
AcDbLine
 62
7
  6
CONTINUOUS
 10
336.4257066064
 20
231.9075262521
 11
311.6768662262
 21
246.1959526603
  0
LINE
  5
23D
100
AcDbEntity
  8
0
100
AcDbLine
 62
7
  6
CONTINUOUS
 10
301.070220349
 20
252.3195639781
 11
276.3213799689
 21
266.6079903863
  0
LINE
  5
23E
100
AcDbEntity
  8
0
100
AcDbLine
 62
7
  6
CONTINUOUS
 10
265.7147340917
 20
272.7316017041
 11
240.9658937115
 21
287.0200281123
  0
LINE
  5
23F
100
AcDbEntity
  8
0
100
AcDbLine
 62
7
  6
CONTINUOUS
 10
230.3592478343
 20
293.1436394301
 11
205.6104074542
 21
307.4320658384
  0
LINE
  5
240
100
AcDbEntity
  8
0
100
AcDbLine
 62
7
  6
CONTINUOUS
 10
195.003761577
 20
313.5556771562
 11
170.2549211968
 21
327.8441035644
  0
LINE
  5
241
100
AcDbEntity
  8
0
100
AcDbLine
 62
7
  6
CONTINUOUS
 10
159.6482753196
 20
333.9677148822
 11
134.8994349395
 21
348.2561412904
  0
LINE
  5
242
100
AcDbEntity
  8
0
100
AcDbLine
 62
7
  6
CONTINUOUS
 10
124.2927890623
 20
354.3797526082
 11
99.5439486821
 21
368.6681790164
  0
LINE
  5
243
100
AcDbEntity
  8
0
100
AcDbLine
 62
7
  6
CONTINUOUS
 10
336.4257066064
 20
234.3569707793
 11
313.7981777379
 21
247.4206851219
  0
LINE
  5
244
100
AcDbEntity
  8
0
100
AcDbLine
 62
7
  6
CONTINUOUS
 10
301.070220349
 20
254.7690085053
 11
278.4426914805
 21
267.8327228479
  0
LINE
  5
245
100
AcDbEntity
  8
0
100
AcDbLine
 62
7
  6
CONTINUOUS
 10
265.7147340917
 20
275.1810462313
 11
243.0872052232
 21
288.244760574
  0
LINE
  5
246
100
AcDbEntity
  8
0
100
AcDbLine
 62
7
  6
CONTINUOUS
 10
230.3592478343
 20
295.5930839574
 11
207.7317189658
 21
308.6567983
  0
LINE
  5
247
100
AcDbEntity
  8
0
100
AcDbLine
 62
7
  6
CONTINUOUS
 10
195.003761577
 20
316.0051216834
 11
172.3762327085
 21
329.068836026
  0
LINE
  5
248
100
AcDbEntity
  8
0
100
AcDbLine
 62
7
  6
CONTINUOUS
 10
159.6482753196
 20
336.4171594094
 11
137.0207464511
 21
349.480873752
  0
LINE
  5
249
100
AcDbEntity
  8
0
100
AcDbLine
 62
7
  6
CONTINUOUS
 10
124.2927890623
 20
356.8291971354
 11
101.6652601938
 21
369.892911478
  0
LINE
  5
24A
100
AcDbEntity
  8
0
100
AcDbLine
 62
7
  6
CONTINUOUS
 10
230.3592478343
 20
302.9416684357
 11
230.3592478343
 21
293.1436394301
  0
LINE
  5
24B
100
AcDbEntity
  8
0
100
AcDbLine
 62
7
  6
CONTINUOUS
 10
99.5439486821
 20
378.466208022
 11
124.2927890623
 21
364.1777816137
  0
LINE
  5
24C
100
AcDbEntity
  8
0
100
AcDbLine
 62
7
  6
CONTINUOUS
 10
134.8994349395
 20
358.0541702959
 11
159.6482753196
 21
343.7657438877
  0
LINE
  5
24D
100
AcDbEntity
  8
0
100
AcDbLine
 62
7
  6
CONTINUOUS
 10
170.2549211968
 20
337.6421325699
 11
195.003761577
 21
323.3537061617
  0
LINE
  5
24E
100
AcDbEntity
  8
0
100
AcDbLine
 62
7
  6
CONTINUOUS
 10
205.6104074542
 20
317.2300948439
 11
230.3592478343
 21
302.9416684357
  0
LINE
  5
24F
100
AcDbEntity
  8
0
100
AcDbLine
 62
7
  6
CONTINUOUS
 10
240.9658937115
 20
296.8180571179
 11
265.7147340917
 21
282.5296307097
  0
LINE
  5
250
100
AcDbEntity
  8
0
100
AcDbLine
 62
7
  6
CONTINUOUS
 10
276.3213799689
 20
276.4060193919
 11
301.070220349
 21
262.1175929837
  0
LINE
  5
251
100
AcDbEntity
  8
0
100
AcDbLine
 62
7
  6
CONTINUOUS
 10
311.6768662262
 20
255.9939816659
 11
336.4257066064
 21
241.7055552577
  0
LINE
  5
252
100
AcDbEntity
  8
0
100
AcDbLine
 62
7
  6
CONTINUOUS
 10
340.6685121556
 20
242.1143069089
 11
59.9459512722
 21
404.1858864535
  0
LINE
  5
253
100
AcDbEntity
  8
0
100
AcDbLine
 62
7
  6
CONTINUOUS
 10
340.6685121556
 20
244.5638141603
 11
59.9459512722
 21
406.6353937049
  0
LINE
  5
254
100
AcDbEntity
  8
0
100
AcDbLine
 62
7
  6
CONTINUOUS
 10
240.9658937115
 20
287.0200281123
 11
240.9658937115
 21
296.8180571179
  0
LINE
  5
255
100
AcDbEntity
  8
0
100
AcDbLine
 62
7
  6
CONTINUOUS
 10
243.0872052232
 20
288.244760574
 11
243.0872052232
 21
295.5933450523
  0
LINE
  5
256
100
AcDbEntity
  8
0
100
AcDbLine
 62
7
  6
CONTINUOUS
 10
240.9658937115
 20
287.0200281123
 11
243.0872052232
 21
288.244760574
  0
LINE
  5
257
100
AcDbEntity
  8
0
100
AcDbLine
 62
7
  6
CONTINUOUS
 10
360.4674372614
 20
248.6461812408
 11
358.3460985897
 21
249.8709089869
  0
LINE
  5
258
100
AcDbEntity
  8
0
100
AcDbLine
 62
7
  6
CONTINUOUS
 10
383.8020581912
 20
237.623743593
 11
360.4674372614
 21
251.0956884922
  0
LINE
  5
259
100
AcDbEntity
  8
0
100
AcDbLine
 62
7
  6
CONTINUOUS
 10
358.3461257497
 20
252.3204632819
 11
52.1675970973
 21
429.088657463
  0
LINE
  5
25A
100
AcDbEntity
  8
0
100
AcDbLine
 62
7
  6
CONTINUOUS
 10
76.3808556144
 20
417.138654661
 11
361.3460748486
 21
252.6176305893
  0
LINE
  5
25B
100
AcDbEntity
  8
0
100
AcDbLine
 62
7
  6
CONTINUOUS
 10
385.9233697029
 20
238.8484760546
 11
362.588748773
 21
252.3204209538
  0
LINE
  5
25C
100
AcDbEntity
  8
0
100
AcDbLine
 62
7
  6
CONTINUOUS
 10
77.6235295388
 20
416.8414450255
 11
54.2889086089
 21
430.3133899246
  0
LINE
  5
25D
100
AcDbEntity
  8
0
100
AcDbLine
 62
7
  6
CONTINUOUS
 10
265.7147340917
 20
282.5296307097
 11
265.7147340917
 21
272.7316017041
  0
LINE
  5
25E
100
AcDbEntity
  8
0
100
AcDbLine
 62
7
  6
CONTINUOUS
 10
276.3213799689
 20
266.6079903863
 11
276.3213799689
 21
276.4060193919
  0
LINE
  5
25F
100
AcDbEntity
  8
0
100
AcDbLine
 62
7
  6
CONTINUOUS
 10
278.4426914805
 20
267.8327228479
 11
278.4426914805
 21
275.1813073263
  0
LINE
  5
260
100
AcDbEntity
  8
0
100
AcDbLine
 62
7
  6
CONTINUOUS
 10
276.3213799689
 20
266.6079903863
 11
278.4426914805
 21
267.8327228479
  0
LINE
  5
261
100
AcDbEntity
  8
0
100
AcDbLine
 62
7
  6
CONTINUOUS
 10
301.070220349
 20
262.1175929837
 11
301.070220349
 21
252.3195639781
  0
LINE
  5
262
100
AcDbEntity
  8
0
100
AcDbLine
 62
7
  6
CONTINUOUS
 10
311.6768662262
 20
246.1959526603
 11
311.6768662262
 21
255.9939816659
  0
LINE
  5
263
100
AcDbEntity
  8
0
100
AcDbLine
 62
7
  6
CONTINUOUS
 10
313.7981777379
 20
247.4206851219
 11
313.7981777379
 21
254.7692696003
  0
LINE
  5
264
100
AcDbEntity
  8
0
100
AcDbLine
 62
7
  6
CONTINUOUS
 10
311.6768662262
 20
246.1959526603
 11
313.7981777379
 21
247.4206851219
  0
LINE
  5
265
100
AcDbEntity
  8
0
100
AcDbLine
 62
7
  6
CONTINUOUS
 10
336.4257066064
 20
241.7055552577
 11
336.4257066064
 21
231.9075262521
  0
LINE
  5
266
100
AcDbEntity
  8
0
100
AcDbLine
 62
7
  6
CONTINUOUS
 10
340.6685121556
 20
183.3261328756
 11
340.6685121556
 21
185.775640127
  0
LINE
  5
267
100
AcDbEntity
  8
0
100
AcDbLine
 62
7
  6
CONTINUOUS
 10
340.6685121556
 20
242.1143069089
 11
340.6685121556
 21
244.5638141603
  0
LINE
  5
268
100
AcDbEntity
  8
0
100
AcDbLine
 62
7
  6
CONTINUOUS
 10
344.9111528427
 20
244.5638243584
 11
344.9111528427
 21
242.114317107
  0
LINE
  5
269
100
AcDbEntity
  8
0
100
AcDbLine
 62
7
  6
CONTINUOUS
 10
344.9111528427
 20
185.775650325
 11
344.9111528427
 21
183.3261430737
  0
LINE
  5
26A
100
AcDbEntity
  8
0
100
AcDbLine
 62
7
  6
CONTINUOUS
 10
344.9111528427
 20
244.5638243584
 11
358.3461257497
 21
252.3204632819
  0
LINE
  5
26B
100
AcDbEntity
  8
0
100
AcDbLine
 62
7
  6
CONTINUOUS
 10
344.9111528427
 20
242.114317107
 11
358.3461257497
 21
249.8709560305
  0
LINE
  5
26C
100
AcDbEntity
  8
0
100
AcDbLine
 62
7
  6
CONTINUOUS
 10
360.4674372614
 20
251.0956884922
 11
362.588748773
 21
252.3204209538
  0
LINE
  5
26D
100
AcDbEntity
  8
0
100
AcDbLine
 62
7
  6
CONTINUOUS
 10
360.4674372614
 20
251.0956884922
 11
360.4674372614
 21
248.6461812408
  0
LINE
  5
26E
100
AcDbEntity
  8
0
100
AcDbLine
 62
7
  6
CONTINUOUS
 10
360.4674372614
 20
197.2065289616
 11
360.4674372614
 21
194.7570217102
  0
LINE
  5
26F
100
AcDbEntity
  8
0
100
AcDbLine
 62
7
  6
CONTINUOUS
 10
383.8020581912
 20
237.623743593
 11
385.9233697029
 21
238.8484760546
  0
LINE
  5
270
100
AcDbEntity
  8
0
100
AcDbLine
 62
7
  6
CONTINUOUS
 10
374.5389207918
 20
203.4529804881
 11
374.5389207918
 21
226.1517476843
  0
LINE
  5
271
100
AcDbEntity
  8
0
100
AcDbLine
 62
7
  6
CONTINUOUS
 10
388.0446988783
 20
235.1742465397
 11
385.9233873667
 21
233.949514078
  0
LINE
  5
272
100
AcDbEntity
  8
0
100
AcDbLine
 62
7
  6
CONTINUOUS
 10
376.6602323034
 20
227.376480146
 11
374.5389207918
 21
226.1517476843
  0
LINE
  5
273
100
AcDbEntity
  8
0
100
AcDbLine
 62
7
  6
CONTINUOUS
 10
376.6602323034
 20
204.6777129497
 11
376.6602323034
 21
227.376480146
  0
LINE
  5
274
100
AcDbEntity
  8
0
100
AcDbLine
 62
7
  6
CONTINUOUS
 10
379.6301108129
 20
223.2124142518
 11
379.6301108129
 21
200.5136470556
  0
LINE
  5
275
100
AcDbEntity
  8
0
100
AcDbLine
 62
7
  6
CONTINUOUS
 10
385.9233873667
 20
182.5098617989
 11
385.9233873667
 21
233.949514078
  0
LINE
  5
276
100
AcDbEntity
  8
0
100
AcDbLine
 62
7
  6
CONTINUOUS
 10
388.0446988783
 20
183.7345942605
 11
388.0446988783
 21
235.1742465397
  0
LINE
  5
277
100
AcDbEntity
  8
0
100
AcDbLine
 62
7
  6
CONTINUOUS
 10
374.5389207918
 20
203.4529804881
 11
376.6602323034
 21
204.6777129497
  0
LINE
  5
278
100
AcDbEntity
  8
0
100
AcDbLine
 62
7
  6
CONTINUOUS
 10
358.3461257497
 20
193.5322892486
 11
344.9111528427
 21
185.775650325
  0
LINE
  5
279
100
AcDbEntity
  8
0
100
AcDbLine
 62
7
  6
CONTINUOUS
 10
358.3461257497
 20
191.0827819972
 11
344.9111528427
 21
183.3261430737
  0
LINE
  5
27A
100
AcDbEntity
  8
0
100
AcDbLine
 62
7
  6
CONTINUOUS
 10
385.9233873667
 20
182.5098617989
 11
388.0446988783
 21
183.7345942605
  0
LINE
  5
27B
100
AcDbEntity
  8
0
100
AcDbLine
 62
7
  6
CONTINUOUS
 10
385.3020514759
 20
181.136503974
 11
387.4233629875
 21
182.3612364356
  0
ARC
  5
27C
100
AcDbEntity
  8
0
100
AcDbCircle
 62
7
  6
CONTINUOUS
 10
94.806187422
 20
385.8105576571
 40
11.5560204026
100
AcDbArc
 50
192.5820400641
 51
193.540400185
  0
ARC
  5
27D
100
AcDbEntity
  8
0
100
AcDbCircle
 62
7
  6
CONTINUOUS
 10
356.4367857248
 20
234.7614784842
 40
11.556020401
100
AcDbArc
 50
192.582040064
 51
193.5404001851
  0
ARC
  5
27E
100
AcDbEntity
  8
0
100
AcDbCircle
 62
7
  6
CONTINUOUS
 10
94.4792607305
 20
385.7379969777
 40
11.2211384083
100
AcDbArc
 50
191.035459351
 51
192.5840758126
  0
ARC
  5
27F
100
AcDbEntity
  8
0
100
AcDbCircle
 62
7
  6
CONTINUOUS
 10
356.109859035
 20
234.6889178052
 40
11.2211384084
100
AcDbArc
 50
191.035459351
 51
192.5840758126
  0
SPLINE
  5
280
100
AcDbEntity
  8
0
100
AcDbSpline
 62
7
  6
CONTINUOUS
 70
0
 71
3
 72
9
 73
5
 74
0
 42
0.0000001
 43
0.0000001
 44
0.0000000001
 40
0.0
 40
0.0
 40
0.0
 40
0.0
 40
0.2372737652
 40
1.0
 40
1.0
 40
1.0
 40
1.0
 10
379.4913647522
 20
200.1224340519
 30
0.0
 10
379.4306451454
 20
200.149600928
 30
0.0
 10
379.1787809905
 20
200.2730800534
 30
0.0
 10
378.9434999109
 20
200.4291015538
 30
0.0
 10
378.7745507212
 20
200.5601739562
 30
0.0
  0
SPLINE
  5
281
100
AcDbEntity
  8
0
100
AcDbSpline
 62
7
  6
CONTINUOUS
 70
0
 71
3
 72
9
 73
5
 74
0
 42
0.0000001
 43
0.0000001
 44
0.0000000001
 40
0.0
 40
0.0
 40
0.0
 40
0.0
 40
0.5098798039
 40
1.0
 40
1.0
 40
1.0
 40
1.0
 10
378.7745507212
 20
200.5601739562
 30
0.0
 10
378.1391837178
 20
201.0530977738
 30
0.0
 10
377.1481979622
 20
202.3396473063
 30
0.0
 10
376.6602323034
 20
203.9047218271
 30
0.0
 10
376.6602323034
 20
204.6777129497
 30
0.0
  0
SPLINE
  5
282
100
AcDbEntity
  8
0
100
AcDbSpline
 62
7
  6
CONTINUOUS
 70
0
 71
3
 72
9
 73
5
 74
0
 42
0.0000001
 43
0.0000001
 44
0.0000000001
 40
0.0
 40
0.0
 40
0.0
 40
0.0
 40
0.4491702464
 40
1.0
 40
1.0
 40
1.0
 40
1.0
 10
378.8844305865
 20
198.8657516123
 30
0.0
 10
379.1273490951
 20
199.0057547371
 30
0.0
 10
379.5467116793
 20
199.5310131164
 30
0.0
 10
379.6301108129
 20
200.1698152298
 30
0.0
 10
379.6301108129
 20
200.5136470556
 30
0.0
  0
SPLINE
  5
283
100
AcDbEntity
  8
0
100
AcDbSpline
 62
7
  6
CONTINUOUS
 70
0
 71
3
 72
9
 73
5
 74
0
 42
0.0000001
 43
0.0000001
 44
0.0000000001
 40
0.0
 40
0.0
 40
0.0
 40
0.0
 40
0.2457350642
 40
1.0
 40
1.0
 40
1.0
 40
1.0
 10
88.2120209031
 20
375.7315154345
 30
0.0
 10
88.1494223051
 20
375.780858147
 30
0.0
 10
87.8970391259
 20
375.9846332317
 30
0.0
 10
87.6539969502
 20
376.1999257853
 30
0.0
 10
87.4759973655
 20
376.3677732033
 30
0.0
  0
SPLINE
  5
284
100
AcDbEntity
  8
0
100
AcDbSpline
 62
7
  6
CONTINUOUS
 70
0
 71
3
 72
9
 73
5
 74
0
 42
0.0000001
 43
0.0000001
 44
0.0000000001
 40
0.0
 40
0.0
 40
0.0
 40
0.0
 40
0.4997663035
 40
1.0
 40
1.0
 40
1.0
 40
1.0
 10
87.4759973655
 20
376.3677732033
 30
0.0
 10
86.5230105461
 20
377.2664066318
 30
0.0
 10
84.9041584914
 20
379.3766497614
 30
0.0
 10
83.8782833076
 20
381.830283549
 30
0.0
 10
83.5713657679
 20
383.1049357423
 30
0.0
  0
SPLINE
  5
285
100
AcDbEntity
  8
0
100
AcDbSpline
 62
7
  6
CONTINUOUS
 70
0
 71
3
 72
14
 73
10
 74
0
 42
0.0000001
 43
0.0000001
 44
0.0000000001
 40
0.0
 40
0.0
 40
0.0
 40
0.0
 40
0.273407538
 40
0.3901741316
 40
0.4992223017
 40
0.6082536868
 40
0.7250089883
 40
0.8550083313
 40
1.0
 40
1.0
 40
1.0
 40
1.0
 10
87.1694288926
 20
376.2207535477
 30
0.0
 10
87.6242660492
 20
375.9581625905
 30
0.0
 10
88.349776774
 20
375.6681679943
 30
0.0
 10
89.3213202776
 20
375.6922154018
 30
0.0
 10
89.9378957082
 20
375.9161892754
 30
0.0
 10
90.4399975006
 20
376.3379130527
 30
0.0
 10
90.8019552473
 20
376.9293129074
 30
0.0
 10
91.0160584493
 20
377.6575497724
 30
0.0
 10
91.0586319804
 20
378.187564115
 30
0.0
 10
91.0586319804
 20
378.4660825734
 30
0.0
  0
SPLINE
  5
286
100
AcDbEntity
  8
0
100
AcDbSpline
 62
7
  6
CONTINUOUS
 70
0
 71
3
 72
11
 73
7
 74
0
 42
0.0000001
 43
0.0000001
 44
0.0000000001
 40
0.0
 40
0.0
 40
0.0
 40
0.0
 40
0.2372531816
 40
0.5000006935
 40
0.7627478297
 40
1.0
 40
1.0
 40
1.0
 40
1.0
 10
340.6685121556
 20
242.1143069089
 30
0.0
 10
340.9696966164
 20
241.9404219132
 30
0.0
 10
341.6700523548
 20
241.6866426131
 30
0.0
 10
342.789836449
 20
241.5653149919
 30
0.0
 10
343.909618467
 20
241.6866479635
 30
0.0
 10
344.6099709195
 20
241.9404306805
 30
0.0
 10
344.9111528427
 20
242.114317107
 30
0.0
  0
SPLINE
  5
287
100
AcDbEntity
  8
0
100
AcDbSpline
 62
7
  6
CONTINUOUS
 70
0
 71
3
 72
9
 73
5
 74
0
 42
0.0000001
 43
0.0000001
 44
0.0000000001
 40
0.0
 40
0.0
 40
0.0
 40
0.0
 40
0.2457350642
 40
1.0
 40
1.0
 40
1.0
 40
1.0
 10
349.8426192075
 20
224.682436262
 30
0.0
 10
349.7800206095
 20
224.7317789745
 30
0.0
 10
349.5276374303
 20
224.9355540591
 30
0.0
 10
349.2845952546
 20
225.1508466128
 30
0.0
 10
349.1065956699
 20
225.3186940308
 30
0.0
  0
SPLINE
  5
288
100
AcDbEntity
  8
0
100
AcDbSpline
 62
7
  6
CONTINUOUS
 70
0
 71
3
 72
9
 73
5
 74
0
 42
0.0000001
 43
0.0000001
 44
0.0000000001
 40
0.0
 40
0.0
 40
0.0
 40
0.0
 40
0.4997663035
 40
1.0
 40
1.0
 40
1.0
 40
1.0
 10
349.1065956699
 20
225.3186940308
 30
0.0
 10
348.1536088505
 20
226.2173274593
 30
0.0
 10
346.5347567957
 20
228.3275705888
 30
0.0
 10
345.508881612
 20
230.7812043765
 30
0.0
 10
345.2019640723
 20
232.0558565698
 30
0.0
  0
SPLINE
  5
289
100
AcDbEntity
  8
0
100
AcDbSpline
 62
7
  6
CONTINUOUS
 70
0
 71
3
 72
14
 73
10
 74
0
 42
0.0000001
 43
0.0000001
 44
0.0000000001
 40
0.0
 40
0.0
 40
0.0
 40
0.0
 40
0.273407538
 40
0.3901741316
 40
0.4992223017
 40
0.6082536868
 40
0.7250089883
 40
0.8550083313
 40
1.0
 40
1.0
 40
1.0
 40
1.0
 10
348.800027197
 20
225.1716743752
 30
0.0
 10
349.2548643536
 20
224.909083418
 30
0.0
 10
349.9803750784
 20
224.6190888218
 30
0.0
 10
350.951918582
 20
224.6431362292
 30
0.0
 10
351.5684940126
 20
224.8671101029
 30
0.0
 10
352.070595805
 20
225.2888338802
 30
0.0
 10
352.4325535517
 20
225.8802337349
 30
0.0
 10
352.6466567537
 20
226.6084705999
 30
0.0
 10
352.6892302848
 20
227.1384849425
 30
0.0
 10
352.6892302848
 20
227.4170034009
 30
0.0
  0
SPLINE
  5
28A
100
AcDbEntity
  8
0
100
AcDbSpline
 62
7
  6
CONTINUOUS
 70
0
 71
3
 72
11
 73
7
 74
0
 42
0.0000001
 43
0.0000001
 44
0.0000000001
 40
0.0
 40
0.0
 40
0.0
 40
0.0
 40
0.2372523758
 40
0.4999990758
 40
0.7627462798
 40
1.0
 40
1.0
 40
1.0
 40
1.0
 10
52.1675970973
 20
372.7499906811
 30
0.0
 10
51.8664131326
 20
372.9238753903
 30
0.0
 10
51.2964490694
 20
373.4035027892
 30
0.0
 10
50.6314773693
 20
374.3125956431
 30
0.0
 10
50.1766605055
 20
375.343024323
 30
0.0
 10
50.0462679218
 20
376.0764429062
 30
0.0
 10
50.0462679218
 20
376.424220196
 30
0.0
  0
SPLINE
  5
28B
100
AcDbEntity
  8
0
100
AcDbSpline
 62
7
  6
CONTINUOUS
 70
0
 71
3
 72
9
 73
5
 74
0
 42
0.0000001
 43
0.0000001
 44
0.0000000001
 40
0.0
 40
0.0
 40
0.0
 40
0.0
 40
0.5508341095
 40
1.0
 40
1.0
 40
1.0
 40
1.0
 10
50.0462679218
 20
427.8638724752
 30
0.0
 10
50.0462679218
 20
428.150398156
 30
0.0
 10
50.1157092844
 20
428.6828311145
 30
0.0
 10
50.4653481719
 20
429.1202648693
 30
0.0
 10
50.6676877407
 20
429.2370849293
 30
0.0
  0
SPLINE
  5
28C
100
AcDbEntity
  8
0
100
AcDbSpline
 62
7
  6
CONTINUOUS
 70
0
 71
3
 72
13
 73
9
 74
0
 42
0.0000001
 43
0.0000001
 44
0.0000000001
 40
0.0
 40
0.0
 40
0.0
 40
0.0
 40
0.269904124
 40
0.5613075641
 40
0.6954501131
 40
0.8131353839
 40
0.9128534389
 40
1.0
 40
1.0
 40
1.0
 40
1.0
 10
379.6301108129
 20
223.2124142518
 30
0.0
 10
379.6301108129
 20
223.8555080908
 30
0.0
 10
379.2765470004
 20
225.1885838998
 30
0.0
 10
378.3610037394
 20
226.6036122433
 30
0.0
 10
377.3864376055
 20
227.4682005052
 30
0.0
 10
376.643404433
 20
227.873930756
 30
0.0
 10
375.9161444797
 20
228.0197717125
 30
0.0
 10
375.4645030325
 20
227.9033274632
 30
0.0
 10
375.2846010182
 20
227.7996431276
 30
0.0
  0
SPLINE
  5
28D
100
AcDbEntity
  8
0
100
AcDbSpline
 62
7
  6
CONTINUOUS
 70
0
 71
3
 72
19
 73
15
 74
0
 42
0.0000001
 43
0.0000001
 44
0.0000000001
 40
0.0
 40
0.0
 40
0.0
 40
0.0
 40
0.1382776829
 40
0.2914002216
 40
0.4445366905
 40
0.5827840349
 40
0.6432345067
 40
0.6973140465
 40
0.7459571287
 40
0.7913847616
 40
0.8368053342
 40
0.8854435301
 40
0.9395989768
 40
1.0
 40
1.0
 40
1.0
 40
1.0
 10
352.6892302848
 20
227.4170034009
 30
0.0
 10
352.6892302848
 20
228.0546262017
 30
0.0
 10
352.450102948
 20
229.3992166104
 30
0.0
 10
351.6165720878
 20
231.288440398
 30
0.0
 10
350.396553552
 20
232.9548671143
 30
0.0
 10
349.1370412868
 20
234.0166545117
 30
0.0
 10
348.0789711057
 20
234.5207227028
 30
0.0
 10
347.3409824994
 20
234.6988465207
 30
0.0
 10
346.6482268831
 20
234.6814750542
 30
0.0
 10
346.0318030902
 20
234.4575641293
 30
0.0
 10
345.529654599
 20
234.0358255151
 30
0.0
 10
345.1677054385
 20
233.4444290092
 30
0.0
 10
344.9535962457
 20
232.7161878361
 30
0.0
 10
344.9110233081
 20
232.1861714791
 30
0.0
 10
344.9110233081
 20
231.9076517006
 30
0.0
  0
SPLINE
  5
28E
100
AcDbEntity
  8
0
100
AcDbSpline
 62
7
  6
CONTINUOUS
 70
0
 71
3
 72
19
 73
15
 74
0
 42
0.0000001
 43
0.0000001
 44
0.0000000001
 40
0.0
 40
0.0
 40
0.0
 40
0.0
 40
0.1382776829
 40
0.2914002216
 40
0.4445366905
 40
0.5827840349
 40
0.6432345067
 40
0.6973140465
 40
0.7459571287
 40
0.7913847616
 40
0.8368053342
 40
0.8854435301
 40
0.9395989768
 40
1.0
 40
1.0
 40
1.0
 40
1.0
 10
91.0586319804
 20
378.4660825734
 30
0.0
 10
91.0586319804
 20
379.1037053742
 30
0.0
 10
90.8195046436
 20
380.4482957829
 30
0.0
 10
89.9859737834
 20
382.3375195705
 30
0.0
 10
88.7659552477
 20
384.0039462868
 30
0.0
 10
87.5064429824
 20
385.0657336842
 30
0.0
 10
86.4483728014
 20
385.5698018753
 30
0.0
 10
85.710384195
 20
385.7479256932
 30
0.0
 10
85.0176285787
 20
385.7305542267
 30
0.0
 10
84.4012047858
 20
385.5066433018
 30
0.0
 10
83.8990562946
 20
385.0849046876
 30
0.0
 10
83.5371071341
 20
384.4935081817
 30
0.0
 10
83.3229979413
 20
383.7652670086
 30
0.0
 10
83.2804250038
 20
383.2352506516
 30
0.0
 10
83.2804250038
 20
382.9567308731
 30
0.0
  0
SPLINE
  5
28F
100
AcDbEntity
  8
0
100
AcDbSpline
 62
7
  6
CONTINUOUS
 70
0
 71
3
 72
11
 73
7
 74
0
 42
0.0000001
 43
0.0000001
 44
0.0000000001
 40
0.0
 40
0.0
 40
0.0
 40
0.0
 40
0.3079984248
 40
0.58427146
 40
0.8123026733
 40
1.0
 40
1.0
 40
1.0
 40
1.0
 10
60.5872309668
 20
409.5932067253
 30
0.0
 10
60.3536443653
 20
409.9705456886
 30
0.0
 10
59.8334986387
 20
410.6434438348
 30
0.0
 10
58.9095097647
 20
411.3810128602
 30
0.0
 10
57.953765796
 20
411.7474412104
 30
0.0
 10
57.3195427033
 20
411.6430289889
 30
0.0
 10
57.085224702
 20
411.5079826617
 30
0.0
  0
SPLINE
  5
290
100
AcDbEntity
  8
0
100
AcDbSpline
 62
7
  6
CONTINUOUS
 70
0
 71
3
 72
9
 73
5
 74
0
 42
0.0000001
 43
0.0000001
 44
0.0000000001
 40
0.0
 40
0.0
 40
0.0
 40
0.0
 40
0.2372737652
 40
1.0
 40
1.0
 40
1.0
 40
1.0
 10
61.2919884361
 20
383.8307735861
 30
0.0
 10
61.2312688292
 20
383.8579404622
 30
0.0
 10
60.9794046743
 20
383.9814195875
 30
0.0
 10
60.7441235948
 20
384.1374410879
 30
0.0
 10
60.5751744051
 20
384.2685134903
 30
0.0
  0
SPLINE
  5
291
100
AcDbEntity
  8
0
100
AcDbSpline
 62
7
  6
CONTINUOUS
 70
0
 71
3
 72
9
 73
5
 74
0
 42
0.0000001
 43
0.0000001
 44
0.0000000001
 40
0.0
 40
0.0
 40
0.0
 40
0.0
 40
0.5098798039
 40
1.0
 40
1.0
 40
1.0
 40
1.0
 10
60.5751744051
 20
384.2685134903
 30
0.0
 10
59.9398074017
 20
384.761437308
 30
0.0
 10
58.9488216461
 20
386.0479868405
 30
0.0
 10
58.4608559873
 20
387.6130613612
 30
0.0
 10
58.4608559873
 20
388.3860524839
 30
0.0
  0
SPLINE
  5
292
100
AcDbEntity
  8
0
100
AcDbSpline
 62
7
  6
CONTINUOUS
 70
0
 71
3
 72
9
 73
5
 74
0
 42
0.0000001
 43
0.0000001
 44
0.0000000001
 40
0.0
 40
0.0
 40
0.0
 40
0.0
 40
0.4491702464
 40
1.0
 40
1.0
 40
1.0
 40
1.0
 10
60.6850542703
 20
382.5740911465
 30
0.0
 10
60.927972779
 20
382.7140942713
 30
0.0
 10
61.3473353631
 20
383.2393526505
 30
0.0
 10
61.4307344967
 20
383.8781547639
 30
0.0
 10
61.4307344967
 20
384.2219865897
 30
0.0
  0
SPLINE
  5
293
100
AcDbEntity
  8
0
100
AcDbSpline
 62
7
  6
CONTINUOUS
 70
0
 71
3
 72
11
 73
7
 74
0
 42
0.0000001
 43
0.0000001
 44
0.0000000001
 40
0.0
 40
0.0
 40
0.0
 40
0.0
 40
0.2372539654
 40
0.5000012591
 40
0.7627478695
 40
1.0
 40
1.0
 40
1.0
 40
1.0
 10
388.0446988783
 20
235.1742465397
 30
0.0
 10
388.0446988783
 20
235.522024189
 30
0.0
 10
387.9143060814
 20
236.2554432626
 30
0.0
 10
387.4594888157
 20
237.285872158
 30
0.0
 10
386.7945171013
 20
238.1949645562
 30
0.0
 10
386.2245533562
 20
238.6745915251
 30
0.0
 10
385.9233697029
 20
238.8484760546
 30
0.0
  0
SPLINE
  5
294
100
AcDbEntity
  8
0
100
AcDbSpline
 62
7
  6
CONTINUOUS
 70
0
 71
3
 72
9
 73
5
 74
0
 42
0.0000001
 43
0.0000001
 44
0.0000000001
 40
0.0
 40
0.0
 40
0.0
 40
0.0
 40
0.5508326585
 40
1.0
 40
1.0
 40
1.0
 40
1.0
 10
54.2889086089
 20
430.3133899246
 30
0.0
 10
54.0407759129
 20
430.4566461626
 30
0.0
 10
53.5449658652
 20
430.6627138327
 30
0.0
 10
52.9913340555
 20
430.5786348432
 30
0.0
 10
52.7889992544
 20
430.4618173921
 30
0.0
  0
SPLINE
  5
295
100
AcDbEntity
  8
0
100
AcDbSpline
 62
7
  6
CONTINUOUS
 70
0
 71
3
 72
9
 73
5
 74
0
 42
0.0000001
 43
0.0000001
 44
0.0000000001
 40
0.0
 40
0.0
 40
0.0
 40
0.0
 40
0.4491634741
 40
1.0
 40
1.0
 40
1.0
 40
1.0
 10
59.0674306427
 20
346.622444883
 30
0.0
 10
59.0674307153
 20
346.3888103179
 30
0.0
 10
59.2714416597
 20
345.8673107123
 30
0.0
 10
59.6978160127
 20
345.5409701381
 30
0.0
 10
59.9459512722
 20
345.3977124202
 30
0.0
  0
SPLINE
  5
296
100
AcDbEntity
  8
0
100
AcDbSpline
 62
7
  6
CONTINUOUS
 70
0
 71
3
 72
9
 73
5
 74
0
 42
0.0000001
 43
0.0000001
 44
0.0000000001
 40
0.0
 40
0.0
 40
0.0
 40
0.0
 40
0.4491641734
 40
1.0
 40
1.0
 40
1.0
 40
1.0
 10
59.0674306427
 20
349.071952132
 30
0.0
 10
59.0674306947
 20
349.305584079
 30
0.0
 10
59.2714365157
 20
349.8270772879
 30
0.0
 10
59.6978028638
 20
350.1534168997
 30
0.0
 10
59.9459336084
 20
350.2966743967
 30
0.0
  0
SPLINE
  5
297
100
AcDbEntity
  8
0
100
AcDbSpline
 62
7
  6
CONTINUOUS
 70
0
 71
3
 72
8
 73
4
 74
0
 42
0.0000001
 43
0.0000001
 44
0.0000000001
 40
0.0
 40
0.0
 40
0.0
 40
0.0
 40
1.0
 40
1.0
 40
1.0
 40
1.0
 10
58.4608559873
 20
411.0848196801
 30
0.0
 10
58.4608559873
 20
411.2345907882
 30
0.0
 10
58.4709198107
 20
411.3848786784
 30
0.0
 10
58.4934026186
 20
411.532952674
 30
0.0
  0
SPLINE
  5
298
100
AcDbEntity
  8
0
100
AcDbSpline
 62
7
  6
CONTINUOUS
 70
0
 71
3
 72
9
 73
5
 74
0
 42
0.0000001
 43
0.0000001
 44
0.0000000001
 40
0.0
 40
0.0
 40
0.0
 40
0.0
 40
0.4491660543
 40
1.0
 40
1.0
 40
1.0
 40
1.0
 10
387.4232790574
 20
182.3613818052
 30
0.0
 10
387.6256186375
 20
182.4782020155
 30
0.0
 10
387.9752575805
 20
182.9156356633
 30
0.0
 10
388.0446988783
 20
183.4480686652
 30
0.0
 10
388.0446988783
 20
183.7345942605
 30
0.0
  0
SPLINE
  5
299
100
AcDbEntity
  8
0
100
AcDbSpline
 62
7
  6
CONTINUOUS
 70
0
 71
3
 72
9
 73
5
 74
0
 42
0.0000001
 43
0.0000001
 44
0.0000000001
 40
0.0
 40
0.0
 40
0.0
 40
0.0
 40
0.4491675054
 40
1.0
 40
1.0
 40
1.0
 40
1.0
 10
385.3019675478
 20
181.1366493448
 30
0.0
 10
385.0996326109
 20
181.0198319591
 30
0.0
 10
384.5460008661
 20
180.9357528679
 30
0.0
 10
384.0501908132
 20
181.1418206159
 30
0.0
 10
383.8020581912
 20
181.285076811
 30
0.0
  0
SPLINE
  5
29A
100
AcDbEntity
  8
0
100
AcDbSpline
 62
7
  6
CONTINUOUS
 70
0
 71
3
 72
9
 73
5
 74
0
 42
0.0000001
 43
0.0000001
 44
0.0000000001
 40
0.0
 40
0.0
 40
0.0
 40
0.0
 40
0.4491668937
 40
1.0
 40
1.0
 40
1.0
 40
1.0
 10
359.8460163721
 20
250.0193943128
 30
0.0
 10
359.6436832379
 20
250.1362087242
 30
0.0
 10
359.0900570856
 20
250.2202820116
 30
0.0
 10
358.5942547145
 20
250.0142125
 30
0.0
 10
358.3461257497
 20
249.8709560305
 30
0.0
  0
SPLINE
  5
29B
100
AcDbEntity
  8
0
100
AcDbSpline
 62
7
  6
CONTINUOUS
 70
0
 71
3
 72
9
 73
5
 74
0
 42
0.0000001
 43
0.0000001
 44
0.0000000001
 40
0.0
 40
0.0
 40
0.0
 40
0.0
 40
0.4491641734
 40
1.0
 40
1.0
 40
1.0
 40
1.0
 10
59.0674306427
 20
407.8601261654
 30
0.0
 10
59.0674306947
 20
408.0937581123
 30
0.0
 10
59.2714365157
 20
408.6152513213
 30
0.0
 10
59.6978028638
 20
408.941590933
 30
0.0
 10
59.9459336084
 20
409.0848484301
 30
0.0
  0
SPLINE
  5
29C
100
AcDbEntity
  8
0
100
AcDbSpline
 62
7
  6
CONTINUOUS
 70
0
 71
3
 72
9
 73
5
 74
0
 42
0.0000001
 43
0.0000001
 44
0.0000000001
 40
0.0
 40
0.0
 40
0.0
 40
0.0
 40
0.4491634741
 40
1.0
 40
1.0
 40
1.0
 40
1.0
 10
59.0674306427
 20
405.4106189163
 30
0.0
 10
59.0674307153
 20
405.1769843513
 30
0.0
 10
59.2714416597
 20
404.6554847456
 30
0.0
 10
59.6978160127
 20
404.3291441714
 30
0.0
 10
59.9459512722
 20
404.1858864535
 30
0.0
  0
SPLINE
  5
29D
100
AcDbEntity
  8
0
100
AcDbSpline
 62
7
  6
CONTINUOUS
 70
0
 71
3
 72
8
 73
4
 74
0
 42
0.0000001
 43
0.0000001
 44
0.0000000001
 40
0.0
 40
0.0
 40
0.0
 40
0.0
 40
1.0
 40
1.0
 40
1.0
 40
1.0
 10
361.3459069904
 20
252.6173398489
 30
0.0
 10
361.5033129454
 20
252.5264634499
 30
0.0
 10
361.6493705005
 20
252.4129506046
 30
0.0
 10
361.7772763247
 20
252.2838179026
 30
0.0
  0
SPLINE
  5
29E
100
AcDbEntity
  8
0
100
AcDbSpline
 62
7
  6
CONTINUOUS
 70
0
 71
3
 72
11
 73
7
 74
0
 42
0.0000001
 43
0.0000001
 44
0.0000000001
 40
0.0
 40
0.0
 40
0.0
 40
0.0
 40
0.2177456295
 40
0.4508837762
 40
0.7104602913
 40
1.0
 40
1.0
 40
1.0
 40
1.0
 10
76.3806877602
 20
417.1383639182
 30
0.0
 10
76.1828131092
 20
417.2526042822
 30
0.0
 10
75.7283146356
 20
417.4181232693
 30
0.0
 10
74.9727353357
 20
417.4370969501
 30
0.0
 10
74.1678809403
 20
417.2422784414
 30
0.0
 10
73.6440223634
 20
416.9933964525
 30
0.0
 10
73.3809065155
 20
416.8414873536
 30
0.0
  0
SPLINE
  5
29F
100
AcDbEntity
  8
0
100
AcDbSpline
 62
7
  6
CONTINUOUS
 70
0
 71
3
 72
8
 73
4
 74
0
 42
0.0000001
 43
0.0000001
 44
0.0000000001
 40
0.0
 40
0.0
 40
0.0
 40
0.0
 40
1.0
 40
1.0
 40
1.0
 40
1.0
 10
376.6602323034
 20
227.376480146
 30
0.0
 10
376.6602323034
 20
227.5262512541
 30
0.0
 10
376.6702961269
 20
227.6765391443
 30
0.0
 10
376.6927789347
 20
227.8246131399
 30
0.0
  0
SPLINE
  5
2A0
100
AcDbEntity
  8
0
100
AcDbSpline
 62
7
  6
CONTINUOUS
 70
0
 71
3
 72
9
 73
5
 74
0
 42
0.0000001
 43
0.0000001
 44
0.0000000001
 40
0.0
 40
0.0
 40
0.0
 40
0.0
 40
0.2304800094
 40
1.0
 40
1.0
 40
1.0
 40
1.0
 10
75.5022180271
 20
361.7275530333
 30
0.0
 10
75.5022180271
 20
361.5945509795
 30
0.0
 10
75.461171186
 20
361.0176514774
 30
0.0
 10
75.2826799828
 20
360.4555497243
 30
0.0
 10
75.0964090767
 20
360.0524424649
 30
0.0
  0
SPLINE
  5
2A1
100
AcDbEntity
  8
0
100
AcDbSpline
 62
7
  6
CONTINUOUS
 70
0
 71
3
 72
9
 73
5
 74
0
 42
0.0000001
 43
0.0000001
 44
0.0000000001
 40
0.0
 40
0.0
 40
0.0
 40
0.0
 40
0.5245248631
 40
1.0
 40
1.0
 40
1.0
 40
1.0
 10
75.0964090767
 20
360.0524424649
 30
0.0
 10
74.9011001087
 20
359.629776014
 30
0.0
 10
74.4202274682
 20
358.8714438274
 30
0.0
 10
73.7464298959
 20
358.2643470826
 30
0.0
 10
73.3809065155
 20
358.0533133203
 30
0.0
  0
SPLINE
  5
2A2
100
AcDbEntity
  8
0
100
AcDbSpline
 62
7
  6
CONTINUOUS
 70
0
 71
3
 72
11
 73
7
 74
0
 42
0.0000001
 43
0.0000001
 44
0.0000000001
 40
0.0
 40
0.0
 40
0.0
 40
0.0
 40
0.2372531816
 40
0.5000006935
 40
0.7627478297
 40
1.0
 40
1.0
 40
1.0
 40
1.0
 10
340.6685121556
 20
183.3261328756
 30
0.0
 10
340.9696966164
 20
183.1522478799
 30
0.0
 10
341.6700523548
 20
182.8984685797
 30
0.0
 10
342.789836449
 20
182.7771409586
 30
0.0
 10
343.909618467
 20
182.8984739302
 30
0.0
 10
344.6099709195
 20
183.1522566472
 30
0.0
 10
344.9111528427
 20
183.3261430737
 30
0.0
  0
SPLINE
  5
2A3
100
AcDbEntity
  8
0
100
AcDbSpline
 62
7
  6
CONTINUOUS
 70
0
 71
3
 72
9
 73
5
 74
0
 42
0.0000001
 43
0.0000001
 44
0.0000000001
 40
0.0
 40
0.0
 40
0.0
 40
0.0
 40
0.5254950527
 40
1.0
 40
1.0
 40
1.0
 40
1.0
 10
361.3459443973
 20
194.2497985582
 30
0.0
 10
360.9608001828
 20
193.5827059406
 30
0.0
 10
360.0881405499
 20
192.3893527754
 30
0.0
 10
358.9484888551
 20
191.4305544223
 30
0.0
 10
358.3461257497
 20
191.0827819972
 30
0.0
  0
SPLINE
  5
2A4
100
AcDbEntity
  8
0
100
AcDbSpline
 62
7
  6
CONTINUOUS
 70
0
 71
3
 72
11
 73
7
 74
0
 42
0.0000001
 43
0.0000001
 44
0.0000000001
 40
0.0
 40
0.0
 40
0.0
 40
0.0
 40
0.2895396729
 40
0.5491163863
 40
0.7822545095
 40
1.0
 40
1.0
 40
1.0
 40
1.0
 10
358.3461257497
 20
252.3204632819
 30
0.0
 10
358.609241561
 20
252.4723723596
 30
0.0
 10
359.1331004067
 20
252.7212540855
 30
0.0
 10
359.9379548549
 20
252.9160730527
 30
0.0
 10
360.6935341602
 20
252.8970989959
 30
0.0
 10
361.1480325297
 20
252.7315802436
 30
0.0
 10
361.3459069904
 20
252.6173398489
 30
0.0
  0
SPLINE
  5
2A5
100
AcDbEntity
  8
0
100
AcDbSpline
 62
7
  6
CONTINUOUS
 70
0
 71
3
 72
9
 73
5
 74
0
 42
0.0000001
 43
0.0000001
 44
0.0000000001
 40
0.0
 40
0.0
 40
0.0
 40
0.0
 40
0.5508354204
 40
1.0
 40
1.0
 40
1.0
 40
1.0
 10
360.4674372614
 20
248.6461812408
 30
0.0
 10
360.4674372614
 20
248.932707912
 30
0.0
 10
360.3979967572
 20
249.4651415119
 30
0.0
 10
360.0483564055
 20
249.9025759183
 30
0.0
 10
359.8460163721
 20
250.0193943128
 30
0.0
  0
SPLINE
  5
2A6
100
AcDbEntity
  8
0
100
AcDbSpline
 62
7
  6
CONTINUOUS
 70
0
 71
3
 72
9
 73
5
 74
0
 42
0.0000001
 43
0.0000001
 44
0.0000000001
 40
0.0
 40
0.0
 40
0.0
 40
0.0
 40
0.4491702464
 40
1.0
 40
1.0
 40
1.0
 40
1.0
 10
57.085224702
 20
411.5079826617
 30
0.0
 10
56.8423061934
 20
411.3679795369
 30
0.0
 10
56.4229436093
 20
410.8427211577
 30
0.0
 10
56.3395444757
 20
410.2039190443
 30
0.0
 10
56.3395444757
 20
409.8600872185
 30
0.0
  0
SPLINE
  5
2A7
100
AcDbEntity
  8
0
100
AcDbSpline
 62
7
  6
CONTINUOUS
 70
0
 71
3
 72
9
 73
5
 74
0
 42
0.0000001
 43
0.0000001
 44
0.0000000001
 40
0.0
 40
0.0
 40
0.0
 40
0.0
 40
0.4491702464
 40
1.0
 40
1.0
 40
1.0
 40
1.0
 10
375.2846010182
 20
227.7996431276
 30
0.0
 10
375.0416825096
 20
227.6596400028
 30
0.0
 10
374.6223199254
 20
227.1343816236
 30
0.0
 10
374.5389207918
 20
226.4955795101
 30
0.0
 10
374.5389207918
 20
226.1517476843
 30
0.0
  0
SPLINE
  5
2A8
100
AcDbEntity
  8
0
100
AcDbSpline
 62
7
  6
CONTINUOUS
 70
0
 71
3
 72
9
 73
5
 74
0
 42
0.0000001
 43
0.0000001
 44
0.0000000001
 40
0.0
 40
0.0
 40
0.0
 40
0.0
 40
0.5508341095
 40
1.0
 40
1.0
 40
1.0
 40
1.0
 10
385.9233873667
 20
182.5098617989
 30
0.0
 10
385.9233873667
 20
182.223336118
 30
0.0
 10
385.8539460041
 20
181.6909031595
 30
0.0
 10
385.5043071166
 20
181.2534694047
 30
0.0
 10
385.3019675478
 20
181.1366493448
 30
0.0
  0
SPLINE
  5
2A9
100
AcDbEntity
  8
0
100
AcDbSpline
 62
7
  6
CONTINUOUS
 70
0
 71
3
 72
11
 73
7
 74
0
 42
0.0000001
 43
0.0000001
 44
0.0000000001
 40
0.0
 40
0.0
 40
0.0
 40
0.0
 40
0.2372523758
 40
0.4999990758
 40
0.7627462798
 40
1.0
 40
1.0
 40
1.0
 40
1.0
 10
383.8020581912
 20
237.623743593
 30
0.0
 10
384.1032421559
 20
237.4498588837
 30
0.0
 10
384.6732062191
 20
236.9702314849
 30
0.0
 10
385.3381779192
 20
236.0611386309
 30
0.0
 10
385.792994783
 20
235.030709951
 30
0.0
 10
385.9233873667
 20
234.2972913679
 30
0.0
 10
385.9233873667
 20
233.949514078
 30
0.0
  0
SPLINE
  5
2AA
100
AcDbEntity
  8
0
100
AcDbSpline
 62
7
  6
CONTINUOUS
 70
0
 71
3
 72
9
 73
5
 74
0
 42
0.0000001
 43
0.0000001
 44
0.0000000001
 40
0.0
 40
0.0
 40
0.0
 40
0.0
 40
0.4491675054
 40
1.0
 40
1.0
 40
1.0
 40
1.0
 10
50.6676877407
 20
429.2370849293
 30
0.0
 10
50.8700226777
 20
429.353902315
 30
0.0
 10
51.4236544225
 20
429.4379814062
 30
0.0
 10
51.9194644753
 20
429.2319136582
 30
0.0
 10
52.1675970973
 20
429.088657463
 30
0.0
  0
SPLINE
  5
2AB
100
AcDbEntity
  8
0
100
AcDbSpline
 62
7
  6
CONTINUOUS
 70
0
 71
3
 72
11
 73
7
 74
0
 42
0.0000001
 43
0.0000001
 44
0.0000000001
 40
0.0
 40
0.0
 40
0.0
 40
0.0
 40
0.2372524156
 40
0.4999996414
 40
0.7627470637
 40
1.0
 40
1.0
 40
1.0
 40
1.0
 10
344.9111528427
 20
185.775650325
 30
0.0
 10
344.6099706082
 20
185.6017637188
 30
0.0
 10
343.9096176242
 20
185.3479809412
 30
0.0
 10
342.7898352187
 20
185.22664821
 30
0.0
 10
341.6700515121
 20
185.3479760714
 30
0.0
 10
340.9696963051
 20
185.601755311
 30
0.0
 10
340.6685121556
 20
185.775640127
 30
0.0
  0
SPLINE
  5
2AC
100
AcDbEntity
  8
0
100
AcDbSpline
 62
7
  6
CONTINUOUS
 70
0
 71
3
 72
9
 73
5
 74
0
 42
0.0000001
 43
0.0000001
 44
0.0000000001
 40
0.0
 40
0.0
 40
0.0
 40
0.0
 40
0.5508366897
 40
1.0
 40
1.0
 40
1.0
 40
1.0
 10
59.9459512722
 20
347.8472196716
 30
0.0
 10
59.6978159386
 20
347.9904774323
 30
0.0
 10
59.2714416556
 20
348.3168180408
 30
0.0
 10
59.0674305907
 20
348.8383176519
 30
0.0
 10
59.0674306427
 20
349.071952132
 30
0.0
  0
SPLINE
  5
2AD
100
AcDbEntity
  8
0
100
AcDbSpline
 62
7
  6
CONTINUOUS
 70
0
 71
3
 72
13
 73
9
 74
0
 42
0.0000001
 43
0.0000001
 44
0.0000000001
 40
0.0
 40
0.0
 40
0.0
 40
0.0
 40
0.269904124
 40
0.5613075641
 40
0.6954501131
 40
0.8131353839
 40
0.9128534389
 40
1.0
 40
1.0
 40
1.0
 40
1.0
 10
374.5389207918
 20
203.4529804881
 30
0.0
 10
374.5389207918
 20
202.8098866491
 30
0.0
 10
374.8924846042
 20
201.4768108401
 30
0.0
 10
375.8080278652
 20
200.0617824966
 30
0.0
 10
376.7825939992
 20
199.1971942347
 30
0.0
 10
377.5256271717
 20
198.7914639839
 30
0.0
 10
378.2528871249
 20
198.6456230275
 30
0.0
 10
378.7045285722
 20
198.7620672767
 30
0.0
 10
378.8844305865
 20
198.8657516123
 30
0.0
  0
SPLINE
  5
2AE
100
AcDbEntity
  8
0
100
AcDbSpline
 62
7
  6
CONTINUOUS
 70
0
 71
3
 72
9
 73
5
 74
0
 42
0.0000001
 43
0.0000001
 44
0.0000000001
 40
0.0
 40
0.0
 40
0.0
 40
0.0
 40
0.4754760938
 40
1.0
 40
1.0
 40
1.0
 40
1.0
 10
358.3461257497
 20
193.5322892486
 30
0.0
 10
358.7116734218
 20
193.7433370357
 30
0.0
 10
359.3855082746
 20
194.3504826716
 30
0.0
 10
359.8663942905
 20
195.1088762255
 30
0.0
 10
360.0617010372
 20
195.5315758216
 30
0.0
  0
SPLINE
  5
2AF
100
AcDbEntity
  8
0
100
AcDbSpline
 62
7
  6
CONTINUOUS
 70
0
 71
3
 72
9
 73
5
 74
0
 42
0.0000001
 43
0.0000001
 44
0.0000000001
 40
0.0
 40
0.0
 40
0.0
 40
0.0
 40
0.2672049427
 40
1.0
 40
1.0
 40
1.0
 40
1.0
 10
360.0617010372
 20
195.5315758216
 30
0.0
 10
360.126343772
 20
195.6714811673
 30
0.0
 10
360.3437374409
 20
196.2051213604
 30
0.0
 10
360.4674372614
 20
196.7838702125
 30
0.0
 10
360.4674372614
 20
197.2065289616
 30
0.0
  0
SPLINE
  5
2B0
100
AcDbEntity
  8
0
100
AcDbSpline
 62
7
  6
CONTINUOUS
 70
0
 71
3
 72
9
 73
5
 74
0
 42
0.0000001
 43
0.0000001
 44
0.0000000001
 40
0.0
 40
0.0
 40
0.0
 40
0.0
 40
0.5508366897
 40
1.0
 40
1.0
 40
1.0
 40
1.0
 10
59.9459512722
 20
406.6353937049
 30
0.0
 10
59.6978159386
 20
406.7786514656
 30
0.0
 10
59.2714416556
 20
407.1049920742
 30
0.0
 10
59.0674305907
 20
407.6264916853
 30
0.0
 10
59.0674306427
 20
407.8601261654
 30
0.0
  0
SPLINE
  5
2B1
100
AcDbEntity
  8
0
100
AcDbSpline
 62
7
  6
CONTINUOUS
 70
0
 71
3
 72
11
 73
7
 74
0
 42
0.0000001
 43
0.0000001
 44
0.0000000001
 40
0.0
 40
0.0
 40
0.0
 40
0.0
 40
0.2372524156
 40
0.4999996414
 40
0.7627470637
 40
1.0
 40
1.0
 40
1.0
 40
1.0
 10
344.9111528427
 20
244.5638243584
 30
0.0
 10
344.6099706082
 20
244.3899377522
 30
0.0
 10
343.9096176242
 20
244.1361549746
 30
0.0
 10
342.7898352187
 20
244.0148222433
 30
0.0
 10
341.6700515121
 20
244.1361501047
 30
0.0
 10
340.9696963051
 20
244.3899293443
 30
0.0
 10
340.6685121556
 20
244.5638141603
 30
0.0
  0
SPLINE
  5
2B2
100
AcDbEntity
  8
0
100
AcDbSpline
 62
7
  6
CONTINUOUS
 70
0
 71
3
 72
11
 73
7
 74
0
 42
0.0000001
 43
0.0000001
 44
0.0000000001
 40
0.0
 40
0.0
 40
0.0
 40
0.0
 40
0.2372711193
 40
0.5000145748
 40
0.762781663
 40
1.0
 40
1.0
 40
1.0
 40
1.0
 10
344.9110233081
 20
231.9076517006
 30
0.0
 10
344.9110233081
 20
231.2700255021
 30
0.0
 10
345.1501117977
 20
229.925428064
 30
0.0
 10
345.9838527325
 20
228.0361956371
 30
0.0
 10
347.2031468217
 20
226.3697674229
 30
0.0
 10
348.2479446119
 20
225.4904079975
 30
0.0
 10
348.800027197
 20
225.1716743752
 30
0.0
  0
SPLINE
  5
2B3
100
AcDbEntity
  8
0
100
AcDbSpline
 62
7
  6
CONTINUOUS
 70
0
 71
3
 72
11
 73
7
 74
0
 42
0.0000001
 43
0.0000001
 44
0.0000000001
 40
0.0
 40
0.0
 40
0.0
 40
0.0
 40
0.2372711193
 40
0.5000145748
 40
0.762781663
 40
1.0
 40
1.0
 40
1.0
 40
1.0
 10
83.2804250038
 20
382.9567308731
 30
0.0
 10
83.2804250038
 20
382.3191046746
 30
0.0
 10
83.5195134933
 20
380.9745072365
 30
0.0
 10
84.3532544282
 20
379.0852748096
 30
0.0
 10
85.5725485173
 20
377.4188465954
 30
0.0
 10
86.6173463075
 20
376.53948717
 30
0.0
 10
87.1694288926
 20
376.2207535477
 30
0.0
  0
SPLINE
  5
2B4
100
AcDbEntity
  8
0
100
AcDbSpline
 62
7
  6
CONTINUOUS
 70
0
 71
3
 72
13
 73
9
 74
0
 42
0.0000001
 43
0.0000001
 44
0.0000000001
 40
0.0
 40
0.0
 40
0.0
 40
0.0
 40
0.269904124
 40
0.5613075641
 40
0.6954501131
 40
0.8131353839
 40
0.9128534389
 40
1.0
 40
1.0
 40
1.0
 40
1.0
 10
56.3395444757
 20
387.1613200223
 30
0.0
 10
56.3395444757
 20
386.5182261832
 30
0.0
 10
56.6931082881
 20
385.1851503742
 30
0.0
 10
57.6086515491
 20
383.7701220307
 30
0.0
 10
58.583217683
 20
382.9055337688
 30
0.0
 10
59.3262508555
 20
382.4998035181
 30
0.0
 10
60.0535108088
 20
382.3539625616
 30
0.0
 10
60.505152256
 20
382.4704068109
 30
0.0
 10
60.6850542703
 20
382.5740911465
 30
0.0
  0
ENDSEC
  0
SECTION
  2
OBJECTS
  0
DICTIONARY
  5
C
100
AcDbDictionary
280
0
281
1
  3
ACAD_GROUP
350
D
  3
ACAD_MLINESTYLE
350
17
  3
ACAD_LAYOUT
350
1A
  3
ACAD_PLOTSETTINGS
350
19
  3
ACAD_PLOTSTYLENAME
350
E
  0
DICTIONARY
  5
D
102
{ACAD_REACTORS
330
C
102
}
100
AcDbDictionary
280
0
281
1
  0
ACDBDICTIONARYWDFLT
  5
E
102
{ACAD_REACTORS
330
C
102
}
100
AcDbDictionary
281
1
  3
Normal
350
F
100
AcDbDictionaryWithDefault
340
F
  0
DICTIONARY
  5
17
102
{ACAD_REACTORS
330
C
102
}
100
AcDbDictionary
280
0
281
1
  3
Standard
350
18
  0
DICTIONARY
  5
19
102
{ACAD_REACTORS
330
C
102
}
100
AcDbDictionary
281
1
  0
DICTIONARY
  5
1A
102
{ACAD_REACTORS
330
C
102
}
100
AcDbDictionary
281
1
  3
Model
350
2B5
  3
Layout1
350
2B6
  0
ACDBPLACEHOLDER
  5
F
102
{ACAD_REACTORS
330
E
102
}
  0
MLINESTYLE
  5
18
102
{ACAD_REACTORS
330
17
102
}
100
AcDbMlineStyle
  2
STANDARD
 70
0
  3

 62
256
 51
90.0
 52
90.0
 71
2
 49
0.5
 62
256
  6
BYLAYER
 49
-0.5
 62
256
  6
BYLAYER
  0
LAYOUT
  5
2B5
102
{ACAD_REACTORS
330
1A
102
}
100
AcDbPlotSettings
  1

  2
none_device
  4

  6

 40
0.0
 41
0.0
 42
0.0
 43
0.0
 44
210.0
 45
297.0
 46
0.0
 47
0.0
 48
0.0
 49
0.0
140
0.0
141
0.0
142
1.0
143
1.0
 70
1024
 72
1
 73
0
 74
0
  7

 75
0
147
1.0
148
0.0
149
0.0
100
AcDbLayout
  1
Model
 70
0
 71
0
 10
0.0
 20
0.0
 11
210.0
 21
297.0
 12
0.0
 22
0.0
 32
0.0
 14
0.0
 24
0.0
 34
0.0
 15
0.0
 25
0.0
 35
0.0
146
0.0
 13
0.0
 23
0.0
 33
0.0
 16
1.0
 26
0.0
 36
0.0
 17
0.0
 27
1.0
 37
0.0
 76
0
330
210
345
0
346
0
  0
LAYOUT
  5
2B6
102
{ACAD_REACTORS
330
1A
102
}
100
AcDbPlotSettings
  1

  2
none_device
  4

  6

 40
0.0
 41
0.0
 42
0.0
 43
0.0
 44
210.0
 45
297.0
 46
0.0
 47
0.0
 48
0.0
 49
0.0
140
0.0
141
0.0
142
1.0
143
1.0
 70
0
 72
1
 73
0
 74
0
  7

 75
0
147
1.0
148
0.0
149
0.0
100
AcDbLayout
  1
Layout1
 70
0
 71
1
 10
0.0
 20
0.0
 11
210.0
 21
297.0
 12
0.0
 22
0.0
 32
0.0
 14
0.0
 24
0.0
 34
0.0
 15
0.0
 25
0.0
 35
0.0
146
0.0
 13
0.0
 23
0.0
 33
0.0
 16
1.0
 26
0.0
 36
0.0
 17
0.0
 27
1.0
 37
0.0
 76
0
330
211
345
0
346
0
  0
ENDSEC
  0
EOF
