999
DXF file: C:\Users\sesa63760\Dev\_Creo\CAD\MCADID0000487_3D-CAD\drw0001_7.dxf
999
Pro/ENGINEER 2019471 by Parametric Technology Corporation
  0
SECTION
  2
HEADER
  9
$ACADVER
  1
AC1024
  9
$DWGCODEPAGE
  3
ANSI_1252
  9
$EXTMAX
 10
389.8912817116
 20
551.4176698493
 30
0.0
  9
$EXTMIN
 10
0.0
 20
0.0
 30
0.0
  9
$LIMMIN
 10
0.0
 20
0.0
  9
$LIMMAX
 10
389.8912817116
 20
551.4176698493
  9
$VIEWCTR
 10
194.9456408558
 20
275.7088349246
  9
$VIEWSIZE
 40
551.4176698493
  9
$CLAYER
  8
0
  9
$LTSCALE
 40
35.9442629235
  9
$CELTYPE
  6
BYLAYER
  9
$DIMSCALE
 40
1.0
  9
$DIMASZ
 40
4.6415628775
  9
$DIMEXO
 40
1.0
  9
$DIMDLI
 40
24.8342180199
  9
$DIMEXE
 40
1.0
  9
$DIMCEN
 40
5.8817884784
  9
$DIMLFAC
 40
1.0
  9
$DIMBLK
  1
_FILLED
  9
$DIMALT
 70
0
  9
$DIMALTF
 40
0.0393700787
  9
$DIMTXT
 40
6.4981880285
  9
$DIMTOL
 70
1
  9
$DIMLIM
 70
0
  9
$DIMTFAC
 40
1.0
  9
$DIMTP
 40
0.01
  9
$DIMTM
 40
0.01
  9
$DIMGAP
 40
0.625
  9
$DIMDSEP
 70
46
  9
$AUNITS
 70
0
  9
$PDMODE
 70
3
  9
$PDSIZE
 40
0.3125
  9
$HANDSEED
  5
308
  9
$TILEMODE
 70
1
  9
$MEASUREMENT
 70
1
  9
$INSUNITS
 70
4
  0
ENDSEC
  0
SECTION
  2
CLASSES
  0
CLASS
  1
ACDBDICTIONARYWDFLT
  2
AcDbDictionaryWithDefault
  3
AutoCAD 2000
 90
0
 91
1
280
0
281
0
  0
CLASS
  1
ACDBPLACEHOLDER
  2
AcDbPlaceHolder
  3
AutoCAD 2000
 90
0
 91
1
280
0
281
0
  0
CLASS
  1
LAYOUT
  2
AcDbLayout
  3
AutoCAD 2000
 90
0
 91
0
280
0
281
0
  0
ENDSEC
  0
SECTION
  2
TABLES
  0
TABLE
  2
VPORT
  5
8
100
AcDbSymbolTable
 70
2
  0
VPORT
  5
1F4
100
AcDbSymbolTableRecord
100
AcDbViewportTableRecord
  2
*ACTIVE
 70
0
 10
0.0
 20
0.0
 11
1.0
 21
1.0
 12
194.9456408558
 22
275.7088349246
 13
0.0
 23
0.0
 14
1.0
 24
1.0
 15
0.0
 25
0.0
 16
0.0
 26
0.0
 36
1.0
 17
0.0
 27
0.0
 37
0.0
 40
551.4176698493
 41
0.7070707071
 42
50.0
 43
0.0
 44
0.0
 50
0.0
 51
0.0
 71
0
 72
100
 73
1
 74
1
 75
0
 76
0
 77
0
 78
0
  0
ENDTAB
  0
TABLE
  2
LTYPE
  5
5
100
AcDbSymbolTable
 70
6
  0
LTYPE
  5
14
100
AcDbSymbolTableRecord
100
AcDbLinetypeTableRecord
  2
BYBLOCK
 70
0
  3

 72
65
 73
0
 40
0.0
  0
LTYPE
  5
15
100
AcDbSymbolTableRecord
100
AcDbLinetypeTableRecord
  2
BYLAYER
 70
0
  3

 72
65
 73
0
 40
0.0
  0
LTYPE
  5
16
100
AcDbSymbolTableRecord
100
AcDbLinetypeTableRecord
  2
CONTINUOUS
 70
64
  3
Solid line
 72
65
 73
0
 40
0.0
  0
LTYPE
  5
1F5
100
AcDbSymbolTableRecord
100
AcDbLinetypeTableRecord
  2
CENTER
 70
64
  3
____ _ ____ _ ____ _ ____ _ ____ _ ____ _ ____
 72
65
 73
4
 40
0.6
 49
0.375
 74
0
 49
-0.075
 74
0
 49
0.075
 74
0
 49
-0.075
 74
0
  0
LTYPE
  5
1F6
100
AcDbSymbolTableRecord
100
AcDbLinetypeTableRecord
  2
HIDDEN
 70
64
  3
- - - - - - - - - - - - - - - - - - - -
 72
65
 73
2
 40
0.2
 49
0.1
 74
0
 49
-0.1
 74
0
  0
LTYPE
  5
1F7
100
AcDbSymbolTableRecord
100
AcDbLinetypeTableRecord
  2
PHANTOM
 70
64
  3
_____ _ _ _____ _ _ _____ _ _ _____
 72
65
 73
6
 40
0.8
 49
0.45
 74
0
 49
-0.05
 74
0
 49
0.1
 74
0
 49
-0.05
 74
0
 49
0.1
 74
0
 49
-0.05
 74
0
  0
LTYPE
  5
1F8
100
AcDbSymbolTableRecord
100
AcDbLinetypeTableRecord
  2
DOT
 70
64
  3
. . . . . . . . . . . . . . . . . . . .
 72
65
 73
2
 40
0.2
 49
0.1
 74
0
 49
-0.1
 74
0
  0
LTYPE
  5
1F9
100
AcDbSymbolTableRecord
100
AcDbLinetypeTableRecord
  2
DASHED
 70
64
  3
- - - - - - - - - - - - - - - - - - - -
 72
65
 73
2
 40
0.2
 49
0.1
 74
0
 49
-0.1
 74
0
  0
ENDTAB
  0
TABLE
  2
LAYER
  5
2
100
AcDbSymbolTable
 70
36
  0
LAYER
  5
10
100
AcDbSymbolTableRecord
100
AcDbLayerTableRecord
  2
0
 70
0
 62
7
  6
CONTINUOUS
370
-3
390
F
  0
LAYER
  5
1FA
100
AcDbSymbolTableRecord
100
AcDbLayerTableRecord
  2
DEFAULT_1
 70
0
 62
7
  6
CENTER
370
-3
390
F
  0
LAYER
  5
1FB
100
AcDbSymbolTableRecord
100
AcDbLayerTableRecord
  2
DEFAULT_2
 70
0
 62
8
  6
HIDDEN
370
-3
390
F
  0
LAYER
  5
1FC
100
AcDbSymbolTableRecord
100
AcDbLayerTableRecord
  2
DEFAULT_3
 70
0
 62
7
  6
PHANTOM
370
-3
390
F
  0
LAYER
  5
1FD
100
AcDbSymbolTableRecord
100
AcDbLayerTableRecord
  2
00_COMPONENTS
 70
0
 62
7
  6
CONTINUOUS
370
-3
390
F
  0
LAYER
  5
1FE
100
AcDbSymbolTableRecord
100
AcDbLayerTableRecord
  2
01_1_DEFAULT_DATUMS
 70
0
 62
7
  6
CONTINUOUS
370
-3
390
F
  0
LAYER
  5
1FF
100
AcDbSymbolTableRecord
100
AcDbLayerTableRecord
  2
01_PLANES
 70
0
 62
7
  6
CONTINUOUS
370
-3
390
F
  0
LAYER
  5
200
100
AcDbSymbolTableRecord
100
AcDbLayerTableRecord
  2
02_COORD_SYS
 70
0
 62
7
  6
CONTINUOUS
370
-3
390
F
  0
LAYER
  5
201
100
AcDbSymbolTableRecord
100
AcDbLayerTableRecord
  2
03_AXES
 70
0
 62
7
  6
CONTINUOUS
370
-3
390
F
  0
LAYER
  5
202
100
AcDbSymbolTableRecord
100
AcDbLayerTableRecord
  2
04_POINTS
 70
0
 62
7
  6
CONTINUOUS
370
-3
390
F
  0
LAYER
  5
203
100
AcDbSymbolTableRecord
100
AcDbLayerTableRecord
  2
05_CURVES
 70
0
 62
7
  6
CONTINUOUS
370
-3
390
F
  0
LAYER
  5
204
100
AcDbSymbolTableRecord
100
AcDbLayerTableRecord
  2
06_SURFS
 70
0
 62
7
  6
CONTINUOUS
370
-3
390
F
  0
LAYER
  5
205
100
AcDbSymbolTableRecord
100
AcDbLayerTableRecord
  2
07_COSMETICS
 70
0
 62
7
  6
CONTINUOUS
370
-3
390
F
  0
LAYER
  5
206
100
AcDbSymbolTableRecord
100
AcDbLayerTableRecord
  2
10_NOTES
 70
0
 62
7
  6
CONTINUOUS
370
-3
390
F
  0
LAYER
  5
207
100
AcDbSymbolTableRecord
100
AcDbLayerTableRecord
  2
11_NOTES_PUB
 70
0
 62
7
  6
CONTINUOUS
370
-3
390
F
  0
LAYER
  5
208
100
AcDbSymbolTableRecord
100
AcDbLayerTableRecord
  2
13_REF_GTOL
 70
0
 62
7
  6
CONTINUOUS
370
-3
390
F
  0
LAYER
  5
209
100
AcDbSymbolTableRecord
100
AcDbLayerTableRecord
  2
16_MISC
 70
0
 62
7
  6
CONTINUOUS
370
-3
390
F
  0
LAYER
  5
20A
100
AcDbSymbolTableRecord
100
AcDbLayerTableRecord
  2
17_NO_PRINT
 70
0
 62
7
  6
CONTINUOUS
370
-3
390
F
  0
LAYER
  5
20B
100
AcDbSymbolTableRecord
100
AcDbLayerTableRecord
  2
18_DATUM_CAMS_JOINTS
 70
0
 62
7
  6
CONTINUOUS
370
-3
390
F
  0
LAYER
  5
20C
100
AcDbSymbolTableRecord
100
AcDbLayerTableRecord
  2
19_DATUM_FUNCTIONAL
 70
0
 62
7
  6
CONTINUOUS
370
-3
390
F
  0
LAYER
  5
20D
100
AcDbSymbolTableRecord
100
AcDbLayerTableRecord
  2
20_DATUM_KINEMATIC_SCHEME
 70
0
 62
7
  6
CONTINUOUS
370
-3
390
F
  0
ENDTAB
  0
TABLE
  2
STYLE
  5
3
100
AcDbSymbolTable
 70
1
  0
STYLE
  5
11
100
AcDbSymbolTableRecord
100
AcDbTextStyleTableRecord
  2
STANDARD
 70
0
 40
0.0
 41
0.8
 50
0.0
 71
0
 42
0.2
  3
txt
  4

  0
STYLE
  5
20E
100
AcDbSymbolTableRecord
100
AcDbTextStyleTableRecord
  2
TEXTSTYLE_1
 70
0
 40
0.0
 41
0.8
 50
0.0
 71
0
 42
0.2
  3
gdt
  4

  0
ENDTAB
  0
TABLE
  2
VIEW
  5
6
100
AcDbSymbolTable
 70
0
  0
ENDTAB
  0
TABLE
  2
UCS
  5
7
100
AcDbSymbolTable
 70
0
  0
ENDTAB
  0
TABLE
  2
APPID
  5
9
100
AcDbSymbolTable
 70
1
  0
APPID
  5
20F
100
AcDbSymbolTableRecord
100
AcDbRegAppTableRecord
  2
ACAD
 70
0
  0
ENDTAB
  0
TABLE
  2
BLOCK_RECORD
  5
1
100
AcDbSymbolTable
 70
0
  0
BLOCK_RECORD
  5
210
100
AcDbSymbolTableRecord
100
AcDbBlockTableRecord
  2
*Model_Space
  0
BLOCK_RECORD
  5
211
100
AcDbSymbolTableRecord
100
AcDbBlockTableRecord
  2
*Paper_Space
  0
BLOCK_RECORD
  5
212
100
AcDbSymbolTableRecord
100
AcDbBlockTableRecord
  2
_FILLED
  0
ENDTAB
  0
TABLE
  2
DIMSTYLE
  5
A
100
AcDbSymbolTable
 70
1
100
AcDbDimStyleTable
 71
0
  0
DIMSTYLE
105
213
100
AcDbSymbolTableRecord
100
AcDbDimStyleTableRecord
  2
STANDARD
 70
0
  3

  4

 40
1.0
 41
4.6415628775
 42
1.0
 43
0.38
 44
1.0
 45
0.0
 46
0.0
 47
0.01
 48
0.01
140
6.4981880285
141
0.09
142
0.0
143
25.4
144
1.0
145
0.0
146
1.0
147
0.625
 71
1
 72
0
 73
0
 74
0
 75
0
 76
0
 77
1
 78
8
 79
2
170
0
171
1
172
0
173
0
174
0
175
0
176
0
177
0
178
0
270
2
179
2
271
2
272
2
273
2
274
2
275
0
280
0
281
0
282
0
283
1
284
8
285
0
286
0
287
3
288
0
340
11
278
46
341
212
342
212
343
212
344
212
  0
ENDTAB
  0
ENDSEC
  0
SECTION
  2
BLOCKS
  0
BLOCK
  5
20
100
AcDbEntity
  8
0
100
AcDbBlockBegin
  2
*Model_Space
 70
0
 10
0.0
 20
0.0
 30
0.0
  3
*Model_Space
  1

  0
ENDBLK
  5
21
100
AcDbEntity
  8
0
100
AcDbBlockEnd
  0
BLOCK
  5
1C
100
AcDbEntity
  8
0
100
AcDbBlockBegin
  2
*Paper_Space
 70
0
 10
0.0
 20
0.0
 30
0.0
  3
*Paper_Space
  1

  0
ENDBLK
  5
1D
100
AcDbEntity
  8
0
100
AcDbBlockEnd
  0
BLOCK
  5
214
100
AcDbEntity
  8
0
100
AcDbBlockBegin
  2
_FILLED
 70
64
 10
0.0
 20
0.0
  3
_FILLED
  1

  0
SOLID
  5
215
100
AcDbEntity
  8
0
  6
BYBLOCK
 62
0
100
AcDbTrace
 10
0.0
 20
0.0
 11
-1.0
 21
0.25
 12
-1.0
 22
-0.25
 13
-1.0
 23
-0.25
  0
ENDBLK
  5
216
100
AcDbEntity
  8
0
  6
BYBLOCK
 62
0
100
AcDbBlockEnd
  0
ENDSEC
  0
SECTION
  2
ENTITIES
  0
LINE
  5
217
100
AcDbEntity
  8
0
100
AcDbLine
 62
7
  6
CONTINUOUS
 10
41.9407720779
 20
243.5061991027
 11
41.3991048818
 21
250.2061991027
  0
LINE
  5
218
100
AcDbEntity
  8
0
100
AcDbLine
 62
7
  6
CONTINUOUS
 10
48.8705706806
 20
243.5061991027
 11
48.8461048812
 21
250.2061991027
  0
LINE
  5
219
100
AcDbEntity
  8
0
100
AcDbLine
 62
7
  6
CONTINUOUS
 10
48.5716185431
 20
250.2144018415
 11
49.4469734446
 21
279.5061991027
  0
LINE
  5
21A
100
AcDbEntity
  8
0
100
AcDbLine
 62
7
  6
CONTINUOUS
 10
50.7705727829
 20
277.0802976879
 11
50.7705727829
 21
275.5061991027
  0
LINE
  5
21B
100
AcDbEntity
  8
0
100
AcDbLine
 62
7
  6
CONTINUOUS
 10
53.8705706865
 20
279.5061991027
 11
53.8705803578
 21
277.9033169729
  0
LINE
  5
21C
100
AcDbEntity
  8
0
100
AcDbLine
 62
7
  6
CONTINUOUS
 10
56.3705727829
 20
277.0802976879
 11
56.3705727829
 21
275.5061991027
  0
LINE
  5
21D
100
AcDbEntity
  8
0
100
AcDbLine
 62
7
  6
CONTINUOUS
 10
57.9226312274
 20
275.5061991027
 11
57.958150644
 21
279.5061991027
  0
LINE
  5
21E
100
AcDbEntity
  8
0
100
AcDbLine
 62
7
  6
CONTINUOUS
 10
52.6212277029
 20
275.5061991027
 11
52.0810289995
 21
250.2061991027
  0
LINE
  5
21F
100
AcDbEntity
  8
0
100
AcDbLine
 62
7
  6
CONTINUOUS
 10
61.6205706809
 20
270.2061991027
 11
61.6205706809
 21
259.1061991027
  0
LINE
  5
220
100
AcDbEntity
  8
0
100
AcDbLine
 62
7
  6
CONTINUOUS
 10
62.3205706809
 20
279.5061991027
 11
62.3205706809
 21
273.5061991027
  0
LINE
  5
221
100
AcDbEntity
  8
0
100
AcDbLine
 62
7
  6
CONTINUOUS
 10
62.5205706809
 20
265.6061991027
 11
62.5205706809
 21
269.1061991027
  0
LINE
  5
222
100
AcDbEntity
  8
0
100
AcDbLine
 62
7
  6
CONTINUOUS
 10
62.6205706809
 20
278.6061991027
 11
62.6205706809
 21
274.5061991027
  0
LINE
  5
223
100
AcDbEntity
  8
0
100
AcDbLine
 62
7
  6
CONTINUOUS
 10
62.6205706809
 20
270.2061991027
 11
62.6205706809
 21
269.4061991027
  0
LINE
  5
224
100
AcDbEntity
  8
0
100
AcDbLine
 62
7
  6
CONTINUOUS
 10
63.6205706809
 20
273.5061991027
 11
63.6205706809
 21
270.2061991027
  0
LINE
  5
225
100
AcDbEntity
  8
0
100
AcDbLine
 62
7
  6
CONTINUOUS
 10
63.6205706809
 20
265.6061991027
 11
63.6205706809
 21
259.1061991027
  0
LINE
  5
226
100
AcDbEntity
  8
0
100
AcDbLine
 62
7
  6
CONTINUOUS
 10
63.6205706809
 20
269.1061991027
 11
63.6205706809
 21
269.4061991027
  0
LINE
  5
227
100
AcDbEntity
  8
0
100
AcDbLine
 62
7
  6
CONTINUOUS
 10
63.8705706809
 20
274.5061991027
 11
63.8705706809
 21
270.2061991027
  0
LINE
  5
228
100
AcDbEntity
  8
0
100
AcDbLine
 62
7
  6
CONTINUOUS
 10
63.8705706809
 20
269.4061991027
 11
63.8705706809
 21
269.1061991027
  0
LINE
  5
229
100
AcDbEntity
  8
0
100
AcDbLine
 62
7
  6
CONTINUOUS
 10
65.6205706809
 20
265.6061991027
 11
65.6205706809
 21
269.1061991027
  0
LINE
  5
22A
100
AcDbEntity
  8
0
100
AcDbLine
 62
7
  6
CONTINUOUS
 10
67.3705706809
 20
274.5061991027
 11
67.3705706809
 21
270.2061991027
  0
LINE
  5
22B
100
AcDbEntity
  8
0
100
AcDbLine
 62
7
  6
CONTINUOUS
 10
67.3705706809
 20
269.4061991027
 11
67.3705706809
 21
269.1061991027
  0
LINE
  5
22C
100
AcDbEntity
  8
0
100
AcDbLine
 62
7
  6
CONTINUOUS
 10
67.6205706809
 20
265.6061991027
 11
67.6205706809
 21
259.1061991027
  0
LINE
  5
22D
100
AcDbEntity
  8
0
100
AcDbLine
 62
7
  6
CONTINUOUS
 10
67.6205706809
 20
270.2061991027
 11
67.6205706809
 21
273.5061991027
  0
LINE
  5
22E
100
AcDbEntity
  8
0
100
AcDbLine
 62
7
  6
CONTINUOUS
 10
68.6205706809
 20
278.6061991027
 11
68.6205706809
 21
274.5061991027
  0
LINE
  5
22F
100
AcDbEntity
  8
0
100
AcDbLine
 62
7
  6
CONTINUOUS
 10
68.6205706809
 20
270.2061991027
 11
68.6205706809
 21
269.4061991027
  0
LINE
  5
230
100
AcDbEntity
  8
0
100
AcDbLine
 62
7
  6
CONTINUOUS
 10
68.6205706809
 20
259.1061991027
 11
68.6205706809
 21
254.6297264184
  0
LINE
  5
231
100
AcDbEntity
  8
0
100
AcDbLine
 62
7
  6
CONTINUOUS
 10
68.8205706819
 20
256.1061991027
 11
68.8205706819
 21
259.1061991027
  0
LINE
  5
232
100
AcDbEntity
  8
0
100
AcDbLine
 62
7
  6
CONTINUOUS
 10
68.9205706819
 20
273.5061991027
 11
68.9205706819
 21
279.5061991027
  0
LINE
  5
233
100
AcDbEntity
  8
0
100
AcDbLine
 62
7
  6
CONTINUOUS
 10
69.2205706809
 20
257.2061991027
 11
69.2205706809
 21
265.6061991027
  0
LINE
  5
234
100
AcDbEntity
  8
0
100
AcDbLine
 62
7
  6
CONTINUOUS
 10
70.1205706819
 20
270.2061991027
 11
70.1205707572
 21
269.1061991027
  0
LINE
  5
235
100
AcDbEntity
  8
0
100
AcDbLine
 62
7
  6
CONTINUOUS
 10
70.1205719232
 20
257.2061991027
 11
70.1205722019
 21
256.1061991027
  0
LINE
  5
236
100
AcDbEntity
  8
0
100
AcDbLine
 62
7
  6
CONTINUOUS
 10
50.7705727829
 20
277.0802976879
 11
50.9162785625
 21
277.3435017056
  0
LINE
  5
237
100
AcDbEntity
  8
0
100
AcDbLine
 62
7
  6
CONTINUOUS
 10
72.1205706809
 20
270.2061991027
 11
72.1205706809
 21
269.1061991027
  0
LINE
  5
238
100
AcDbEntity
  8
0
100
AcDbLine
 62
7
  6
CONTINUOUS
 10
72.1205706809
 20
257.2061991027
 11
72.1205706809
 21
255.1224414875
  0
LINE
  5
239
100
AcDbEntity
  8
0
100
AcDbLine
 62
7
  6
CONTINUOUS
 10
72.257325036
 20
255.0775277069
 11
72.2573250603
 21
257.2061991027
  0
LINE
  5
23A
100
AcDbEntity
  8
0
100
AcDbLine
 62
7
  6
CONTINUOUS
 10
72.2573251235
 20
269.1061991027
 11
72.2573251281
 21
270.2061991027
  0
LINE
  5
23B
100
AcDbEntity
  8
0
100
AcDbLine
 62
7
  6
CONTINUOUS
 10
72.7205669979
 20
269.1061991027
 11
72.7205669979
 21
257.2061991027
  0
LINE
  5
23C
100
AcDbEntity
  8
0
100
AcDbLine
 62
7
  6
CONTINUOUS
 10
73.2205706809
 20
269.1061991027
 11
73.2205706809
 21
257.2061991027
  0
LINE
  5
23D
100
AcDbEntity
  8
0
100
AcDbLine
 62
7
  6
CONTINUOUS
 10
73.4838162351
 20
270.2061991027
 11
73.4838162351
 21
254.9807508268
  0
LINE
  5
23E
100
AcDbEntity
  8
0
100
AcDbLine
 62
7
  6
CONTINUOUS
 10
73.6205706809
 20
254.6297264185
 11
73.6205706809
 21
270.2061991027
  0
LINE
  5
23F
100
AcDbEntity
  8
0
100
AcDbLine
 62
7
  6
CONTINUOUS
 10
56.3705727829
 20
277.0802976879
 11
56.2248670033
 21
277.3435017056
  0
LINE
  5
240
100
AcDbEntity
  8
0
100
AcDbLine
 62
7
  6
CONTINUOUS
 10
154.6205706809
 20
276.3136819753
 11
154.6205706809
 21
261.7934337597
  0
LINE
  5
241
100
AcDbEntity
  8
0
100
AcDbLine
 62
7
  6
CONTINUOUS
 10
155.1091735168
 20
276.4075290183
 11
155.1091735168
 21
276.8019901815
  0
LINE
  5
242
100
AcDbEntity
  8
0
100
AcDbLine
 62
7
  6
CONTINUOUS
 10
155.1205706809
 20
268.5061991027
 11
155.1205706809
 21
275.5061991027
  0
LINE
  5
243
100
AcDbEntity
  8
0
100
AcDbLine
 62
7
  6
CONTINUOUS
 10
157.1205706809
 20
275.5061991027
 11
157.1205706809
 21
268.5061991027
  0
LINE
  5
244
100
AcDbEntity
  8
0
100
AcDbLine
 62
7
  6
CONTINUOUS
 10
157.1232502848
 20
276.8019895229
 11
157.1232502848
 21
276.4075283589
  0
LINE
  5
245
100
AcDbEntity
  8
0
100
AcDbLine
 62
7
  6
CONTINUOUS
 10
157.6205706809
 20
261.7803922421
 11
157.6205706809
 21
276.3049686905
  0
LINE
  5
246
100
AcDbEntity
  8
0
100
AcDbLine
 62
7
  6
CONTINUOUS
 10
160.12057061
 20
267.9656812866
 11
160.1205608194
 21
261.470826306
  0
LINE
  5
247
100
AcDbEntity
  8
0
100
AcDbLine
 62
7
  6
CONTINUOUS
 10
160.6804647977
 20
268.4026750027
 11
160.6804647977
 21
268.5252366529
  0
LINE
  5
248
100
AcDbEntity
  8
0
100
AcDbLine
 62
7
  6
CONTINUOUS
 10
161.1205706809
 20
261.5061991027
 11
161.1205706809
 21
268.467535766
  0
LINE
  5
249
100
AcDbEntity
  8
0
100
AcDbLine
 62
7
  6
CONTINUOUS
 10
349.3003692498
 20
243.5061991027
 11
342.3710417954
 21
243.5061991027
  0
LINE
  5
24A
100
AcDbEntity
  8
0
100
AcDbLine
 62
7
  6
CONTINUOUS
 10
41.9407720779
 20
243.5061991027
 11
342.3705705914
 21
243.5061991027
  0
LINE
  5
24B
100
AcDbEntity
  8
0
100
AcDbLine
 62
7
  6
CONTINUOUS
 10
73.4838162364
 20
254.9807508266
 11
72.2573243466
 21
255.0775277612
  0
LINE
  5
24C
100
AcDbEntity
  8
0
100
AcDbLine
 62
7
  6
CONTINUOUS
 10
170.1205706809
 20
261.5061991027
 11
170.1205706809
 21
268.4675270953
  0
LINE
  5
24D
100
AcDbEntity
  8
0
100
AcDbLine
 62
7
  6
CONTINUOUS
 10
170.6049796842
 20
268.4026654335
 11
170.6049796842
 21
268.5252270836
  0
LINE
  5
24E
100
AcDbEntity
  8
0
100
AcDbLine
 62
7
  6
CONTINUOUS
 10
171.1205804468
 20
268.0099357903
 11
171.1205707773
 21
261.6003700876
  0
LINE
  5
24F
100
AcDbEntity
  8
0
100
AcDbLine
 62
7
  6
CONTINUOUS
 10
173.6205706809
 20
276.3422233734
 11
173.6205706809
 21
261.7727008391
  0
LINE
  5
250
100
AcDbEntity
  8
0
100
AcDbLine
 62
7
  6
CONTINUOUS
 10
174.0806148494
 20
276.407529023
 11
174.0806148494
 21
276.8019901862
  0
LINE
  5
251
100
AcDbEntity
  8
0
100
AcDbLine
 62
7
  6
CONTINUOUS
 10
174.1205706809
 20
268.5061991027
 11
174.1205706809
 21
275.5061991027
  0
LINE
  5
252
100
AcDbEntity
  8
0
100
AcDbLine
 62
7
  6
CONTINUOUS
 10
41.3991048819
 20
250.2061991027
 11
349.8420364867
 21
250.2061991027
  0
LINE
  5
253
100
AcDbEntity
  8
0
100
AcDbLine
 62
7
  6
CONTINUOUS
 10
333.6205706809
 20
254.6297264185
 11
328.6205706809
 21
254.6297264185
  0
LINE
  5
254
100
AcDbEntity
  8
0
100
AcDbLine
 62
7
  6
CONTINUOUS
 10
73.6205706809
 20
254.6297264185
 11
68.6205706809
 21
254.6297264185
  0
LINE
  5
255
100
AcDbEntity
  8
0
100
AcDbLine
 62
7
  6
CONTINUOUS
 10
328.6259491399
 20
256.069761368
 11
330.8899334679
 21
256.0697658157
  0
LINE
  5
256
100
AcDbEntity
  8
0
100
AcDbLine
 62
7
  6
CONTINUOUS
 10
68.8205706819
 20
256.1061991027
 11
70.1205722019
 21
256.1061991027
  0
LINE
  5
257
100
AcDbEntity
  8
0
100
AcDbLine
 62
7
  6
CONTINUOUS
 10
69.2205706809
 20
257.2061991027
 11
73.2205706809
 21
257.2061991027
  0
LINE
  5
258
100
AcDbEntity
  8
0
100
AcDbLine
 62
7
  6
CONTINUOUS
 10
329.2205706809
 20
257.2061991027
 11
333.2205706809
 21
257.2061991027
  0
LINE
  5
259
100
AcDbEntity
  8
0
100
AcDbLine
 62
7
  6
CONTINUOUS
 10
176.1205706809
 20
268.5061991027
 11
176.1205706809
 21
275.5061991027
  0
LINE
  5
25A
100
AcDbEntity
  8
0
100
AcDbLine
 62
7
  6
CONTINUOUS
 10
176.1251577776
 20
276.801989757
 11
176.1251577776
 21
276.4075285932
  0
LINE
  5
25B
100
AcDbEntity
  8
0
100
AcDbLine
 62
7
  6
CONTINUOUS
 10
176.6205706809
 20
261.8530712796
 11
176.6205706809
 21
276.3068753264
  0
LINE
  5
25C
100
AcDbEntity
  8
0
100
AcDbLine
 62
7
  6
CONTINUOUS
 10
61.6205706809
 20
259.1061991027
 11
68.8205706808
 21
259.1061991027
  0
LINE
  5
25D
100
AcDbEntity
  8
0
100
AcDbLine
 62
7
  6
CONTINUOUS
 10
321.6205706809
 20
259.1061991027
 11
328.6205706809
 21
259.1061991027
  0
LINE
  5
25E
100
AcDbEntity
  8
0
100
AcDbLine
 62
7
  6
CONTINUOUS
 10
328.62594914
 20
259.1061991027
 11
329.2205706809
 21
259.1061991027
  0
LINE
  5
25F
100
AcDbEntity
  8
0
100
AcDbLine
 62
7
  6
CONTINUOUS
 10
170.5438106906
 20
261.023957604
 11
160.5676879549
 21
261.0239670977
  0
LINE
  5
260
100
AcDbEntity
  8
0
100
AcDbLine
 62
7
  6
CONTINUOUS
 10
176.0678851963
 20
261.3007164243
 11
174.0928485135
 21
261.3007076468
  0
LINE
  5
261
100
AcDbEntity
  8
0
100
AcDbLine
 62
7
  6
CONTINUOUS
 10
157.1406080615
 20
261.3007167475
 11
155.1135938453
 21
261.300707739
  0
LINE
  5
262
100
AcDbEntity
  8
0
100
AcDbLine
 62
7
  6
CONTINUOUS
 10
161.1205706809
 20
261.5061991027
 11
170.1205706809
 21
261.5061991027
  0
LINE
  5
263
100
AcDbEntity
  8
0
100
AcDbLine
 62
7
  6
CONTINUOUS
 10
170.1205706809
 20
262.38487876
 11
161.1205706809
 21
262.38487876
  0
LINE
  5
264
100
AcDbEntity
  8
0
100
AcDbLine
 62
7
  6
CONTINUOUS
 10
161.1205706809
 20
263.206199102
 11
170.1205706809
 21
263.206199102
  0
LINE
  5
265
100
AcDbEntity
  8
0
100
AcDbLine
 62
7
  6
CONTINUOUS
 10
161.1205706809
 20
263.4061991031
 11
170.1205706809
 21
263.4061991031
  0
LINE
  5
266
100
AcDbEntity
  8
0
100
AcDbLine
 62
7
  6
CONTINUOUS
 10
161.1205706809
 20
263.9061991031
 11
170.1205706809
 21
263.9061991031
  0
LINE
  5
267
100
AcDbEntity
  8
0
100
AcDbLine
 62
7
  6
CONTINUOUS
 10
161.1205706809
 20
264.4061991031
 11
170.1205706809
 21
264.4061991031
  0
LINE
  5
268
100
AcDbEntity
  8
0
100
AcDbLine
 62
7
  6
CONTINUOUS
 10
161.1205706809
 20
264.6061991023
 11
170.1205706809
 21
264.6061991023
  0
LINE
  5
269
100
AcDbEntity
  8
0
100
AcDbLine
 62
7
  6
CONTINUOUS
 10
161.1205706809
 20
265.1061991023
 11
170.1205706809
 21
265.1061991023
  0
LINE
  5
26A
100
AcDbEntity
  8
0
100
AcDbLine
 62
7
  6
CONTINUOUS
 10
62.5205706809
 20
265.6061991027
 11
69.2205706809
 21
265.6061991027
  0
LINE
  5
26B
100
AcDbEntity
  8
0
100
AcDbLine
 62
7
  6
CONTINUOUS
 10
161.1205706809
 20
265.6061991023
 11
170.1205706809
 21
265.6061991023
  0
LINE
  5
26C
100
AcDbEntity
  8
0
100
AcDbLine
 62
7
  6
CONTINUOUS
 10
322.5205706809
 20
265.6061991027
 11
329.2205706809
 21
265.6061991027
  0
LINE
  5
26D
100
AcDbEntity
  8
0
100
AcDbLine
 62
7
  6
CONTINUOUS
 10
161.1205706809
 20
265.8061991034
 11
170.1205706809
 21
265.8061991034
  0
LINE
  5
26E
100
AcDbEntity
  8
0
100
AcDbLine
 62
7
  6
CONTINUOUS
 10
161.1205706809
 20
266.3061991034
 11
170.1205706809
 21
266.3061991034
  0
LINE
  5
26F
100
AcDbEntity
  8
0
100
AcDbLine
 62
7
  6
CONTINUOUS
 10
161.1205706809
 20
266.8061991034
 11
170.1205706809
 21
266.8061991034
  0
LINE
  5
270
100
AcDbEntity
  8
0
100
AcDbLine
 62
7
  6
CONTINUOUS
 10
161.1205706809
 20
267.0061991027
 11
170.1205706809
 21
267.0061991027
  0
LINE
  5
271
100
AcDbEntity
  8
0
100
AcDbLine
 62
7
  6
CONTINUOUS
 10
161.1205706809
 20
267.5061991027
 11
170.1205706809
 21
267.5061991027
  0
LINE
  5
272
100
AcDbEntity
  8
0
100
AcDbLine
 62
7
  6
CONTINUOUS
 10
333.4838162338
 20
254.9807508269
 11
332.2573249933
 21
255.0775277104
  0
LINE
  5
273
100
AcDbEntity
  8
0
100
AcDbLine
 62
7
  6
CONTINUOUS
 10
340.1150520225
 20
277.3435720508
 11
340.3234263142
 21
277.3444025123
  0
LINE
  5
274
100
AcDbEntity
  8
0
100
AcDbLine
 62
7
  6
CONTINUOUS
 10
160.6804647977
 20
268.4026750027
 11
161.1205706809
 21
268.4026745784
  0
LINE
  5
275
100
AcDbEntity
  8
0
100
AcDbLine
 62
7
  6
CONTINUOUS
 10
170.1205706809
 20
268.4026659006
 11
170.6049796842
 21
268.4026654335
  0
LINE
  5
276
100
AcDbEntity
  8
0
100
AcDbLine
 62
7
  6
CONTINUOUS
 10
170.1205706809
 20
268.4675270953
 11
161.1205706809
 21
268.467535766
  0
LINE
  5
277
100
AcDbEntity
  8
0
100
AcDbLine
 62
7
  6
CONTINUOUS
 10
155.1205706809
 20
268.5061991027
 11
157.1205706809
 21
268.5061991027
  0
LINE
  5
278
100
AcDbEntity
  8
0
100
AcDbLine
 62
7
  6
CONTINUOUS
 10
174.1205706809
 20
268.5061991027
 11
176.1205706809
 21
268.5061991027
  0
LINE
  5
279
100
AcDbEntity
  8
0
100
AcDbLine
 62
7
  6
CONTINUOUS
 10
160.680463414
 20
268.525236653
 11
170.6049784093
 21
268.5252270837
  0
LINE
  5
27A
100
AcDbEntity
  8
0
100
AcDbLine
 62
7
  6
CONTINUOUS
 10
176.1205706809
 20
268.8061991034
 11
174.1205706809
 21
268.8061991034
  0
LINE
  5
27B
100
AcDbEntity
  8
0
100
AcDbLine
 62
7
  6
CONTINUOUS
 10
157.1205706809
 20
268.8061991034
 11
155.1205706809
 21
268.8061991034
  0
LINE
  5
27C
100
AcDbEntity
  8
0
100
AcDbLine
 62
7
  6
CONTINUOUS
 10
62.521742907
 20
269.1061991027
 11
73.2205706809
 21
269.1061991027
  0
LINE
  5
27D
100
AcDbEntity
  8
0
100
AcDbLine
 62
7
  6
CONTINUOUS
 10
322.521742907
 20
269.1061991027
 11
333.2205706809
 21
269.1061991027
  0
LINE
  5
27E
100
AcDbEntity
  8
0
100
AcDbLine
 62
7
  6
CONTINUOUS
 10
155.1205706809
 20
269.3365878778
 11
157.1205706809
 21
269.3365878778
  0
LINE
  5
27F
100
AcDbEntity
  8
0
100
AcDbLine
 62
7
  6
CONTINUOUS
 10
174.1205706809
 20
269.3365878778
 11
176.1205706809
 21
269.3365878778
  0
LINE
  5
280
100
AcDbEntity
  8
0
100
AcDbLine
 62
7
  6
CONTINUOUS
 10
328.6205706809
 20
269.4061991027
 11
322.6205706809
 21
269.4061991027
  0
LINE
  5
281
100
AcDbEntity
  8
0
100
AcDbLine
 62
7
  6
CONTINUOUS
 10
68.6205706809
 20
269.4061991027
 11
62.6205706809
 21
269.4061991027
  0
LINE
  5
282
100
AcDbEntity
  8
0
100
AcDbLine
 62
7
  6
CONTINUOUS
 10
176.1205706809
 20
269.6408036502
 11
174.1205706809
 21
269.6408036502
  0
LINE
  5
283
100
AcDbEntity
  8
0
100
AcDbLine
 62
7
  6
CONTINUOUS
 10
157.1205706809
 20
269.6408036502
 11
155.1205706809
 21
269.6408036502
  0
LINE
  5
284
100
AcDbEntity
  8
0
100
AcDbLine
 62
7
  6
CONTINUOUS
 10
61.6205706809
 20
270.2061991027
 11
73.6205706809
 21
270.2061991027
  0
LINE
  5
285
100
AcDbEntity
  8
0
100
AcDbLine
 62
7
  6
CONTINUOUS
 10
321.6205706809
 20
270.2061991027
 11
333.6205706809
 21
270.2061991027
  0
LINE
  5
286
100
AcDbEntity
  8
0
100
AcDbLine
 62
7
  6
CONTINUOUS
 10
62.3205706809
 20
273.5061991027
 11
63.8705706809
 21
273.5061991027
  0
LINE
  5
287
100
AcDbEntity
  8
0
100
AcDbLine
 62
7
  6
CONTINUOUS
 10
67.3705706809
 20
273.5061991027
 11
68.9205706819
 21
273.5061991027
  0
LINE
  5
288
100
AcDbEntity
  8
0
100
AcDbLine
 62
7
  6
CONTINUOUS
 10
322.3205706809
 20
273.5061991027
 11
323.8705706809
 21
273.5061991027
  0
LINE
  5
289
100
AcDbEntity
  8
0
100
AcDbLine
 62
7
  6
CONTINUOUS
 10
327.3705706809
 20
273.5061991027
 11
328.9205706819
 21
273.5061991027
  0
LINE
  5
28A
100
AcDbEntity
  8
0
100
AcDbLine
 62
7
  6
CONTINUOUS
 10
328.6205706809
 20
274.5061991027
 11
322.6205706809
 21
274.5061991027
  0
LINE
  5
28B
100
AcDbEntity
  8
0
100
AcDbLine
 62
7
  6
CONTINUOUS
 10
68.6205706809
 20
274.5061991027
 11
62.6205706809
 21
274.5061991027
  0
LINE
  5
28C
100
AcDbEntity
  8
0
100
AcDbLine
 62
7
  6
CONTINUOUS
 10
155.1205706809
 20
275.3104148748
 11
157.1205706809
 21
275.3104148748
  0
LINE
  5
28D
100
AcDbEntity
  8
0
100
AcDbLine
 62
7
  6
CONTINUOUS
 10
174.1205706809
 20
275.3104148748
 11
176.1205706809
 21
275.3104148748
  0
LINE
  5
28E
100
AcDbEntity
  8
0
100
AcDbLine
 62
7
  6
CONTINUOUS
 10
176.1205706809
 20
275.5061991027
 11
174.1205706809
 21
275.5061991027
  0
LINE
  5
28F
100
AcDbEntity
  8
0
100
AcDbLine
 62
7
  6
CONTINUOUS
 10
157.1205706809
 20
275.5061991027
 11
155.1205706809
 21
275.5061991027
  0
LINE
  5
290
100
AcDbEntity
  8
0
100
AcDbLine
 62
7
  6
CONTINUOUS
 10
49.3274376049
 20
275.5061991027
 11
57.9226312271
 21
275.5061991027
  0
LINE
  5
291
100
AcDbEntity
  8
0
100
AcDbLine
 62
7
  6
CONTINUOUS
 10
333.3185101325
 20
275.5061991027
 11
341.7827508719
 21
275.5061991027
  0
LINE
  5
292
100
AcDbEntity
  8
0
100
AcDbLine
 62
7
  6
CONTINUOUS
 10
157.1232773204
 20
276.4075283589
 11
155.1091466346
 21
276.4075290184
  0
LINE
  5
293
100
AcDbEntity
  8
0
100
AcDbLine
 62
7
  6
CONTINUOUS
 10
176.1251847095
 20
276.4075285932
 11
174.0805895386
 21
276.407529023
  0
LINE
  5
294
100
AcDbEntity
  8
0
100
AcDbLine
 62
7
  6
CONTINUOUS
 10
155.1091733751
 20
276.8019901816
 11
157.1232501224
 21
276.8019895229
  0
LINE
  5
295
100
AcDbEntity
  8
0
100
AcDbLine
 62
7
  6
CONTINUOUS
 10
174.0806148607
 20
276.8019901863
 11
176.1251576734
 21
276.801989757
  0
LINE
  5
296
100
AcDbEntity
  8
0
100
AcDbLine
 62
7
  6
CONTINUOUS
 10
50.7705727829
 20
277.0802976879
 11
56.3705727829
 21
277.0802976879
  0
LINE
  5
297
100
AcDbEntity
  8
0
100
AcDbLine
 62
7
  6
CONTINUOUS
 10
334.8705727829
 20
277.0802976879
 11
340.4705727829
 21
277.0802976879
  0
LINE
  5
298
100
AcDbEntity
  8
0
100
AcDbLine
 62
7
  6
CONTINUOUS
 10
338.9431082519
 20
277.3435016526
 11
340.1150520225
 21
277.3435720508
  0
LINE
  5
299
100
AcDbEntity
  8
0
100
AcDbLine
 62
7
  6
CONTINUOUS
 10
335.0160655518
 20
277.3433666698
 11
338.9431082519
 21
277.3435016526
  0
LINE
  5
29A
100
AcDbEntity
  8
0
100
AcDbLine
 62
7
  6
CONTINUOUS
 10
339.0799911044
 20
277.903319241
 11
336.2607434854
 21
277.903319241
  0
LINE
  5
29B
100
AcDbEntity
  8
0
100
AcDbLine
 62
7
  6
CONTINUOUS
 10
54.9798968672
 20
277.903319241
 11
52.1607505538
 21
277.903319241
  0
LINE
  5
29C
100
AcDbEntity
  8
0
100
AcDbLine
 62
7
  6
CONTINUOUS
 10
51.0564164694
 20
277.3435363084
 11
56.2250782545
 21
277.3433680516
  0
LINE
  5
29D
100
AcDbEntity
  8
0
100
AcDbLine
 62
7
  6
CONTINUOUS
 10
50.9177295783
 20
277.3444088958
 11
51.0564164694
 21
277.3435363084
  0
LINE
  5
29E
100
AcDbEntity
  8
0
100
AcDbLine
 62
7
  6
CONTINUOUS
 10
62.6205706809
 20
278.6061991027
 11
68.6205706809
 21
278.6061991027
  0
LINE
  5
29F
100
AcDbEntity
  8
0
100
AcDbLine
 62
7
  6
CONTINUOUS
 10
322.6205706809
 20
278.6061991027
 11
328.6205706809
 21
278.6061991027
  0
LINE
  5
2A0
100
AcDbEntity
  8
0
100
AcDbLine
 62
7
  6
CONTINUOUS
 10
49.4469734449
 20
279.5061991027
 11
63.3791493246
 21
279.5061991027
  0
LINE
  5
2A1
100
AcDbEntity
  8
0
100
AcDbLine
 62
7
  6
CONTINUOUS
 10
67.8619920371
 20
279.5061991027
 11
257.7700571667
 21
279.5061991027
  0
LINE
  5
2A2
100
AcDbEntity
  8
0
100
AcDbLine
 62
7
  6
CONTINUOUS
 10
63.6205706809
 20
279.6061991027
 11
67.6205706809
 21
279.6061991027
  0
LINE
  5
2A3
100
AcDbEntity
  8
0
100
AcDbLine
 62
7
  6
CONTINUOUS
 10
323.6205706809
 20
279.6061991027
 11
327.6205706809
 21
279.6061991027
  0
LINE
  5
2A4
100
AcDbEntity
  8
0
100
AcDbLine
 62
7
  6
CONTINUOUS
 10
237.6205706809
 20
280.5111991027
 11
232.1205706809
 21
280.5111991027
  0
LINE
  5
2A5
100
AcDbEntity
  8
0
100
AcDbLine
 62
7
  6
CONTINUOUS
 10
225.123237429
 20
284.5061991027
 11
232.1205706809
 21
284.5061991027
  0
LINE
  5
2A6
100
AcDbEntity
  8
0
100
AcDbLine
 62
7
  6
CONTINUOUS
 10
237.6205706809
 20
284.5061991028
 11
341.4701442689
 21
284.5061991027
  0
LINE
  5
2A7
100
AcDbEntity
  8
0
100
AcDbLine
 62
7
  6
CONTINUOUS
 10
237.6205706809
 20
287.0111991027
 11
232.1205706809
 21
287.0111991027
  0
LINE
  5
2A8
100
AcDbEntity
  8
0
100
AcDbLine
 62
7
  6
CONTINUOUS
 10
222.0589103625
 20
279.5061991027
 11
224.9456430107
 21
284.5061991027
  0
LINE
  5
2A9
100
AcDbEntity
  8
0
100
AcDbLine
 62
7
  6
CONTINUOUS
 10
225.123237429
 20
284.5061991027
 11
222.236486083
 21
279.5061991027
  0
LINE
  5
2AA
100
AcDbEntity
  8
0
100
AcDbLine
 62
7
  6
CONTINUOUS
 10
237.6205706809
 20
289.0111991027
 11
232.1205706809
 21
289.0111991027
  0
LINE
  5
2AB
100
AcDbEntity
  8
0
100
AcDbLine
 62
7
  6
CONTINUOUS
 10
232.1205706809
 20
279.5061991027
 11
232.1205706809
 21
289.0111991027
  0
LINE
  5
2AC
100
AcDbEntity
  8
0
100
AcDbLine
 62
7
  6
CONTINUOUS
 10
237.6205706809
 20
279.5061991027
 11
237.6205706809
 21
289.0111991027
  0
LINE
  5
2AD
100
AcDbEntity
  8
0
100
AcDbLine
 62
7
  6
CONTINUOUS
 10
258.7051794912
 20
310.5111991027
 11
316.8359633769
 21
310.5111991027
  0
LINE
  5
2AE
100
AcDbEntity
  8
0
100
AcDbLine
 62
7
  6
CONTINUOUS
 10
268.1205706809
 20
310.6111991027
 11
312.1205706809
 21
310.6111991027
  0
LINE
  5
2AF
100
AcDbEntity
  8
0
100
AcDbLine
 62
7
  6
CONTINUOUS
 10
257.7700571667
 20
279.5061991027
 11
257.7700571667
 21
284.5061991027
  0
LINE
  5
2B0
100
AcDbEntity
  8
0
100
AcDbLine
 62
7
  6
CONTINUOUS
 10
257.4419098492
 20
284.5061991029
 11
258.7051794947
 21
310.5111991026
  0
LINE
  5
2B1
100
AcDbEntity
  8
0
100
AcDbLine
 62
7
  6
CONTINUOUS
 10
257.7700571673
 20
284.5061991027
 11
257.5273882464
 21
279.5180046178
  0
LINE
  5
2B2
100
AcDbEntity
  8
0
100
AcDbLine
 62
7
  6
CONTINUOUS
 10
250.589319495
 20
284.5061991027
 11
250.3272805986
 21
279.5061991027
  0
LINE
  5
2B3
100
AcDbEntity
  8
0
100
AcDbLine
 62
7
  6
CONTINUOUS
 10
268.1205706809
 20
310.6111991027
 11
268.1205706809
 21
310.5111991027
  0
LINE
  5
2B4
100
AcDbEntity
  8
0
100
AcDbLine
 62
7
  6
CONTINUOUS
 10
269.1137279846
 20
310.5111991027
 11
269.1137279846
 21
310.6111991027
  0
LINE
  5
2B5
100
AcDbEntity
  8
0
100
AcDbLine
 62
7
  6
CONTINUOUS
 10
310.1340395339
 20
310.6111991027
 11
310.1340395339
 21
310.5111991027
  0
LINE
  5
2B6
100
AcDbEntity
  8
0
100
AcDbLine
 62
7
  6
CONTINUOUS
 10
312.1205706809
 20
310.6111991027
 11
312.1205706809
 21
310.5111991027
  0
LINE
  5
2B7
100
AcDbEntity
  8
0
100
AcDbLine
 62
7
  6
CONTINUOUS
 10
318.0992356989
 20
284.5061991028
 11
316.8359633769
 21
310.5111991027
  0
LINE
  5
2B8
100
AcDbEntity
  8
0
100
AcDbLine
 62
7
  6
CONTINUOUS
 10
321.6205706809
 20
270.2061991027
 11
321.6205706809
 21
259.1061991027
  0
LINE
  5
2B9
100
AcDbEntity
  8
0
100
AcDbLine
 62
7
  6
CONTINUOUS
 10
322.3205706809
 20
284.5061991027
 11
322.3205706809
 21
273.5061991027
  0
LINE
  5
2BA
100
AcDbEntity
  8
0
100
AcDbLine
 62
7
  6
CONTINUOUS
 10
322.5205706809
 20
265.6061991027
 11
322.5205706809
 21
269.1061991027
  0
LINE
  5
2BB
100
AcDbEntity
  8
0
100
AcDbLine
 62
7
  6
CONTINUOUS
 10
322.6205706809
 20
278.6061991027
 11
322.6205706809
 21
274.5061991027
  0
LINE
  5
2BC
100
AcDbEntity
  8
0
100
AcDbLine
 62
7
  6
CONTINUOUS
 10
322.6205706809
 20
270.2061991027
 11
322.6205706809
 21
269.4061991027
  0
LINE
  5
2BD
100
AcDbEntity
  8
0
100
AcDbLine
 62
7
  6
CONTINUOUS
 10
334.8705727829
 20
277.0802976879
 11
335.0162785625
 21
277.3435017056
  0
LINE
  5
2BE
100
AcDbEntity
  8
0
100
AcDbLine
 62
7
  6
CONTINUOUS
 10
340.4705727829
 20
277.0802976879
 11
340.3248670033
 21
277.3435017056
  0
LINE
  5
2BF
100
AcDbEntity
  8
0
100
AcDbLine
 62
7
  6
CONTINUOUS
 10
333.1957153826
 20
284.5061991027
 11
333.3185101319
 21
275.5061991027
  0
LINE
  5
2C0
100
AcDbEntity
  8
0
100
AcDbLine
 62
7
  6
CONTINUOUS
 10
323.6205706809
 20
273.5061991027
 11
323.6205706809
 21
270.2061991027
  0
LINE
  5
2C1
100
AcDbEntity
  8
0
100
AcDbLine
 62
7
  6
CONTINUOUS
 10
323.6205706809
 20
265.6061991027
 11
323.6205706809
 21
259.1061991027
  0
LINE
  5
2C2
100
AcDbEntity
  8
0
100
AcDbLine
 62
7
  6
CONTINUOUS
 10
323.6205706809
 20
269.1061991027
 11
323.6205706809
 21
269.4061991027
  0
LINE
  5
2C3
100
AcDbEntity
  8
0
100
AcDbLine
 62
7
  6
CONTINUOUS
 10
323.8705706809
 20
274.5061991027
 11
323.8705706809
 21
270.2061991027
  0
LINE
  5
2C4
100
AcDbEntity
  8
0
100
AcDbLine
 62
7
  6
CONTINUOUS
 10
323.8705706809
 20
269.4061991027
 11
323.8705706809
 21
269.1061991027
  0
LINE
  5
2C5
100
AcDbEntity
  8
0
100
AcDbLine
 62
7
  6
CONTINUOUS
 10
325.6205706809
 20
265.6061991027
 11
325.6205706809
 21
269.1061991027
  0
LINE
  5
2C6
100
AcDbEntity
  8
0
100
AcDbLine
 62
7
  6
CONTINUOUS
 10
327.3705706809
 20
274.5061991027
 11
327.3705706809
 21
270.2061991027
  0
LINE
  5
2C7
100
AcDbEntity
  8
0
100
AcDbLine
 62
7
  6
CONTINUOUS
 10
327.3705706809
 20
269.4061991027
 11
327.3705706809
 21
269.1061991027
  0
LINE
  5
2C8
100
AcDbEntity
  8
0
100
AcDbLine
 62
7
  6
CONTINUOUS
 10
327.6205706809
 20
265.6061991027
 11
327.6205706809
 21
259.1061991027
  0
LINE
  5
2C9
100
AcDbEntity
  8
0
100
AcDbLine
 62
7
  6
CONTINUOUS
 10
327.6205706809
 20
270.2061991027
 11
327.6205706809
 21
273.5061991027
  0
LINE
  5
2CA
100
AcDbEntity
  8
0
100
AcDbLine
 62
7
  6
CONTINUOUS
 10
328.6205706809
 20
278.6061991027
 11
328.6205706809
 21
274.5061991027
  0
LINE
  5
2CB
100
AcDbEntity
  8
0
100
AcDbLine
 62
7
  6
CONTINUOUS
 10
328.6205706809
 20
270.2061991027
 11
328.6205706809
 21
269.4061991027
  0
LINE
  5
2CC
100
AcDbEntity
  8
0
100
AcDbLine
 62
7
  6
CONTINUOUS
 10
328.6205706809
 20
259.1061991027
 11
328.6205706809
 21
254.6297264185
  0
LINE
  5
2CD
100
AcDbEntity
  8
0
100
AcDbLine
 62
7
  6
CONTINUOUS
 10
328.9205706819
 20
273.5061991027
 11
328.9205706819
 21
284.5061991027
  0
LINE
  5
2CE
100
AcDbEntity
  8
0
100
AcDbLine
 62
7
  6
CONTINUOUS
 10
329.2205706809
 20
257.2061991027
 11
329.2205706809
 21
265.6061991027
  0
LINE
  5
2CF
100
AcDbEntity
  8
0
100
AcDbLine
 62
7
  6
CONTINUOUS
 10
330.1205706809
 20
270.2061991027
 11
330.1205706809
 21
269.1061991027
  0
LINE
  5
2D0
100
AcDbEntity
  8
0
100
AcDbLine
 62
7
  6
CONTINUOUS
 10
330.8899334679
 20
257.2061991027
 11
330.8899334679
 21
256.0697658157
  0
LINE
  5
2D1
100
AcDbEntity
  8
0
100
AcDbLine
 62
7
  6
CONTINUOUS
 10
332.1205706809
 20
270.2061991027
 11
332.1205706809
 21
269.1061991027
  0
LINE
  5
2D2
100
AcDbEntity
  8
0
100
AcDbLine
 62
7
  6
CONTINUOUS
 10
332.1205706809
 20
257.2061991027
 11
332.1205706809
 21
255.1224414878
  0
LINE
  5
2D3
100
AcDbEntity
  8
0
100
AcDbLine
 62
7
  6
CONTINUOUS
 10
332.257325039
 20
255.0775277067
 11
332.2573250622
 21
257.2061991027
  0
LINE
  5
2D4
100
AcDbEntity
  8
0
100
AcDbLine
 62
7
  6
CONTINUOUS
 10
332.2573251225
 20
269.1061991027
 11
332.2573251269
 21
270.2061991027
  0
LINE
  5
2D5
100
AcDbEntity
  8
0
100
AcDbLine
 62
7
  6
CONTINUOUS
 10
332.7205669979
 20
269.1061991027
 11
332.7205706809
 21
257.2061991027
  0
LINE
  5
2D6
100
AcDbEntity
  8
0
100
AcDbLine
 62
7
  6
CONTINUOUS
 10
333.2205706808
 20
269.1061991027
 11
333.2205706808
 21
257.2061991027
  0
LINE
  5
2D7
100
AcDbEntity
  8
0
100
AcDbLine
 62
7
  6
CONTINUOUS
 10
333.4838162339
 20
270.2061991027
 11
333.4838162339
 21
254.9807508269
  0
LINE
  5
2D8
100
AcDbEntity
  8
0
100
AcDbLine
 62
7
  6
CONTINUOUS
 10
333.6205706809
 20
254.6297264186
 11
333.6205706809
 21
270.2061991027
  0
LINE
  5
2D9
100
AcDbEntity
  8
0
100
AcDbLine
 62
7
  6
CONTINUOUS
 10
341.4701442688
 20
284.5061991027
 11
342.6612016506
 21
250.2154441016
  0
LINE
  5
2DA
100
AcDbEntity
  8
0
100
AcDbLine
 62
7
  6
CONTINUOUS
 10
339.1518865139
 20
250.2061991027
 11
338.4893048299
 21
275.5061991027
  0
LINE
  5
2DB
100
AcDbEntity
  8
0
100
AcDbLine
 62
7
  6
CONTINUOUS
 10
334.8705727829
 20
277.0802976879
 11
334.8705727829
 21
275.5061991027
  0
LINE
  5
2DC
100
AcDbEntity
  8
0
100
AcDbLine
 62
7
  6
CONTINUOUS
 10
337.3705706691
 20
284.5061991027
 11
337.370570679
 21
277.903319241
  0
LINE
  5
2DD
100
AcDbEntity
  8
0
100
AcDbLine
 62
7
  6
CONTINUOUS
 10
340.4705727829
 20
277.0802976879
 11
340.4705727829
 21
275.5061991027
  0
LINE
  5
2DE
100
AcDbEntity
  8
0
100
AcDbLine
 62
7
  6
CONTINUOUS
 10
342.3705705914
 20
243.5061991027
 11
342.3950364803
 21
250.2061991027
  0
LINE
  5
2DF
100
AcDbEntity
  8
0
100
AcDbLine
 62
7
  6
CONTINUOUS
 10
349.30036925
 20
243.5061991027
 11
349.8420364874
 21
250.2061991021
  0
ARC
  5
2E0
100
AcDbEntity
  8
0
100
AcDbCircle
 62
7
  6
CONTINUOUS
 10
53.5705727829
 20
273.1061991027
 40
5.0
100
AcDbArc
 50
57.9365104781
 51
73.6223484659
  0
ARC
  5
2E1
100
AcDbEntity
  8
0
100
AcDbCircle
 62
7
  6
CONTINUOUS
 10
53.5705727829
 20
273.1061991027
 40
5.0
100
AcDbArc
 50
106.3776478725
 51
122.0634924998
  0
ARC
  5
2E2
100
AcDbEntity
  8
0
100
AcDbCircle
 62
7
  6
CONTINUOUS
 10
337.6705727829
 20
273.1061991027
 40
5.0
100
AcDbArc
 50
106.3776515341
 51
122.0634894822
  0
ARC
  5
2E3
100
AcDbEntity
  8
0
100
AcDbCircle
 62
7
  6
CONTINUOUS
 10
337.6705727829
 20
273.1061991027
 40
5.0
100
AcDbArc
 50
57.9365074727
 51
73.6223521276
  0
ARC
  5
2E4
100
AcDbEntity
  8
0
100
AcDbCircle
 62
7
  6
CONTINUOUS
 10
67.6205706809
 20
278.6061991027
 40
1.0
100
AcDbArc
 50
0.0
 51
90.0
  0
ARC
  5
2E5
100
AcDbEntity
  8
0
100
AcDbCircle
 62
7
  6
CONTINUOUS
 10
63.6205706809
 20
278.6061991027
 40
1.0
100
AcDbArc
 50
90.0
 51
180.0
  0
ARC
  5
2E6
100
AcDbEntity
  8
0
100
AcDbCircle
 62
7
  6
CONTINUOUS
 10
323.6205706809
 20
278.6061991027
 40
1.0
100
AcDbArc
 50
90.0
 51
180.0
  0
ARC
  5
2E7
100
AcDbEntity
  8
0
100
AcDbCircle
 62
7
  6
CONTINUOUS
 10
327.6205706809
 20
278.6061991027
 40
1.0
100
AcDbArc
 50
0.0
 51
90.0
  0
SPLINE
  5
2E8
100
AcDbEntity
  8
0
100
AcDbSpline
 62
7
  6
CONTINUOUS
 70
0
 71
3
 72
9
 73
5
 74
0
 42
0.0000001
 43
0.0000001
 44
0.0000000001
 40
0.0
 40
0.0
 40
0.0
 40
0.0
 40
0.5001049107
 40
1.0
 40
1.0
 40
1.0
 40
1.0
 10
160.5676879549
 20
261.0239670977
 30
0.0
 10
160.4536208212
 20
261.0239672062
 30
0.0
 10
160.2159644137
 20
261.119181649
 30
0.0
 10
160.1205605326
 20
261.35680703
 30
0.0
 10
160.1205608193
 20
261.4708263063
 30
0.0
  0
SPLINE
  5
2E9
100
AcDbEntity
  8
0
100
AcDbSpline
 62
7
  6
CONTINUOUS
 70
0
 71
3
 72
9
 73
5
 74
0
 42
0.0000001
 43
0.0000001
 44
0.0000000001
 40
0.0
 40
0.0
 40
0.0
 40
0.0
 40
0.4998916961
 40
1.0
 40
1.0
 40
1.0
 40
1.0
 10
171.1205707773
 20
261.6003700876
 30
0.0
 10
171.1205707773
 20
261.45329515
 30
0.0
 10
170.997507753
 20
261.1467777283
 30
0.0
 10
170.6909493571
 20
261.0239572423
 30
0.0
 10
170.5438106906
 20
261.023957604
 30
0.0
  0
SPLINE
  5
2EA
100
AcDbEntity
  8
0
100
AcDbSpline
 62
7
  6
CONTINUOUS
 70
0
 71
3
 72
9
 73
5
 74
0
 42
0.0000001
 43
0.0000001
 44
0.0000000001
 40
0.0
 40
0.0
 40
0.0
 40
0.0
 40
0.5001049512
 40
1.0
 40
1.0
 40
1.0
 40
1.0
 10
155.1135938453
 20
261.300707739
 30
0.0
 10
154.9878183546
 20
261.3007071777
 30
0.0
 10
154.7257678116
 20
261.4056953774
 30
0.0
 10
154.6205706827
 20
261.6677110591
 30
0.0
 10
154.6205706809
 20
261.7934337597
 30
0.0
  0
SPLINE
  5
2EB
100
AcDbEntity
  8
0
100
AcDbSpline
 62
7
  6
CONTINUOUS
 70
0
 71
3
 72
9
 73
5
 74
0
 42
0.0000001
 43
0.0000001
 44
0.0000000001
 40
0.0
 40
0.0
 40
0.0
 40
0.0
 40
0.4998917189
 40
1.0
 40
1.0
 40
1.0
 40
1.0
 10
157.6205706809
 20
261.780392235
 30
0.0
 10
157.6205706827
 20
261.6580006154
 30
0.0
 10
157.5181614536
 20
261.4029253548
 30
0.0
 10
157.2630527034
 20
261.3007172917
 30
0.0
 10
157.1406080615
 20
261.3007167475
 30
0.0
  0
SPLINE
  5
2EC
100
AcDbEntity
  8
0
100
AcDbSpline
 62
7
  6
CONTINUOUS
 70
0
 71
3
 72
9
 73
5
 74
0
 42
0.0000001
 43
0.0000001
 44
0.0000000001
 40
0.0
 40
0.0
 40
0.0
 40
0.0
 40
0.5001049512
 40
1.0
 40
1.0
 40
1.0
 40
1.0
 10
174.0928485135
 20
261.3007076468
 30
0.0
 10
173.9723653792
 20
261.3007071089
 30
0.0
 10
173.7213413474
 20
261.4012776362
 30
0.0
 10
173.6205706827
 20
261.6522682735
 30
0.0
 10
173.6205706809
 20
261.772700839
 30
0.0
  0
SPLINE
  5
2ED
100
AcDbEntity
  8
0
100
AcDbSpline
 62
7
  6
CONTINUOUS
 70
0
 71
3
 72
9
 73
5
 74
0
 42
0.0000001
 43
0.0000001
 44
0.0000000001
 40
0.0
 40
0.0
 40
0.0
 40
0.0
 40
0.4998917189
 40
1.0
 40
1.0
 40
1.0
 40
1.0
 10
176.6205706809
 20
261.8530712712
 30
0.0
 10
176.620570683
 20
261.7121351465
 30
0.0
 10
176.502644636
 20
261.4184114517
 30
0.0
 10
176.2088823772
 20
261.3007170509
 30
0.0
 10
176.0678851963
 20
261.3007164243
 30
0.0
  0
SPLINE
  5
2EE
100
AcDbEntity
  8
0
100
AcDbSpline
 62
7
  6
CONTINUOUS
 70
0
 71
3
 72
9
 73
5
 74
0
 42
0.0000001
 43
0.0000001
 44
0.0000000001
 40
0.0
 40
0.0
 40
0.0
 40
0.0
 40
0.3143221861
 40
1.0
 40
1.0
 40
1.0
 40
1.0
 10
72.1205706809
 20
255.1224371756
 30
0.0
 10
72.1205987881
 20
255.1070018917
 30
0.0
 10
72.1833058689
 20
255.0851416311
 30
0.0
 10
72.2237576156
 20
255.0801798799
 30
0.0
 10
72.2573243466
 20
255.0775277612
 30
0.0
  0
SPLINE
  5
2EF
100
AcDbEntity
  8
0
100
AcDbSpline
 62
7
  6
CONTINUOUS
 70
0
 71
3
 72
9
 73
5
 74
0
 42
0.0000001
 43
0.0000001
 44
0.0000000001
 40
0.0
 40
0.0
 40
0.0
 40
0.0
 40
0.4998917152
 40
1.0
 40
1.0
 40
1.0
 40
1.0
 10
154.6205706809
 20
276.3136819595
 30
0.0
 10
154.6205706849
 20
276.4382765983
 30
0.0
 10
154.7248235865
 20
276.6979431907
 30
0.0
 10
154.9845247578
 20
276.8019902223
 30
0.0
 10
155.1091733751
 20
276.8019901816
 30
0.0
  0
SPLINE
  5
2F0
100
AcDbEntity
  8
0
100
AcDbSpline
 62
7
  6
CONTINUOUS
 70
0
 71
3
 72
9
 73
5
 74
0
 42
0.0000001
 43
0.0000001
 44
0.0000000001
 40
0.0
 40
0.0
 40
0.0
 40
0.0
 40
0.5001049085
 40
1.0
 40
1.0
 40
1.0
 40
1.0
 10
176.1251576734
 20
276.801989757
 30
0.0
 10
176.2515428334
 20
276.8019897305
 30
0.0
 10
176.5148636622
 20
276.6964935622
 30
0.0
 10
176.6205706835
 20
276.4332074618
 30
0.0
 10
176.6205706809
 20
276.3068753262
 30
0.0
  0
SPLINE
  5
2F1
100
AcDbEntity
  8
0
100
AcDbSpline
 62
7
  6
CONTINUOUS
 70
0
 71
3
 72
9
 73
5
 74
0
 42
0.0000001
 43
0.0000001
 44
0.0000000001
 40
0.0
 40
0.0
 40
0.0
 40
0.0
 40
0.5000035928
 40
1.0
 40
1.0
 40
1.0
 40
1.0
 10
154.6205706809
 20
275.9185913709
 30
0.0
 10
154.6205706836
 20
276.0029522341
 30
0.0
 10
154.6658620975
 20
276.1746366141
 30
0.0
 10
154.7917903734
 20
276.3000267998
 30
0.0
 10
154.8649306695
 20
276.3420630671
 30
0.0
  0
SPLINE
  5
2F2
100
AcDbEntity
  8
0
100
AcDbSpline
 62
7
  6
CONTINUOUS
 70
0
 71
3
 72
8
 73
4
 74
0
 42
0.0000001
 43
0.0000001
 44
0.0000000001
 40
0.0
 40
0.0
 40
0.0
 40
0.0
 40
1.0
 40
1.0
 40
1.0
 40
1.0
 10
154.8649306695
 20
276.3420630671
 30
0.0
 10
154.9380014295
 20
276.3840593695
 30
0.0
 10
155.0248671865
 20
276.4075290459
 30
0.0
 10
155.1091466346
 20
276.4075290184
 30
0.0
  0
SPLINE
  5
2F3
100
AcDbEntity
  8
0
100
AcDbSpline
 62
7
  6
CONTINUOUS
 70
0
 71
3
 72
9
 73
5
 74
0
 42
0.0000001
 43
0.0000001
 44
0.0000000001
 40
0.0
 40
0.0
 40
0.0
 40
0.0
 40
0.4998917182
 40
1.0
 40
1.0
 40
1.0
 40
1.0
 10
173.6205706809
 20
276.3422233639
 30
0.0
 10
173.6205706833
 20
276.4595355171
 30
0.0
 10
173.7187300765
 20
276.7040247678
 30
0.0
 10
173.9632518854
 20
276.8019902109
 30
0.0
 10
174.0806148607
 20
276.8019901863
 30
0.0
  0
SPLINE
  5
2F4
100
AcDbEntity
  8
0
100
AcDbSpline
 62
7
  6
CONTINUOUS
 70
0
 71
3
 72
9
 73
5
 74
0
 42
0.0000001
 43
0.0000001
 44
0.0000000001
 40
0.0
 40
0.0
 40
0.0
 40
0.0
 40
0.5000586544
 40
1.0
 40
1.0
 40
1.0
 40
1.0
 10
157.6205706809
 20
275.909867426
 30
0.0
 10
157.6205706837
 20
275.9955514704
 30
0.0
 10
157.5746740215
 20
276.1699002629
 30
0.0
 10
157.4470195082
 20
276.2974166448
 30
0.0
 10
157.3728459153
 20
276.3402720925
 30
0.0
  0
SPLINE
  5
2F5
100
AcDbEntity
  8
0
100
AcDbSpline
 62
7
  6
CONTINUOUS
 70
0
 71
3
 72
8
 73
4
 74
0
 42
0.0000001
 43
0.0000001
 44
0.0000000001
 40
0.0
 40
0.0
 40
0.0
 40
0.0
 40
1.0
 40
1.0
 40
1.0
 40
1.0
 10
157.3728459153
 20
276.3402720925
 30
0.0
 10
157.298245049
 20
276.3833744069
 30
0.0
 10
157.2094347274
 20
276.4075283307
 30
0.0
 10
157.1232773204
 20
276.4075283589
 30
0.0
  0
SPLINE
  5
2F6
100
AcDbEntity
  8
0
100
AcDbSpline
 62
7
  6
CONTINUOUS
 70
0
 71
3
 72
9
 73
5
 74
0
 42
0.0000001
 43
0.0000001
 44
0.0000000001
 40
0.0
 40
0.0
 40
0.0
 40
0.0
 40
0.5001048661
 40
1.0
 40
1.0
 40
1.0
 40
1.0
 10
170.6049784093
 20
268.5252270837
 30
0.0
 10
170.7365139957
 20
268.5252267587
 30
0.0
 10
171.0105654926
 20
268.4154318769
 30
0.0
 10
171.1205807644
 20
268.1414162137
 30
0.0
 10
171.1205804468
 20
268.0099357903
 30
0.0
  0
SPLINE
  5
2F7
100
AcDbEntity
  8
0
100
AcDbSpline
 62
7
  6
CONTINUOUS
 70
0
 71
3
 72
9
 73
5
 74
0
 42
0.0000001
 43
0.0000001
 44
0.0000000001
 40
0.0
 40
0.0
 40
0.0
 40
0.0
 40
0.499891696
 40
1.0
 40
1.0
 40
1.0
 40
1.0
 10
160.12057061
 20
267.9656812867
 30
0.0
 10
160.12057061
 20
268.1084550344
 30
0.0
 10
160.2400346704
 20
268.4060083882
 30
0.0
 10
160.5376278009
 20
268.5252370058
 30
0.0
 10
160.680463414
 20
268.525236653
 30
0.0
  0
SPLINE
  5
2F8
100
AcDbEntity
  8
0
100
AcDbSpline
 62
7
  6
CONTINUOUS
 70
0
 71
3
 72
9
 73
5
 74
0
 42
0.0000001
 43
0.0000001
 44
0.0000000001
 40
0.0
 40
0.0
 40
0.0
 40
0.0
 40
0.5000035928
 40
1.0
 40
1.0
 40
1.0
 40
1.0
 10
173.6205706809
 20
275.9471695594
 30
0.0
 10
173.6205706825
 20
276.0265995629
 30
0.0
 10
173.6632148264
 20
276.1882490577
 30
0.0
 10
173.7817826357
 20
276.3063102422
 30
0.0
 10
173.8506479072
 20
276.3458895108
 30
0.0
  0
SPLINE
  5
2F9
100
AcDbEntity
  8
0
100
AcDbSpline
 62
7
  6
CONTINUOUS
 70
0
 71
3
 72
8
 73
4
 74
0
 42
0.0000001
 43
0.0000001
 44
0.0000000001
 40
0.0
 40
0.0
 40
0.0
 40
0.0
 40
1.0
 40
1.0
 40
1.0
 40
1.0
 10
173.8506479072
 20
276.3458895108
 30
0.0
 10
173.9194477068
 20
276.3854311505
 30
0.0
 10
174.0012361914
 20
276.4075290397
 30
0.0
 10
174.0805895386
 20
276.407529023
 30
0.0
  0
SPLINE
  5
2FA
100
AcDbEntity
  8
0
100
AcDbSpline
 62
7
  6
CONTINUOUS
 70
0
 71
3
 72
9
 73
5
 74
0
 42
0.0000001
 43
0.0000001
 44
0.0000000001
 40
0.0
 40
0.0
 40
0.0
 40
0.0
 40
0.4998755995
 40
1.0
 40
1.0
 40
1.0
 40
1.0
 10
160.680464798
 20
268.4026750028
 30
0.0
 10
160.5562431317
 20
268.4026753096
 30
0.0
 10
160.2998152357
 20
268.3147216093
 30
0.0
 10
160.1599644989
 20
268.0827142962
 30
0.0
 10
160.1334661275
 20
267.9612885026
 30
0.0
  0
SPLINE
  5
2FB
100
AcDbEntity
  8
0
100
AcDbSpline
 62
7
  6
CONTINUOUS
 70
0
 71
3
 72
9
 73
5
 74
0
 42
0.0000001
 43
0.0000001
 44
0.0000000001
 40
0.0
 40
0.0
 40
0.0
 40
0.0
 40
0.4999918286
 40
1.0
 40
1.0
 40
1.0
 40
1.0
 10
171.1205804468
 20
267.8873774777
 30
0.0
 10
171.1205806612
 20
267.9761253487
 30
0.0
 10
171.0728736002
 20
268.1567131084
 30
0.0
 10
170.9405604952
 20
268.2887106333
 30
0.0
 10
170.8636875637
 20
268.3330643466
 30
0.0
  0
SPLINE
  5
2FC
100
AcDbEntity
  8
0
100
AcDbSpline
 62
7
  6
CONTINUOUS
 70
0
 71
3
 72
8
 73
4
 74
0
 42
0.0000001
 43
0.0000001
 44
0.0000000001
 40
0.0
 40
0.0
 40
0.0
 40
0.0
 40
1.0
 40
1.0
 40
1.0
 40
1.0
 10
170.8636875637
 20
268.3330643466
 30
0.0
 10
170.7863369325
 20
268.3776936803
 30
0.0
 10
170.6942819663
 20
268.4026652128
 30
0.0
 10
170.6049796843
 20
268.4026654335
 30
0.0
  0
SPLINE
  5
2FD
100
AcDbEntity
  8
0
100
AcDbSpline
 62
7
  6
CONTINUOUS
 70
0
 71
3
 72
9
 73
5
 74
0
 42
0.0000001
 43
0.0000001
 44
0.0000000001
 40
0.0
 40
0.0
 40
0.0
 40
0.0
 40
0.3143166512
 40
1.0
 40
1.0
 40
1.0
 40
1.0
 10
332.1205706809
 20
255.1224414876
 30
0.0
 10
332.1205995491
 20
255.1070062081
 30
0.0
 10
332.1833028606
 20
255.0851415019
 30
0.0
 10
332.2237574379
 20
255.0801802879
 30
0.0
 10
332.2573249933
 20
255.0775277104
 30
0.0
  0
SPLINE
  5
2FE
100
AcDbEntity
  8
0
100
AcDbSpline
 62
7
  6
CONTINUOUS
 70
0
 71
3
 72
9
 73
5
 74
0
 42
0.0000001
 43
0.0000001
 44
0.0000000001
 40
0.0
 40
0.0
 40
0.0
 40
0.0
 40
0.5001049073
 40
1.0
 40
1.0
 40
1.0
 40
1.0
 10
157.1232501224
 20
276.8019895229
 30
0.0
 10
157.2501219189
 20
276.8019894815
 30
0.0
 10
157.5144566451
 20
276.6960871315
 30
0.0
 10
157.620570685
 20
276.4317872592
 30
0.0
 10
157.6205706809
 20
276.3049686906
 30
0.0
  0
SPLINE
  5
2FF
100
AcDbEntity
  8
0
100
AcDbSpline
 62
7
  6
CONTINUOUS
 70
0
 71
3
 72
9
 73
5
 74
0
 42
0.0000001
 43
0.0000001
 44
0.0000000001
 40
0.0
 40
0.0
 40
0.0
 40
0.0
 40
0.5000586544
 40
1.0
 40
1.0
 40
1.0
 40
1.0
 10
176.6205706809
 20
275.9117765172
 30
0.0
 10
176.6205706826
 20
275.9971319132
 30
0.0
 10
176.574850059
 20
276.1708119765
 30
0.0
 10
176.4476851665
 20
276.297839252
 30
0.0
 10
176.3737960695
 20
276.3405303181
 30
0.0
  0
SPLINE
  5
300
100
AcDbEntity
  8
0
100
AcDbSpline
 62
7
  6
CONTINUOUS
 70
0
 71
3
 72
8
 73
4
 74
0
 42
0.0000001
 43
0.0000001
 44
0.0000000001
 40
0.0
 40
0.0
 40
0.0
 40
0.0
 40
1.0
 40
1.0
 40
1.0
 40
1.0
 10
176.3737960695
 20
276.3405303181
 30
0.0
 10
176.2994813377
 20
276.3834673041
 30
0.0
 10
176.2110116524
 20
276.4075285752
 30
0.0
 10
176.1251847095
 20
276.4075285932
 30
0.0
  0
SPLINE
  5
301
100
AcDbEntity
  8
0
100
AcDbSpline
 62
7
  6
CONTINUOUS
 70
0
 71
3
 72
12
 73
8
 74
0
 42
0.0000001
 43
0.0000001
 44
0.0000000001
 40
0.0
 40
0.0
 40
0.0
 40
0.0
 40
0.1097587276
 40
0.2036419571
 40
0.3243835551
 40
0.6344183502
 40
1.0
 40
1.0
 40
1.0
 40
1.0
 10
72.1205706809
 20
255.6327927219
 30
0.0
 10
72.1205367455
 20
255.7103885127
 30
0.0
 10
71.9785140181
 20
255.8201259459
 30
0.0
 10
71.7760404231
 20
255.9024571923
 30
0.0
 10
71.4139549486
 20
256.0058084373
 30
0.0
 10
70.8576365641
 20
256.0839636461
 30
0.0
 10
70.3790128531
 20
256.1061999729
 30
0.0
 10
70.1205586915
 20
256.1061991027
 30
0.0
  0
SPLINE
  5
302
100
AcDbEntity
  8
0
100
AcDbSpline
 62
7
  6
CONTINUOUS
 70
0
 71
3
 72
8
 73
4
 74
0
 42
0.0000001
 43
0.0000001
 44
0.0000000001
 40
0.0
 40
0.0
 40
0.0
 40
0.0
 40
1.0
 40
1.0
 40
1.0
 40
1.0
 10
333.5552734075
 20
254.9708208666
 30
0.0
 10
333.5317645959
 20
254.9758843938
 30
0.0
 10
333.5077896618
 20
254.978859192
 30
0.0
 10
333.4838162338
 20
254.9807508269
 30
0.0
  0
SPLINE
  5
303
100
AcDbEntity
  8
0
100
AcDbSpline
 62
7
  6
CONTINUOUS
 70
0
 71
3
 72
8
 73
4
 74
0
 42
0.0000001
 43
0.0000001
 44
0.0000000001
 40
0.0
 40
0.0
 40
0.0
 40
0.0
 40
1.0
 40
1.0
 40
1.0
 40
1.0
 10
73.5552734075
 20
254.9708208666
 30
0.0
 10
73.5317645967
 20
254.9758843935
 30
0.0
 10
73.5077896635
 20
254.9788591917
 30
0.0
 10
73.4838162364
 20
254.9807508266
 30
0.0
  0
SPLINE
  5
304
100
AcDbEntity
  8
0
100
AcDbSpline
 62
7
  6
CONTINUOUS
 70
0
 71
3
 72
9
 73
5
 74
0
 42
0.0000001
 43
0.0000001
 44
0.0000000001
 40
0.0
 40
0.0
 40
0.0
 40
0.0
 40
0.3678200737
 40
1.0
 40
1.0
 40
1.0
 40
1.0
 10
68.6205706809
 20
256.067177911
 30
0.0
 10
68.6384091444
 20
256.0850145482
 30
0.0
 10
68.7110998386
 20
256.1000812678
 30
0.0
 10
68.7772140541
 20
256.1061988672
 30
0.0
 10
68.8205706809
 20
256.1061991027
 30
0.0
  0
ELLIPSE
  5
305
100
AcDbEntity
  8
0
100
AcDbEllipse
 62
7
  6
CONTINUOUS
 10
330.8899436809
 20
255.7784561632
 30
0.0
 11
1.2306270002
 21
0.0
 31
0.0
 40
0.2367164482
 41
-0.0
 42
1.5708046238
  0
ENDSEC
  0
SECTION
  2
OBJECTS
  0
DICTIONARY
  5
C
100
AcDbDictionary
280
0
281
1
  3
ACAD_GROUP
350
D
  3
ACAD_MLINESTYLE
350
17
  3
ACAD_LAYOUT
350
1A
  3
ACAD_PLOTSETTINGS
350
19
  3
ACAD_PLOTSTYLENAME
350
E
  0
DICTIONARY
  5
D
102
{ACAD_REACTORS
330
C
102
}
100
AcDbDictionary
280
0
281
1
  0
ACDBDICTIONARYWDFLT
  5
E
102
{ACAD_REACTORS
330
C
102
}
100
AcDbDictionary
281
1
  3
Normal
350
F
100
AcDbDictionaryWithDefault
340
F
  0
DICTIONARY
  5
17
102
{ACAD_REACTORS
330
C
102
}
100
AcDbDictionary
280
0
281
1
  3
Standard
350
18
  0
DICTIONARY
  5
19
102
{ACAD_REACTORS
330
C
102
}
100
AcDbDictionary
281
1
  0
DICTIONARY
  5
1A
102
{ACAD_REACTORS
330
C
102
}
100
AcDbDictionary
281
1
  3
Model
350
306
  3
Layout1
350
307
  0
ACDBPLACEHOLDER
  5
F
102
{ACAD_REACTORS
330
E
102
}
  0
MLINESTYLE
  5
18
102
{ACAD_REACTORS
330
17
102
}
100
AcDbMlineStyle
  2
STANDARD
 70
0
  3

 62
256
 51
90.0
 52
90.0
 71
2
 49
0.5
 62
256
  6
BYLAYER
 49
-0.5
 62
256
  6
BYLAYER
  0
LAYOUT
  5
306
102
{ACAD_REACTORS
330
1A
102
}
100
AcDbPlotSettings
  1

  2
none_device
  4

  6

 40
0.0
 41
0.0
 42
0.0
 43
0.0
 44
210.0
 45
297.0
 46
0.0
 47
0.0
 48
0.0
 49
0.0
140
0.0
141
0.0
142
1.0
143
1.0
 70
1024
 72
1
 73
0
 74
0
  7

 75
0
147
1.0
148
0.0
149
0.0
100
AcDbLayout
  1
Model
 70
0
 71
0
 10
0.0
 20
0.0
 11
210.0
 21
297.0
 12
0.0
 22
0.0
 32
0.0
 14
0.0
 24
0.0
 34
0.0
 15
0.0
 25
0.0
 35
0.0
146
0.0
 13
0.0
 23
0.0
 33
0.0
 16
1.0
 26
0.0
 36
0.0
 17
0.0
 27
1.0
 37
0.0
 76
0
330
210
345
0
346
0
  0
LAYOUT
  5
307
102
{ACAD_REACTORS
330
1A
102
}
100
AcDbPlotSettings
  1

  2
none_device
  4

  6

 40
0.0
 41
0.0
 42
0.0
 43
0.0
 44
210.0
 45
297.0
 46
0.0
 47
0.0
 48
0.0
 49
0.0
140
0.0
141
0.0
142
1.0
143
1.0
 70
0
 72
1
 73
0
 74
0
  7

 75
0
147
1.0
148
0.0
149
0.0
100
AcDbLayout
  1
Layout1
 70
0
 71
1
 10
0.0
 20
0.0
 11
210.0
 21
297.0
 12
0.0
 22
0.0
 32
0.0
 14
0.0
 24
0.0
 34
0.0
 15
0.0
 25
0.0
 35
0.0
146
0.0
 13
0.0
 23
0.0
 33
0.0
 16
1.0
 26
0.0
 36
0.0
 17
0.0
 27
1.0
 37
0.0
 76
0
330
211
345
0
346
0
  0
ENDSEC
  0
EOF
