999
DXF file: C:\Users\sesa63760\Dev\_Creo\CAD\MCADUE0001322_3D-CAD\drw0001_6.dxf
999
Pro/ENGINEER 2019471 by Parametric Technology Corporation
  0
SECTION
  2
HEADER
  9
$ACADVER
  1
AC1024
  9
$DWGCODEPAGE
  3
ANSI_1252
  9
$EXTMAX
 10
255.3805651906
 20
361.1810850553
 30
0.0
  9
$EXTMIN
 10
0.0
 20
0.0
 30
0.0
  9
$LIMMIN
 10
0.0
 20
0.0
  9
$LIMMAX
 10
255.3805651906
 20
361.1810850553
  9
$VIEWCTR
 10
127.6902825953
 20
180.5905425276
  9
$VIEWSIZE
 40
361.1810850553
  9
$CLAYER
  8
0
  9
$LTSCALE
 40
23.5436559147
  9
$CELTYPE
  6
BYLAYER
  9
$DIMSCALE
 40
1.0
  9
$DIMASZ
 40
3.0402448237
  9
$DIMEXO
 40
1.0
  9
$DIMDLI
 40
16.2665259047
  9
$DIMEXE
 40
1.0
  9
$DIMCEN
 40
3.8525982406
  9
$DIMLFAC
 40
1.0
  9
$DIMBLK
  1
_FILLED
  9
$DIMALT
 70
0
  9
$DIMALTF
 40
0.0393700787
  9
$DIMTXT
 40
4.2563427532
  9
$DIMTOL
 70
1
  9
$DIMLIM
 70
0
  9
$DIMTFAC
 40
1.0
  9
$DIMTP
 40
0.01
  9
$DIMTM
 40
0.01
  9
$DIMGAP
 40
0.625
  9
$DIMDSEP
 70
46
  9
$AUNITS
 70
0
  9
$PDMODE
 70
3
  9
$PDSIZE
 40
0.3125
  9
$HANDSEED
  5
397
  9
$TILEMODE
 70
1
  9
$MEASUREMENT
 70
1
  9
$INSUNITS
 70
4
  0
ENDSEC
  0
SECTION
  2
CLASSES
  0
CLASS
  1
ACDBDICTIONARYWDFLT
  2
AcDbDictionaryWithDefault
  3
AutoCAD 2000
 90
0
 91
1
280
0
281
0
  0
CLASS
  1
ACDBPLACEHOLDER
  2
AcDbPlaceHolder
  3
AutoCAD 2000
 90
0
 91
1
280
0
281
0
  0
CLASS
  1
LAYOUT
  2
AcDbLayout
  3
AutoCAD 2000
 90
0
 91
0
280
0
281
0
  0
ENDSEC
  0
SECTION
  2
TABLES
  0
TABLE
  2
VPORT
  5
8
100
AcDbSymbolTable
 70
2
  0
VPORT
  5
1F4
100
AcDbSymbolTableRecord
100
AcDbViewportTableRecord
  2
*ACTIVE
 70
0
 10
0.0
 20
0.0
 11
1.0
 21
1.0
 12
127.6902825953
 22
180.5905425276
 13
0.0
 23
0.0
 14
1.0
 24
1.0
 15
0.0
 25
0.0
 16
0.0
 26
0.0
 36
1.0
 17
0.0
 27
0.0
 37
0.0
 40
361.1810850553
 41
0.7070707071
 42
50.0
 43
0.0
 44
0.0
 50
0.0
 51
0.0
 71
0
 72
100
 73
1
 74
1
 75
0
 76
0
 77
0
 78
0
  0
ENDTAB
  0
TABLE
  2
LTYPE
  5
5
100
AcDbSymbolTable
 70
6
  0
LTYPE
  5
14
100
AcDbSymbolTableRecord
100
AcDbLinetypeTableRecord
  2
BYBLOCK
 70
0
  3

 72
65
 73
0
 40
0.0
  0
LTYPE
  5
15
100
AcDbSymbolTableRecord
100
AcDbLinetypeTableRecord
  2
BYLAYER
 70
0
  3

 72
65
 73
0
 40
0.0
  0
LTYPE
  5
16
100
AcDbSymbolTableRecord
100
AcDbLinetypeTableRecord
  2
CONTINUOUS
 70
64
  3
Solid line
 72
65
 73
0
 40
0.0
  0
LTYPE
  5
1F5
100
AcDbSymbolTableRecord
100
AcDbLinetypeTableRecord
  2
CENTER
 70
64
  3
____ _ ____ _ ____ _ ____ _ ____ _ ____ _ ____
 72
65
 73
4
 40
0.6
 49
0.375
 74
0
 49
-0.075
 74
0
 49
0.075
 74
0
 49
-0.075
 74
0
  0
LTYPE
  5
1F6
100
AcDbSymbolTableRecord
100
AcDbLinetypeTableRecord
  2
HIDDEN
 70
64
  3
- - - - - - - - - - - - - - - - - - - -
 72
65
 73
2
 40
0.2
 49
0.1
 74
0
 49
-0.1
 74
0
  0
LTYPE
  5
1F7
100
AcDbSymbolTableRecord
100
AcDbLinetypeTableRecord
  2
PHANTOM
 70
64
  3
_____ _ _ _____ _ _ _____ _ _ _____
 72
65
 73
6
 40
0.8
 49
0.45
 74
0
 49
-0.05
 74
0
 49
0.1
 74
0
 49
-0.05
 74
0
 49
0.1
 74
0
 49
-0.05
 74
0
  0
LTYPE
  5
1F8
100
AcDbSymbolTableRecord
100
AcDbLinetypeTableRecord
  2
DOT
 70
64
  3
. . . . . . . . . . . . . . . . . . . .
 72
65
 73
2
 40
0.2
 49
0.1
 74
0
 49
-0.1
 74
0
  0
LTYPE
  5
1F9
100
AcDbSymbolTableRecord
100
AcDbLinetypeTableRecord
  2
DASHED
 70
64
  3
- - - - - - - - - - - - - - - - - - - -
 72
65
 73
2
 40
0.2
 49
0.1
 74
0
 49
-0.1
 74
0
  0
ENDTAB
  0
TABLE
  2
LAYER
  5
2
100
AcDbSymbolTable
 70
36
  0
LAYER
  5
10
100
AcDbSymbolTableRecord
100
AcDbLayerTableRecord
  2
0
 70
0
 62
7
  6
CONTINUOUS
370
-3
390
F
  0
LAYER
  5
1FA
100
AcDbSymbolTableRecord
100
AcDbLayerTableRecord
  2
DEFAULT_1
 70
0
 62
7
  6
CENTER
370
-3
390
F
  0
LAYER
  5
1FB
100
AcDbSymbolTableRecord
100
AcDbLayerTableRecord
  2
DEFAULT_2
 70
0
 62
8
  6
HIDDEN
370
-3
390
F
  0
LAYER
  5
1FC
100
AcDbSymbolTableRecord
100
AcDbLayerTableRecord
  2
DEFAULT_3
 70
0
 62
7
  6
PHANTOM
370
-3
390
F
  0
LAYER
  5
1FD
100
AcDbSymbolTableRecord
100
AcDbLayerTableRecord
  2
00_COMPONENTS
 70
0
 62
7
  6
CONTINUOUS
370
-3
390
F
  0
LAYER
  5
1FE
100
AcDbSymbolTableRecord
100
AcDbLayerTableRecord
  2
01_1_DEFAULT_DATUMS
 70
0
 62
7
  6
CONTINUOUS
370
-3
390
F
  0
LAYER
  5
1FF
100
AcDbSymbolTableRecord
100
AcDbLayerTableRecord
  2
01_PLANES
 70
0
 62
7
  6
CONTINUOUS
370
-3
390
F
  0
LAYER
  5
200
100
AcDbSymbolTableRecord
100
AcDbLayerTableRecord
  2
02_COORD_SYS
 70
0
 62
7
  6
CONTINUOUS
370
-3
390
F
  0
LAYER
  5
201
100
AcDbSymbolTableRecord
100
AcDbLayerTableRecord
  2
03_AXES
 70
0
 62
7
  6
CONTINUOUS
370
-3
390
F
  0
LAYER
  5
202
100
AcDbSymbolTableRecord
100
AcDbLayerTableRecord
  2
04_POINTS
 70
0
 62
7
  6
CONTINUOUS
370
-3
390
F
  0
LAYER
  5
203
100
AcDbSymbolTableRecord
100
AcDbLayerTableRecord
  2
05_CURVES
 70
0
 62
7
  6
CONTINUOUS
370
-3
390
F
  0
LAYER
  5
204
100
AcDbSymbolTableRecord
100
AcDbLayerTableRecord
  2
06_SURFS
 70
0
 62
7
  6
CONTINUOUS
370
-3
390
F
  0
LAYER
  5
205
100
AcDbSymbolTableRecord
100
AcDbLayerTableRecord
  2
07_COSMETICS
 70
0
 62
7
  6
CONTINUOUS
370
-3
390
F
  0
LAYER
  5
206
100
AcDbSymbolTableRecord
100
AcDbLayerTableRecord
  2
10_NOTES
 70
0
 62
7
  6
CONTINUOUS
370
-3
390
F
  0
LAYER
  5
207
100
AcDbSymbolTableRecord
100
AcDbLayerTableRecord
  2
11_NOTES_PUB
 70
0
 62
7
  6
CONTINUOUS
370
-3
390
F
  0
LAYER
  5
208
100
AcDbSymbolTableRecord
100
AcDbLayerTableRecord
  2
13_REF_GTOL
 70
0
 62
7
  6
CONTINUOUS
370
-3
390
F
  0
LAYER
  5
209
100
AcDbSymbolTableRecord
100
AcDbLayerTableRecord
  2
16_MISC
 70
0
 62
7
  6
CONTINUOUS
370
-3
390
F
  0
LAYER
  5
20A
100
AcDbSymbolTableRecord
100
AcDbLayerTableRecord
  2
17_NO_PRINT
 70
0
 62
7
  6
CONTINUOUS
370
-3
390
F
  0
LAYER
  5
20B
100
AcDbSymbolTableRecord
100
AcDbLayerTableRecord
  2
18_DATUM_CAMS_JOINTS
 70
0
 62
7
  6
CONTINUOUS
370
-3
390
F
  0
LAYER
  5
20C
100
AcDbSymbolTableRecord
100
AcDbLayerTableRecord
  2
19_DATUM_FUNCTIONAL
 70
0
 62
7
  6
CONTINUOUS
370
-3
390
F
  0
LAYER
  5
20D
100
AcDbSymbolTableRecord
100
AcDbLayerTableRecord
  2
20_DATUM_KINEMATIC_SCHEME
 70
0
 62
7
  6
CONTINUOUS
370
-3
390
F
  0
ENDTAB
  0
TABLE
  2
STYLE
  5
3
100
AcDbSymbolTable
 70
1
  0
STYLE
  5
11
100
AcDbSymbolTableRecord
100
AcDbTextStyleTableRecord
  2
STANDARD
 70
0
 40
0.0
 41
0.8
 50
0.0
 71
0
 42
0.2
  3
txt
  4

  0
STYLE
  5
20E
100
AcDbSymbolTableRecord
100
AcDbTextStyleTableRecord
  2
TEXTSTYLE_1
 70
0
 40
0.0
 41
0.8
 50
0.0
 71
0
 42
0.2
  3
gdt
  4

  0
ENDTAB
  0
TABLE
  2
VIEW
  5
6
100
AcDbSymbolTable
 70
0
  0
ENDTAB
  0
TABLE
  2
UCS
  5
7
100
AcDbSymbolTable
 70
0
  0
ENDTAB
  0
TABLE
  2
APPID
  5
9
100
AcDbSymbolTable
 70
1
  0
APPID
  5
20F
100
AcDbSymbolTableRecord
100
AcDbRegAppTableRecord
  2
ACAD
 70
0
  0
ENDTAB
  0
TABLE
  2
BLOCK_RECORD
  5
1
100
AcDbSymbolTable
 70
0
  0
BLOCK_RECORD
  5
210
100
AcDbSymbolTableRecord
100
AcDbBlockTableRecord
  2
*Model_Space
  0
BLOCK_RECORD
  5
211
100
AcDbSymbolTableRecord
100
AcDbBlockTableRecord
  2
*Paper_Space
  0
BLOCK_RECORD
  5
212
100
AcDbSymbolTableRecord
100
AcDbBlockTableRecord
  2
_FILLED
  0
ENDTAB
  0
TABLE
  2
DIMSTYLE
  5
A
100
AcDbSymbolTable
 70
1
100
AcDbDimStyleTable
 71
0
  0
DIMSTYLE
105
213
100
AcDbSymbolTableRecord
100
AcDbDimStyleTableRecord
  2
STANDARD
 70
0
  3

  4

 40
1.0
 41
3.0402448237
 42
1.0
 43
0.38
 44
1.0
 45
0.0
 46
0.0
 47
0.01
 48
0.01
140
4.2563427532
141
0.09
142
0.0
143
25.4
144
1.0
145
0.0
146
1.0
147
0.625
 71
1
 72
0
 73
0
 74
0
 75
0
 76
0
 77
1
 78
8
 79
2
170
0
171
1
172
0
173
0
174
0
175
0
176
0
177
0
178
0
270
2
179
2
271
2
272
2
273
2
274
2
275
0
280
0
281
0
282
0
283
1
284
8
285
0
286
0
287
3
288
0
340
11
278
46
341
212
342
212
343
212
344
212
  0
ENDTAB
  0
ENDSEC
  0
SECTION
  2
BLOCKS
  0
BLOCK
  5
20
100
AcDbEntity
  8
0
100
AcDbBlockBegin
  2
*Model_Space
 70
0
 10
0.0
 20
0.0
 30
0.0
  3
*Model_Space
  1

  0
ENDBLK
  5
21
100
AcDbEntity
  8
0
100
AcDbBlockEnd
  0
BLOCK
  5
1C
100
AcDbEntity
  8
0
100
AcDbBlockBegin
  2
*Paper_Space
 70
0
 10
0.0
 20
0.0
 30
0.0
  3
*Paper_Space
  1

  0
ENDBLK
  5
1D
100
AcDbEntity
  8
0
100
AcDbBlockEnd
  0
BLOCK
  5
214
100
AcDbEntity
  8
0
100
AcDbBlockBegin
  2
_FILLED
 70
64
 10
0.0
 20
0.0
  3
_FILLED
  1

  0
SOLID
  5
215
100
AcDbEntity
  8
0
  6
BYBLOCK
 62
0
100
AcDbTrace
 10
0.0
 20
0.0
 11
-1.0
 21
0.25
 12
-1.0
 22
-0.25
 13
-1.0
 23
-0.25
  0
ENDBLK
  5
216
100
AcDbEntity
  8
0
  6
BYBLOCK
 62
0
100
AcDbBlockEnd
  0
ENDSEC
  0
SECTION
  2
ENTITIES
  0
LINE
  5
217
100
AcDbEntity
  8
0
100
AcDbLine
 62
7
  6
CONTINUOUS
 10
32.2541457319
 20
313.9355130276
 11
31.997014669
 21
313.7831166793
  0
LINE
  5
218
100
AcDbEntity
  8
0
100
AcDbLine
 62
7
  6
CONTINUOUS
 10
31.9970148813
 20
48.897968727
 11
32.2541457319
 21
48.7455720182
  0
LINE
  5
219
100
AcDbEntity
  8
0
100
AcDbLine
 62
7
  6
CONTINUOUS
 10
31.9952718873
 20
313.7837679496
 11
32.0633367365
 21
313.9355130276
  0
LINE
  5
21A
100
AcDbEntity
  8
0
100
AcDbLine
 62
7
  6
CONTINUOUS
 10
73.6530767207
 20
29.8405425229
 11
57.6552147431
 21
29.8405425229
  0
LINE
  5
21B
100
AcDbEntity
  8
0
100
AcDbLine
 62
7
  6
CONTINUOUS
 10
225.4541457319
 20
31.3405425229
 11
53.6541457319
 21
31.3405425229
  0
LINE
  5
21C
100
AcDbEntity
  8
0
100
AcDbLine
 62
7
  6
CONTINUOUS
 10
225.4541457319
 20
32.3405425229
 11
53.6541457319
 21
32.3405425229
  0
LINE
  5
21D
100
AcDbEntity
  8
0
100
AcDbLine
 62
7
  6
CONTINUOUS
 10
31.9960404997
 20
48.8976681518
 11
32.0633367365
 21
48.7455720182
  0
LINE
  5
21E
100
AcDbEntity
  8
0
100
AcDbLine
 62
7
  6
CONTINUOUS
 10
229.1541457319
 20
45.3405425229
 11
227.6541457319
 21
45.3405425229
  0
LINE
  5
21F
100
AcDbEntity
  8
0
100
AcDbLine
 62
7
  6
CONTINUOUS
 10
32.0633367365
 20
48.7455720183
 11
32.2541457319
 21
48.7455720183
  0
LINE
  5
220
100
AcDbEntity
  8
0
100
AcDbLine
 62
7
  6
CONTINUOUS
 10
32.0633367365
 20
313.9355130276
 11
32.2541457319
 21
314.9171402111
  0
LINE
  5
221
100
AcDbEntity
  8
0
100
AcDbLine
 62
7
  6
CONTINUOUS
 10
229.1541457319
 20
61.3405425229
 11
227.6541457319
 21
61.3405425229
  0
LINE
  5
222
100
AcDbEntity
  8
0
100
AcDbLine
 62
7
  6
CONTINUOUS
 10
32.2541457319
 20
47.7639448348
 11
32.0633367365
 21
48.7455720183
  0
LINE
  5
223
100
AcDbEntity
  8
0
100
AcDbLine
 62
7
  6
CONTINUOUS
 10
37.2864664297
 20
278.3405425229
 11
36.9868885764
 21
276.9119710943
  0
LINE
  5
224
100
AcDbEntity
  8
0
100
AcDbLine
 62
7
  6
CONTINUOUS
 10
48.2725277411
 20
50.8776028817
 11
32.2541457319
 21
47.7639448348
  0
LINE
  5
225
100
AcDbEntity
  8
0
100
AcDbLine
 62
7
  6
CONTINUOUS
 10
32.2541457319
 20
48.7455720183
 11
48.2725277411
 21
51.8592300651
  0
LINE
  5
226
100
AcDbEntity
  8
0
100
AcDbLine
 62
7
  6
CONTINUOUS
 10
48.6798030962
 20
83.0340499559
 11
48.4541457367
 21
83.0630700087
  0
LINE
  5
227
100
AcDbEntity
  8
0
100
AcDbLine
 62
7
  6
CONTINUOUS
 10
49.1541457319
 20
82.7895994204
 11
48.6258440399
 21
82.8650710907
  0
LINE
  5
228
100
AcDbEntity
  8
0
100
AcDbLine
 62
7
  6
CONTINUOUS
 10
36.9868885764
 20
86.0548282372
 11
37.2864664297
 21
84.3405425229
  0
LINE
  5
229
100
AcDbEntity
  8
0
100
AcDbLine
 62
7
  6
CONTINUOUS
 10
30.6465535882
 20
50.1497828085
 11
30.6465535882
 21
312.5313022374
  0
LINE
  5
22A
100
AcDbEntity
  8
0
100
AcDbLine
 62
7
  6
CONTINUOUS
 10
32.2541457319
 20
48.7455720183
 11
32.2541457319
 21
313.9355130276
  0
LINE
  5
22B
100
AcDbEntity
  8
0
100
AcDbLine
 62
7
  6
CONTINUOUS
 10
41.3008096648
 20
248.0548282372
 11
41.0012318114
 21
246.3405425229
  0
LINE
  5
22C
100
AcDbEntity
  8
0
100
AcDbLine
 62
7
  6
CONTINUOUS
 10
48.2725277411
 20
311.8034821642
 11
48.0817187458
 21
310.8218549808
  0
LINE
  5
22D
100
AcDbEntity
  8
0
100
AcDbLine
 62
7
  6
CONTINUOUS
 10
35.5442429034
 20
75.3405425229
 11
50.6541457319
 21
75.3405425229
  0
LINE
  5
22E
100
AcDbEntity
  8
0
100
AcDbLine
 62
7
  6
CONTINUOUS
 10
50.6890161894
 20
77.3405425229
 11
50.1541457319
 21
77.3405425229
  0
LINE
  5
22F
100
AcDbEntity
  8
0
100
AcDbLine
 62
7
  6
CONTINUOUS
 10
36.1615477727
 20
81.3405425229
 11
42.1003834316
 21
81.3405425229
  0
LINE
  5
230
100
AcDbEntity
  8
0
100
AcDbLine
 62
7
  6
CONTINUOUS
 10
42.667967115
 20
81.9955935486
 11
41.1995846173
 21
81.9955935487
  0
LINE
  5
231
100
AcDbEntity
  8
0
100
AcDbLine
 62
7
  6
CONTINUOUS
 10
42.667967115
 20
83.6854914972
 11
41.1995846173
 21
83.6854914972
  0
LINE
  5
232
100
AcDbEntity
  8
0
100
AcDbLine
 62
7
  6
CONTINUOUS
 10
42.1070859617
 20
84.3405425229
 11
36.1690013024
 21
84.3405425229
  0
LINE
  5
233
100
AcDbEntity
  8
0
100
AcDbLine
 62
7
  6
CONTINUOUS
 10
41.3008096647
 20
114.9119710943
 11
41.0012318113
 21
116.3405425229
  0
LINE
  5
234
100
AcDbEntity
  8
0
100
AcDbLine
 62
7
  6
CONTINUOUS
 10
48.0817187458
 20
51.8592300651
 11
48.2725277411
 21
50.8776028817
  0
LINE
  5
235
100
AcDbEntity
  8
0
100
AcDbLine
 62
7
  6
CONTINUOUS
 10
35.5438491206
 20
287.3405425229
 11
35.5438491206
 21
272.6405425229
  0
LINE
  5
236
100
AcDbEntity
  8
0
100
AcDbLine
 62
7
  6
CONTINUOUS
 10
35.5438491206
 20
252.0405425229
 11
35.5438491206
 21
237.3405425229
  0
LINE
  5
237
100
AcDbEntity
  8
0
100
AcDbLine
 62
7
  6
CONTINUOUS
 10
35.5438491206
 20
125.3405425229
 11
35.5438491206
 21
110.6405425229
  0
LINE
  5
238
100
AcDbEntity
  8
0
100
AcDbLine
 62
7
  6
CONTINUOUS
 10
35.5438491206
 20
90.0405425229
 11
35.5438491206
 21
75.3405425229
  0
LINE
  5
239
100
AcDbEntity
  8
0
100
AcDbLine
 62
7
  6
CONTINUOUS
 10
37.2107889283
 20
81.4657346797
 11
37.2107889283
 21
84.2152790856
  0
LINE
  5
23A
100
AcDbEntity
  8
0
100
AcDbLine
 62
7
  6
CONTINUOUS
 10
37.2107889283
 20
116.4657346797
 11
37.2107889283
 21
119.2152790856
  0
LINE
  5
23B
100
AcDbEntity
  8
0
100
AcDbLine
 62
7
  6
CONTINUOUS
 10
37.2107889283
 20
243.4657346796
 11
37.2107889283
 21
246.2152790856
  0
LINE
  5
23C
100
AcDbEntity
  8
0
100
AcDbLine
 62
7
  6
CONTINUOUS
 10
37.2107889283
 20
278.4657346797
 11
37.2107889283
 21
281.2152790856
  0
LINE
  5
23D
100
AcDbEntity
  8
0
100
AcDbLine
 62
7
  6
CONTINUOUS
 10
38.1547334699
 20
92.0405425229
 11
38.1547334699
 21
93.4123392926
  0
LINE
  5
23E
100
AcDbEntity
  8
0
100
AcDbLine
 62
7
  6
CONTINUOUS
 10
38.1547334699
 20
107.2687457532
 11
38.1547334699
 21
108.6405425229
  0
LINE
  5
23F
100
AcDbEntity
  8
0
100
AcDbLine
 62
7
  6
CONTINUOUS
 10
38.1547334699
 20
254.0405425229
 11
38.1547334699
 21
255.4123392926
  0
LINE
  5
240
100
AcDbEntity
  8
0
100
AcDbLine
 62
7
  6
CONTINUOUS
 10
38.1547334699
 20
269.2687457532
 11
38.1547334699
 21
270.6405425229
  0
LINE
  5
241
100
AcDbEntity
  8
0
100
AcDbLine
 62
7
  6
CONTINUOUS
 10
38.606258982
 20
81.3405425229
 11
38.606258982
 21
84.3405425229
  0
LINE
  5
242
100
AcDbEntity
  8
0
100
AcDbLine
 62
7
  6
CONTINUOUS
 10
38.606258982
 20
116.3405425229
 11
38.606258982
 21
119.3405425229
  0
LINE
  5
243
100
AcDbEntity
  8
0
100
AcDbLine
 62
7
  6
CONTINUOUS
 10
38.606258982
 20
243.3405425229
 11
38.606258982
 21
246.3405425229
  0
LINE
  5
244
100
AcDbEntity
  8
0
100
AcDbLine
 62
7
  6
CONTINUOUS
 10
38.606258982
 20
278.3405425229
 11
38.606258982
 21
281.3405425229
  0
LINE
  5
245
100
AcDbEntity
  8
0
100
AcDbLine
 62
7
  6
CONTINUOUS
 10
38.830254873
 20
281.3405425229
 11
38.830254873
 21
278.3405425229
  0
LINE
  5
246
100
AcDbEntity
  8
0
100
AcDbLine
 62
7
  6
CONTINUOUS
 10
38.830254873
 20
246.3405425229
 11
38.830254873
 21
243.3405425229
  0
LINE
  5
247
100
AcDbEntity
  8
0
100
AcDbLine
 62
7
  6
CONTINUOUS
 10
38.830254873
 20
119.3405425229
 11
38.830254873
 21
116.3405425229
  0
LINE
  5
248
100
AcDbEntity
  8
0
100
AcDbLine
 62
7
  6
CONTINUOUS
 10
38.830254873
 20
84.3405425229
 11
38.830254873
 21
81.3405425229
  0
LINE
  5
249
100
AcDbEntity
  8
0
100
AcDbLine
 62
7
  6
CONTINUOUS
 10
39.5170543498
 20
272.6405425229
 11
39.5170543498
 21
270.988760318
  0
LINE
  5
24A
100
AcDbEntity
  8
0
100
AcDbLine
 62
7
  6
CONTINUOUS
 10
39.5170543498
 20
253.6923247278
 11
39.5170543498
 21
252.0405425229
  0
LINE
  5
24B
100
AcDbEntity
  8
0
100
AcDbLine
 62
7
  6
CONTINUOUS
 10
39.5170543498
 20
110.6405425229
 11
39.5170543498
 21
108.988760318
  0
LINE
  5
24C
100
AcDbEntity
  8
0
100
AcDbLine
 62
7
  6
CONTINUOUS
 10
39.5170543498
 20
91.6923247278
 11
39.5170543498
 21
90.0405425229
  0
LINE
  5
24D
100
AcDbEntity
  8
0
100
AcDbLine
 62
7
  6
CONTINUOUS
 10
39.5262725499
 20
270.6405425229
 11
39.5262725499
 21
269.2687457532
  0
LINE
  5
24E
100
AcDbEntity
  8
0
100
AcDbLine
 62
7
  6
CONTINUOUS
 10
39.5262725499
 20
255.4123392926
 11
39.5262725499
 21
254.0405425229
  0
LINE
  5
24F
100
AcDbEntity
  8
0
100
AcDbLine
 62
7
  6
CONTINUOUS
 10
39.5262725499
 20
108.6405425229
 11
39.5262725499
 21
107.2687457532
  0
LINE
  5
250
100
AcDbEntity
  8
0
100
AcDbLine
 62
7
  6
CONTINUOUS
 10
39.5262725499
 20
93.4123392926
 11
39.5262725499
 21
92.0405425229
  0
LINE
  5
251
100
AcDbEntity
  8
0
100
AcDbLine
 62
7
  6
CONTINUOUS
 10
40.6115981369
 20
90.0405425229
 11
40.6115981369
 21
95.7828165539
  0
LINE
  5
252
100
AcDbEntity
  8
0
100
AcDbLine
 62
7
  6
CONTINUOUS
 10
40.611598137
 20
104.8982684918
 11
40.611598137
 21
110.6405425229
  0
LINE
  5
253
100
AcDbEntity
  8
0
100
AcDbLine
 62
7
  6
CONTINUOUS
 10
40.6115981369
 20
252.0405425229
 11
40.6115981369
 21
257.7828165539
  0
LINE
  5
254
100
AcDbEntity
  8
0
100
AcDbLine
 62
7
  6
CONTINUOUS
 10
40.611598137
 20
266.8982684918
 11
40.611598137
 21
272.6405425229
  0
LINE
  5
255
100
AcDbEntity
  8
0
100
AcDbLine
 62
7
  6
CONTINUOUS
 10
42.7438491205
 20
287.3405425229
 11
42.7438491205
 21
272.6405425229
  0
LINE
  5
256
100
AcDbEntity
  8
0
100
AcDbLine
 62
7
  6
CONTINUOUS
 10
42.7438491205
 20
252.0405425229
 11
42.7438491205
 21
237.3405425229
  0
LINE
  5
257
100
AcDbEntity
  8
0
100
AcDbLine
 62
7
  6
CONTINUOUS
 10
42.7438491205
 20
125.3405425229
 11
42.7438491205
 21
110.6405425229
  0
LINE
  5
258
100
AcDbEntity
  8
0
100
AcDbLine
 62
7
  6
CONTINUOUS
 10
42.7438491205
 20
90.0405425229
 11
42.7438491205
 21
75.3405425229
  0
LINE
  5
259
100
AcDbEntity
  8
0
100
AcDbLine
 62
7
  6
CONTINUOUS
 10
41.3008096646
 20
86.0548282372
 11
36.9868885764
 21
86.0548282372
  0
LINE
  5
25A
100
AcDbEntity
  8
0
100
AcDbLine
 62
7
  6
CONTINUOUS
 10
35.5440909619
 20
90.0405425229
 11
42.7436807341
 21
90.0405425229
  0
LINE
  5
25B
100
AcDbEntity
  8
0
100
AcDbLine
 62
7
  6
CONTINUOUS
 10
38.1362970697
 20
91.6923247276
 11
39.5170543498
 21
91.6923247276
  0
LINE
  5
25C
100
AcDbEntity
  8
0
100
AcDbLine
 62
7
  6
CONTINUOUS
 10
39.5262725499
 20
92.0405425229
 11
38.1547334699
 21
92.0405425229
  0
LINE
  5
25D
100
AcDbEntity
  8
0
100
AcDbLine
 62
7
  6
CONTINUOUS
 10
38.1547334699
 20
93.4123392926
 11
39.5262725499
 21
93.4123392926
  0
LINE
  5
25E
100
AcDbEntity
  8
0
100
AcDbLine
 62
7
  6
CONTINUOUS
 10
39.9921530828
 20
95.1443901002
 11
39.0864945358
 21
95.1443901002
  0
LINE
  5
25F
100
AcDbEntity
  8
0
100
AcDbLine
 62
7
  6
CONTINUOUS
 10
40.6115981369
 20
95.782816554
 11
40.3253846438
 21
95.782816554
  0
LINE
  5
260
100
AcDbEntity
  8
0
100
AcDbLine
 62
7
  6
CONTINUOUS
 10
47.9633367365
 20
287.3405425229
 11
47.9633367365
 21
237.3405425229
  0
LINE
  5
261
100
AcDbEntity
  8
0
100
AcDbLine
 62
7
  6
CONTINUOUS
 10
47.9633367365
 20
125.3405425229
 11
47.9633367365
 21
75.3405425229
  0
LINE
  5
262
100
AcDbEntity
  8
0
100
AcDbLine
 62
7
  6
CONTINUOUS
 10
48.2725277411
 20
310.8218549808
 11
48.2725277411
 21
287.3405425229
  0
LINE
  5
263
100
AcDbEntity
  8
0
100
AcDbLine
 62
7
  6
CONTINUOUS
 10
48.2725277411
 20
237.3405425229
 11
48.2725277411
 21
125.3405425229
  0
LINE
  5
264
100
AcDbEntity
  8
0
100
AcDbLine
 62
7
  6
CONTINUOUS
 10
48.2725277411
 20
75.3405425229
 11
48.2725277411
 21
51.8592300651
  0
LINE
  5
265
100
AcDbEntity
  8
0
100
AcDbLine
 62
7
  6
CONTINUOUS
 10
48.4541457319
 20
279.4445666898
 11
48.4541457319
 21
272.436518732
  0
LINE
  5
266
100
AcDbEntity
  8
0
100
AcDbLine
 62
7
  6
CONTINUOUS
 10
48.4541457319
 20
252.4180235133
 11
48.4541457319
 21
245.0630626622
  0
LINE
  5
267
100
AcDbEntity
  8
0
100
AcDbLine
 62
7
  6
CONTINUOUS
 10
48.4541457319
 20
117.4445666898
 11
48.4541457319
 21
110.436518732
  0
LINE
  5
268
100
AcDbEntity
  8
0
100
AcDbLine
 62
7
  6
CONTINUOUS
 10
48.4541457319
 20
90.4180235133
 11
48.4541457319
 21
83.0630626622
  0
LINE
  5
269
100
AcDbEntity
  8
0
100
AcDbLine
 62
7
  6
CONTINUOUS
 10
48.948992297
 20
82.9994346621
 11
48.9489922676
 21
90.4816507846
  0
LINE
  5
26A
100
AcDbEntity
  8
0
100
AcDbLine
 62
7
  6
CONTINUOUS
 10
48.948992297
 20
244.9994346621
 11
48.9489922676
 21
252.4816507846
  0
LINE
  5
26B
100
AcDbEntity
  8
0
100
AcDbLine
 62
7
  6
CONTINUOUS
 10
48.9489919439
 20
272.3799702728
 11
48.9489921174
 21
279.5011178936
  0
LINE
  5
26C
100
AcDbEntity
  8
0
100
AcDbLine
 62
7
  6
CONTINUOUS
 10
48.9489919439
 20
110.3799702728
 11
48.9489921174
 21
117.5011178936
  0
LINE
  5
26D
100
AcDbEntity
  8
0
100
AcDbLine
 62
7
  6
CONTINUOUS
 10
49.1541457319
 20
272.3613138918
 11
49.1541457319
 21
252.5003905554
  0
LINE
  5
26E
100
AcDbEntity
  8
0
100
AcDbLine
 62
7
  6
CONTINUOUS
 10
49.1541457319
 20
110.3613138918
 11
49.1541457319
 21
90.5003905554
  0
LINE
  5
26F
100
AcDbEntity
  8
0
100
AcDbLine
 62
7
  6
CONTINUOUS
 10
49.1541457319
 20
75.3405425229
 11
49.1541457319
 21
82.9806966017
  0
LINE
  5
270
100
AcDbEntity
  8
0
100
AcDbLine
 62
7
  6
CONTINUOUS
 10
49.1541457319
 20
117.5197698621
 11
49.1541457319
 21
125.3405425229
  0
LINE
  5
271
100
AcDbEntity
  8
0
100
AcDbLine
 62
7
  6
CONTINUOUS
 10
49.1541457319
 20
237.3405425229
 11
49.1541457319
 21
244.9806966017
  0
LINE
  5
272
100
AcDbEntity
  8
0
100
AcDbLine
 62
7
  6
CONTINUOUS
 10
49.1541457319
 20
279.5197698621
 11
49.1541457319
 21
287.3405425229
  0
LINE
  5
273
100
AcDbEntity
  8
0
100
AcDbLine
 62
7
  6
CONTINUOUS
 10
49.159724405
 20
117.5197698621
 11
49.1597310259
 21
110.3613138921
  0
LINE
  5
274
100
AcDbEntity
  8
0
100
AcDbLine
 62
7
  6
CONTINUOUS
 10
49.159724405
 20
279.5197698621
 11
49.1597310259
 21
272.3613138921
  0
LINE
  5
275
100
AcDbEntity
  8
0
100
AcDbLine
 62
7
  6
CONTINUOUS
 10
49.1599486528
 20
252.5003905554
 11
49.1599440225
 21
244.9806966018
  0
LINE
  5
276
100
AcDbEntity
  8
0
100
AcDbLine
 62
7
  6
CONTINUOUS
 10
49.1599486528
 20
90.5003905554
 11
49.1599440225
 21
82.9806966018
  0
LINE
  5
277
100
AcDbEntity
  8
0
100
AcDbLine
 62
7
  6
CONTINUOUS
 10
50.1541457319
 20
77.3405425229
 11
50.1541457319
 21
123.3405425229
  0
LINE
  5
278
100
AcDbEntity
  8
0
100
AcDbLine
 62
7
  6
CONTINUOUS
 10
50.1541457319
 20
239.3405425229
 11
50.1541457319
 21
285.3405425229
  0
LINE
  5
279
100
AcDbEntity
  8
0
100
AcDbLine
 62
7
  6
CONTINUOUS
 10
50.6541457319
 20
328.3405425229
 11
50.6541457319
 21
286.6634181785
  0
LINE
  5
27A
100
AcDbEntity
  8
0
100
AcDbLine
 62
7
  6
CONTINUOUS
 10
50.6541457319
 20
238.0176668674
 11
50.6541457319
 21
124.6634181785
  0
LINE
  5
27B
100
AcDbEntity
  8
0
100
AcDbLine
 62
7
  6
CONTINUOUS
 10
50.6541457319
 20
76.0176668674
 11
50.6541457319
 21
34.3405425229
  0
LINE
  5
27C
100
AcDbEntity
  8
0
100
AcDbLine
 62
7
  6
CONTINUOUS
 10
50.6890161894
 20
285.3405425229
 11
50.6890161894
 21
239.3405425229
  0
LINE
  5
27D
100
AcDbEntity
  8
0
100
AcDbLine
 62
7
  6
CONTINUOUS
 10
50.6890161894
 20
123.3405425229
 11
50.6890161894
 21
77.3405425229
  0
LINE
  5
27E
100
AcDbEntity
  8
0
100
AcDbLine
 62
7
  6
CONTINUOUS
 10
53.6541457319
 20
31.3405425229
 11
53.6541457319
 21
331.3405425229
  0
LINE
  5
27F
100
AcDbEntity
  8
0
100
AcDbLine
 62
7
  6
CONTINUOUS
 10
57.6541457319
 20
31.3405425229
 11
57.6541457319
 21
29.8405425229
  0
LINE
  5
280
100
AcDbEntity
  8
0
100
AcDbLine
 62
7
  6
CONTINUOUS
 10
41.3008096648
 20
86.0548282372
 11
41.0012318114
 21
84.3405425229
  0
LINE
  5
281
100
AcDbEntity
  8
0
100
AcDbLine
 62
7
  6
CONTINUOUS
 10
37.2864664297
 20
116.3405425229
 11
36.9868885764
 21
114.9119710943
  0
LINE
  5
282
100
AcDbEntity
  8
0
100
AcDbLine
 62
7
  6
CONTINUOUS
 10
48.625827149
 20
90.6160115422
 11
49.1541457319
 21
90.6914856255
  0
LINE
  5
283
100
AcDbEntity
  8
0
100
AcDbLine
 62
7
  6
CONTINUOUS
 10
48.6792050711
 20
90.4469606928
 11
48.4541457319
 21
90.418016206
  0
LINE
  5
284
100
AcDbEntity
  8
0
100
AcDbLine
 62
7
  6
CONTINUOUS
 10
49.1599486528
 20
90.5003905554
 11
48.9489922676
 21
90.4816507846
  0
LINE
  5
285
100
AcDbEntity
  8
0
100
AcDbLine
 62
7
  6
CONTINUOUS
 10
40.3253846438
 20
104.8982684918
 11
40.6115981369
 21
104.8982684918
  0
LINE
  5
286
100
AcDbEntity
  8
0
100
AcDbLine
 62
7
  6
CONTINUOUS
 10
39.9921530828
 20
105.5366949456
 11
39.0864945357
 21
105.5366949456
  0
LINE
  5
287
100
AcDbEntity
  8
0
100
AcDbLine
 62
7
  6
CONTINUOUS
 10
39.5262725499
 20
107.2687457532
 11
38.1547334699
 21
107.2687457532
  0
LINE
  5
288
100
AcDbEntity
  8
0
100
AcDbLine
 62
7
  6
CONTINUOUS
 10
38.1547334699
 20
108.6405425229
 11
39.5262725499
 21
108.6405425229
  0
LINE
  5
289
100
AcDbEntity
  8
0
100
AcDbLine
 62
7
  6
CONTINUOUS
 10
39.5170543498
 20
108.9887603182
 11
38.1362970697
 21
108.9887603182
  0
LINE
  5
28A
100
AcDbEntity
  8
0
100
AcDbLine
 62
7
  6
CONTINUOUS
 10
49.1597310259
 20
110.3613138921
 11
48.9489919439
 21
110.3799702728
  0
LINE
  5
28B
100
AcDbEntity
  8
0
100
AcDbLine
 62
7
  6
CONTINUOUS
 10
48.4541457319
 20
110.4365153594
 11
48.8378170471
 21
110.3926735953
  0
LINE
  5
28C
100
AcDbEntity
  8
0
100
AcDbLine
 62
7
  6
CONTINUOUS
 10
49.1541602107
 20
109.989597352
 11
48.797568737
 21
110.0405389911
  0
LINE
  5
28D
100
AcDbEntity
  8
0
100
AcDbLine
 62
7
  6
CONTINUOUS
 10
36.9868885764
 20
248.0548282372
 11
37.2864664297
 21
246.3405425229
  0
LINE
  5
28E
100
AcDbEntity
  8
0
100
AcDbLine
 62
7
  6
CONTINUOUS
 10
42.7436820135
 20
110.6405425229
 11
35.5442429034
 21
110.6405425229
  0
LINE
  5
28F
100
AcDbEntity
  8
0
100
AcDbLine
 62
7
  6
CONTINUOUS
 10
36.9868885764
 20
114.9119710943
 11
41.3008096646
 21
114.9119710943
  0
LINE
  5
290
100
AcDbEntity
  8
0
100
AcDbLine
 62
7
  6
CONTINUOUS
 10
36.1684449389
 20
116.3405425229
 11
42.088792002
 21
116.3405425229
  0
LINE
  5
291
100
AcDbEntity
  8
0
100
AcDbLine
 62
7
  6
CONTINUOUS
 10
42.667967115
 20
116.9955935486
 11
41.1995846173
 21
116.9955935487
  0
LINE
  5
292
100
AcDbEntity
  8
0
100
AcDbLine
 62
7
  6
CONTINUOUS
 10
42.667967115
 20
118.6854914972
 11
41.1995846173
 21
118.6854914972
  0
LINE
  5
293
100
AcDbEntity
  8
0
100
AcDbLine
 62
7
  6
CONTINUOUS
 10
42.1003834317
 20
119.3405425229
 11
36.1615477727
 21
119.3405425229
  0
LINE
  5
294
100
AcDbEntity
  8
0
100
AcDbLine
 62
7
  6
CONTINUOUS
 10
41.3008096647
 20
276.9119710943
 11
41.0012318113
 21
278.3405425229
  0
LINE
  5
295
100
AcDbEntity
  8
0
100
AcDbLine
 62
7
  6
CONTINUOUS
 10
73.6541457319
 20
31.3405425229
 11
73.6541457319
 21
29.8405425229
  0
LINE
  5
296
100
AcDbEntity
  8
0
100
AcDbLine
 62
7
  6
CONTINUOUS
 10
48.7975687367
 20
117.8405460547
 11
49.1021055251
 21
117.8840513102
  0
LINE
  5
297
100
AcDbEntity
  8
0
100
AcDbLine
 62
7
  6
CONTINUOUS
 10
48.9489923425
 20
117.5011146083
 11
48.4541457319
 21
117.4445616964
  0
LINE
  5
298
100
AcDbEntity
  8
0
100
AcDbLine
 62
7
  6
CONTINUOUS
 10
49.159724405
 20
117.5197698621
 11
48.9489921174
 21
117.5011178936
  0
LINE
  5
299
100
AcDbEntity
  8
0
100
AcDbLine
 62
7
  6
CONTINUOUS
 10
50.1541457319
 20
123.3405425229
 11
50.6890161894
 21
123.3405425229
  0
LINE
  5
29A
100
AcDbEntity
  8
0
100
AcDbLine
 62
7
  6
CONTINUOUS
 10
35.5440909619
 20
125.3405425229
 11
50.6541457319
 21
125.3405425229
  0
LINE
  5
29B
100
AcDbEntity
  8
0
100
AcDbLine
 62
7
  6
CONTINUOUS
 10
35.5442429034
 20
237.3405425229
 11
50.6541457319
 21
237.3405425229
  0
LINE
  5
29C
100
AcDbEntity
  8
0
100
AcDbLine
 62
7
  6
CONTINUOUS
 10
50.6890161894
 20
239.3405425229
 11
50.1541457319
 21
239.3405425229
  0
LINE
  5
29D
100
AcDbEntity
  8
0
100
AcDbLine
 62
7
  6
CONTINUOUS
 10
48.6798030963
 20
245.0340499559
 11
48.4541457367
 21
245.0630700087
  0
LINE
  5
29E
100
AcDbEntity
  8
0
100
AcDbLine
 62
7
  6
CONTINUOUS
 10
49.1541457319
 20
244.7895994204
 11
48.6258440399
 21
244.8650710907
  0
LINE
  5
29F
100
AcDbEntity
  8
0
100
AcDbLine
 62
7
  6
CONTINUOUS
 10
36.1615477727
 20
243.3405425229
 11
42.1003834316
 21
243.3405425229
  0
LINE
  5
2A0
100
AcDbEntity
  8
0
100
AcDbLine
 62
7
  6
CONTINUOUS
 10
42.667967115
 20
243.9955935486
 11
41.1995846173
 21
243.9955935487
  0
LINE
  5
2A1
100
AcDbEntity
  8
0
100
AcDbLine
 62
7
  6
CONTINUOUS
 10
42.667967115
 20
245.6854914972
 11
41.1995846173
 21
245.6854914972
  0
LINE
  5
2A2
100
AcDbEntity
  8
0
100
AcDbLine
 62
7
  6
CONTINUOUS
 10
42.1070859617
 20
246.3405425229
 11
36.1690013024
 21
246.3405425229
  0
LINE
  5
2A3
100
AcDbEntity
  8
0
100
AcDbLine
 62
7
  6
CONTINUOUS
 10
41.3008096646
 20
248.0548282372
 11
36.9868885764
 21
248.0548282372
  0
LINE
  5
2A4
100
AcDbEntity
  8
0
100
AcDbLine
 62
7
  6
CONTINUOUS
 10
35.5440909619
 20
252.0405425229
 11
42.7436807341
 21
252.0405425229
  0
LINE
  5
2A5
100
AcDbEntity
  8
0
100
AcDbLine
 62
7
  6
CONTINUOUS
 10
38.1362970697
 20
253.6923247276
 11
39.5170543498
 21
253.6923247276
  0
LINE
  5
2A6
100
AcDbEntity
  8
0
100
AcDbLine
 62
7
  6
CONTINUOUS
 10
39.5262725499
 20
254.0405425229
 11
38.1547334699
 21
254.0405425229
  0
LINE
  5
2A7
100
AcDbEntity
  8
0
100
AcDbLine
 62
7
  6
CONTINUOUS
 10
48.625827149
 20
252.6160115422
 11
49.1541457319
 21
252.6914856255
  0
LINE
  5
2A8
100
AcDbEntity
  8
0
100
AcDbLine
 62
7
  6
CONTINUOUS
 10
48.6792050711
 20
252.4469606928
 11
48.4541457319
 21
252.418016206
  0
LINE
  5
2A9
100
AcDbEntity
  8
0
100
AcDbLine
 62
7
  6
CONTINUOUS
 10
49.1599486528
 20
252.5003905554
 11
48.9489922676
 21
252.4816507846
  0
LINE
  5
2AA
100
AcDbEntity
  8
0
100
AcDbLine
 62
7
  6
CONTINUOUS
 10
38.1547334699
 20
255.4123392926
 11
39.5262725499
 21
255.4123392926
  0
LINE
  5
2AB
100
AcDbEntity
  8
0
100
AcDbLine
 62
7
  6
CONTINUOUS
 10
39.9921530828
 20
257.1443901002
 11
39.0864945358
 21
257.1443901002
  0
LINE
  5
2AC
100
AcDbEntity
  8
0
100
AcDbLine
 62
7
  6
CONTINUOUS
 10
40.6115981369
 20
257.782816554
 11
40.3253846438
 21
257.782816554
  0
LINE
  5
2AD
100
AcDbEntity
  8
0
100
AcDbLine
 62
7
  6
CONTINUOUS
 10
49.1597310259
 20
272.3613138921
 11
48.9489919439
 21
272.3799702728
  0
LINE
  5
2AE
100
AcDbEntity
  8
0
100
AcDbLine
 62
7
  6
CONTINUOUS
 10
48.4541457319
 20
272.4365153594
 11
48.8378255269
 21
272.3926726261
  0
LINE
  5
2AF
100
AcDbEntity
  8
0
100
AcDbLine
 62
7
  6
CONTINUOUS
 10
49.1541602107
 20
271.989597352
 11
48.797568737
 21
272.0405389911
  0
LINE
  5
2B0
100
AcDbEntity
  8
0
100
AcDbLine
 62
7
  6
CONTINUOUS
 10
225.4541457319
 20
331.3405425229
 11
225.4541457319
 21
31.3405425229
  0
LINE
  5
2B1
100
AcDbEntity
  8
0
100
AcDbLine
 62
7
  6
CONTINUOUS
 10
227.6541457319
 20
33.5405425229
 11
227.6541457319
 21
329.1405425229
  0
LINE
  5
2B2
100
AcDbEntity
  8
0
100
AcDbLine
 62
7
  6
CONTINUOUS
 10
40.3253846438
 20
266.8982684918
 11
40.6115981369
 21
266.8982684918
  0
LINE
  5
2B3
100
AcDbEntity
  8
0
100
AcDbLine
 62
7
  6
CONTINUOUS
 10
39.9921530828
 20
267.5366949456
 11
39.0864945357
 21
267.5366949456
  0
LINE
  5
2B4
100
AcDbEntity
  8
0
100
AcDbLine
 62
7
  6
CONTINUOUS
 10
39.5262725499
 20
269.2687457532
 11
38.1547334699
 21
269.2687457532
  0
LINE
  5
2B5
100
AcDbEntity
  8
0
100
AcDbLine
 62
7
  6
CONTINUOUS
 10
38.1547334699
 20
270.6405425229
 11
39.5262725499
 21
270.6405425229
  0
LINE
  5
2B6
100
AcDbEntity
  8
0
100
AcDbLine
 62
7
  6
CONTINUOUS
 10
39.5170543498
 20
270.9887603182
 11
38.1362970697
 21
270.9887603182
  0
LINE
  5
2B7
100
AcDbEntity
  8
0
100
AcDbLine
 62
7
  6
CONTINUOUS
 10
42.7436820135
 20
272.6405425229
 11
35.5442429034
 21
272.6405425229
  0
LINE
  5
2B8
100
AcDbEntity
  8
0
100
AcDbLine
 62
7
  6
CONTINUOUS
 10
36.9868885764
 20
276.9119710943
 11
41.3008096646
 21
276.9119710943
  0
LINE
  5
2B9
100
AcDbEntity
  8
0
100
AcDbLine
 62
7
  6
CONTINUOUS
 10
36.1684449389
 20
278.3405425229
 11
42.088792002
 21
278.3405425229
  0
LINE
  5
2BA
100
AcDbEntity
  8
0
100
AcDbLine
 62
7
  6
CONTINUOUS
 10
229.1541457319
 20
317.3394735117
 11
229.1541457319
 21
301.3416115341
  0
LINE
  5
2BB
100
AcDbEntity
  8
0
100
AcDbLine
 62
7
  6
CONTINUOUS
 10
229.1541457319
 20
61.3394735117
 11
229.1541457319
 21
45.3416115341
  0
LINE
  5
2BC
100
AcDbEntity
  8
0
100
AcDbLine
 62
7
  6
CONTINUOUS
 10
48.7975687367
 20
279.8405460547
 11
49.1021055251
 21
279.8840513102
  0
LINE
  5
2BD
100
AcDbEntity
  8
0
100
AcDbLine
 62
7
  6
CONTINUOUS
 10
48.9489923425
 20
279.5011146083
 11
48.4541457319
 21
279.4445616964
  0
LINE
  5
2BE
100
AcDbEntity
  8
0
100
AcDbLine
 62
7
  6
CONTINUOUS
 10
49.159724405
 20
279.5197698621
 11
48.9489921174
 21
279.5011178936
  0
LINE
  5
2BF
100
AcDbEntity
  8
0
100
AcDbLine
 62
7
  6
CONTINUOUS
 10
42.667967115
 20
278.9955935486
 11
41.1995846173
 21
278.9955935487
  0
LINE
  5
2C0
100
AcDbEntity
  8
0
100
AcDbLine
 62
7
  6
CONTINUOUS
 10
42.667967115
 20
280.6854914972
 11
41.1995846173
 21
280.6854914972
  0
LINE
  5
2C1
100
AcDbEntity
  8
0
100
AcDbLine
 62
7
  6
CONTINUOUS
 10
42.1003834317
 20
281.3405425229
 11
36.1615477727
 21
281.3405425229
  0
LINE
  5
2C2
100
AcDbEntity
  8
0
100
AcDbLine
 62
7
  6
CONTINUOUS
 10
50.1541457319
 20
285.3405425229
 11
50.6890161894
 21
285.3405425229
  0
LINE
  5
2C3
100
AcDbEntity
  8
0
100
AcDbLine
 62
7
  6
CONTINUOUS
 10
35.5440909619
 20
287.3405425229
 11
50.6541457319
 21
287.3405425229
  0
LINE
  5
2C4
100
AcDbEntity
  8
0
100
AcDbLine
 62
7
  6
CONTINUOUS
 10
229.1541457319
 20
301.3405425229
 11
227.6541457319
 21
301.3405425229
  0
LINE
  5
2C5
100
AcDbEntity
  8
0
100
AcDbLine
 62
7
  6
CONTINUOUS
 10
32.0539489094
 20
313.9373378364
 11
32.0633367366
 21
313.9355130277
  0
LINE
  5
2C6
100
AcDbEntity
  8
0
100
AcDbLine
 62
7
  6
CONTINUOUS
 10
48.2725277411
 20
310.8218549808
 11
32.2541457319
 21
313.9355130276
  0
LINE
  5
2C7
100
AcDbEntity
  8
0
100
AcDbLine
 62
7
  6
CONTINUOUS
 10
32.2541457319
 20
314.9171402111
 11
48.2725277411
 21
311.8034821642
  0
LINE
  5
2C8
100
AcDbEntity
  8
0
100
AcDbLine
 62
7
  6
CONTINUOUS
 10
32.2541457319
 20
313.9355130275
 11
32.0633367365
 21
313.9355130275
  0
LINE
  5
2C9
100
AcDbEntity
  8
0
100
AcDbLine
 62
7
  6
CONTINUOUS
 10
229.1541457319
 20
317.3405425229
 11
227.6541457319
 21
317.3405425229
  0
LINE
  5
2CA
100
AcDbEntity
  8
0
100
AcDbLine
 62
7
  6
CONTINUOUS
 10
225.4541457319
 20
330.3405425229
 11
53.6541457319
 21
330.3405425229
  0
LINE
  5
2CB
100
AcDbEntity
  8
0
100
AcDbLine
 62
7
  6
CONTINUOUS
 10
53.6541457319
 20
331.3405425229
 11
225.4541457319
 21
331.3405425229
  0
ARC
  5
2CC
100
AcDbEntity
  8
0
100
AcDbCircle
 62
7
  6
CONTINUOUS
 10
38.8862020722
 20
167.79754805
 40
77.8549410615
100
AcDbArc
 50
82.5737161071
 51
82.7734513117
  0
ARC
  5
2CD
100
AcDbEntity
  8
0
100
AcDbCircle
 62
7
  6
CONTINUOUS
 10
38.8862020759
 20
5.7975480808
 40
77.8549410304
100
AcDbArc
 50
82.5737161069
 51
82.7734513115
  0
ARC
  5
2CE
100
AcDbEntity
  8
0
100
AcDbCircle
 62
7
  6
CONTINUOUS
 10
88.3013424424
 20
99.1261909279
 40
61.9393613754
100
AcDbArc
 50
229.794431303
 51
230.2009649613
  0
ARC
  5
2CF
100
AcDbEntity
  8
0
100
AcDbCircle
 62
7
  6
CONTINUOUS
 10
66.5046979738
 20
73.2865063507
 40
28.1343242394
100
AcDbArc
 50
229.6060038796
 51
229.726171281
  0
ARC
  5
2D0
100
AcDbEntity
  8
0
100
AcDbCircle
 62
7
  6
CONTINUOUS
 10
29.4194467511
 20
106.23523988
 40
15.3228283295
100
AcDbArc
 50
313.6298752819
 51
314.6263582679
  0
ARC
  5
2D1
100
AcDbEntity
  8
0
100
AcDbCircle
 62
7
  6
CONTINUOUS
 10
35.4572989912
 20
100.4121174598
 40
6.8331801357
100
AcDbArc
 50
41.0353565063
 51
42.659625818
  0
ARC
  5
2D2
100
AcDbEntity
  8
0
100
AcDbCircle
 62
7
  6
CONTINUOUS
 10
32.8575864977
 20
108.6382365838
 40
6.6686864492
100
AcDbArc
 50
0.0197666443
 51
3.0130055965
  0
ARC
  5
2D3
100
AcDbEntity
  8
0
100
AcDbCircle
 62
7
  6
CONTINUOUS
 10
32.8577863841
 20
92.0428422016
 40
6.6684865645
100
AcDbArc
 50
356.9869489407
 51
359.9801878937
  0
ARC
  5
2D4
100
AcDbEntity
  8
0
100
AcDbCircle
 62
7
  6
CONTINUOUS
 10
34.8111638259
 20
92.0429709502
 40
3.3435705259
100
AcDbArc
 50
353.9802201735
 51
359.9583862108
  0
ARC
  5
2D5
100
AcDbEntity
  8
0
100
AcDbCircle
 62
7
  6
CONTINUOUS
 10
34.811163843
 20
108.6381140966
 40
3.3435705088
100
AcDbArc
 50
0.0416137768
 51
6.0197798412
  0
ARC
  5
2D6
100
AcDbEntity
  8
0
100
AcDbCircle
 62
7
  6
CONTINUOUS
 10
53.6541457319
 20
34.3405425229
 40
3.0
100
AcDbArc
 50
180.0
 51
270.0
  0
ARC
  5
2D7
100
AcDbEntity
  8
0
100
AcDbCircle
 62
7
  6
CONTINUOUS
 10
38.9087113585
 20
82.8843659863
 40
2.4413056698
100
AcDbArc
 50
30.318231132
 51
34.8172622364
  0
ARC
  5
2D8
100
AcDbEntity
  8
0
100
AcDbCircle
 62
7
  6
CONTINUOUS
 10
39.2354863334
 20
83.0770910568
 40
2.0619345029
100
AcDbArc
 50
26.7401893368
 51
30.2790438708
  0
ARC
  5
2D9
100
AcDbEntity
  8
0
100
AcDbCircle
 62
7
  6
CONTINUOUS
 10
39.2354863342
 20
118.0770910571
 40
2.0619345021
100
AcDbArc
 50
26.7401893377
 51
30.2790438735
  0
ARC
  5
2DA
100
AcDbEntity
  8
0
100
AcDbCircle
 62
7
  6
CONTINUOUS
 10
39.2354871703
 20
117.6039935658
 40
2.0619335662
100
AcDbArc
 50
329.7209747177
 51
333.2598106413
  0
ARC
  5
2DB
100
AcDbEntity
  8
0
100
AcDbCircle
 62
7
  6
CONTINUOUS
 10
48.6541457319
 20
48.9143485147
 40
2.0
100
AcDbArc
 50
0.0
 51
101.0000000013
  0
ARC
  5
2DC
100
AcDbEntity
  8
0
100
AcDbCircle
 62
7
  6
CONTINUOUS
 10
53.6541457319
 20
34.3405425229
 40
2.0
100
AcDbArc
 50
222.8129364062
 51
270.0
  0
ARC
  5
2DD
100
AcDbEntity
  8
0
100
AcDbCircle
 62
7
  6
CONTINUOUS
 10
39.4504889908
 20
117.4954933606
 40
1.8211057248
100
AcDbArc
 50
333.2647706653
 51
336.9573997323
  0
ARC
  5
2DE
100
AcDbEntity
  8
0
100
AcDbCircle
 62
7
  6
CONTINUOUS
 10
41.2623180672
 20
82.9772227211
 40
1.5770476604
100
AcDbArc
 50
35.7458335568
 51
40.714787375
  0
ARC
  5
2DF
100
AcDbEntity
  8
0
100
AcDbCircle
 62
7
  6
CONTINUOUS
 10
31.9965535881
 20
49.0891415324
 40
1.35
100
AcDbArc
 50
154.0038708987
 51
281.0000000022
  0
ARC
  5
2E0
100
AcDbEntity
  8
0
100
AcDbCircle
 62
7
  6
CONTINUOUS
 10
49.466370527
 20
110.3476258249
 40
0.5183878461
100
AcDbArc
 50
176.4227538058
 51
185.9247439902
  0
ARC
  5
2E1
100
AcDbEntity
  8
0
100
AcDbCircle
 62
7
  6
CONTINUOUS
 10
48.8541457319
 20
110.4365175811
 40
0.4
100
AcDbArc
 50
179.9999175702
 51
261.8698976452
  0
ARC
  5
2E2
100
AcDbEntity
  8
0
100
AcDbCircle
 62
7
  6
CONTINUOUS
 10
48.8541251634
 20
117.4445573477
 40
0.3999997154
100
AcDbArc
 50
98.1269808543
 51
179.9986062713
  0
ARC
  5
2E3
100
AcDbEntity
  8
0
100
AcDbCircle
 62
7
  6
CONTINUOUS
 10
31.9965535881
 20
49.0891415324
 40
0.35
100
AcDbArc
 50
178.5237848347
 51
281.0000000031
  0
ARC
  5
2E4
100
AcDbEntity
  8
0
100
AcDbCircle
 62
7
  6
CONTINUOUS
 10
48.6541457319
 20
83.0630585007
 40
0.2
100
AcDbArc
 50
180.0
 51
261.8673770308
  0
ARC
  5
2E5
100
AcDbEntity
  8
0
100
AcDbCircle
 62
7
  6
CONTINUOUS
 10
48.6541457319
 20
90.4180265451
 40
0.2
100
AcDbArc
 50
98.1301023404
 51
180.0004342692
  0
ARC
  5
2E6
100
AcDbEntity
  8
0
100
AcDbCircle
 62
7
  6
CONTINUOUS
 10
38.2877059796
 20
172.3395335959
 40
82.5492383373
100
AcDbArc
 50
277.2317181068
 51
277.4205133994
  0
ARC
  5
2E7
100
AcDbEntity
  8
0
100
AcDbCircle
 62
7
  6
CONTINUOUS
 10
38.2877059856
 20
334.3395335459
 40
82.5492382869
100
AcDbArc
 50
277.231718107
 51
277.4205133998
  0
ARC
  5
2E8
100
AcDbEntity
  8
0
100
AcDbCircle
 62
7
  6
CONTINUOUS
 10
88.3007721505
 20
263.5555753236
 40
61.938472969
100
AcDbArc
 50
129.7990330828
 51
130.205577263
  0
ARC
  5
2E9
100
AcDbEntity
  8
0
100
AcDbCircle
 62
7
  6
CONTINUOUS
 10
66.5045631479
 20
289.3947379537
 40
28.1341155746
100
AcDbArc
 50
130.2738392175
 51
130.3939971829
  0
ARC
  5
2EA
100
AcDbEntity
  8
0
100
AcDbCircle
 62
7
  6
CONTINUOUS
 10
29.4194467463
 20
268.235239885
 40
15.3228283364
100
AcDbArc
 50
313.6298752821
 51
314.6263582676
  0
ARC
  5
2EB
100
AcDbEntity
  8
0
100
AcDbCircle
 62
7
  6
CONTINUOUS
 10
35.4572989905
 20
262.4121174592
 40
6.8331801366
100
AcDbArc
 50
41.0353565064
 51
42.6596258179
  0
ARC
  5
2EC
100
AcDbEntity
  8
0
100
AcDbCircle
 62
7
  6
CONTINUOUS
 10
32.8575864972
 20
270.6382365838
 40
6.6686864496
100
AcDbArc
 50
0.0197666444
 51
3.0130055964
  0
ARC
  5
2ED
100
AcDbEntity
  8
0
100
AcDbCircle
 62
7
  6
CONTINUOUS
 10
32.8577858779
 20
254.042842215
 40
6.6684870707
100
AcDbArc
 50
356.9869490544
 51
359.9801877801
  0
ARC
  5
2EE
100
AcDbEntity
  8
0
100
AcDbCircle
 62
7
  6
CONTINUOUS
 10
34.8111636081
 20
254.0429709617
 40
3.3435707438
100
AcDbArc
 50
353.9802203684
 51
359.9583860159
  0
ARC
  5
2EF
100
AcDbEntity
  8
0
100
AcDbCircle
 62
7
  6
CONTINUOUS
 10
34.8111638447
 20
270.6381140967
 40
3.3435705072
100
AcDbArc
 50
0.0416137753
 51
6.0197798427
  0
ARC
  5
2F0
100
AcDbEntity
  8
0
100
AcDbCircle
 62
7
  6
CONTINUOUS
 10
53.6541457319
 20
328.3405425229
 40
3.0
100
AcDbArc
 50
90.0
 51
174.999888967
  0
ARC
  5
2F1
100
AcDbEntity
  8
0
100
AcDbCircle
 62
7
  6
CONTINUOUS
 10
38.9087113585
 20
244.8843659863
 40
2.4413056698
100
AcDbArc
 50
30.318231132
 51
34.8172622364
  0
ARC
  5
2F2
100
AcDbEntity
  8
0
100
AcDbCircle
 62
7
  6
CONTINUOUS
 10
39.2354863334
 20
245.0770910568
 40
2.0619345029
100
AcDbArc
 50
26.7401893368
 51
30.2790438708
  0
ARC
  5
2F3
100
AcDbEntity
  8
0
100
AcDbCircle
 62
7
  6
CONTINUOUS
 10
39.2354863352
 20
280.0770910577
 40
2.0619345009
100
AcDbArc
 50
26.7401893367
 51
30.2790438745
  0
ARC
  5
2F4
100
AcDbEntity
  8
0
100
AcDbCircle
 62
7
  6
CONTINUOUS
 10
39.2354871697
 20
279.6039935662
 40
2.0619335669
100
AcDbArc
 50
329.7209747184
 51
333.2598106407
  0
ARC
  5
2F5
100
AcDbEntity
  8
0
100
AcDbCircle
 62
7
  6
CONTINUOUS
 10
48.6541457319
 20
313.7667365311
 40
2.0
100
AcDbArc
 50
258.9999999987
 51
360.0
  0
ARC
  5
2F6
100
AcDbEntity
  8
0
100
AcDbCircle
 62
7
  6
CONTINUOUS
 10
53.6541457319
 20
328.3405425229
 40
2.0
100
AcDbArc
 50
90.0
 51
137.1868374911
  0
ARC
  5
2F7
100
AcDbEntity
  8
0
100
AcDbCircle
 62
7
  6
CONTINUOUS
 10
39.4504889915
 20
279.4954933603
 40
1.821105724
100
AcDbArc
 50
333.2647706645
 51
336.9573997331
  0
ARC
  5
2F8
100
AcDbEntity
  8
0
100
AcDbCircle
 62
7
  6
CONTINUOUS
 10
41.2623180672
 20
244.9772227211
 40
1.5770476603
100
AcDbArc
 50
35.7458335568
 51
40.714787375
  0
ARC
  5
2F9
100
AcDbEntity
  8
0
100
AcDbCircle
 62
7
  6
CONTINUOUS
 10
31.9965535881
 20
313.5919435134
 40
1.35
100
AcDbArc
 50
78.9999999977
 51
207.7483729517
  0
ARC
  5
2FA
100
AcDbEntity
  8
0
100
AcDbCircle
 62
7
  6
CONTINUOUS
 10
49.466370527
 20
272.3476258249
 40
0.5183878461
100
AcDbArc
 50
176.4227538058
 51
185.9247439902
  0
ARC
  5
2FB
100
AcDbEntity
  8
0
100
AcDbCircle
 62
7
  6
CONTINUOUS
 10
48.8541457319
 20
272.4365175811
 40
0.4
100
AcDbArc
 50
179.9999175702
 51
261.8698976452
  0
ARC
  5
2FC
100
AcDbEntity
  8
0
100
AcDbCircle
 62
7
  6
CONTINUOUS
 10
48.8541251634
 20
279.4445573477
 40
0.3999997154
100
AcDbArc
 50
98.1269808544
 51
179.9986062706
  0
ARC
  5
2FD
100
AcDbEntity
  8
0
100
AcDbCircle
 62
7
  6
CONTINUOUS
 10
31.9965535881
 20
313.5919435134
 40
0.35
100
AcDbArc
 50
79.2520016505
 51
182.1859872592
  0
ARC
  5
2FE
100
AcDbEntity
  8
0
100
AcDbCircle
 62
7
  6
CONTINUOUS
 10
48.6541457319
 20
245.0630585007
 40
0.2
100
AcDbArc
 50
180.0
 51
261.8673770187
  0
ARC
  5
2FF
100
AcDbEntity
  8
0
100
AcDbCircle
 62
7
  6
CONTINUOUS
 10
48.6541457319
 20
252.4180265451
 40
0.2
100
AcDbArc
 50
98.1301023404
 51
180.0004342692
  0
ARC
  5
300
100
AcDbEntity
  8
0
100
AcDbCircle
 62
7
  6
CONTINUOUS
 10
225.4541457319
 20
33.5405425229
 40
2.2
100
AcDbArc
 50
269.9999999999
 51
360.0
  0
ARC
  5
301
100
AcDbEntity
  8
0
100
AcDbCircle
 62
7
  6
CONTINUOUS
 10
225.4541457319
 20
329.1405425229
 40
2.2
100
AcDbArc
 50
0.0
 51
90.0000000001
  0
SPLINE
  5
302
100
AcDbEntity
  8
0
100
AcDbSpline
 62
7
  6
CONTINUOUS
 70
0
 71
3
 72
9
 73
5
 74
0
 42
0.0000001
 43
0.0000001
 44
0.0000000001
 40
0.0
 40
0.0
 40
0.0
 40
0.0
 40
0.451456342
 40
1.0
 40
1.0
 40
1.0
 40
1.0
 10
50.6541457319
 20
313.7667365311
 30
0.0
 10
50.6541457319
 20
313.4957245029
 30
0.0
 10
50.4601387793
 20
312.8964276048
 30
0.0
 10
50.0653032715
 20
312.4361527653
 30
0.0
 10
49.8365250413
 20
312.1993086096
 30
0.0
  0
SPLINE
  5
303
100
AcDbEntity
  8
0
100
AcDbSpline
 62
7
  6
CONTINUOUS
 70
0
 71
3
 72
9
 73
5
 74
0
 42
0.0000001
 43
0.0000001
 44
0.0000000001
 40
0.0
 40
0.0
 40
0.0
 40
0.0
 40
0.237809784
 40
1.0
 40
1.0
 40
1.0
 40
1.0
 10
49.8365250413
 20
312.1993086096
 30
0.0
 10
49.7581025796
 20
312.1181212444
 30
0.0
 10
49.4191611573
 20
311.7855424688
 30
0.0
 10
49.0561959675
 20
311.4788722471
 30
0.0
 10
48.7787543118
 20
311.246686503
 30
0.0
  0
LINE
  5
304
100
AcDbEntity
  8
0
100
AcDbLine
 62
7
  6
CONTINUOUS
 10
48.7787543118
 20
311.246686503
 11
48.6541578987
 21
311.1425526608
  0
SPLINE
  5
305
100
AcDbEntity
  8
0
100
AcDbSpline
 62
7
  6
CONTINUOUS
 70
0
 71
3
 72
10
 73
6
 74
0
 42
0.0000001
 43
0.0000001
 44
0.0000000001
 40
0.0
 40
0.0
 40
0.0
 40
0.0
 40
0.3727549818
 40
0.6532169491
 40
1.0
 40
1.0
 40
1.0
 40
1.0
 10
227.6541457319
 20
329.1405425229
 30
0.0
 10
227.6541457319
 20
329.2643213446
 30
0.0
 10
227.4928254558
 20
329.4582663388
 30
0.0
 10
227.2207720622
 20
329.6341037762
 30
0.0
 10
227.0333626754
 20
329.7304148283
 30
0.0
 10
226.9290582007
 20
329.7792116056
 30
0.0
  0
SPLINE
  5
306
100
AcDbEntity
  8
0
100
AcDbSpline
 62
7
  6
CONTINUOUS
 70
0
 71
3
 72
9
 73
5
 74
0
 42
0.0000001
 43
0.0000001
 44
0.0000000001
 40
0.0
 40
0.0
 40
0.0
 40
0.0
 40
0.4688697889
 40
1.0
 40
1.0
 40
1.0
 40
1.0
 10
226.9290582007
 20
329.7792116056
 30
0.0
 10
226.7055897809
 20
329.8837568682
 30
0.0
 10
226.2150957918
 20
330.0763213638
 30
0.0
 10
225.7181562183
 20
330.2488656343
 30
0.0
 10
225.4541457319
 20
330.3405425229
 30
0.0
  0
SPLINE
  5
307
100
AcDbEntity
  8
0
100
AcDbSpline
 62
7
  6
CONTINUOUS
 70
0
 71
3
 72
9
 73
5
 74
0
 42
0.0000001
 43
0.0000001
 44
0.0000000001
 40
0.0
 40
0.0
 40
0.0
 40
0.0
 40
0.5311298705
 40
1.0
 40
1.0
 40
1.0
 40
1.0
 10
225.4541457319
 20
32.3405425229
 30
0.0
 10
225.718154947
 20
32.4322189701
 30
0.0
 10
226.2150924508
 20
32.6047625219
 30
0.0
 10
226.7055844457
 20
32.7973260256
 30
0.0
 10
226.9290522269
 20
32.9018706461
 30
0.0
  0
SPLINE
  5
308
100
AcDbEntity
  8
0
100
AcDbSpline
 62
7
  6
CONTINUOUS
 70
0
 71
3
 72
10
 73
6
 74
0
 42
0.0000001
 43
0.0000001
 44
0.0000000001
 40
0.0
 40
0.0
 40
0.0
 40
0.0
 40
0.3467832337
 40
0.6272453615
 40
1.0
 40
1.0
 40
1.0
 40
1.0
 10
226.9290522269
 20
32.9018706461
 30
0.0
 10
227.0333574962
 20
32.9506676348
 30
0.0
 10
227.2207683628
 20
33.0469790997
 30
0.0
 10
227.492823765
 20
33.2228171279
 30
0.0
 10
227.6541457319
 20
33.4167630105
 30
0.0
 10
227.6541457319
 20
33.5405425229
 30
0.0
  0
SPLINE
  5
309
100
AcDbEntity
  8
0
100
AcDbSpline
 62
7
  6
CONTINUOUS
 70
0
 71
3
 72
9
 73
5
 74
0
 42
0.0000001
 43
0.0000001
 44
0.0000000001
 40
0.0
 40
0.0
 40
0.0
 40
0.0
 40
0.5490741301
 40
1.0
 40
1.0
 40
1.0
 40
1.0
 10
53.6541457319
 20
330.3405425229
 30
0.0
 10
53.1974440331
 20
330.1467123019
 30
0.0
 10
52.3675560722
 20
329.7937544102
 30
0.0
 10
51.5574519719
 20
329.3790223344
 30
0.0
 10
51.227090921
 20
329.1405383617
 30
0.0
  0
SPLINE
  5
30A
100
AcDbEntity
  8
0
100
AcDbSpline
 62
7
  6
CONTINUOUS
 70
0
 71
3
 72
10
 73
6
 74
0
 42
0.0000001
 43
0.0000001
 44
0.0000000001
 40
0.0
 40
0.0
 40
0.0
 40
0.0
 40
0.3122617795
 40
0.6934509767
 40
1.0
 40
1.0
 40
1.0
 40
1.0
 10
51.227090921
 20
329.1405383617
 30
0.0
 10
51.1414329118
 20
329.0787027965
 30
0.0
 10
50.958019365
 20
328.9321901847
 30
0.0
 10
50.7286133071
 20
328.6770993014
 30
0.0
 10
50.6541457319
 20
328.4442550774
 30
0.0
 10
50.6541457319
 20
328.3405425229
 30
0.0
  0
SPLINE
  5
30B
100
AcDbEntity
  8
0
100
AcDbSpline
 62
7
  6
CONTINUOUS
 70
0
 71
3
 72
10
 73
6
 74
0
 42
0.0000001
 43
0.0000001
 44
0.0000000001
 40
0.0
 40
0.0
 40
0.0
 40
0.0
 40
0.199964069
 40
0.5504061904
 40
1.0
 40
1.0
 40
1.0
 40
1.0
 10
50.6541457319
 20
34.3405425229
 30
0.0
 10
50.6541457319
 20
34.2728158245
 30
0.0
 10
50.6918263699
 20
34.0853629721
 30
0.0
 10
50.8929188529
 20
33.8019282641
 30
0.0
 10
51.1036339053
 20
33.6296683124
 30
0.0
 10
51.227099811
 20
33.5405402651
 30
0.0
  0
SPLINE
  5
30C
100
AcDbEntity
  8
0
100
AcDbSpline
 62
7
  6
CONTINUOUS
 70
0
 71
3
 72
9
 73
5
 74
0
 42
0.0000001
 43
0.0000001
 44
0.0000000001
 40
0.0
 40
0.0
 40
0.0
 40
0.0
 40
0.4509264275
 40
1.0
 40
1.0
 40
1.0
 40
1.0
 10
51.227099811
 20
33.5405402651
 30
0.0
 10
51.557460726
 20
33.3020580452
 30
0.0
 10
52.3675616361
 20
32.8873282305
 30
0.0
 10
53.1974463348
 20
32.5343717664
 30
0.0
 10
53.6541457319
 20
32.3405425229
 30
0.0
  0
SPLINE
  5
30D
100
AcDbEntity
  8
0
100
AcDbSpline
 62
7
  6
CONTINUOUS
 70
0
 71
3
 72
8
 73
4
 74
0
 42
0.0000001
 43
0.0000001
 44
0.0000000001
 40
0.0
 40
0.0
 40
0.0
 40
0.0
 40
1.0
 40
1.0
 40
1.0
 40
1.0
 10
40.8684941353
 20
116.3405425229
 30
0.0
 10
40.9213938717
 20
116.4125750439
 30
0.0
 10
40.9711231661
 20
116.4871337274
 30
0.0
 10
41.0161321494
 20
116.5643429083
 30
0.0
  0
SPLINE
  5
30E
100
AcDbEntity
  8
0
100
AcDbSpline
 62
7
  6
CONTINUOUS
 70
0
 71
3
 72
18
 73
14
 74
0
 42
0.0000001
 43
0.0000001
 44
0.0000000001
 40
0.0
 40
0.0
 40
0.0
 40
0.0
 40
0.0413056448
 40
0.0829671534
 40
0.1321252157
 40
0.1904853593
 40
0.3293318126
 40
0.4845333957
 40
0.6424397421
 40
0.7902014893
 40
0.8556745977
 40
0.9128098873
 40
1.0
 40
1.0
 40
1.0
 40
1.0
 10
37.4041733343
 20
119.3405425229
 30
0.0
 10
37.3601368139
 20
119.3405425229
 30
0.0
 10
37.2688267252
 20
119.319472313
 30
0.0
 10
37.1673325459
 20
119.2136825106
 30
0.0
 10
37.1076251576
 20
119.0642384383
 30
0.0
 10
37.0583621604
 20
118.8055560385
 30
0.0
 10
37.0449534924
 20
118.4289267647
 30
0.0
 10
37.0438007758
 20
117.9474917509
 30
0.0
 10
37.0440955667
 20
117.4558999027
 30
0.0
 10
37.0483340734
 20
117.0606828583
 30
0.0
 10
37.0768854429
 20
116.7721982014
 30
0.0
 10
37.1199489511
 20
116.5562964393
 30
0.0
 10
37.2075775678
 20
116.404365715
 30
0.0
 10
37.2916440097
 20
116.3646997509
 30
0.0
  0
SPLINE
  5
30F
100
AcDbEntity
  8
0
100
AcDbSpline
 62
7
  6
CONTINUOUS
 70
0
 71
3
 72
8
 73
4
 74
0
 42
0.0000001
 43
0.0000001
 44
0.0000000001
 40
0.0
 40
0.0
 40
0.0
 40
0.0
 40
1.0
 40
1.0
 40
1.0
 40
1.0
 10
41.0161317842
 20
119.1167427643
 30
0.0
 10
40.9711228969
 20
119.1939517217
 30
0.0
 10
40.9213937288
 20
119.2685101966
 30
0.0
 10
40.8684941353
 20
119.3405425229
 30
0.0
  0
SPLINE
  5
310
100
AcDbEntity
  8
0
100
AcDbSpline
 62
7
  6
CONTINUOUS
 70
0
 71
3
 72
9
 73
5
 74
0
 42
0.0000001
 43
0.0000001
 44
0.0000000001
 40
0.0
 40
0.0
 40
0.0
 40
0.0
 40
0.2429676975
 40
1.0
 40
1.0
 40
1.0
 40
1.0
 10
41.1995846172
 20
118.6854914972
 30
0.0
 10
41.1925328094
 20
118.7123165439
 30
0.0
 10
41.1603056285
 20
118.8218744965
 30
0.0
 10
41.1157401076
 20
118.9276438588
 30
0.0
 10
41.0769093127
 20
119.0048492718
 30
0.0
  0
SPLINE
  5
311
100
AcDbEntity
  8
0
100
AcDbSpline
 62
7
  6
CONTINUOUS
 70
0
 71
3
 72
11
 73
7
 74
0
 42
0.0000001
 43
0.0000001
 44
0.0000000001
 40
0.0
 40
0.0
 40
0.0
 40
0.0
 40
0.2247499903
 40
0.5000027993
 40
0.7752535864
 40
1.0
 40
1.0
 40
1.0
 40
1.0
 10
41.1995846172
 20
116.9955935486
 30
0.0
 10
41.231849825
 20
117.118330261
 30
0.0
 10
41.2410966282
 20
117.4039713874
 30
0.0
 10
41.2443293752
 20
117.8405461306
 30
0.0
 10
41.2410967902
 20
118.2771189024
 30
0.0
 10
41.2318493115
 20
118.5627567381
 30
0.0
 10
41.1995846172
 20
118.6854914972
 30
0.0
  0
SPLINE
  5
312
100
AcDbEntity
  8
0
100
AcDbSpline
 62
7
  6
CONTINUOUS
 70
0
 71
3
 72
8
 73
4
 74
0
 42
0.0000001
 43
0.0000001
 44
0.0000000001
 40
0.0
 40
0.0
 40
0.0
 40
0.0
 40
1.0
 40
1.0
 40
1.0
 40
1.0
 10
41.1262961283
 20
116.7826844811
 30
0.0
 10
41.1556311882
 20
116.8517710307
 30
0.0
 10
41.1805019755
 20
116.923003261
 30
0.0
 10
41.1995846172
 20
116.9955935486
 30
0.0
  0
SPLINE
  5
313
100
AcDbEntity
  8
0
100
AcDbSpline
 62
7
  6
CONTINUOUS
 70
0
 71
3
 72
9
 73
5
 74
0
 42
0.0000001
 43
0.0000001
 44
0.0000000001
 40
0.0
 40
0.0
 40
0.0
 40
0.0
 40
0.2144022413
 40
1.0
 40
1.0
 40
1.0
 40
1.0
 10
30.6465589849
 20
50.1495190649
 30
0.0
 10
30.6465775505
 20
50.1015425643
 30
0.0
 10
30.6834068106
 20
49.8766598154
 30
0.0
 10
30.8468839201
 20
49.6977378758
 30
0.0
 10
30.9774824433
 20
49.5800649778
 30
0.0
  0
SPLINE
  5
314
100
AcDbEntity
  8
0
100
AcDbSpline
 62
7
  6
CONTINUOUS
 70
0
 71
3
 72
9
 73
5
 74
0
 42
0.0000001
 43
0.0000001
 44
0.0000000001
 40
0.0
 40
0.0
 40
0.0
 40
0.0
 40
0.2250770593
 40
1.0
 40
1.0
 40
1.0
 40
1.0
 10
30.9774824433
 20
49.5800649778
 30
0.0
 10
31.0236506156
 20
49.5384661718
 30
0.0
 10
31.2370251035
 20
49.3627808031
 30
0.0
 10
31.4708483078
 20
49.2141711935
 30
0.0
 10
31.6535095721
 20
49.1027555099
 30
0.0
  0
SPLINE
  5
315
100
AcDbEntity
  8
0
100
AcDbSpline
 62
7
  6
CONTINUOUS
 70
0
 71
3
 72
8
 73
4
 74
0
 42
0.0000001
 43
0.0000001
 44
0.0000000001
 40
0.0
 40
0.0
 40
0.0
 40
0.0
 40
1.0
 40
1.0
 40
1.0
 40
1.0
 10
31.6535095721
 20
49.1027555099
 30
0.0
 10
31.767315099
 20
49.0333389282
 30
0.0
 10
31.8822025132
 20
48.9657069581
 30
0.0
 10
31.9970576782
 20
48.8980412296
 30
0.0
  0
SPLINE
  5
316
100
AcDbEntity
  8
0
100
AcDbSpline
 62
7
  6
CONTINUOUS
 70
0
 71
3
 72
8
 73
4
 74
0
 42
0.0000001
 43
0.0000001
 44
0.0000000001
 40
0.0
 40
0.0
 40
0.0
 40
0.0
 40
1.0
 40
1.0
 40
1.0
 40
1.0
 10
31.9970575651
 20
313.7830440071
 30
0.0
 10
31.8822257165
 20
313.7153921948
 30
0.0
 10
31.7673616432
 20
313.6477741179
 30
0.0
 10
31.6535788594
 20
313.5783723942
 30
0.0
  0
SPLINE
  5
317
100
AcDbEntity
  8
0
100
AcDbSpline
 62
7
  6
CONTINUOUS
 70
0
 71
3
 72
9
 73
5
 74
0
 42
0.0000001
 43
0.0000001
 44
0.0000000001
 40
0.0
 40
0.0
 40
0.0
 40
0.0
 40
0.2694338864
 40
1.0
 40
1.0
 40
1.0
 40
1.0
 10
31.6535788594
 20
313.5783723942
 30
0.0
 10
31.5944857969
 20
313.5423286251
 30
0.0
 10
31.3765086799
 20
313.406644074
 30
0.0
 10
31.1634061351
 20
313.2610247756
 30
0.0
 10
31.0207872131
 20
313.1390203969
 30
0.0
  0
SPLINE
  5
318
100
AcDbEntity
  8
0
100
AcDbSpline
 62
7
  6
CONTINUOUS
 70
0
 71
3
 72
9
 73
5
 74
0
 42
0.0000001
 43
0.0000001
 44
0.0000000001
 40
0.0
 40
0.0
 40
0.0
 40
0.0
 40
0.2935901651
 40
1.0
 40
1.0
 40
1.0
 40
1.0
 10
31.0207872131
 20
313.1390203969
 30
0.0
 10
30.9751908807
 20
313.1000146877
 30
0.0
 10
30.8259367844
 20
312.9627158331
 30
0.0
 10
30.6958193549
 20
312.7881299411
 30
0.0
 10
30.6610812804
 20
312.6479954199
 30
0.0
  0
SPLINE
  5
319
100
AcDbEntity
  8
0
100
AcDbSpline
 62
7
  6
CONTINUOUS
 70
0
 71
3
 72
8
 73
4
 74
0
 42
0.0000001
 43
0.0000001
 44
0.0000000001
 40
0.0
 40
0.0
 40
0.0
 40
0.0
 40
1.0
 40
1.0
 40
1.0
 40
1.0
 10
30.6610812804
 20
312.6479954199
 30
0.0
 10
30.6516708994
 20
312.6100336373
 30
0.0
 10
30.6465755361
 20
312.5706759974
 30
0.0
 10
30.6465595291
 20
312.5315652323
 30
0.0
  0
LINE
  5
31A
100
AcDbEntity
  8
0
100
AcDbLine
 62
7
  6
CONTINUOUS
 10
48.6541579
 20
51.5385323865
 11
48.7787526827
 21
51.4343999073
  0
SPLINE
  5
31B
100
AcDbEntity
  8
0
100
AcDbSpline
 62
7
  6
CONTINUOUS
 70
0
 71
3
 72
9
 73
5
 74
0
 42
0.0000001
 43
0.0000001
 44
0.0000000001
 40
0.0
 40
0.0
 40
0.0
 40
0.0
 40
0.2596846561
 40
1.0
 40
1.0
 40
1.0
 40
1.0
 10
48.7787526827
 20
51.4343999073
 30
0.0
 10
48.8732684539
 20
51.3553014247
 30
0.0
 10
49.2363406907
 20
51.0498631976
 30
0.0
 10
49.5924470244
 20
50.7344627987
 30
0.0
 10
49.8365508179
 20
50.4817497572
 30
0.0
  0
SPLINE
  5
31C
100
AcDbEntity
  8
0
100
AcDbSpline
 62
7
  6
CONTINUOUS
 70
0
 71
3
 72
9
 73
5
 74
0
 42
0.0000001
 43
0.0000001
 44
0.0000000001
 40
0.0
 40
0.0
 40
0.0
 40
0.0
 40
0.5485426477
 40
1.0
 40
1.0
 40
1.0
 40
1.0
 10
49.8365508179
 20
50.4817497572
 30
0.0
 10
50.0653225663
 20
50.2449095037
 30
0.0
 10
50.4601465245
 20
49.7846407594
 30
0.0
 10
50.6541457319
 20
49.1853556324
 30
0.0
 10
50.6541457319
 20
48.9143485147
 30
0.0
  0
SPLINE
  5
31D
100
AcDbEntity
  8
0
100
AcDbSpline
 62
7
  6
CONTINUOUS
 70
0
 71
3
 72
10
 73
6
 74
0
 42
0.0000001
 43
0.0000001
 44
0.0000000001
 40
0.0
 40
0.0
 40
0.0
 40
0.0
 40
0.1934062086
 40
0.5418699228
 40
1.0
 40
1.0
 40
1.0
 40
1.0
 10
37.3667705511
 20
90.0405425229
 30
0.0
 10
37.4130432604
 20
90.0405425229
 30
0.0
 10
37.5435115616
 20
90.0728073908
 30
0.0
 10
37.7267798921
 20
90.2397983657
 30
0.0
 10
37.8226506964
 20
90.4088184587
 30
0.0
 10
37.8689379636
 20
90.5081736887
 30
0.0
  0
SPLINE
  5
31E
100
AcDbEntity
  8
0
100
AcDbSpline
 62
7
  6
CONTINUOUS
 70
0
 71
3
 72
9
 73
5
 74
0
 42
0.0000001
 43
0.0000001
 44
0.0000000001
 40
0.0
 40
0.0
 40
0.0
 40
0.0
 40
0.4592265913
 40
1.0
 40
1.0
 40
1.0
 40
1.0
 10
37.8689379636
 20
90.5081736887
 30
0.0
 10
37.9477135526
 20
90.6772648285
 30
0.0
 10
38.0666947429
 20
91.0694649302
 30
0.0
 10
38.1211575807
 20
91.4731816167
 30
0.0
 10
38.1362970696
 20
91.6923247275
 30
0.0
  0
SPLINE
  5
31F
100
AcDbEntity
  8
0
100
AcDbSpline
 62
7
  6
CONTINUOUS
 70
0
 71
3
 72
9
 73
5
 74
0
 42
0.0000001
 43
0.0000001
 44
0.0000000001
 40
0.0
 40
0.0
 40
0.0
 40
0.0
 40
0.2579726259
 40
1.0
 40
1.0
 40
1.0
 40
1.0
 10
41.0769093127
 20
81.6762357716
 30
0.0
 10
41.0901408007
 20
81.7025433069
 30
0.0
 10
41.1390942175
 20
81.8056603844
 30
0.0
 10
41.1780496084
 20
81.9136744673
 30
0.0
 10
41.1995846172
 20
81.9955935487
 30
0.0
  0
SPLINE
  5
320
100
AcDbEntity
  8
0
100
AcDbSpline
 62
7
  6
CONTINUOUS
 70
0
 71
3
 72
11
 73
7
 74
0
 42
0.0000001
 43
0.0000001
 44
0.0000000001
 40
0.0
 40
0.0
 40
0.0
 40
0.0
 40
0.2247499904
 40
0.5000027994
 40
0.7752535864
 40
1.0
 40
1.0
 40
1.0
 40
1.0
 10
41.1995846172
 20
81.9955935487
 30
0.0
 10
41.231849825
 20
82.1183302611
 30
0.0
 10
41.2410966281
 20
82.4039713874
 30
0.0
 10
41.2443293752
 20
82.8405461306
 30
0.0
 10
41.2410967902
 20
83.2771189024
 30
0.0
 10
41.2318493115
 20
83.5627567381
 30
0.0
 10
41.1995846172
 20
83.6854914972
 30
0.0
  0
SPLINE
  5
321
100
AcDbEntity
  8
0
100
AcDbSpline
 62
7
  6
CONTINUOUS
 70
0
 71
3
 72
9
 73
5
 74
0
 42
0.0000001
 43
0.0000001
 44
0.0000000001
 40
0.0
 40
0.0
 40
0.0
 40
0.0
 40
0.2429676975
 40
1.0
 40
1.0
 40
1.0
 40
1.0
 10
41.1995846172
 20
83.6854914972
 30
0.0
 10
41.1925328094
 20
83.7123165439
 30
0.0
 10
41.1603056285
 20
83.8218744965
 30
0.0
 10
41.1157401076
 20
83.9276438588
 30
0.0
 10
41.0769093127
 20
84.0048492718
 30
0.0
  0
SPLINE
  5
322
100
AcDbEntity
  8
0
100
AcDbSpline
 62
7
  6
CONTINUOUS
 70
0
 71
3
 72
17
 73
13
 74
0
 42
0.0000001
 43
0.0000001
 44
0.0000000001
 40
0.0
 40
0.0
 40
0.0
 40
0.0
 40
0.1137661992
 40
0.2514762916
 40
0.4012640642
 40
0.5531241143
 40
0.6975602432
 40
0.823532375
 40
0.8759900235
 40
0.9207296742
 40
0.9600621897
 40
1.0
 40
1.0
 40
1.0
 40
1.0
 10
37.1296159635
 20
84.1134868327
 30
0.0
 10
37.0909416027
 20
84.0089280732
 30
0.0
 10
37.0562510554
 20
83.7613546518
 30
0.0
 10
37.044395959
 20
83.3693508851
 30
0.0
 10
37.0440354537
 20
82.9384862098
 30
0.0
 10
37.0437097019
 20
82.5013307494
 30
0.0
 10
37.0486349042
 20
82.0879551184
 30
0.0
 10
37.0713720926
 20
81.7707907156
 30
0.0
 10
37.1274264325
 20
81.558586989
 30
0.0
 10
37.1896586896
 20
81.4379003053
 30
0.0
 10
37.2854442801
 20
81.3564092778
 30
0.0
 10
37.3650373895
 20
81.3405425229
 30
0.0
 10
37.4041733343
 20
81.3405425229
 30
0.0
  0
SPLINE
  5
323
100
AcDbEntity
  8
0
100
AcDbSpline
 62
7
  6
CONTINUOUS
 70
0
 71
3
 72
9
 73
5
 74
0
 42
0.0000001
 43
0.0000001
 44
0.0000000001
 40
0.0
 40
0.0
 40
0.0
 40
0.0
 40
0.2599375036
 40
1.0
 40
1.0
 40
1.0
 40
1.0
 10
40.8684941353
 20
81.3405425229
 30
0.0
 10
40.8887718129
 20
81.368154234
 30
0.0
 10
40.9649117228
 20
81.4757148577
 30
0.0
 10
41.0330847898
 20
81.5891015666
 30
0.0
 10
41.0769093127
 20
81.6762357716
 30
0.0
  0
SPLINE
  5
324
100
AcDbEntity
  8
0
100
AcDbSpline
 62
7
  6
CONTINUOUS
 70
0
 71
3
 72
11
 73
7
 74
0
 42
0.0000001
 43
0.0000001
 44
0.0000000001
 40
0.0
 40
0.0
 40
0.0
 40
0.0
 40
0.2855649648
 40
0.5381122755
 40
0.7673055256
 40
1.0
 40
1.0
 40
1.0
 40
1.0
 10
38.15473347
 20
93.4123392927
 30
0.0
 10
38.15473347
 20
93.6106868662
 30
0.0
 10
38.1864618553
 20
93.9856644283
 30
0.0
 10
38.3544602994
 20
94.499512485
 30
0.0
 10
38.6648835921
 20
94.8998958741
 30
0.0
 10
38.9406384679
 20
95.0747582968
 30
0.0
 10
39.0864945358
 20
95.1443901002
 30
0.0
  0
SPLINE
  5
325
100
AcDbEntity
  8
0
100
AcDbSpline
 62
7
  6
CONTINUOUS
 70
0
 71
3
 72
9
 73
5
 74
0
 42
0.0000001
 43
0.0000001
 44
0.0000000001
 40
0.0
 40
0.0
 40
0.0
 40
0.0
 40
0.2320778618
 40
1.0
 40
1.0
 40
1.0
 40
1.0
 10
39.0864945358
 20
95.1443901002
 30
0.0
 10
39.1838024131
 20
95.1908449586
 30
0.0
 10
39.6024509669
 20
95.3922528831
 30
0.0
 10
40.0160677958
 20
95.604986407
 30
0.0
 10
40.3253846438
 20
95.782816554
 30
0.0
  0
SPLINE
  5
326
100
AcDbEntity
  8
0
100
AcDbSpline
 62
7
  6
CONTINUOUS
 70
0
 71
3
 72
9
 73
5
 74
0
 42
0.0000001
 43
0.0000001
 44
0.0000000001
 40
0.0
 40
0.0
 40
0.0
 40
0.0
 40
0.5407734087
 40
1.0
 40
1.0
 40
1.0
 40
1.0
 10
38.1362970697
 20
108.9887603183
 30
0.0
 10
38.1211575807
 20
109.207903429
 30
0.0
 10
38.0666947429
 20
109.6116201156
 30
0.0
 10
37.9477135526
 20
110.0038202173
 30
0.0
 10
37.8689379636
 20
110.1729113572
 30
0.0
  0
SPLINE
  5
327
100
AcDbEntity
  8
0
100
AcDbSpline
 62
7
  6
CONTINUOUS
 70
0
 71
3
 72
10
 73
6
 74
0
 42
0.0000001
 43
0.0000001
 44
0.0000000001
 40
0.0
 40
0.0
 40
0.0
 40
0.0
 40
0.3191484134
 40
0.702433008
 40
1.0
 40
1.0
 40
1.0
 40
1.0
 10
37.8689379636
 20
110.1729113572
 30
0.0
 10
37.836739657
 20
110.2420247517
 30
0.0
 10
37.7560554049
 20
110.3894015413
 30
0.0
 10
37.5998945841
 20
110.5763459201
 30
0.0
 10
37.4378602834
 20
110.6405425229
 30
0.0
 10
37.3667705512
 20
110.6405425229
 30
0.0
  0
SPLINE
  5
328
100
AcDbEntity
  8
0
100
AcDbSpline
 62
7
  6
CONTINUOUS
 70
0
 71
3
 72
9
 73
5
 74
0
 42
0.0000001
 43
0.0000001
 44
0.0000000001
 40
0.0
 40
0.0
 40
0.0
 40
0.0
 40
0.2645825929
 40
1.0
 40
1.0
 40
1.0
 40
1.0
 10
40.3253846438
 20
104.8982684919
 30
0.0
 10
40.218804403
 20
104.9595428131
 30
0.0
 10
39.812264365
 20
105.184710953
 30
0.0
 10
39.394868164
 20
105.3894771291
 30
0.0
 10
39.0864945358
 20
105.5366949456
 30
0.0
  0
SPLINE
  5
329
100
AcDbEntity
  8
0
100
AcDbSpline
 62
7
  6
CONTINUOUS
 70
0
 71
3
 72
11
 73
7
 74
0
 42
0.0000001
 43
0.0000001
 44
0.0000000001
 40
0.0
 40
0.0
 40
0.0
 40
0.0
 40
0.2326785848
 40
0.4618482961
 40
0.7144178184
 40
1.0
 40
1.0
 40
1.0
 40
1.0
 10
39.0864945358
 20
105.5366949456
 30
0.0
 10
38.9406463887
 20
105.6063229676
 30
0.0
 10
38.6649051802
 20
105.7811544308
 30
0.0
 10
38.3544296742
 20
106.1814937102
 30
0.0
 10
38.186438273
 20
106.6953739344
 30
0.0
 10
38.15473347
 20
107.070383448
 30
0.0
 10
38.15473347
 20
107.2687457532
 30
0.0
  0
SPLINE
  5
32A
100
AcDbEntity
  8
0
100
AcDbSpline
 62
7
  6
CONTINUOUS
 70
0
 71
3
 72
11
 73
7
 74
0
 42
0.0000001
 43
0.0000001
 44
0.0000000001
 40
0.0
 40
0.0
 40
0.0
 40
0.0
 40
0.2492975301
 40
0.4999999073
 40
0.7507023236
 40
1.0
 40
1.0
 40
1.0
 40
1.0
 10
40.3253846438
 20
95.782816554
 30
0.0
 10
40.966309594
 20
96.3418289992
 30
0.0
 10
42.0189285459
 20
97.7623851157
 30
0.0
 10
42.5679541482
 20
100.3405416565
 30
0.0
 10
42.0189291583
 20
102.9186988645
 30
0.0
 10
40.9663099702
 20
104.3392557186
 30
0.0
 10
40.3253846438
 20
104.8982684919
 30
0.0
  0
SPLINE
  5
32B
100
AcDbEntity
  8
0
100
AcDbSpline
 62
7
  6
CONTINUOUS
 70
0
 71
3
 72
10
 73
6
 74
0
 42
0.0000001
 43
0.0000001
 44
0.0000000001
 40
0.0
 40
0.0
 40
0.0
 40
0.0
 40
0.1934062086
 40
0.5418699228
 40
1.0
 40
1.0
 40
1.0
 40
1.0
 10
37.3667705511
 20
252.0405425229
 30
0.0
 10
37.4130432604
 20
252.0405425229
 30
0.0
 10
37.5435115616
 20
252.0728073908
 30
0.0
 10
37.7267798921
 20
252.2397983657
 30
0.0
 10
37.8226506964
 20
252.4088184587
 30
0.0
 10
37.8689379636
 20
252.5081736887
 30
0.0
  0
SPLINE
  5
32C
100
AcDbEntity
  8
0
100
AcDbSpline
 62
7
  6
CONTINUOUS
 70
0
 71
3
 72
9
 73
5
 74
0
 42
0.0000001
 43
0.0000001
 44
0.0000000001
 40
0.0
 40
0.0
 40
0.0
 40
0.0
 40
0.4592265913
 40
1.0
 40
1.0
 40
1.0
 40
1.0
 10
37.8689379636
 20
252.5081736887
 30
0.0
 10
37.9477135526
 20
252.6772648285
 30
0.0
 10
38.0666947429
 20
253.0694649302
 30
0.0
 10
38.1211575807
 20
253.4731816167
 30
0.0
 10
38.1362970696
 20
253.6923247275
 30
0.0
  0
SPLINE
  5
32D
100
AcDbEntity
  8
0
100
AcDbSpline
 62
7
  6
CONTINUOUS
 70
0
 71
3
 72
9
 73
5
 74
0
 42
0.0000001
 43
0.0000001
 44
0.0000000001
 40
0.0
 40
0.0
 40
0.0
 40
0.0
 40
0.2579726259
 40
1.0
 40
1.0
 40
1.0
 40
1.0
 10
41.0769093127
 20
243.6762357716
 30
0.0
 10
41.0901408007
 20
243.7025433069
 30
0.0
 10
41.1390942175
 20
243.8056603844
 30
0.0
 10
41.1780496084
 20
243.9136744673
 30
0.0
 10
41.1995846172
 20
243.9955935487
 30
0.0
  0
SPLINE
  5
32E
100
AcDbEntity
  8
0
100
AcDbSpline
 62
7
  6
CONTINUOUS
 70
0
 71
3
 72
11
 73
7
 74
0
 42
0.0000001
 43
0.0000001
 44
0.0000000001
 40
0.0
 40
0.0
 40
0.0
 40
0.0
 40
0.2247499904
 40
0.5000027994
 40
0.7752535864
 40
1.0
 40
1.0
 40
1.0
 40
1.0
 10
41.1995846172
 20
243.9955935487
 30
0.0
 10
41.231849825
 20
244.1183302611
 30
0.0
 10
41.2410966281
 20
244.4039713874
 30
0.0
 10
41.2443293752
 20
244.8405461306
 30
0.0
 10
41.2410967902
 20
245.2771189024
 30
0.0
 10
41.2318493115
 20
245.5627567381
 30
0.0
 10
41.1995846172
 20
245.6854914972
 30
0.0
  0
SPLINE
  5
32F
100
AcDbEntity
  8
0
100
AcDbSpline
 62
7
  6
CONTINUOUS
 70
0
 71
3
 72
9
 73
5
 74
0
 42
0.0000001
 43
0.0000001
 44
0.0000000001
 40
0.0
 40
0.0
 40
0.0
 40
0.0
 40
0.2429676975
 40
1.0
 40
1.0
 40
1.0
 40
1.0
 10
41.1995846172
 20
245.6854914972
 30
0.0
 10
41.1925328094
 20
245.7123165439
 30
0.0
 10
41.1603056285
 20
245.8218744965
 30
0.0
 10
41.1157401076
 20
245.9276438588
 30
0.0
 10
41.0769093127
 20
246.0048492718
 30
0.0
  0
SPLINE
  5
330
100
AcDbEntity
  8
0
100
AcDbSpline
 62
7
  6
CONTINUOUS
 70
0
 71
3
 72
17
 73
13
 74
0
 42
0.0000001
 43
0.0000001
 44
0.0000000001
 40
0.0
 40
0.0
 40
0.0
 40
0.0
 40
0.1137661992
 40
0.2514762916
 40
0.4012640642
 40
0.5531241143
 40
0.6975602432
 40
0.823532375
 40
0.8759900235
 40
0.9207296742
 40
0.9600621897
 40
1.0
 40
1.0
 40
1.0
 40
1.0
 10
37.1296159635
 20
246.1134868327
 30
0.0
 10
37.0909416027
 20
246.0089280731
 30
0.0
 10
37.0562510554
 20
245.7613546518
 30
0.0
 10
37.044395959
 20
245.3693508851
 30
0.0
 10
37.0440354537
 20
244.9384862097
 30
0.0
 10
37.0437097019
 20
244.5013307493
 30
0.0
 10
37.0486349042
 20
244.0879551183
 30
0.0
 10
37.0713720926
 20
243.7707907156
 30
0.0
 10
37.1274264325
 20
243.5585869889
 30
0.0
 10
37.1896586896
 20
243.4379003053
 30
0.0
 10
37.2854442801
 20
243.3564092777
 30
0.0
 10
37.3650373895
 20
243.3405425229
 30
0.0
 10
37.4041733343
 20
243.3405425229
 30
0.0
  0
SPLINE
  5
331
100
AcDbEntity
  8
0
100
AcDbSpline
 62
7
  6
CONTINUOUS
 70
0
 71
3
 72
9
 73
5
 74
0
 42
0.0000001
 43
0.0000001
 44
0.0000000001
 40
0.0
 40
0.0
 40
0.0
 40
0.0
 40
0.2599375036
 40
1.0
 40
1.0
 40
1.0
 40
1.0
 10
40.8684941353
 20
243.3405425229
 30
0.0
 10
40.888771813
 20
243.368154234
 30
0.0
 10
40.9649117228
 20
243.4757148578
 30
0.0
 10
41.0330847898
 20
243.5891015666
 30
0.0
 10
41.0769093127
 20
243.6762357716
 30
0.0
  0
SPLINE
  5
332
100
AcDbEntity
  8
0
100
AcDbSpline
 62
7
  6
CONTINUOUS
 70
0
 71
3
 72
8
 73
4
 74
0
 42
0.0000001
 43
0.0000001
 44
0.0000000001
 40
0.0
 40
0.0
 40
0.0
 40
0.0
 40
1.0
 40
1.0
 40
1.0
 40
1.0
 10
40.8684941353
 20
278.3405425229
 30
0.0
 10
40.9213938717
 20
278.4125750439
 30
0.0
 10
40.9711231661
 20
278.4871337274
 30
0.0
 10
41.0161321494
 20
278.5643429083
 30
0.0
  0
SPLINE
  5
333
100
AcDbEntity
  8
0
100
AcDbSpline
 62
7
  6
CONTINUOUS
 70
0
 71
3
 72
18
 73
14
 74
0
 42
0.0000001
 43
0.0000001
 44
0.0000000001
 40
0.0
 40
0.0
 40
0.0
 40
0.0
 40
0.0413056448
 40
0.0829671534
 40
0.1321252157
 40
0.1904853593
 40
0.3293318126
 40
0.4845333957
 40
0.6424397421
 40
0.7902014893
 40
0.8556745977
 40
0.9128098873
 40
1.0
 40
1.0
 40
1.0
 40
1.0
 10
37.4041733343
 20
281.3405425229
 30
0.0
 10
37.3601368139
 20
281.3405425229
 30
0.0
 10
37.2688267252
 20
281.3194723129
 30
0.0
 10
37.1673325459
 20
281.2136825106
 30
0.0
 10
37.1076251576
 20
281.0642384383
 30
0.0
 10
37.0583621604
 20
280.8055560385
 30
0.0
 10
37.0449534924
 20
280.4289267647
 30
0.0
 10
37.0438007758
 20
279.9474917509
 30
0.0
 10
37.0440955667
 20
279.4558999027
 30
0.0
 10
37.0483340734
 20
279.0606828583
 30
0.0
 10
37.0768854429
 20
278.7721982014
 30
0.0
 10
37.1199489511
 20
278.5562964393
 30
0.0
 10
37.2075775678
 20
278.404365715
 30
0.0
 10
37.2916440097
 20
278.3646997509
 30
0.0
  0
SPLINE
  5
334
100
AcDbEntity
  8
0
100
AcDbSpline
 62
7
  6
CONTINUOUS
 70
0
 71
3
 72
8
 73
4
 74
0
 42
0.0000001
 43
0.0000001
 44
0.0000000001
 40
0.0
 40
0.0
 40
0.0
 40
0.0
 40
1.0
 40
1.0
 40
1.0
 40
1.0
 10
41.0161317842
 20
281.1167427643
 30
0.0
 10
40.9711228969
 20
281.1939517217
 30
0.0
 10
40.9213937288
 20
281.2685101966
 30
0.0
 10
40.8684941353
 20
281.3405425229
 30
0.0
  0
SPLINE
  5
335
100
AcDbEntity
  8
0
100
AcDbSpline
 62
7
  6
CONTINUOUS
 70
0
 71
3
 72
9
 73
5
 74
0
 42
0.0000001
 43
0.0000001
 44
0.0000000001
 40
0.0
 40
0.0
 40
0.0
 40
0.0
 40
0.2429676975
 40
1.0
 40
1.0
 40
1.0
 40
1.0
 10
41.1995846172
 20
280.6854914972
 30
0.0
 10
41.1925328094
 20
280.7123165439
 30
0.0
 10
41.1603056285
 20
280.8218744965
 30
0.0
 10
41.1157401076
 20
280.9276438588
 30
0.0
 10
41.0769093127
 20
281.0048492718
 30
0.0
  0
SPLINE
  5
336
100
AcDbEntity
  8
0
100
AcDbSpline
 62
7
  6
CONTINUOUS
 70
0
 71
3
 72
11
 73
7
 74
0
 42
0.0000001
 43
0.0000001
 44
0.0000000001
 40
0.0
 40
0.0
 40
0.0
 40
0.0
 40
0.2247499903
 40
0.5000027993
 40
0.7752535864
 40
1.0
 40
1.0
 40
1.0
 40
1.0
 10
41.1995846172
 20
278.9955935486
 30
0.0
 10
41.231849825
 20
279.118330261
 30
0.0
 10
41.2410966282
 20
279.4039713874
 30
0.0
 10
41.2443293752
 20
279.8405461306
 30
0.0
 10
41.2410967902
 20
280.2771189024
 30
0.0
 10
41.2318493115
 20
280.5627567381
 30
0.0
 10
41.1995846172
 20
280.6854914972
 30
0.0
  0
SPLINE
  5
337
100
AcDbEntity
  8
0
100
AcDbSpline
 62
7
  6
CONTINUOUS
 70
0
 71
3
 72
8
 73
4
 74
0
 42
0.0000001
 43
0.0000001
 44
0.0000000001
 40
0.0
 40
0.0
 40
0.0
 40
0.0
 40
1.0
 40
1.0
 40
1.0
 40
1.0
 10
41.1262961283
 20
278.7826844811
 30
0.0
 10
41.1556311882
 20
278.8517710307
 30
0.0
 10
41.1805019755
 20
278.923003261
 30
0.0
 10
41.1995846172
 20
278.9955935486
 30
0.0
  0
SPLINE
  5
338
100
AcDbEntity
  8
0
100
AcDbSpline
 62
7
  6
CONTINUOUS
 70
0
 71
3
 72
11
 73
7
 74
0
 42
0.0000001
 43
0.0000001
 44
0.0000000001
 40
0.0
 40
0.0
 40
0.0
 40
0.0
 40
0.2855649648
 40
0.5381122755
 40
0.7673055256
 40
1.0
 40
1.0
 40
1.0
 40
1.0
 10
38.15473347
 20
255.4123392927
 30
0.0
 10
38.15473347
 20
255.6106868662
 30
0.0
 10
38.1864618553
 20
255.9856644283
 30
0.0
 10
38.3544602994
 20
256.499512485
 30
0.0
 10
38.6648835921
 20
256.8998958741
 30
0.0
 10
38.9406384679
 20
257.0747582968
 30
0.0
 10
39.0864945358
 20
257.1443901002
 30
0.0
  0
SPLINE
  5
339
100
AcDbEntity
  8
0
100
AcDbSpline
 62
7
  6
CONTINUOUS
 70
0
 71
3
 72
9
 73
5
 74
0
 42
0.0000001
 43
0.0000001
 44
0.0000000001
 40
0.0
 40
0.0
 40
0.0
 40
0.0
 40
0.2320778618
 40
1.0
 40
1.0
 40
1.0
 40
1.0
 10
39.0864945358
 20
257.1443901002
 30
0.0
 10
39.1838024131
 20
257.1908449586
 30
0.0
 10
39.6024509669
 20
257.3922528831
 30
0.0
 10
40.0160677958
 20
257.604986407
 30
0.0
 10
40.3253846438
 20
257.782816554
 30
0.0
  0
SPLINE
  5
33A
100
AcDbEntity
  8
0
100
AcDbSpline
 62
7
  6
CONTINUOUS
 70
0
 71
3
 72
9
 73
5
 74
0
 42
0.0000001
 43
0.0000001
 44
0.0000000001
 40
0.0
 40
0.0
 40
0.0
 40
0.0
 40
0.5407734087
 40
1.0
 40
1.0
 40
1.0
 40
1.0
 10
38.1362970697
 20
270.9887603183
 30
0.0
 10
38.1211575807
 20
271.207903429
 30
0.0
 10
38.0666947429
 20
271.6116201156
 30
0.0
 10
37.9477135526
 20
272.0038202173
 30
0.0
 10
37.8689379636
 20
272.1729113572
 30
0.0
  0
SPLINE
  5
33B
100
AcDbEntity
  8
0
100
AcDbSpline
 62
7
  6
CONTINUOUS
 70
0
 71
3
 72
10
 73
6
 74
0
 42
0.0000001
 43
0.0000001
 44
0.0000000001
 40
0.0
 40
0.0
 40
0.0
 40
0.0
 40
0.3191484134
 40
0.702433008
 40
1.0
 40
1.0
 40
1.0
 40
1.0
 10
37.8689379636
 20
272.1729113572
 30
0.0
 10
37.836739657
 20
272.2420247517
 30
0.0
 10
37.7560554049
 20
272.3894015413
 30
0.0
 10
37.5998945841
 20
272.5763459201
 30
0.0
 10
37.4378602834
 20
272.6405425229
 30
0.0
 10
37.3667705512
 20
272.6405425229
 30
0.0
  0
SPLINE
  5
33C
100
AcDbEntity
  8
0
100
AcDbSpline
 62
7
  6
CONTINUOUS
 70
0
 71
3
 72
9
 73
5
 74
0
 42
0.0000001
 43
0.0000001
 44
0.0000000001
 40
0.0
 40
0.0
 40
0.0
 40
0.0
 40
0.2645825929
 40
1.0
 40
1.0
 40
1.0
 40
1.0
 10
40.3253846438
 20
266.8982684919
 30
0.0
 10
40.218804403
 20
266.9595428131
 30
0.0
 10
39.812264365
 20
267.184710953
 30
0.0
 10
39.394868164
 20
267.3894771291
 30
0.0
 10
39.0864945358
 20
267.5366949456
 30
0.0
  0
SPLINE
  5
33D
100
AcDbEntity
  8
0
100
AcDbSpline
 62
7
  6
CONTINUOUS
 70
0
 71
3
 72
11
 73
7
 74
0
 42
0.0000001
 43
0.0000001
 44
0.0000000001
 40
0.0
 40
0.0
 40
0.0
 40
0.0
 40
0.2326785848
 40
0.4618482961
 40
0.7144178184
 40
1.0
 40
1.0
 40
1.0
 40
1.0
 10
39.0864945358
 20
267.5366949456
 30
0.0
 10
38.9406463887
 20
267.6063229676
 30
0.0
 10
38.6649051802
 20
267.7811544308
 30
0.0
 10
38.3544296742
 20
268.1814937102
 30
0.0
 10
38.186438273
 20
268.6953739344
 30
0.0
 10
38.15473347
 20
269.070383448
 30
0.0
 10
38.15473347
 20
269.2687457532
 30
0.0
  0
SPLINE
  5
33E
100
AcDbEntity
  8
0
100
AcDbSpline
 62
7
  6
CONTINUOUS
 70
0
 71
3
 72
11
 73
7
 74
0
 42
0.0000001
 43
0.0000001
 44
0.0000000001
 40
0.0
 40
0.0
 40
0.0
 40
0.0
 40
0.2492975301
 40
0.4999999073
 40
0.7507023236
 40
1.0
 40
1.0
 40
1.0
 40
1.0
 10
40.3253846438
 20
257.782816554
 30
0.0
 10
40.966309594
 20
258.3418289992
 30
0.0
 10
42.0189285459
 20
259.7623851157
 30
0.0
 10
42.5679541482
 20
262.3405416565
 30
0.0
 10
42.0189291583
 20
264.9186988645
 30
0.0
 10
40.9663099702
 20
266.3392557186
 30
0.0
 10
40.3253846438
 20
266.8982684919
 30
0.0
  0
SPLINE
  5
33F
100
AcDbEntity
  8
0
100
AcDbSpline
 62
7
  6
CONTINUOUS
 70
0
 71
3
 72
14
 73
10
 74
0
 42
0.0000001
 43
0.0000001
 44
0.0000000001
 40
0.0
 40
0.0
 40
0.0
 40
0.0
 40
0.2251039342
 40
0.3505491198
 40
0.4788150264
 40
0.6086510053
 40
0.7397263873
 40
0.8706589112
 40
1.0
 40
1.0
 40
1.0
 40
1.0
 10
41.3008096646
 20
114.9119710943
 30
0.0
 10
41.4272912754
 20
114.9119710943
 30
0.0
 10
41.5950636382
 20
115.0821992012
 30
0.0
 10
41.7219918747
 20
115.3102067778
 30
0.0
 10
41.8118463716
 20
115.5083032005
 30
0.0
 10
41.8895825598
 20
115.712263253
 30
0.0
 10
41.9581595682
 20
115.9217003829
 30
0.0
 10
42.0195470919
 20
116.1327865898
 30
0.0
 10
42.070790808
 20
116.2701447515
 30
0.0
 10
42.0888381522
 20
116.3405425229
 30
0.0
  0
SPLINE
  5
340
100
AcDbEntity
  8
0
100
AcDbSpline
 62
7
  6
CONTINUOUS
 70
0
 71
3
 72
8
 73
4
 74
0
 42
0.0000001
 43
0.0000001
 44
0.0000000001
 40
0.0
 40
0.0
 40
0.0
 40
0.0
 40
1.0
 40
1.0
 40
1.0
 40
1.0
 10
36.1754649688
 20
116.3405425229
 30
0.0
 10
36.2058467834
 20
116.2243266926
 30
0.0
 10
36.2432256697
 20
116.1100429356
 30
0.0
 10
36.2789350368
 20
115.9953519814
 30
0.0
  0
SPLINE
  5
341
100
AcDbEntity
  8
0
100
AcDbSpline
 62
7
  6
CONTINUOUS
 70
0
 71
3
 72
12
 73
8
 74
0
 42
0.0000001
 43
0.0000001
 44
0.0000000001
 40
0.0
 40
0.0
 40
0.0
 40
0.0
 40
0.5207364197
 40
0.6471130209
 40
0.770079738
 40
0.8877028746
 40
1.0
 40
1.0
 40
1.0
 40
1.0
 10
36.2789350368
 20
115.9953519814
 30
0.0
 10
36.3488245675
 20
115.7708815518
 30
0.0
 10
36.444478408
 20
115.492279577
 30
0.0
 10
36.6144710548
 20
115.1883711888
 30
0.0
 10
36.7126429272
 20
115.0542788911
 30
0.0
 10
36.8317963372
 20
114.9454419822
 30
0.0
 10
36.9361893431
 20
114.9119710943
 30
0.0
 10
36.9868885764
 20
114.9119710943
 30
0.0
  0
SPLINE
  5
342
100
AcDbEntity
  8
0
100
AcDbSpline
 62
7
  6
CONTINUOUS
 70
0
 71
3
 72
19
 73
15
 74
0
 42
0.0000001
 43
0.0000001
 44
0.0000000001
 40
0.0
 40
0.0
 40
0.0
 40
0.0
 40
0.0941504456
 40
0.1379689172
 40
0.1868951677
 40
0.2463148346
 40
0.3194011746
 40
0.5017400613
 40
0.6826221333
 40
0.7546358909
 40
0.8131028933
 40
0.8614386733
 40
0.9050915855
 40
1.0
 40
1.0
 40
1.0
 40
1.0
 10
36.1615477727
 20
119.3405425229
 30
0.0
 10
36.0459038927
 20
119.3405425229
 30
0.0
 10
35.8655610814
 20
119.3056888156
 30
0.0
 10
35.6972438545
 20
119.1416695899
 30
0.0
 10
35.6157575907
 20
118.9703298574
 30
0.0
 10
35.5700472787
 20
118.7511051481
 30
0.0
 10
35.5406510389
 20
118.3650512182
 30
0.0
 10
35.5462365413
 20
117.828925184
 30
0.0
 10
35.5409754608
 20
117.2940763681
 30
0.0
 10
35.572245746
 20
116.9123851762
 30
0.0
 10
35.6204519391
 20
116.6969025192
 30
0.0
 10
35.7046929026
 20
116.5291122677
 30
0.0
 10
35.8774879652
 20
116.3697975561
 30
0.0
 10
36.0589034451
 20
116.3387776363
 30
0.0
 10
36.1754649688
 20
116.3405425229
 30
0.0
  0
LINE
  5
343
100
AcDbEntity
  8
0
100
AcDbLine
 62
7
  6
CONTINUOUS
 10
48.8265774653
 20
110.3940482248
 11
48.9489923425
 21
110.3799664722
  0
SPLINE
  5
344
100
AcDbEntity
  8
0
100
AcDbSpline
 62
7
  6
CONTINUOUS
 70
0
 71
3
 72
9
 73
5
 74
0
 42
0.0000001
 43
0.0000001
 44
0.0000000001
 40
0.0
 40
0.0
 40
0.0
 40
0.0
 40
0.2654549743
 40
1.0
 40
1.0
 40
1.0
 40
1.0
 10
48.9489925232
 20
117.5011179299
 30
0.0
 10
48.947334242
 20
117.5278845145
 30
0.0
 10
48.9487440823
 20
117.628730057
 30
0.0
 10
48.9813454496
 20
117.7315185261
 30
0.0
 10
49.0256757
 20
117.7910306934
 30
0.0
  0
SPLINE
  5
345
100
AcDbEntity
  8
0
100
AcDbSpline
 62
7
  6
CONTINUOUS
 70
0
 71
3
 72
9
 73
5
 74
0
 42
0.0000001
 43
0.0000001
 44
0.0000000001
 40
0.0
 40
0.0
 40
0.0
 40
0.0
 40
0.2642274255
 40
1.0
 40
1.0
 40
1.0
 40
1.0
 10
49.0256757
 20
117.7910306934
 30
0.0
 10
49.03421014
 20
117.8024879493
 30
0.0
 10
49.069266063
 20
117.8436201273
 30
0.0
 10
49.1163915236
 20
117.8752879616
 30
0.0
 10
49.154145424
 20
117.8878297539
 30
0.0
  0
SPLINE
  5
346
100
AcDbEntity
  8
0
100
AcDbSpline
 62
7
  6
CONTINUOUS
 70
0
 71
3
 72
10
 73
6
 74
0
 42
0.0000001
 43
0.0000001
 44
0.0000000001
 40
0.0
 40
0.0
 40
0.0
 40
0.0
 40
0.1934062086
 40
0.5418699228
 40
1.0
 40
1.0
 40
1.0
 40
1.0
 10
38.7475278313
 20
110.6405425229
 30
0.0
 10
38.7938005406
 20
110.6405425229
 30
0.0
 10
38.9242688418
 20
110.608277655
 30
0.0
 10
39.1075371722
 20
110.4412866801
 30
0.0
 10
39.2034079765
 20
110.2722665871
 30
0.0
 10
39.2496952437
 20
110.1729113572
 30
0.0
  0
SPLINE
  5
347
100
AcDbEntity
  8
0
100
AcDbSpline
 62
7
  6
CONTINUOUS
 70
0
 71
3
 72
9
 73
5
 74
0
 42
0.0000001
 43
0.0000001
 44
0.0000000001
 40
0.0
 40
0.0
 40
0.0
 40
0.0
 40
0.4592265913
 40
1.0
 40
1.0
 40
1.0
 40
1.0
 10
39.2496952437
 20
110.1729113572
 30
0.0
 10
39.3284708328
 20
110.0038202172
 30
0.0
 10
39.447452023
 20
109.6116201155
 30
0.0
 10
39.5019148608
 20
109.2079034288
 30
0.0
 10
39.5170543498
 20
108.988760318
 30
0.0
  0
SPLINE
  5
348
100
AcDbEntity
  8
0
100
AcDbSpline
 62
7
  6
CONTINUOUS
 70
0
 71
3
 72
9
 73
5
 74
0
 42
0.0000001
 43
0.0000001
 44
0.0000000001
 40
0.0
 40
0.0
 40
0.0
 40
0.0
 40
0.2386812277
 40
1.0
 40
1.0
 40
1.0
 40
1.0
 10
39.9921530829
 20
105.5366949456
 30
0.0
 10
40.0322086807
 20
105.4984497968
 30
0.0
 10
40.1993962873
 20
105.3375709371
 30
0.0
 10
40.3627107228
 20
105.172518035
 30
0.0
 10
40.4823669537
 20
105.0425648182
 30
0.0
  0
SPLINE
  5
349
100
AcDbEntity
  8
0
100
AcDbSpline
 62
7
  6
CONTINUOUS
 70
0
 71
3
 72
9
 73
5
 74
0
 42
0.0000001
 43
0.0000001
 44
0.0000000001
 40
0.0
 40
0.0
 40
0.0
 40
0.0
 40
0.2539982012
 40
1.0
 40
1.0
 40
1.0
 40
1.0
 10
39.52627255
 20
107.2687457531
 30
0.0
 10
39.52627255
 20
107.1923980171
 30
0.0
 10
39.5316067644
 20
106.8919725133
 30
0.0
 10
39.5574337167
 20
106.5908509269
 30
0.0
 10
39.5995246697
 20
106.3706007303
 30
0.0
  0
SPLINE
  5
34A
100
AcDbEntity
  8
0
100
AcDbSpline
 62
7
  6
CONTINUOUS
 70
0
 71
3
 72
9
 73
5
 74
0
 42
0.0000001
 43
0.0000001
 44
0.0000000001
 40
0.0
 40
0.0
 40
0.0
 40
0.0
 40
0.2620277153
 40
1.0
 40
1.0
 40
1.0
 40
1.0
 10
39.5995246697
 20
106.3706007303
 30
0.0
 10
39.6147499676
 20
106.2909310005
 30
0.0
 10
39.6837106126
 20
105.9908059522
 30
0.0
 10
39.8269296995
 20
105.6944504962
 30
0.0
 10
39.9921530829
 20
105.5366949456
 30
0.0
  0
SPLINE
  5
34B
100
AcDbEntity
  8
0
100
AcDbSpline
 62
7
  6
CONTINUOUS
 70
0
 71
3
 72
11
 73
7
 74
0
 42
0.0000001
 43
0.0000001
 44
0.0000000001
 40
0.0
 40
0.0
 40
0.0
 40
0.0
 40
0.2492975301
 40
0.4999999073
 40
0.7507023236
 40
1.0
 40
1.0
 40
1.0
 40
1.0
 10
40.611598137
 20
104.8982684918
 30
0.0
 10
41.2525230872
 20
104.3392560466
 30
0.0
 10
42.305142039
 20
102.9186999301
 30
0.0
 10
42.8541676413
 20
100.3405433893
 30
0.0
 10
42.3051426514
 20
97.7623861813
 30
0.0
 10
41.2525234632
 20
96.3418293272
 30
0.0
 10
40.6115981369
 20
95.7828165539
 30
0.0
  0
SPLINE
  5
34C
100
AcDbEntity
  8
0
100
AcDbSpline
 62
7
  6
CONTINUOUS
 70
0
 71
3
 72
14
 73
10
 74
0
 42
0.0000001
 43
0.0000001
 44
0.0000000001
 40
0.0
 40
0.0
 40
0.0
 40
0.0
 40
0.1293154565
 40
0.2600313529
 40
0.3907384812
 40
0.5205763734
 40
0.6491949581
 40
0.7755620537
 40
1.0
 40
1.0
 40
1.0
 40
1.0
 10
42.0888381522
 20
84.3405425229
 30
0.0
 10
42.0713783707
 20
84.4222288591
 30
0.0
 10
42.0205573373
 20
84.5826936211
 30
0.0
 10
41.9624903054
 20
84.8282648347
 30
0.0
 10
41.8956915766
 20
85.0723159011
 30
0.0
 10
41.821170226
 20
85.3115601467
 30
0.0
 10
41.7340724658
 20
85.5479313142
 30
0.0
 10
41.6122091528
 20
85.8170009993
 30
0.0
 10
41.445785566
 20
86.0548282372
 30
0.0
 10
41.3008096646
 20
86.0548282372
 30
0.0
  0
SPLINE
  5
34D
100
AcDbEntity
  8
0
100
AcDbSpline
 62
7
  6
CONTINUOUS
 70
0
 71
3
 72
12
 73
8
 74
0
 42
0.0000001
 43
0.0000001
 44
0.0000000001
 40
0.0
 40
0.0
 40
0.0
 40
0.0
 40
0.2235510563
 40
0.348609984
 40
0.4765382259
 40
0.7367005403
 40
1.0
 40
1.0
 40
1.0
 40
1.0
 10
36.9868885764
 20
86.0548282372
 30
0.0
 10
36.8648186211
 20
86.0548282372
 30
0.0
 10
36.7046549783
 20
85.8864309033
 30
0.0
 10
36.5852843313
 20
85.6644446917
 30
0.0
 10
36.4722660403
 20
85.4053054632
 30
0.0
 10
36.360331921
 20
85.0682720584
 30
0.0
 10
36.2882329101
 20
84.7913275782
 30
0.0
 10
36.2528809295
 20
84.6519670398
 30
0.0
  0
SPLINE
  5
34E
100
AcDbEntity
  8
0
100
AcDbSpline
 62
7
  6
CONTINUOUS
 70
0
 71
3
 72
8
 73
4
 74
0
 42
0.0000001
 43
0.0000001
 44
0.0000000001
 40
0.0
 40
0.0
 40
0.0
 40
0.0
 40
1.0
 40
1.0
 40
1.0
 40
1.0
 10
36.2528809295
 20
84.6519670398
 30
0.0
 10
36.2265792389
 20
84.5482835201
 30
0.0
 10
36.1982326837
 20
84.4450589444
 30
0.0
 10
36.1754649688
 20
84.3405425229
 30
0.0
  0
SPLINE
  5
34F
100
AcDbEntity
  8
0
100
AcDbSpline
 62
7
  6
CONTINUOUS
 70
0
 71
3
 72
19
 73
15
 74
0
 42
0.0000001
 43
0.0000001
 44
0.0000000001
 40
0.0
 40
0.0
 40
0.0
 40
0.0
 40
0.0950129229
 40
0.1387407026
 40
0.1871888468
 40
0.245787478
 40
0.3178596252
 40
0.4985445623
 40
0.6804281033
 40
0.7534785505
 40
0.8129361463
 40
0.8619307382
 40
0.9057848571
 40
1.0
 40
1.0
 40
1.0
 40
1.0
 10
36.1754649688
 20
84.3405425229
 30
0.0
 10
36.0587772605
 20
84.3423093202
 30
0.0
 10
35.877054282
 20
84.3112273401
 30
0.0
 10
35.7042949826
 20
84.1513218256
 30
0.0
 10
35.620049603
 20
83.9831183712
 30
0.0
 10
35.5718891327
 20
83.7672393847
 30
0.0
 10
35.5410532921
 20
83.3855306949
 30
0.0
 10
35.5463680111
 20
82.8514251685
 30
0.0
 10
35.5409560087
 20
82.3161914344
 30
0.0
 10
35.5696497205
 20
81.9306286141
 30
0.0
 10
35.6156632745
 20
81.7113700791
 30
0.0
 10
35.697110499
 20
81.5398749334
 30
0.0
 10
35.8652478965
 20
81.375346011
 30
0.0
 10
36.0458265751
 20
81.340542523
 30
0.0
 10
36.1615477727
 20
81.3405425229
 30
0.0
  0
SPLINE
  5
350
100
AcDbEntity
  8
0
100
AcDbSpline
 62
7
  6
CONTINUOUS
 70
0
 71
3
 72
11
 73
7
 74
0
 42
0.0000001
 43
0.0000001
 44
0.0000000001
 40
0.0
 40
0.0
 40
0.0
 40
0.0
 40
0.1975944593
 40
0.4999871361
 40
0.8023972559
 40
1.0
 40
1.0
 40
1.0
 40
1.0
 10
42.6679671149
 20
81.9955935486
 30
0.0
 10
42.714038326
 20
82.0978254511
 30
0.0
 10
42.7425944124
 20
82.387836702
 30
0.0
 10
42.7427711418
 20
82.8405305003
 30
0.0
 10
42.7425961808
 20
83.2932287636
 30
0.0
 10
42.7140402577
 20
83.5832553084
 30
0.0
 10
42.6679671149
 20
83.6854914972
 30
0.0
  0
SPLINE
  5
351
100
AcDbEntity
  8
0
100
AcDbSpline
 62
7
  6
CONTINUOUS
 70
0
 71
3
 72
9
 73
5
 74
0
 42
0.0000001
 43
0.0000001
 44
0.0000000001
 40
0.0
 40
0.0
 40
0.0
 40
0.0
 40
0.2316251931
 40
1.0
 40
1.0
 40
1.0
 40
1.0
 10
42.4576665929
 20
81.6762311398
 30
0.0
 10
42.4329287593
 20
81.6475398387
 30
0.0
 10
42.3221777616
 20
81.5270789106
 30
0.0
 10
42.1987886161
 20
81.4187070816
 30
0.0
 10
42.1003834317
 20
81.3405425229
 30
0.0
  0
SPLINE
  5
352
100
AcDbEntity
  8
0
100
AcDbSpline
 62
7
  6
CONTINUOUS
 70
0
 71
3
 72
9
 73
5
 74
0
 42
0.0000001
 43
0.0000001
 44
0.0000000001
 40
0.0
 40
0.0
 40
0.0
 40
0.0
 40
0.2699414874
 40
1.0
 40
1.0
 40
1.0
 40
1.0
 10
42.0888381522
 20
84.3405425229
 30
0.0
 10
42.1240610913
 20
84.3127875509
 30
0.0
 10
42.2545445231
 20
84.2101721721
 30
0.0
 10
42.3784636774
 20
84.0977687755
 30
0.0
 10
42.4576665929
 20
84.0059209528
 30
0.0
  0
SPLINE
  5
353
100
AcDbEntity
  8
0
100
AcDbSpline
 62
7
  6
CONTINUOUS
 70
0
 71
3
 72
9
 73
5
 74
0
 42
0.0000001
 43
0.0000001
 44
0.0000000001
 40
0.0
 40
0.0
 40
0.0
 40
0.0
 40
0.2624148178
 40
1.0
 40
1.0
 40
1.0
 40
1.0
 10
42.542275915
 20
83.8985192157
 30
0.0
 10
42.5549435142
 20
83.8809556809
 30
0.0
 10
42.6019259539
 20
83.8131302072
 30
0.0
 10
42.6429590853
 20
83.7409842525
 30
0.0
 10
42.6679671149
 20
83.6854914972
 30
0.0
  0
SPLINE
  5
354
100
AcDbEntity
  8
0
100
AcDbSpline
 62
7
  6
CONTINUOUS
 70
0
 71
3
 72
9
 73
5
 74
0
 42
0.0000001
 43
0.0000001
 44
0.0000000001
 40
0.0
 40
0.0
 40
0.0
 40
0.0
 40
0.2333181063
 40
1.0
 40
1.0
 40
1.0
 40
1.0
 10
42.6679671149
 20
81.9955935486
 30
0.0
 10
42.6557233755
 20
81.9684247215
 30
0.0
 10
42.5980399863
 20
81.8543145967
 30
0.0
 10
42.5216105295
 20
81.750394252
 30
0.0
 10
42.4576665929
 20
81.6762311396
 30
0.0
  0
SPLINE
  5
355
100
AcDbEntity
  8
0
100
AcDbSpline
 62
7
  6
CONTINUOUS
 70
0
 71
3
 72
9
 73
5
 74
0
 42
0.0000001
 43
0.0000001
 44
0.0000000001
 40
0.0
 40
0.0
 40
0.0
 40
0.0
 40
0.5407734087
 40
1.0
 40
1.0
 40
1.0
 40
1.0
 10
39.5170543498
 20
91.6923247278
 30
0.0
 10
39.5019148608
 20
91.473181617
 30
0.0
 10
39.447452023
 20
91.0694649304
 30
0.0
 10
39.3284708328
 20
90.6772648286
 30
0.0
 10
39.2496952437
 20
90.5081736887
 30
0.0
  0
SPLINE
  5
356
100
AcDbEntity
  8
0
100
AcDbSpline
 62
7
  6
CONTINUOUS
 70
0
 71
3
 72
10
 73
6
 74
0
 42
0.0000001
 43
0.0000001
 44
0.0000000001
 40
0.0
 40
0.0
 40
0.0
 40
0.0
 40
0.3191484134
 40
0.702433008
 40
1.0
 40
1.0
 40
1.0
 40
1.0
 10
39.2496952437
 20
90.5081736887
 30
0.0
 10
39.2174969371
 20
90.4390602942
 30
0.0
 10
39.136812685
 20
90.2916835046
 30
0.0
 10
38.9806518642
 20
90.1047391258
 30
0.0
 10
38.8186175635
 20
90.0405425229
 30
0.0
 10
38.7475278312
 20
90.0405425229
 30
0.0
  0
SPLINE
  5
357
100
AcDbEntity
  8
0
100
AcDbSpline
 62
7
  6
CONTINUOUS
 70
0
 71
3
 72
9
 73
5
 74
0
 42
0.0000001
 43
0.0000001
 44
0.0000000001
 40
0.0
 40
0.0
 40
0.0
 40
0.0
 40
0.2549963124
 40
1.0
 40
1.0
 40
1.0
 40
1.0
 10
40.611598137
 20
95.782816554
 30
0.0
 10
40.5768293804
 20
95.742838563
 30
0.0
 10
40.4385089499
 20
95.587770405
 30
0.0
 10
40.2935161614
 20
95.438765083
 30
0.0
 10
40.1834354415
 20
95.3299377068
 30
0.0
  0
SPLINE
  5
358
100
AcDbEntity
  8
0
100
AcDbSpline
 62
7
  6
CONTINUOUS
 70
0
 71
3
 72
9
 73
5
 74
0
 42
0.0000001
 43
0.0000001
 44
0.0000000001
 40
0.0
 40
0.0
 40
0.0
 40
0.0
 40
0.2434733139
 40
1.0
 40
1.0
 40
1.0
 40
1.0
 10
39.9921530829
 20
95.1443901002
 30
0.0
 10
39.9374789305
 20
95.0921871321
 30
0.0
 10
39.738007171
 20
94.850517651
 30
0.0
 10
39.6436359112
 20
94.5412731334
 30
0.0
 10
39.5995396123
 20
94.3105626104
 30
0.0
  0
SPLINE
  5
359
100
AcDbEntity
  8
0
100
AcDbSpline
 62
7
  6
CONTINUOUS
 70
0
 71
3
 72
9
 73
5
 74
0
 42
0.0000001
 43
0.0000001
 44
0.0000000001
 40
0.0
 40
0.0
 40
0.0
 40
0.0
 40
0.244591895
 40
1.0
 40
1.0
 40
1.0
 40
1.0
 10
39.5995396123
 20
94.3105626104
 30
0.0
 10
39.5857333408
 20
94.2383286094
 30
0.0
 10
39.540155375
 20
93.9409374093
 30
0.0
 10
39.52627255
 20
93.6394682651
 30
0.0
 10
39.52627255
 20
93.4123392926
 30
0.0
  0
SPLINE
  5
35A
100
AcDbEntity
  8
0
100
AcDbSpline
 62
7
  6
CONTINUOUS
 70
0
 71
3
 72
15
 73
11
 74
0
 42
0.0000001
 43
0.0000001
 44
0.0000000001
 40
0.0
 40
0.0
 40
0.0
 40
0.0
 40
0.338131546
 40
0.4975589625
 40
0.6453578784
 40
0.7768457203
 40
0.885388623
 40
0.9624639669
 40
0.9864814094
 40
1.0
 40
1.0
 40
1.0
 40
1.0
 10
50.1541457319
 20
77.3405425229
 30
0.0
 10
50.1541457319
 20
77.0866247825
 30
0.0
 10
50.0285517965
 20
76.7158781084
 30
0.0
 10
49.7869231
 20
76.2980525206
 30
0.0
 10
49.6050895992
 20
76.0227609911
 30
0.0
 10
49.4366716291
 20
75.785022301
 30
0.0
 10
49.2987224665
 20
75.591565385
 30
0.0
 10
49.2077266096
 20
75.4617305531
 30
0.0
 10
49.1662081708
 20
75.3875144967
 30
0.0
 10
49.1541457319
 20
75.3607193486
 30
0.0
 10
49.1541457319
 20
75.3505676487
 30
0.0
  0
SPLINE
  5
35B
100
AcDbEntity
  8
0
100
AcDbSpline
 62
7
  6
CONTINUOUS
 70
0
 71
3
 72
9
 73
5
 74
0
 42
0.0000001
 43
0.0000001
 44
0.0000000001
 40
0.0
 40
0.0
 40
0.0
 40
0.0
 40
0.2654549743
 40
1.0
 40
1.0
 40
1.0
 40
1.0
 10
48.9489925232
 20
279.5011179299
 30
0.0
 10
48.947334242
 20
279.5278845145
 30
0.0
 10
48.9487440823
 20
279.628730057
 30
0.0
 10
48.9813454496
 20
279.7315185261
 30
0.0
 10
49.0256757
 20
279.7910306934
 30
0.0
  0
SPLINE
  5
35C
100
AcDbEntity
  8
0
100
AcDbSpline
 62
7
  6
CONTINUOUS
 70
0
 71
3
 72
9
 73
5
 74
0
 42
0.0000001
 43
0.0000001
 44
0.0000000001
 40
0.0
 40
0.0
 40
0.0
 40
0.0
 40
0.2642274255
 40
1.0
 40
1.0
 40
1.0
 40
1.0
 10
49.0256757
 20
279.7910306934
 30
0.0
 10
49.03421014
 20
279.8024879493
 30
0.0
 10
49.069266063
 20
279.8436201273
 30
0.0
 10
49.1163915236
 20
279.8752879616
 30
0.0
 10
49.154145424
 20
279.8878297539
 30
0.0
  0
SPLINE
  5
35D
100
AcDbEntity
  8
0
100
AcDbSpline
 62
7
  6
CONTINUOUS
 70
0
 71
3
 72
9
 73
5
 74
0
 42
0.0000001
 43
0.0000001
 44
0.0000000001
 40
0.0
 40
0.0
 40
0.0
 40
0.0
 40
0.5012455581
 40
1.0
 40
1.0
 40
1.0
 40
1.0
 10
49.1599440225
 20
82.9806966018
 30
0.0
 10
49.1365784644
 20
82.9840345387
 30
0.0
 10
49.0900811774
 20
82.9936540544
 30
0.0
 10
49.0427556058
 20
82.9888654523
 30
0.0
 10
49.0193008166
 20
82.990065632
 30
0.0
  0
SPLINE
  5
35E
100
AcDbEntity
  8
0
100
AcDbSpline
 62
7
  6
CONTINUOUS
 70
0
 71
3
 72
8
 73
4
 74
0
 42
0.0000001
 43
0.0000001
 44
0.0000000001
 40
0.0
 40
0.0
 40
0.0
 40
0.0
 40
1.0
 40
1.0
 40
1.0
 40
1.0
 10
49.0193008166
 20
82.990065632
 30
0.0
 10
48.9956883719
 20
82.9912738789
 30
0.0
 10
48.972398007
 20
82.9960909893
 30
0.0
 10
48.948992297
 20
82.9994346621
 30
0.0
  0
LINE
  5
35F
100
AcDbEntity
  8
0
100
AcDbLine
 62
7
  6
CONTINUOUS
 10
48.8265862627
 20
272.3940472202
 11
48.9489923425
 21
272.3799664722
  0
SPLINE
  5
360
100
AcDbEntity
  8
0
100
AcDbSpline
 62
7
  6
CONTINUOUS
 70
0
 71
3
 72
9
 73
5
 74
0
 42
0.0000001
 43
0.0000001
 44
0.0000000001
 40
0.0
 40
0.0
 40
0.0
 40
0.0
 40
0.2384511482
 40
1.0
 40
1.0
 40
1.0
 40
1.0
 10
49.0145160369
 20
272.1060847954
 30
0.0
 10
49.005830725
 20
272.1193626537
 30
0.0
 10
48.9733240416
 20
272.1775815246
 30
0.0
 10
48.9560246131
 20
272.2437194679
 30
0.0
 10
48.9507517367
 20
272.2941167409
 30
0.0
  0
SPLINE
  5
361
100
AcDbEntity
  8
0
100
AcDbSpline
 62
7
  6
CONTINUOUS
 70
0
 71
3
 72
9
 73
5
 74
0
 42
0.0000001
 43
0.0000001
 44
0.0000000001
 40
0.0
 40
0.0
 40
0.0
 40
0.0
 40
0.7338853527
 40
1.0
 40
1.0
 40
1.0
 40
1.0
 10
49.1541453994
 20
271.9932553003
 30
0.0
 10
49.1120382966
 20
272.0072432257
 30
0.0
 10
49.0597239028
 20
272.0443869141
 30
0.0
 10
49.0233232733
 20
272.0926205424
 30
0.0
 10
49.0145160369
 20
272.1060847954
 30
0.0
  0
SPLINE
  5
362
100
AcDbEntity
  8
0
100
AcDbSpline
 62
7
  6
CONTINUOUS
 70
0
 71
3
 72
15
 73
11
 74
0
 42
0.0000001
 43
0.0000001
 44
0.0000000001
 40
0.0
 40
0.0
 40
0.0
 40
0.0
 40
0.338131546
 40
0.4975589625
 40
0.6453578784
 40
0.7768457203
 40
0.885388623
 40
0.9624639669
 40
0.9864814094
 40
1.0
 40
1.0
 40
1.0
 40
1.0
 10
50.1541457319
 20
239.3405425229
 30
0.0
 10
50.1541457319
 20
239.0866247825
 30
0.0
 10
50.0285517965
 20
238.7158781084
 30
0.0
 10
49.7869231
 20
238.2980525206
 30
0.0
 10
49.6050895992
 20
238.0227609911
 30
0.0
 10
49.4366716291
 20
237.785022301
 30
0.0
 10
49.2987224665
 20
237.591565385
 30
0.0
 10
49.2077266096
 20
237.4617305531
 30
0.0
 10
49.1662081708
 20
237.3875144967
 30
0.0
 10
49.1541457319
 20
237.3607193486
 30
0.0
 10
49.1541457319
 20
237.3505676487
 30
0.0
  0
SPLINE
  5
363
100
AcDbEntity
  8
0
100
AcDbSpline
 62
7
  6
CONTINUOUS
 70
0
 71
3
 72
9
 73
5
 74
0
 42
0.0000001
 43
0.0000001
 44
0.0000000001
 40
0.0
 40
0.0
 40
0.0
 40
0.0
 40
0.4654038809
 40
1.0
 40
1.0
 40
1.0
 40
1.0
 10
50.6541457319
 20
124.6634181785
 30
0.0
 10
50.6541457319
 20
124.4580894952
 30
0.0
 10
50.6822330906
 20
124.0174747943
 30
0.0
 10
50.6958162804
 20
123.5763977052
 30
0.0
 10
50.6958162804
 20
123.3405425229
 30
0.0
  0
SPLINE
  5
364
100
AcDbEntity
  8
0
100
AcDbSpline
 62
7
  6
CONTINUOUS
 70
0
 71
3
 72
9
 73
5
 74
0
 42
0.0000001
 43
0.0000001
 44
0.0000000001
 40
0.0
 40
0.0
 40
0.0
 40
0.0
 40
0.5346800374
 40
1.0
 40
1.0
 40
1.0
 40
1.0
 10
50.6958162804
 20
239.3405425229
 30
0.0
 10
50.6958162804
 20
239.1046503313
 30
0.0
 10
50.6822186858
 20
238.663573687
 30
0.0
 10
50.6541457319
 20
238.2229585149
 30
0.0
 10
50.6541457319
 20
238.0176668674
 30
0.0
  0
SPLINE
  5
365
100
AcDbEntity
  8
0
100
AcDbSpline
 62
7
  6
CONTINUOUS
 70
0
 71
3
 72
14
 73
10
 74
0
 42
0.0000001
 43
0.0000001
 44
0.0000000001
 40
0.0
 40
0.0
 40
0.0
 40
0.0
 40
0.1293154565
 40
0.2600313529
 40
0.3907384812
 40
0.5205763734
 40
0.6491949581
 40
0.7755620537
 40
1.0
 40
1.0
 40
1.0
 40
1.0
 10
42.0888381522
 20
246.3405425229
 30
0.0
 10
42.0713783707
 20
246.4222288591
 30
0.0
 10
42.0205573373
 20
246.5826936211
 30
0.0
 10
41.9624903054
 20
246.8282648347
 30
0.0
 10
41.8956915766
 20
247.0723159011
 30
0.0
 10
41.821170226
 20
247.3115601467
 30
0.0
 10
41.7340724658
 20
247.5479313142
 30
0.0
 10
41.6122091528
 20
247.8170009993
 30
0.0
 10
41.445785566
 20
248.0548282372
 30
0.0
 10
41.3008096646
 20
248.0548282372
 30
0.0
  0
SPLINE
  5
366
100
AcDbEntity
  8
0
100
AcDbSpline
 62
7
  6
CONTINUOUS
 70
0
 71
3
 72
9
 73
5
 74
0
 42
0.0000001
 43
0.0000001
 44
0.0000000001
 40
0.0
 40
0.0
 40
0.0
 40
0.0
 40
0.4654038809
 40
1.0
 40
1.0
 40
1.0
 40
1.0
 10
50.6541457319
 20
286.6634181784
 30
0.0
 10
50.6541457319
 20
286.4580894952
 30
0.0
 10
50.6822330906
 20
286.0174747943
 30
0.0
 10
50.6958162804
 20
285.5763977052
 30
0.0
 10
50.6958162804
 20
285.3405425229
 30
0.0
  0
SPLINE
  5
367
100
AcDbEntity
  8
0
100
AcDbSpline
 62
7
  6
CONTINUOUS
 70
0
 71
3
 72
12
 73
8
 74
0
 42
0.0000001
 43
0.0000001
 44
0.0000000001
 40
0.0
 40
0.0
 40
0.0
 40
0.0
 40
0.2235510563
 40
0.348609984
 40
0.4765382259
 40
0.7367005403
 40
1.0
 40
1.0
 40
1.0
 40
1.0
 10
36.9868885764
 20
248.0548282372
 30
0.0
 10
36.8648186211
 20
248.0548282372
 30
0.0
 10
36.7046549783
 20
247.8864309033
 30
0.0
 10
36.5852843313
 20
247.6644446917
 30
0.0
 10
36.4722660403
 20
247.4053054632
 30
0.0
 10
36.360331921
 20
247.0682720584
 30
0.0
 10
36.2882329101
 20
246.7913275782
 30
0.0
 10
36.2528809295
 20
246.6519670398
 30
0.0
  0
SPLINE
  5
368
100
AcDbEntity
  8
0
100
AcDbSpline
 62
7
  6
CONTINUOUS
 70
0
 71
3
 72
8
 73
4
 74
0
 42
0.0000001
 43
0.0000001
 44
0.0000000001
 40
0.0
 40
0.0
 40
0.0
 40
0.0
 40
1.0
 40
1.0
 40
1.0
 40
1.0
 10
36.2528809295
 20
246.6519670398
 30
0.0
 10
36.2265792389
 20
246.5482835201
 30
0.0
 10
36.1982326837
 20
246.4450589444
 30
0.0
 10
36.1754649688
 20
246.3405425229
 30
0.0
  0
SPLINE
  5
369
100
AcDbEntity
  8
0
100
AcDbSpline
 62
7
  6
CONTINUOUS
 70
0
 71
3
 72
19
 73
15
 74
0
 42
0.0000001
 43
0.0000001
 44
0.0000000001
 40
0.0
 40
0.0
 40
0.0
 40
0.0
 40
0.0950129229
 40
0.1387407026
 40
0.1871888468
 40
0.245787478
 40
0.3178596252
 40
0.4985445623
 40
0.6804281033
 40
0.7534785505
 40
0.8129361463
 40
0.8619307382
 40
0.9057848571
 40
1.0
 40
1.0
 40
1.0
 40
1.0
 10
36.1754649688
 20
246.3405425229
 30
0.0
 10
36.0587772605
 20
246.3423093202
 30
0.0
 10
35.877054282
 20
246.3112273401
 30
0.0
 10
35.7042949826
 20
246.1513218256
 30
0.0
 10
35.620049603
 20
245.9831183712
 30
0.0
 10
35.5718891327
 20
245.7672393847
 30
0.0
 10
35.5410532921
 20
245.3855306949
 30
0.0
 10
35.5463680111
 20
244.8514251685
 30
0.0
 10
35.5409560087
 20
244.3161914344
 30
0.0
 10
35.5696497205
 20
243.9306286141
 30
0.0
 10
35.6156632745
 20
243.7113700791
 30
0.0
 10
35.697110499
 20
243.5398749334
 30
0.0
 10
35.8652478965
 20
243.375346011
 30
0.0
 10
36.0458265751
 20
243.3405425229
 30
0.0
 10
36.1615477727
 20
243.3405425229
 30
0.0
  0
SPLINE
  5
36A
100
AcDbEntity
  8
0
100
AcDbSpline
 62
7
  6
CONTINUOUS
 70
0
 71
3
 72
9
 73
5
 74
0
 42
0.0000001
 43
0.0000001
 44
0.0000000001
 40
0.0
 40
0.0
 40
0.0
 40
0.0
 40
0.5346800374
 40
1.0
 40
1.0
 40
1.0
 40
1.0
 10
50.6958162804
 20
77.3405425229
 30
0.0
 10
50.6958162804
 20
77.1046503313
 30
0.0
 10
50.6822186858
 20
76.6635736871
 30
0.0
 10
50.6541457319
 20
76.222958515
 30
0.0
 10
50.6541457319
 20
76.0176668674
 30
0.0
  0
SPLINE
  5
36B
100
AcDbEntity
  8
0
100
AcDbSpline
 62
7
  6
CONTINUOUS
 70
0
 71
3
 72
9
 73
5
 74
0
 42
0.0000001
 43
0.0000001
 44
0.0000000001
 40
0.0
 40
0.0
 40
0.0
 40
0.0
 40
0.5012455581
 40
1.0
 40
1.0
 40
1.0
 40
1.0
 10
49.1599440225
 20
244.9806966018
 30
0.0
 10
49.1365784644
 20
244.9840345387
 30
0.0
 10
49.0900811774
 20
244.9936540544
 30
0.0
 10
49.0427556058
 20
244.9888654523
 30
0.0
 10
49.0193008166
 20
244.990065632
 30
0.0
  0
SPLINE
  5
36C
100
AcDbEntity
  8
0
100
AcDbSpline
 62
7
  6
CONTINUOUS
 70
0
 71
3
 72
8
 73
4
 74
0
 42
0.0000001
 43
0.0000001
 44
0.0000000001
 40
0.0
 40
0.0
 40
0.0
 40
0.0
 40
1.0
 40
1.0
 40
1.0
 40
1.0
 10
49.0193008166
 20
244.990065632
 30
0.0
 10
48.9956883719
 20
244.9912738789
 30
0.0
 10
48.972398007
 20
244.9960909893
 30
0.0
 10
48.948992297
 20
244.9994346621
 30
0.0
  0
SPLINE
  5
36D
100
AcDbEntity
  8
0
100
AcDbSpline
 62
7
  6
CONTINUOUS
 70
0
 71
3
 72
11
 73
7
 74
0
 42
0.0000001
 43
0.0000001
 44
0.0000000001
 40
0.0
 40
0.0
 40
0.0
 40
0.0
 40
0.1975944593
 40
0.4999871361
 40
0.8023972559
 40
1.0
 40
1.0
 40
1.0
 40
1.0
 10
42.6679671149
 20
243.9955935486
 30
0.0
 10
42.714038326
 20
244.0978254511
 30
0.0
 10
42.7425944124
 20
244.387836702
 30
0.0
 10
42.7427711418
 20
244.8405305003
 30
0.0
 10
42.7425961808
 20
245.2932287636
 30
0.0
 10
42.7140402577
 20
245.5832553084
 30
0.0
 10
42.6679671149
 20
245.6854914972
 30
0.0
  0
SPLINE
  5
36E
100
AcDbEntity
  8
0
100
AcDbSpline
 62
7
  6
CONTINUOUS
 70
0
 71
3
 72
15
 73
11
 74
0
 42
0.0000001
 43
0.0000001
 44
0.0000000001
 40
0.0
 40
0.0
 40
0.0
 40
0.0
 40
0.0135187431
 40
0.0375362095
 40
0.1146116042
 40
0.223154498
 40
0.354642698
 40
0.5024416491
 40
0.6618683496
 40
1.0
 40
1.0
 40
1.0
 40
1.0
 10
49.1541457319
 20
125.3305173971
 30
0.0
 10
49.1541457319
 20
125.320365583
 30
0.0
 10
49.1662084645
 20
125.2935703826
 30
0.0
 10
49.207726585
 20
125.2193540117
 30
0.0
 10
49.2987228904
 20
125.0895193444
 30
0.0
 10
49.4366719806
 20
124.8960620665
 30
0.0
 10
49.6050903633
 20
124.6583232986
 30
0.0
 10
49.7869230207
 20
124.383031526
 30
0.0
 10
50.0285521023
 20
123.9652066872
 30
0.0
 10
50.1541457319
 20
123.5944603346
 30
0.0
 10
50.1541457319
 20
123.3405425229
 30
0.0
  0
SPLINE
  5
36F
100
AcDbEntity
  8
0
100
AcDbSpline
 62
7
  6
CONTINUOUS
 70
0
 71
3
 72
9
 73
5
 74
0
 42
0.0000001
 43
0.0000001
 44
0.0000000001
 40
0.0
 40
0.0
 40
0.0
 40
0.0
 40
0.2316251931
 40
1.0
 40
1.0
 40
1.0
 40
1.0
 10
42.4576665929
 20
243.6762311398
 30
0.0
 10
42.4329287593
 20
243.6475398387
 30
0.0
 10
42.3221777616
 20
243.5270789107
 30
0.0
 10
42.1987886162
 20
243.4187070815
 30
0.0
 10
42.1003834317
 20
243.3405425229
 30
0.0
  0
SPLINE
  5
370
100
AcDbEntity
  8
0
100
AcDbSpline
 62
7
  6
CONTINUOUS
 70
0
 71
3
 72
9
 73
5
 74
0
 42
0.0000001
 43
0.0000001
 44
0.0000000001
 40
0.0
 40
0.0
 40
0.0
 40
0.0
 40
0.2699414874
 40
1.0
 40
1.0
 40
1.0
 40
1.0
 10
42.0888381522
 20
246.3405425229
 30
0.0
 10
42.1240610913
 20
246.3127875509
 30
0.0
 10
42.2545445231
 20
246.2101721721
 30
0.0
 10
42.3784636774
 20
246.0977687755
 30
0.0
 10
42.4576665929
 20
246.0059209528
 30
0.0
  0
SPLINE
  5
371
100
AcDbEntity
  8
0
100
AcDbSpline
 62
7
  6
CONTINUOUS
 70
0
 71
3
 72
9
 73
5
 74
0
 42
0.0000001
 43
0.0000001
 44
0.0000000001
 40
0.0
 40
0.0
 40
0.0
 40
0.0
 40
0.4523685674
 40
1.0
 40
1.0
 40
1.0
 40
1.0
 10
49.071229986
 20
82.8014445272
 30
0.0
 10
49.0340536644
 20
82.8067531861
 30
0.0
 10
48.9596515173
 20
82.8663777636
 30
0.0
 10
48.9461815192
 20
82.9540606444
 30
0.0
 10
48.9489923426
 20
82.9994353651
 30
0.0
  0
SPLINE
  5
372
100
AcDbEntity
  8
0
100
AcDbSpline
 62
7
  6
CONTINUOUS
 70
0
 71
3
 72
9
 73
5
 74
0
 42
0.0000001
 43
0.0000001
 44
0.0000000001
 40
0.0
 40
0.0
 40
0.0
 40
0.0
 40
0.2624148178
 40
1.0
 40
1.0
 40
1.0
 40
1.0
 10
42.542275915
 20
245.8985192157
 30
0.0
 10
42.5549435142
 20
245.8809556809
 30
0.0
 10
42.6019259539
 20
245.8131302072
 30
0.0
 10
42.6429590853
 20
245.7409842525
 30
0.0
 10
42.6679671149
 20
245.6854914972
 30
0.0
  0
SPLINE
  5
373
100
AcDbEntity
  8
0
100
AcDbSpline
 62
7
  6
CONTINUOUS
 70
0
 71
3
 72
9
 73
5
 74
0
 42
0.0000001
 43
0.0000001
 44
0.0000000001
 40
0.0
 40
0.0
 40
0.0
 40
0.0
 40
0.2333181063
 40
1.0
 40
1.0
 40
1.0
 40
1.0
 10
42.6679671149
 20
243.9955935486
 30
0.0
 10
42.6557233755
 20
243.9684247215
 30
0.0
 10
42.5980399863
 20
243.8543145967
 30
0.0
 10
42.5216105295
 20
243.750394252
 30
0.0
 10
42.4576665929
 20
243.6762311396
 30
0.0
  0
SPLINE
  5
374
100
AcDbEntity
  8
0
100
AcDbSpline
 62
7
  6
CONTINUOUS
 70
0
 71
3
 72
9
 73
5
 74
0
 42
0.0000001
 43
0.0000001
 44
0.0000000001
 40
0.0
 40
0.0
 40
0.0
 40
0.0
 40
0.4523685674
 40
1.0
 40
1.0
 40
1.0
 40
1.0
 10
49.071229986
 20
244.8014445272
 30
0.0
 10
49.0340536645
 20
244.806753186
 30
0.0
 10
48.9596515173
 20
244.8663777636
 30
0.0
 10
48.9461815192
 20
244.9540606444
 30
0.0
 10
48.9489923426
 20
244.9994353651
 30
0.0
  0
SPLINE
  5
375
100
AcDbEntity
  8
0
100
AcDbSpline
 62
7
  6
CONTINUOUS
 70
0
 71
3
 72
9
 73
5
 74
0
 42
0.0000001
 43
0.0000001
 44
0.0000000001
 40
0.0
 40
0.0
 40
0.0
 40
0.0
 40
0.5471266423
 40
1.0
 40
1.0
 40
1.0
 40
1.0
 10
48.9489922744
 20
90.4816507853
 30
0.0
 10
48.9461841285
 20
90.5269853522
 30
0.0
 10
48.9595843723
 20
90.6146721345
 30
0.0
 10
49.0340045566
 20
90.6743226004
 30
0.0
 10
49.0712234105
 20
90.6796395795
 30
0.0
  0
SPLINE
  5
376
100
AcDbEntity
  8
0
100
AcDbSpline
 62
7
  6
CONTINUOUS
 70
0
 71
3
 72
9
 73
5
 74
0
 42
0.0000001
 43
0.0000001
 44
0.0000000001
 40
0.0
 40
0.0
 40
0.0
 40
0.0
 40
0.5471266424
 40
1.0
 40
1.0
 40
1.0
 40
1.0
 10
48.9489922744
 20
252.4816507853
 30
0.0
 10
48.9461841285
 20
252.5269853522
 30
0.0
 10
48.9595843723
 20
252.6146721345
 30
0.0
 10
49.0340045566
 20
252.6743226004
 30
0.0
 10
49.0712234105
 20
252.6796395795
 30
0.0
  0
SPLINE
  5
377
100
AcDbEntity
  8
0
100
AcDbSpline
 62
7
  6
CONTINUOUS
 70
0
 71
3
 72
15
 73
11
 74
0
 42
0.0000001
 43
0.0000001
 44
0.0000000001
 40
0.0
 40
0.0
 40
0.0
 40
0.0
 40
0.0135187431
 40
0.0375362095
 40
0.1146116042
 40
0.223154498
 40
0.354642698
 40
0.5024416491
 40
0.6618683496
 40
1.0
 40
1.0
 40
1.0
 40
1.0
 10
49.1541457319
 20
287.3305173971
 30
0.0
 10
49.1541457319
 20
287.320365583
 30
0.0
 10
49.1662084645
 20
287.2935703826
 30
0.0
 10
49.207726585
 20
287.2193540117
 30
0.0
 10
49.2987228904
 20
287.0895193444
 30
0.0
 10
49.4366719806
 20
286.8960620665
 30
0.0
 10
49.6050903633
 20
286.6583232986
 30
0.0
 10
49.7869230207
 20
286.383031526
 30
0.0
 10
50.0285521023
 20
285.9652066872
 30
0.0
 10
50.1541457319
 20
285.5944603346
 30
0.0
 10
50.1541457319
 20
285.3405425229
 30
0.0
  0
SPLINE
  5
378
100
AcDbEntity
  8
0
100
AcDbSpline
 62
7
  6
CONTINUOUS
 70
0
 71
3
 72
9
 73
5
 74
0
 42
0.0000001
 43
0.0000001
 44
0.0000000001
 40
0.0
 40
0.0
 40
0.0
 40
0.0
 40
0.5407734087
 40
1.0
 40
1.0
 40
1.0
 40
1.0
 10
39.5170543498
 20
253.6923247278
 30
0.0
 10
39.5019148608
 20
253.473181617
 30
0.0
 10
39.447452023
 20
253.0694649304
 30
0.0
 10
39.3284708328
 20
252.6772648286
 30
0.0
 10
39.2496952437
 20
252.5081736887
 30
0.0
  0
SPLINE
  5
379
100
AcDbEntity
  8
0
100
AcDbSpline
 62
7
  6
CONTINUOUS
 70
0
 71
3
 72
10
 73
6
 74
0
 42
0.0000001
 43
0.0000001
 44
0.0000000001
 40
0.0
 40
0.0
 40
0.0
 40
0.0
 40
0.3191484134
 40
0.702433008
 40
1.0
 40
1.0
 40
1.0
 40
1.0
 10
39.2496952437
 20
252.5081736887
 30
0.0
 10
39.2174969371
 20
252.4390602942
 30
0.0
 10
39.136812685
 20
252.2916835046
 30
0.0
 10
38.9806518642
 20
252.1047391258
 30
0.0
 10
38.8186175635
 20
252.0405425229
 30
0.0
 10
38.7475278312
 20
252.0405425229
 30
0.0
  0
SPLINE
  5
37A
100
AcDbEntity
  8
0
100
AcDbSpline
 62
7
  6
CONTINUOUS
 70
0
 71
3
 72
9
 73
5
 74
0
 42
0.0000001
 43
0.0000001
 44
0.0000000001
 40
0.0
 40
0.0
 40
0.0
 40
0.0
 40
0.2549963124
 40
1.0
 40
1.0
 40
1.0
 40
1.0
 10
40.611598137
 20
257.782816554
 30
0.0
 10
40.5768293804
 20
257.742838563
 30
0.0
 10
40.4385089499
 20
257.587770405
 30
0.0
 10
40.2935161614
 20
257.438765083
 30
0.0
 10
40.1834354415
 20
257.3299377068
 30
0.0
  0
SPLINE
  5
37B
100
AcDbEntity
  8
0
100
AcDbSpline
 62
7
  6
CONTINUOUS
 70
0
 71
3
 72
9
 73
5
 74
0
 42
0.0000001
 43
0.0000001
 44
0.0000000001
 40
0.0
 40
0.0
 40
0.0
 40
0.0
 40
0.7338853527
 40
1.0
 40
1.0
 40
1.0
 40
1.0
 10
49.1541453994
 20
109.9932553003
 30
0.0
 10
49.1120382966
 20
110.0072432257
 30
0.0
 10
49.0597239028
 20
110.0443869141
 30
0.0
 10
49.0233232733
 20
110.0926205424
 30
0.0
 10
49.0145160369
 20
110.1060847954
 30
0.0
  0
SPLINE
  5
37C
100
AcDbEntity
  8
0
100
AcDbSpline
 62
7
  6
CONTINUOUS
 70
0
 71
3
 72
9
 73
5
 74
0
 42
0.0000001
 43
0.0000001
 44
0.0000000001
 40
0.0
 40
0.0
 40
0.0
 40
0.0
 40
0.2326000765
 40
1.0
 40
1.0
 40
1.0
 40
1.0
 10
42.6679671149
 20
278.9955935486
 30
0.0
 10
42.6557329134
 20
278.9684458862
 30
0.0
 10
42.5976247457
 20
278.8542382827
 30
0.0
 10
42.5218165947
 20
278.7495373531
 30
0.0
 10
42.4576665929
 20
278.6751324412
 30
0.0
  0
SPLINE
  5
37D
100
AcDbEntity
  8
0
100
AcDbSpline
 62
7
  6
CONTINUOUS
 70
0
 71
3
 72
8
 73
4
 74
0
 42
0.0000001
 43
0.0000001
 44
0.0000000001
 40
0.0
 40
0.0
 40
0.0
 40
0.0
 40
1.0
 40
1.0
 40
1.0
 40
1.0
 10
42.4576665929
 20
281.0048492758
 30
0.0
 10
42.487271784
 20
280.9705127675
 30
0.0
 10
42.5156483461
 20
280.9350552911
 30
0.0
 10
42.5423296886
 20
280.8984005627
 30
0.0
  0
SPLINE
  5
37E
100
AcDbEntity
  8
0
100
AcDbSpline
 62
7
  6
CONTINUOUS
 70
0
 71
3
 72
9
 73
5
 74
0
 42
0.0000001
 43
0.0000001
 44
0.0000000001
 40
0.0
 40
0.0
 40
0.0
 40
0.0
 40
0.2617987772
 40
1.0
 40
1.0
 40
1.0
 40
1.0
 10
42.5423296886
 20
280.8984005627
 30
0.0
 10
42.5550380162
 20
280.8809419098
 30
0.0
 10
42.6021099769
 20
280.813217356
 30
0.0
 10
42.6429500111
 20
280.7410043881
 30
0.0
 10
42.6679671149
 20
280.6854914972
 30
0.0
  0
SPLINE
  5
37F
100
AcDbEntity
  8
0
100
AcDbSpline
 62
7
  6
CONTINUOUS
 70
0
 71
3
 72
9
 73
5
 74
0
 42
0.0000001
 43
0.0000001
 44
0.0000000001
 40
0.0
 40
0.0
 40
0.0
 40
0.0
 40
0.2687483769
 40
1.0
 40
1.0
 40
1.0
 40
1.0
 10
42.1003834317
 20
281.3405425229
 30
0.0
 10
42.1347986514
 20
281.3132060521
 30
0.0
 10
42.2609966337
 20
281.2092554282
 30
0.0
 10
42.3795752793
 20
281.095420657
 30
0.0
 10
42.4576665929
 20
281.0048492758
 30
0.0
  0
SPLINE
  5
380
100
AcDbEntity
  8
0
100
AcDbSpline
 62
7
  6
CONTINUOUS
 70
0
 71
3
 72
9
 73
5
 74
0
 42
0.0000001
 43
0.0000001
 44
0.0000000001
 40
0.0
 40
0.0
 40
0.0
 40
0.0
 40
0.2328011718
 40
1.0
 40
1.0
 40
1.0
 40
1.0
 10
42.4576665929
 20
278.6751329933
 30
0.0
 10
42.4324014921
 20
278.6458290564
 30
0.0
 10
42.3201330689
 20
278.5229949875
 30
0.0
 10
42.1889903678
 20
278.4194604671
 30
0.0
 10
42.0888381522
 20
278.3405425229
 30
0.0
  0
SPLINE
  5
381
100
AcDbEntity
  8
0
100
AcDbSpline
 62
7
  6
CONTINUOUS
 70
0
 71
3
 72
9
 73
5
 74
0
 42
0.0000001
 43
0.0000001
 44
0.0000000001
 40
0.0
 40
0.0
 40
0.0
 40
0.0
 40
0.2434733139
 40
1.0
 40
1.0
 40
1.0
 40
1.0
 10
39.9921530829
 20
257.1443901002
 30
0.0
 10
39.9374789305
 20
257.0921871321
 30
0.0
 10
39.738007171
 20
256.850517651
 30
0.0
 10
39.6436359112
 20
256.5412731334
 30
0.0
 10
39.5995396123
 20
256.3105626104
 30
0.0
  0
SPLINE
  5
382
100
AcDbEntity
  8
0
100
AcDbSpline
 62
7
  6
CONTINUOUS
 70
0
 71
3
 72
9
 73
5
 74
0
 42
0.0000001
 43
0.0000001
 44
0.0000000001
 40
0.0
 40
0.0
 40
0.0
 40
0.0
 40
0.244591895
 40
1.0
 40
1.0
 40
1.0
 40
1.0
 10
39.5995396123
 20
256.3105626104
 30
0.0
 10
39.5857333408
 20
256.2383286094
 30
0.0
 10
39.540155375
 20
255.9409374093
 30
0.0
 10
39.52627255
 20
255.6394682651
 30
0.0
 10
39.52627255
 20
255.4123392926
 30
0.0
  0
SPLINE
  5
383
100
AcDbEntity
  8
0
100
AcDbSpline
 62
7
  6
CONTINUOUS
 70
0
 71
3
 72
11
 73
7
 74
0
 42
0.0000001
 43
0.0000001
 44
0.0000000001
 40
0.0
 40
0.0
 40
0.0
 40
0.0
 40
0.1975944592
 40
0.4999871361
 40
0.8023972559
 40
1.0
 40
1.0
 40
1.0
 40
1.0
 10
42.6679671149
 20
278.9955935486
 30
0.0
 10
42.714038326
 20
279.0978254511
 30
0.0
 10
42.7425944124
 20
279.387836702
 30
0.0
 10
42.7427711418
 20
279.8405305003
 30
0.0
 10
42.7425961808
 20
280.2932287636
 30
0.0
 10
42.7140402577
 20
280.5832553083
 30
0.0
 10
42.6679671149
 20
280.6854914972
 30
0.0
  0
SPLINE
  5
384
100
AcDbEntity
  8
0
100
AcDbSpline
 62
7
  6
CONTINUOUS
 70
0
 71
3
 72
9
 73
5
 74
0
 42
0.0000001
 43
0.0000001
 44
0.0000000001
 40
0.0
 40
0.0
 40
0.0
 40
0.0
 40
0.2326000765
 40
1.0
 40
1.0
 40
1.0
 40
1.0
 10
42.6679671149
 20
116.9955935486
 30
0.0
 10
42.6557329134
 20
116.9684458862
 30
0.0
 10
42.5976247457
 20
116.8542382827
 30
0.0
 10
42.5218165947
 20
116.7495373531
 30
0.0
 10
42.4576665929
 20
116.6751324412
 30
0.0
  0
SPLINE
  5
385
100
AcDbEntity
  8
0
100
AcDbSpline
 62
7
  6
CONTINUOUS
 70
0
 71
3
 72
8
 73
4
 74
0
 42
0.0000001
 43
0.0000001
 44
0.0000000001
 40
0.0
 40
0.0
 40
0.0
 40
0.0
 40
1.0
 40
1.0
 40
1.0
 40
1.0
 10
42.4576665929
 20
119.0048492758
 30
0.0
 10
42.487271784
 20
118.9705127675
 30
0.0
 10
42.5156483461
 20
118.9350552911
 30
0.0
 10
42.5423296886
 20
118.8984005627
 30
0.0
  0
SPLINE
  5
386
100
AcDbEntity
  8
0
100
AcDbSpline
 62
7
  6
CONTINUOUS
 70
0
 71
3
 72
9
 73
5
 74
0
 42
0.0000001
 43
0.0000001
 44
0.0000000001
 40
0.0
 40
0.0
 40
0.0
 40
0.0
 40
0.2617987772
 40
1.0
 40
1.0
 40
1.0
 40
1.0
 10
42.5423296886
 20
118.8984005627
 30
0.0
 10
42.5550380162
 20
118.8809419098
 30
0.0
 10
42.6021099769
 20
118.813217356
 30
0.0
 10
42.6429500111
 20
118.7410043881
 30
0.0
 10
42.6679671149
 20
118.6854914972
 30
0.0
  0
SPLINE
  5
387
100
AcDbEntity
  8
0
100
AcDbSpline
 62
7
  6
CONTINUOUS
 70
0
 71
3
 72
14
 73
10
 74
0
 42
0.0000001
 43
0.0000001
 44
0.0000000001
 40
0.0
 40
0.0
 40
0.0
 40
0.0
 40
0.2251039342
 40
0.3505491198
 40
0.4788150264
 40
0.6086510053
 40
0.7397263873
 40
0.8706589112
 40
1.0
 40
1.0
 40
1.0
 40
1.0
 10
41.3008096646
 20
276.9119710943
 30
0.0
 10
41.4272912754
 20
276.9119710943
 30
0.0
 10
41.5950636382
 20
277.0821992012
 30
0.0
 10
41.7219918747
 20
277.3102067778
 30
0.0
 10
41.8118463716
 20
277.5083032005
 30
0.0
 10
41.8895825598
 20
277.712263253
 30
0.0
 10
41.9581595682
 20
277.9217003829
 30
0.0
 10
42.0195470919
 20
278.1327865898
 30
0.0
 10
42.070790808
 20
278.2701447515
 30
0.0
 10
42.0888381522
 20
278.3405425229
 30
0.0
  0
SPLINE
  5
388
100
AcDbEntity
  8
0
100
AcDbSpline
 62
7
  6
CONTINUOUS
 70
0
 71
3
 72
8
 73
4
 74
0
 42
0.0000001
 43
0.0000001
 44
0.0000000001
 40
0.0
 40
0.0
 40
0.0
 40
0.0
 40
1.0
 40
1.0
 40
1.0
 40
1.0
 10
36.1754649688
 20
278.3405425229
 30
0.0
 10
36.2058467834
 20
278.2243266926
 30
0.0
 10
36.2432256697
 20
278.1100429356
 30
0.0
 10
36.2789350368
 20
277.9953519814
 30
0.0
  0
SPLINE
  5
389
100
AcDbEntity
  8
0
100
AcDbSpline
 62
7
  6
CONTINUOUS
 70
0
 71
3
 72
12
 73
8
 74
0
 42
0.0000001
 43
0.0000001
 44
0.0000000001
 40
0.0
 40
0.0
 40
0.0
 40
0.0
 40
0.5207364197
 40
0.6471130209
 40
0.770079738
 40
0.8877028746
 40
1.0
 40
1.0
 40
1.0
 40
1.0
 10
36.2789350368
 20
277.9953519814
 30
0.0
 10
36.3488245675
 20
277.7708815518
 30
0.0
 10
36.444478408
 20
277.492279577
 30
0.0
 10
36.6144710548
 20
277.1883711888
 30
0.0
 10
36.7126429272
 20
277.0542788911
 30
0.0
 10
36.8317963372
 20
276.9454419822
 30
0.0
 10
36.9361893431
 20
276.9119710943
 30
0.0
 10
36.9868885764
 20
276.9119710943
 30
0.0
  0
SPLINE
  5
38A
100
AcDbEntity
  8
0
100
AcDbSpline
 62
7
  6
CONTINUOUS
 70
0
 71
3
 72
19
 73
15
 74
0
 42
0.0000001
 43
0.0000001
 44
0.0000000001
 40
0.0
 40
0.0
 40
0.0
 40
0.0
 40
0.0941504456
 40
0.1379689172
 40
0.1868951677
 40
0.2463148346
 40
0.3194011746
 40
0.5017400613
 40
0.6826221333
 40
0.7546358909
 40
0.8131028933
 40
0.8614386733
 40
0.9050915855
 40
1.0
 40
1.0
 40
1.0
 40
1.0
 10
36.1615477727
 20
281.3405425229
 30
0.0
 10
36.0459038927
 20
281.3405425229
 30
0.0
 10
35.8655610814
 20
281.3056888156
 30
0.0
 10
35.6972438545
 20
281.1416695899
 30
0.0
 10
35.6157575907
 20
280.9703298574
 30
0.0
 10
35.5700472787
 20
280.7511051481
 30
0.0
 10
35.5406510389
 20
280.3650512182
 30
0.0
 10
35.5462365413
 20
279.828925184
 30
0.0
 10
35.5409754608
 20
279.2940763681
 30
0.0
 10
35.572245746
 20
278.9123851762
 30
0.0
 10
35.6204519391
 20
278.6969025192
 30
0.0
 10
35.7046929026
 20
278.5291122677
 30
0.0
 10
35.8774879652
 20
278.3697975561
 30
0.0
 10
36.0589034451
 20
278.3387776363
 30
0.0
 10
36.1754649688
 20
278.3405425229
 30
0.0
  0
SPLINE
  5
38B
100
AcDbEntity
  8
0
100
AcDbSpline
 62
7
  6
CONTINUOUS
 70
0
 71
3
 72
9
 73
5
 74
0
 42
0.0000001
 43
0.0000001
 44
0.0000000001
 40
0.0
 40
0.0
 40
0.0
 40
0.0
 40
0.2384511482
 40
1.0
 40
1.0
 40
1.0
 40
1.0
 10
49.0145160369
 20
110.1060847954
 30
0.0
 10
49.005830725
 20
110.1193626537
 30
0.0
 10
48.9733240416
 20
110.1775815246
 30
0.0
 10
48.9560246131
 20
110.2437194679
 30
0.0
 10
48.9507517367
 20
110.2941167409
 30
0.0
  0
SPLINE
  5
38C
100
AcDbEntity
  8
0
100
AcDbSpline
 62
7
  6
CONTINUOUS
 70
0
 71
3
 72
9
 73
5
 74
0
 42
0.0000001
 43
0.0000001
 44
0.0000000001
 40
0.0
 40
0.0
 40
0.0
 40
0.0
 40
0.2687483769
 40
1.0
 40
1.0
 40
1.0
 40
1.0
 10
42.1003834317
 20
119.3405425229
 30
0.0
 10
42.1347986514
 20
119.3132060521
 30
0.0
 10
42.2609966337
 20
119.2092554282
 30
0.0
 10
42.3795752793
 20
119.095420657
 30
0.0
 10
42.4576665929
 20
119.0048492758
 30
0.0
  0
SPLINE
  5
38D
100
AcDbEntity
  8
0
100
AcDbSpline
 62
7
  6
CONTINUOUS
 70
0
 71
3
 72
9
 73
5
 74
0
 42
0.0000001
 43
0.0000001
 44
0.0000000001
 40
0.0
 40
0.0
 40
0.0
 40
0.0
 40
0.2328011718
 40
1.0
 40
1.0
 40
1.0
 40
1.0
 10
42.4576665929
 20
116.6751329933
 30
0.0
 10
42.4324014921
 20
116.6458290564
 30
0.0
 10
42.3201330689
 20
116.5229949875
 30
0.0
 10
42.1889903678
 20
116.4194604671
 30
0.0
 10
42.0888381522
 20
116.3405425229
 30
0.0
  0
SPLINE
  5
38E
100
AcDbEntity
  8
0
100
AcDbSpline
 62
7
  6
CONTINUOUS
 70
0
 71
3
 72
11
 73
7
 74
0
 42
0.0000001
 43
0.0000001
 44
0.0000000001
 40
0.0
 40
0.0
 40
0.0
 40
0.0
 40
0.1975944592
 40
0.4999871361
 40
0.8023972559
 40
1.0
 40
1.0
 40
1.0
 40
1.0
 10
42.6679671149
 20
116.9955935486
 30
0.0
 10
42.714038326
 20
117.0978254511
 30
0.0
 10
42.7425944124
 20
117.387836702
 30
0.0
 10
42.7427711418
 20
117.8405305003
 30
0.0
 10
42.7425961808
 20
118.2932287636
 30
0.0
 10
42.7140402577
 20
118.5832553083
 30
0.0
 10
42.6679671149
 20
118.6854914972
 30
0.0
  0
SPLINE
  5
38F
100
AcDbEntity
  8
0
100
AcDbSpline
 62
7
  6
CONTINUOUS
 70
0
 71
3
 72
10
 73
6
 74
0
 42
0.0000001
 43
0.0000001
 44
0.0000000001
 40
0.0
 40
0.0
 40
0.0
 40
0.0
 40
0.1934062086
 40
0.5418699228
 40
1.0
 40
1.0
 40
1.0
 40
1.0
 10
38.7475278313
 20
272.6405425229
 30
0.0
 10
38.7938005406
 20
272.6405425229
 30
0.0
 10
38.9242688418
 20
272.608277655
 30
0.0
 10
39.1075371722
 20
272.4412866801
 30
0.0
 10
39.2034079765
 20
272.2722665871
 30
0.0
 10
39.2496952437
 20
272.1729113572
 30
0.0
  0
SPLINE
  5
390
100
AcDbEntity
  8
0
100
AcDbSpline
 62
7
  6
CONTINUOUS
 70
0
 71
3
 72
9
 73
5
 74
0
 42
0.0000001
 43
0.0000001
 44
0.0000000001
 40
0.0
 40
0.0
 40
0.0
 40
0.0
 40
0.4592265913
 40
1.0
 40
1.0
 40
1.0
 40
1.0
 10
39.2496952437
 20
272.1729113572
 30
0.0
 10
39.3284708328
 20
272.0038202172
 30
0.0
 10
39.447452023
 20
271.6116201155
 30
0.0
 10
39.5019148608
 20
271.2079034288
 30
0.0
 10
39.5170543498
 20
270.988760318
 30
0.0
  0
SPLINE
  5
391
100
AcDbEntity
  8
0
100
AcDbSpline
 62
7
  6
CONTINUOUS
 70
0
 71
3
 72
9
 73
5
 74
0
 42
0.0000001
 43
0.0000001
 44
0.0000000001
 40
0.0
 40
0.0
 40
0.0
 40
0.0
 40
0.2386812277
 40
1.0
 40
1.0
 40
1.0
 40
1.0
 10
39.9921530829
 20
267.5366949456
 30
0.0
 10
40.0322086807
 20
267.4984497968
 30
0.0
 10
40.1993962873
 20
267.3375709371
 30
0.0
 10
40.3627107228
 20
267.172518035
 30
0.0
 10
40.4823669537
 20
267.0425648182
 30
0.0
  0
SPLINE
  5
392
100
AcDbEntity
  8
0
100
AcDbSpline
 62
7
  6
CONTINUOUS
 70
0
 71
3
 72
9
 73
5
 74
0
 42
0.0000001
 43
0.0000001
 44
0.0000000001
 40
0.0
 40
0.0
 40
0.0
 40
0.0
 40
0.2539982012
 40
1.0
 40
1.0
 40
1.0
 40
1.0
 10
39.52627255
 20
269.2687457531
 30
0.0
 10
39.52627255
 20
269.1923980171
 30
0.0
 10
39.5316067644
 20
268.8919725133
 30
0.0
 10
39.5574337167
 20
268.5908509269
 30
0.0
 10
39.5995246697
 20
268.3706007303
 30
0.0
  0
SPLINE
  5
393
100
AcDbEntity
  8
0
100
AcDbSpline
 62
7
  6
CONTINUOUS
 70
0
 71
3
 72
9
 73
5
 74
0
 42
0.0000001
 43
0.0000001
 44
0.0000000001
 40
0.0
 40
0.0
 40
0.0
 40
0.0
 40
0.2620277153
 40
1.0
 40
1.0
 40
1.0
 40
1.0
 10
39.5995246697
 20
268.3706007303
 30
0.0
 10
39.6147499676
 20
268.2909310006
 30
0.0
 10
39.6837106126
 20
267.9908059522
 30
0.0
 10
39.8269296995
 20
267.6944504963
 30
0.0
 10
39.9921530829
 20
267.5366949456
 30
0.0
  0
SPLINE
  5
394
100
AcDbEntity
  8
0
100
AcDbSpline
 62
7
  6
CONTINUOUS
 70
0
 71
3
 72
11
 73
7
 74
0
 42
0.0000001
 43
0.0000001
 44
0.0000000001
 40
0.0
 40
0.0
 40
0.0
 40
0.0
 40
0.2492975301
 40
0.4999999073
 40
0.7507023236
 40
1.0
 40
1.0
 40
1.0
 40
1.0
 10
40.611598137
 20
266.8982684918
 30
0.0
 10
41.2525230872
 20
266.3392560466
 30
0.0
 10
42.305142039
 20
264.9186999301
 30
0.0
 10
42.8541676413
 20
262.3405433893
 30
0.0
 10
42.3051426514
 20
259.7623861813
 30
0.0
 10
41.2525234632
 20
258.3418293272
 30
0.0
 10
40.6115981369
 20
257.7828165539
 30
0.0
  0
ENDSEC
  0
SECTION
  2
OBJECTS
  0
DICTIONARY
  5
C
100
AcDbDictionary
280
0
281
1
  3
ACAD_GROUP
350
D
  3
ACAD_MLINESTYLE
350
17
  3
ACAD_LAYOUT
350
1A
  3
ACAD_PLOTSETTINGS
350
19
  3
ACAD_PLOTSTYLENAME
350
E
  0
DICTIONARY
  5
D
102
{ACAD_REACTORS
330
C
102
}
100
AcDbDictionary
280
0
281
1
  0
ACDBDICTIONARYWDFLT
  5
E
102
{ACAD_REACTORS
330
C
102
}
100
AcDbDictionary
281
1
  3
Normal
350
F
100
AcDbDictionaryWithDefault
340
F
  0
DICTIONARY
  5
17
102
{ACAD_REACTORS
330
C
102
}
100
AcDbDictionary
280
0
281
1
  3
Standard
350
18
  0
DICTIONARY
  5
19
102
{ACAD_REACTORS
330
C
102
}
100
AcDbDictionary
281
1
  0
DICTIONARY
  5
1A
102
{ACAD_REACTORS
330
C
102
}
100
AcDbDictionary
281
1
  3
Model
350
395
  3
Layout1
350
396
  0
ACDBPLACEHOLDER
  5
F
102
{ACAD_REACTORS
330
E
102
}
  0
MLINESTYLE
  5
18
102
{ACAD_REACTORS
330
17
102
}
100
AcDbMlineStyle
  2
STANDARD
 70
0
  3

 62
256
 51
90.0
 52
90.0
 71
2
 49
0.5
 62
256
  6
BYLAYER
 49
-0.5
 62
256
  6
BYLAYER
  0
LAYOUT
  5
395
102
{ACAD_REACTORS
330
1A
102
}
100
AcDbPlotSettings
  1

  2
none_device
  4

  6

 40
0.0
 41
0.0
 42
0.0
 43
0.0
 44
210.0
 45
297.0
 46
0.0
 47
0.0
 48
0.0
 49
0.0
140
0.0
141
0.0
142
1.0
143
1.0
 70
1024
 72
1
 73
0
 74
0
  7

 75
0
147
1.0
148
0.0
149
0.0
100
AcDbLayout
  1
Model
 70
0
 71
0
 10
0.0
 20
0.0
 11
210.0
 21
297.0
 12
0.0
 22
0.0
 32
0.0
 14
0.0
 24
0.0
 34
0.0
 15
0.0
 25
0.0
 35
0.0
146
0.0
 13
0.0
 23
0.0
 33
0.0
 16
1.0
 26
0.0
 36
0.0
 17
0.0
 27
1.0
 37
0.0
 76
0
330
210
345
0
346
0
  0
LAYOUT
  5
396
102
{ACAD_REACTORS
330
1A
102
}
100
AcDbPlotSettings
  1

  2
none_device
  4

  6

 40
0.0
 41
0.0
 42
0.0
 43
0.0
 44
210.0
 45
297.0
 46
0.0
 47
0.0
 48
0.0
 49
0.0
140
0.0
141
0.0
142
1.0
143
1.0
 70
0
 72
1
 73
0
 74
0
  7

 75
0
147
1.0
148
0.0
149
0.0
100
AcDbLayout
  1
Layout1
 70
0
 71
1
 10
0.0
 20
0.0
 11
210.0
 21
297.0
 12
0.0
 22
0.0
 32
0.0
 14
0.0
 24
0.0
 34
0.0
 15
0.0
 25
0.0
 35
0.0
146
0.0
 13
0.0
 23
0.0
 33
0.0
 16
1.0
 26
0.0
 36
0.0
 17
0.0
 27
1.0
 37
0.0
 76
0
330
211
345
0
346
0
  0
ENDSEC
  0
EOF
