999
DXF file: C:\Users\sesa63760\Dev\_Creo\CAD\MCADUE0002313_3D-CAD\drw0001_5.dxf
999
Pro/ENGINEER 2019471 by Parametric Technology Corporation
  0
SECTION
  2
HEADER
  9
$ACADVER
  1
AC1024
  9
$DWGCODEPAGE
  3
ANSI_1252
  9
$EXTMAX
 10
647.1490064039
 20
915.2535947712
 30
0.0
  9
$EXTMIN
 10
0.0
 20
0.0
 30
0.0
  9
$LIMMIN
 10
0.0
 20
0.0
  9
$LIMMAX
 10
647.1490064039
 20
915.2535947712
  9
$VIEWCTR
 10
323.574503202
 20
457.6267973856
  9
$VIEWSIZE
 40
915.2535947712
  9
$CLAYER
  8
0
  9
$LTSCALE
 40
59.6609750666
  9
$CELTYPE
  6
BYLAYER
  9
$DIMSCALE
 40
1.0
  9
$DIMASZ
 40
7.7041548381
  9
$DIMEXO
 40
1.0
  9
$DIMDLI
 40
41.220310046
  9
$DIMEXE
 40
1.0
  9
$DIMCEN
 40
9.7627050109
  9
$DIMLFAC
 40
1.0
  9
$DIMBLK
  1
_FILLED
  9
$DIMALT
 70
0
  9
$DIMALTF
 40
0.0393700787
  9
$DIMTXT
 40
10.7858167734
  9
$DIMTOL
 70
1
  9
$DIMLIM
 70
0
  9
$DIMTFAC
 40
1.0
  9
$DIMTP
 40
0.01
  9
$DIMTM
 40
0.01
  9
$DIMGAP
 40
0.625
  9
$DIMDSEP
 70
46
  9
$AUNITS
 70
0
  9
$PDMODE
 70
3
  9
$PDSIZE
 40
0.3125
  9
$HANDSEED
  5
33D
  9
$TILEMODE
 70
1
  9
$MEASUREMENT
 70
1
  9
$INSUNITS
 70
4
  0
ENDSEC
  0
SECTION
  2
CLASSES
  0
CLASS
  1
ACDBDICTIONARYWDFLT
  2
AcDbDictionaryWithDefault
  3
AutoCAD 2000
 90
0
 91
1
280
0
281
0
  0
CLASS
  1
ACDBPLACEHOLDER
  2
AcDbPlaceHolder
  3
AutoCAD 2000
 90
0
 91
1
280
0
281
0
  0
CLASS
  1
LAYOUT
  2
AcDbLayout
  3
AutoCAD 2000
 90
0
 91
0
280
0
281
0
  0
ENDSEC
  0
SECTION
  2
TABLES
  0
TABLE
  2
VPORT
  5
8
100
AcDbSymbolTable
 70
2
  0
VPORT
  5
1F4
100
AcDbSymbolTableRecord
100
AcDbViewportTableRecord
  2
*ACTIVE
 70
0
 10
0.0
 20
0.0
 11
1.0
 21
1.0
 12
323.574503202
 22
457.6267973856
 13
0.0
 23
0.0
 14
1.0
 24
1.0
 15
0.0
 25
0.0
 16
0.0
 26
0.0
 36
1.0
 17
0.0
 27
0.0
 37
0.0
 40
915.2535947712
 41
0.7070707071
 42
50.0
 43
0.0
 44
0.0
 50
0.0
 51
0.0
 71
0
 72
100
 73
1
 74
1
 75
0
 76
0
 77
0
 78
0
  0
ENDTAB
  0
TABLE
  2
LTYPE
  5
5
100
AcDbSymbolTable
 70
6
  0
LTYPE
  5
14
100
AcDbSymbolTableRecord
100
AcDbLinetypeTableRecord
  2
BYBLOCK
 70
0
  3

 72
65
 73
0
 40
0.0
  0
LTYPE
  5
15
100
AcDbSymbolTableRecord
100
AcDbLinetypeTableRecord
  2
BYLAYER
 70
0
  3

 72
65
 73
0
 40
0.0
  0
LTYPE
  5
16
100
AcDbSymbolTableRecord
100
AcDbLinetypeTableRecord
  2
CONTINUOUS
 70
64
  3
Solid line
 72
65
 73
0
 40
0.0
  0
LTYPE
  5
1F5
100
AcDbSymbolTableRecord
100
AcDbLinetypeTableRecord
  2
CENTER
 70
64
  3
____ _ ____ _ ____ _ ____ _ ____ _ ____ _ ____
 72
65
 73
4
 40
0.6
 49
0.375
 74
0
 49
-0.075
 74
0
 49
0.075
 74
0
 49
-0.075
 74
0
  0
LTYPE
  5
1F6
100
AcDbSymbolTableRecord
100
AcDbLinetypeTableRecord
  2
HIDDEN
 70
64
  3
- - - - - - - - - - - - - - - - - - - -
 72
65
 73
2
 40
0.2
 49
0.1
 74
0
 49
-0.1
 74
0
  0
LTYPE
  5
1F7
100
AcDbSymbolTableRecord
100
AcDbLinetypeTableRecord
  2
PHANTOM
 70
64
  3
_____ _ _ _____ _ _ _____ _ _ _____
 72
65
 73
6
 40
0.8
 49
0.45
 74
0
 49
-0.05
 74
0
 49
0.1
 74
0
 49
-0.05
 74
0
 49
0.1
 74
0
 49
-0.05
 74
0
  0
LTYPE
  5
1F8
100
AcDbSymbolTableRecord
100
AcDbLinetypeTableRecord
  2
DOT
 70
64
  3
. . . . . . . . . . . . . . . . . . . .
 72
65
 73
2
 40
0.2
 49
0.1
 74
0
 49
-0.1
 74
0
  0
LTYPE
  5
1F9
100
AcDbSymbolTableRecord
100
AcDbLinetypeTableRecord
  2
DASHED
 70
64
  3
- - - - - - - - - - - - - - - - - - - -
 72
65
 73
2
 40
0.2
 49
0.1
 74
0
 49
-0.1
 74
0
  0
ENDTAB
  0
TABLE
  2
LAYER
  5
2
100
AcDbSymbolTable
 70
36
  0
LAYER
  5
10
100
AcDbSymbolTableRecord
100
AcDbLayerTableRecord
  2
0
 70
0
 62
7
  6
CONTINUOUS
370
-3
390
F
  0
LAYER
  5
1FA
100
AcDbSymbolTableRecord
100
AcDbLayerTableRecord
  2
DEFAULT_1
 70
0
 62
7
  6
CENTER
370
-3
390
F
  0
LAYER
  5
1FB
100
AcDbSymbolTableRecord
100
AcDbLayerTableRecord
  2
DEFAULT_2
 70
0
 62
8
  6
HIDDEN
370
-3
390
F
  0
LAYER
  5
1FC
100
AcDbSymbolTableRecord
100
AcDbLayerTableRecord
  2
DEFAULT_3
 70
0
 62
7
  6
PHANTOM
370
-3
390
F
  0
LAYER
  5
1FD
100
AcDbSymbolTableRecord
100
AcDbLayerTableRecord
  2
00_COMPONENTS
 70
0
 62
7
  6
CONTINUOUS
370
-3
390
F
  0
LAYER
  5
1FE
100
AcDbSymbolTableRecord
100
AcDbLayerTableRecord
  2
01_1_DEFAULT_DATUMS
 70
0
 62
7
  6
CONTINUOUS
370
-3
390
F
  0
LAYER
  5
1FF
100
AcDbSymbolTableRecord
100
AcDbLayerTableRecord
  2
01_PLANES
 70
0
 62
7
  6
CONTINUOUS
370
-3
390
F
  0
LAYER
  5
200
100
AcDbSymbolTableRecord
100
AcDbLayerTableRecord
  2
02_COORD_SYS
 70
0
 62
7
  6
CONTINUOUS
370
-3
390
F
  0
LAYER
  5
201
100
AcDbSymbolTableRecord
100
AcDbLayerTableRecord
  2
03_AXES
 70
0
 62
7
  6
CONTINUOUS
370
-3
390
F
  0
LAYER
  5
202
100
AcDbSymbolTableRecord
100
AcDbLayerTableRecord
  2
04_POINTS
 70
0
 62
7
  6
CONTINUOUS
370
-3
390
F
  0
LAYER
  5
203
100
AcDbSymbolTableRecord
100
AcDbLayerTableRecord
  2
05_CURVES
 70
0
 62
7
  6
CONTINUOUS
370
-3
390
F
  0
LAYER
  5
204
100
AcDbSymbolTableRecord
100
AcDbLayerTableRecord
  2
06_SURFS
 70
0
 62
7
  6
CONTINUOUS
370
-3
390
F
  0
LAYER
  5
205
100
AcDbSymbolTableRecord
100
AcDbLayerTableRecord
  2
07_COSMETICS
 70
0
 62
7
  6
CONTINUOUS
370
-3
390
F
  0
LAYER
  5
206
100
AcDbSymbolTableRecord
100
AcDbLayerTableRecord
  2
10_NOTES
 70
0
 62
7
  6
CONTINUOUS
370
-3
390
F
  0
LAYER
  5
207
100
AcDbSymbolTableRecord
100
AcDbLayerTableRecord
  2
11_NOTES_PUB
 70
0
 62
7
  6
CONTINUOUS
370
-3
390
F
  0
LAYER
  5
208
100
AcDbSymbolTableRecord
100
AcDbLayerTableRecord
  2
13_REF_GTOL
 70
0
 62
7
  6
CONTINUOUS
370
-3
390
F
  0
LAYER
  5
209
100
AcDbSymbolTableRecord
100
AcDbLayerTableRecord
  2
16_MISC
 70
0
 62
7
  6
CONTINUOUS
370
-3
390
F
  0
LAYER
  5
20A
100
AcDbSymbolTableRecord
100
AcDbLayerTableRecord
  2
17_NO_PRINT
 70
0
 62
7
  6
CONTINUOUS
370
-3
390
F
  0
LAYER
  5
20B
100
AcDbSymbolTableRecord
100
AcDbLayerTableRecord
  2
18_DATUM_CAMS_JOINTS
 70
0
 62
7
  6
CONTINUOUS
370
-3
390
F
  0
LAYER
  5
20C
100
AcDbSymbolTableRecord
100
AcDbLayerTableRecord
  2
19_DATUM_FUNCTIONAL
 70
0
 62
7
  6
CONTINUOUS
370
-3
390
F
  0
LAYER
  5
20D
100
AcDbSymbolTableRecord
100
AcDbLayerTableRecord
  2
20_DATUM_KINEMATIC_SCHEME
 70
0
 62
7
  6
CONTINUOUS
370
-3
390
F
  0
ENDTAB
  0
TABLE
  2
STYLE
  5
3
100
AcDbSymbolTable
 70
1
  0
STYLE
  5
11
100
AcDbSymbolTableRecord
100
AcDbTextStyleTableRecord
  2
STANDARD
 70
0
 40
0.0
 41
0.8
 50
0.0
 71
0
 42
0.2
  3
txt
  4

  0
STYLE
  5
20E
100
AcDbSymbolTableRecord
100
AcDbTextStyleTableRecord
  2
TEXTSTYLE_1
 70
0
 40
0.0
 41
0.8
 50
0.0
 71
0
 42
0.2
  3
gdt
  4

  0
ENDTAB
  0
TABLE
  2
VIEW
  5
6
100
AcDbSymbolTable
 70
0
  0
ENDTAB
  0
TABLE
  2
UCS
  5
7
100
AcDbSymbolTable
 70
0
  0
ENDTAB
  0
TABLE
  2
APPID
  5
9
100
AcDbSymbolTable
 70
1
  0
APPID
  5
20F
100
AcDbSymbolTableRecord
100
AcDbRegAppTableRecord
  2
ACAD
 70
0
  0
ENDTAB
  0
TABLE
  2
BLOCK_RECORD
  5
1
100
AcDbSymbolTable
 70
0
  0
BLOCK_RECORD
  5
210
100
AcDbSymbolTableRecord
100
AcDbBlockTableRecord
  2
*Model_Space
  0
BLOCK_RECORD
  5
211
100
AcDbSymbolTableRecord
100
AcDbBlockTableRecord
  2
*Paper_Space
  0
BLOCK_RECORD
  5
212
100
AcDbSymbolTableRecord
100
AcDbBlockTableRecord
  2
_FILLED
  0
ENDTAB
  0
TABLE
  2
DIMSTYLE
  5
A
100
AcDbSymbolTable
 70
1
100
AcDbDimStyleTable
 71
0
  0
DIMSTYLE
105
213
100
AcDbSymbolTableRecord
100
AcDbDimStyleTableRecord
  2
STANDARD
 70
0
  3

  4

 40
1.0
 41
7.7041548381
 42
1.0
 43
0.38
 44
1.0
 45
0.0
 46
0.0
 47
0.01
 48
0.01
140
10.7858167734
141
0.09
142
0.0
143
25.4
144
1.0
145
0.0
146
1.0
147
0.625
 71
1
 72
0
 73
0
 74
0
 75
0
 76
0
 77
1
 78
8
 79
2
170
0
171
1
172
0
173
0
174
0
175
0
176
0
177
0
178
0
270
2
179
2
271
2
272
2
273
2
274
2
275
0
280
0
281
0
282
0
283
1
284
8
285
0
286
0
287
3
288
0
340
11
278
46
341
212
342
212
343
212
344
212
  0
ENDTAB
  0
ENDSEC
  0
SECTION
  2
BLOCKS
  0
BLOCK
  5
20
100
AcDbEntity
  8
0
100
AcDbBlockBegin
  2
*Model_Space
 70
0
 10
0.0
 20
0.0
 30
0.0
  3
*Model_Space
  1

  0
ENDBLK
  5
21
100
AcDbEntity
  8
0
100
AcDbBlockEnd
  0
BLOCK
  5
1C
100
AcDbEntity
  8
0
100
AcDbBlockBegin
  2
*Paper_Space
 70
0
 10
0.0
 20
0.0
 30
0.0
  3
*Paper_Space
  1

  0
ENDBLK
  5
1D
100
AcDbEntity
  8
0
100
AcDbBlockEnd
  0
BLOCK
  5
214
100
AcDbEntity
  8
0
100
AcDbBlockBegin
  2
_FILLED
 70
64
 10
0.0
 20
0.0
  3
_FILLED
  1

  0
SOLID
  5
215
100
AcDbEntity
  8
0
  6
BYBLOCK
 62
0
100
AcDbTrace
 10
0.0
 20
0.0
 11
-1.0
 21
0.25
 12
-1.0
 22
-0.25
 13
-1.0
 23
-0.25
  0
ENDBLK
  5
216
100
AcDbEntity
  8
0
  6
BYBLOCK
 62
0
100
AcDbBlockEnd
  0
ENDSEC
  0
SECTION
  2
ENTITIES
  0
LINE
  5
217
100
AcDbEntity
  8
0
100
AcDbLine
 62
7
  6
CONTINUOUS
 10
75.4365947052
 20
459.6966601443
 11
75.4365947052
 21
461.1966601443
  0
LINE
  5
218
100
AcDbEntity
  8
0
100
AcDbLine
 62
7
  6
CONTINUOUS
 10
90.4365947052
 20
445.6974564711
 11
90.4365947052
 21
461.1966601443
  0
LINE
  5
219
100
AcDbEntity
  8
0
100
AcDbLine
 62
7
  6
CONTINUOUS
 10
113.9365947052
 20
461.1966601443
 11
113.9365947052
 21
461.3966601443
  0
LINE
  5
21A
100
AcDbEntity
  8
0
100
AcDbLine
 62
7
  6
CONTINUOUS
 10
126.9365947052
 20
461.1966601443
 11
126.9365947052
 21
461.3966601443
  0
LINE
  5
21B
100
AcDbEntity
  8
0
100
AcDbLine
 62
7
  6
CONTINUOUS
 10
504.4365947052
 20
445.6974564711
 11
90.4365947052
 21
445.6974564711
  0
LINE
  5
21C
100
AcDbEntity
  8
0
100
AcDbLine
 62
7
  6
CONTINUOUS
 10
569.4365947052
 20
450.8966601443
 11
570.662394115
 21
450.8966601443
  0
LINE
  5
21D
100
AcDbEntity
  8
0
100
AcDbLine
 62
7
  6
CONTINUOUS
 10
570.8431728543
 20
450.8966601443
 11
578.0300101639
 21
450.8966601443
  0
LINE
  5
21E
100
AcDbEntity
  8
0
100
AcDbLine
 62
7
  6
CONTINUOUS
 10
578.2108924411
 20
450.8966601443
 11
580.6623718343
 21
450.8966601443
  0
LINE
  5
21F
100
AcDbEntity
  8
0
100
AcDbLine
 62
7
  6
CONTINUOUS
 10
580.8431728795
 20
450.8966601443
 11
588.0300097234
 21
450.8966601443
  0
LINE
  5
220
100
AcDbEntity
  8
0
100
AcDbLine
 62
7
  6
CONTINUOUS
 10
588.2109377812
 20
450.8966601443
 11
589.4365947052
 21
450.8966601443
  0
LINE
  5
221
100
AcDbEntity
  8
0
100
AcDbLine
 62
7
  6
CONTINUOUS
 10
589.4365947052
 20
451.8966601443
 11
588.3806504868
 21
451.8966601443
  0
LINE
  5
222
100
AcDbEntity
  8
0
100
AcDbLine
 62
7
  6
CONTINUOUS
 10
570.4925920683
 20
451.8966601443
 11
569.4365947052
 21
451.8966601443
  0
LINE
  5
223
100
AcDbEntity
  8
0
100
AcDbLine
 62
7
  6
CONTINUOUS
 10
573.168383704
 20
451.8966601443
 11
575.7048929928
 21
451.8966601443
  0
LINE
  5
224
100
AcDbEntity
  8
0
100
AcDbLine
 62
7
  6
CONTINUOUS
 10
578.3806314297
 20
451.8966601443
 11
580.4925922995
 21
451.8966601443
  0
LINE
  5
225
100
AcDbEntity
  8
0
100
AcDbLine
 62
7
  6
CONTINUOUS
 10
583.1683617694
 20
451.8966601443
 11
585.7049425095
 21
451.8966601443
  0
LINE
  5
226
100
AcDbEntity
  8
0
100
AcDbLine
 62
7
  6
CONTINUOUS
 10
588.3898317924
 20
452.0087376626
 11
587.5324180344
 21
452.0086448821
  0
LINE
  5
227
100
AcDbEntity
  8
0
100
AcDbLine
 62
7
  6
CONTINUOUS
 10
578.3898265303
 20
452.0086940088
 11
577.5324187678
 21
452.0086298299
  0
LINE
  5
228
100
AcDbEntity
  8
0
100
AcDbLine
 62
7
  6
CONTINUOUS
 10
569.2365947052
 20
452.8966601443
 11
570.6905099071
 21
452.8966601443
  0
LINE
  5
229
100
AcDbEntity
  8
0
100
AcDbLine
 62
7
  6
CONTINUOUS
 10
571.6386413407
 20
452.8966601443
 11
577.2344825019
 21
452.8966601443
  0
LINE
  5
22A
100
AcDbEntity
  8
0
100
AcDbLine
 62
7
  6
CONTINUOUS
 10
578.1826600667
 20
452.8966601443
 11
580.6905164612
 21
452.8966601443
  0
LINE
  5
22B
100
AcDbEntity
  8
0
100
AcDbLine
 62
7
  6
CONTINUOUS
 10
581.6386520121
 20
452.8966601443
 11
587.2344590295
 21
452.8966601443
  0
LINE
  5
22C
100
AcDbEntity
  8
0
100
AcDbLine
 62
7
  6
CONTINUOUS
 10
588.1826473962
 20
452.8966601443
 11
589.6365947052
 21
452.8966601443
  0
LINE
  5
22D
100
AcDbEntity
  8
0
100
AcDbLine
 62
7
  6
CONTINUOUS
 10
585.3196169268
 20
453.9511457295
 11
584.5535724837
 21
453.9511457295
  0
LINE
  5
22E
100
AcDbEntity
  8
0
100
AcDbLine
 62
7
  6
CONTINUOUS
 10
574.3196169268
 20
453.9511457295
 11
573.5535724837
 21
453.9511457295
  0
LINE
  5
22F
100
AcDbEntity
  8
0
100
AcDbLine
 62
7
  6
CONTINUOUS
 10
586.4029023634
 20
454.1694207706
 11
585.6368585092
 21
454.1694207706
  0
LINE
  5
230
100
AcDbEntity
  8
0
100
AcDbLine
 62
7
  6
CONTINUOUS
 10
575.4029023634
 20
454.1694207706
 11
574.6368585092
 21
454.1694207706
  0
LINE
  5
231
100
AcDbEntity
  8
0
100
AcDbLine
 62
7
  6
CONTINUOUS
 10
584.2363309187
 20
454.1694263326
 11
583.4702870471
 21
454.1694263326
  0
LINE
  5
232
100
AcDbEntity
  8
0
100
AcDbLine
 62
7
  6
CONTINUOUS
 10
573.2363309187
 20
454.1694263326
 11
572.4702870471
 21
454.1694263326
  0
LINE
  5
233
100
AcDbEntity
  8
0
100
AcDbLine
 62
7
  6
CONTINUOUS
 10
574.074112111
 20
454.4787802852
 11
573.799077136
 21
454.4787803277
  0
LINE
  5
234
100
AcDbEntity
  8
0
100
AcDbLine
 62
7
  6
CONTINUOUS
 10
585.074112111
 20
454.4787802852
 11
584.799077136
 21
454.4787803277
  0
LINE
  5
235
100
AcDbEntity
  8
0
100
AcDbLine
 62
7
  6
CONTINUOUS
 10
573.7990732577
 20
455.3448067402
 11
574.0741161528
 21
455.3448067402
  0
LINE
  5
236
100
AcDbEntity
  8
0
100
AcDbLine
 62
7
  6
CONTINUOUS
 10
584.7990732577
 20
455.3448067402
 11
585.0741161528
 21
455.3448067402
  0
LINE
  5
237
100
AcDbEntity
  8
0
100
AcDbLine
 62
7
  6
CONTINUOUS
 10
585.0741161528
 20
457.190106202
 11
584.7990732577
 21
457.190106202
  0
LINE
  5
238
100
AcDbEntity
  8
0
100
AcDbLine
 62
7
  6
CONTINUOUS
 10
574.0741161528
 20
457.190106202
 11
573.7990732577
 21
457.190106202
  0
LINE
  5
239
100
AcDbEntity
  8
0
100
AcDbLine
 62
7
  6
CONTINUOUS
 10
576.2365947052
 20
457.1966601443
 11
577.4366472929
 21
457.1966601443
  0
LINE
  5
23A
100
AcDbEntity
  8
0
100
AcDbLine
 62
7
  6
CONTINUOUS
 10
577.4366472929
 20
457.1966601443
 11
581.4365421176
 21
457.1966601443
  0
LINE
  5
23B
100
AcDbEntity
  8
0
100
AcDbLine
 62
7
  6
CONTINUOUS
 10
581.4365421176
 20
457.1966601443
 11
582.6365947052
 21
457.1966601443
  0
LINE
  5
23C
100
AcDbEntity
  8
0
100
AcDbLine
 62
7
  6
CONTINUOUS
 10
573.7990772995
 20
458.056132657
 11
574.0741122745
 21
458.0561326145
  0
LINE
  5
23D
100
AcDbEntity
  8
0
100
AcDbLine
 62
7
  6
CONTINUOUS
 10
584.7990772995
 20
458.056132657
 11
585.0741122745
 21
458.0561326145
  0
LINE
  5
23E
100
AcDbEntity
  8
0
100
AcDbLine
 62
7
  6
CONTINUOUS
 10
576.4365947052
 20
458.1966601443
 11
582.4365947052
 21
458.1966601443
  0
LINE
  5
23F
100
AcDbEntity
  8
0
100
AcDbLine
 62
7
  6
CONTINUOUS
 10
583.4702870471
 20
458.365488972
 11
584.2363309012
 21
458.3654949174
  0
LINE
  5
240
100
AcDbEntity
  8
0
100
AcDbLine
 62
7
  6
CONTINUOUS
 10
573.2363309012
 20
458.3654949174
 11
572.4702870471
 21
458.365488972
  0
LINE
  5
241
100
AcDbEntity
  8
0
100
AcDbLine
 62
7
  6
CONTINUOUS
 10
574.6368584918
 20
458.3654866096
 11
575.4029023634
 21
458.3654866096
  0
LINE
  5
242
100
AcDbEntity
  8
0
100
AcDbLine
 62
7
  6
CONTINUOUS
 10
585.6368584918
 20
458.3654866096
 11
586.4029023634
 21
458.3654866096
  0
LINE
  5
243
100
AcDbEntity
  8
0
100
AcDbLine
 62
7
  6
CONTINUOUS
 10
573.5535724837
 20
458.5837672127
 11
574.3196169268
 21
458.5837672127
  0
LINE
  5
244
100
AcDbEntity
  8
0
100
AcDbLine
 62
7
  6
CONTINUOUS
 10
584.5535724837
 20
458.5837672127
 11
585.3196169268
 21
458.5837672127
  0
LINE
  5
245
100
AcDbEntity
  8
0
100
AcDbLine
 62
7
  6
CONTINUOUS
 10
504.4365947052
 20
458.6966601443
 11
90.4365947052
 21
458.6966601443
  0
LINE
  5
246
100
AcDbEntity
  8
0
100
AcDbLine
 62
7
  6
CONTINUOUS
 10
589.6365947052
 20
459.1966601443
 11
582.4365947052
 21
459.1966601443
  0
LINE
  5
247
100
AcDbEntity
  8
0
100
AcDbLine
 62
7
  6
CONTINUOUS
 10
576.4365947052
 20
459.1966601443
 11
569.2365947052
 21
459.1966601443
  0
LINE
  5
248
100
AcDbEntity
  8
0
100
AcDbLine
 62
7
  6
CONTINUOUS
 10
519.4365947052
 20
459.6966601443
 11
504.4365947052
 21
459.6966601443
  0
LINE
  5
249
100
AcDbEntity
  8
0
100
AcDbLine
 62
7
  6
CONTINUOUS
 10
90.4365947052
 20
459.6966601443
 11
75.4365947052
 21
459.6966601443
  0
LINE
  5
24A
100
AcDbEntity
  8
0
100
AcDbLine
 62
7
  6
CONTINUOUS
 10
569.4365947052
 20
460.1966601443
 11
589.4365947052
 21
460.1966601443
  0
LINE
  5
24B
100
AcDbEntity
  8
0
100
AcDbLine
 62
7
  6
CONTINUOUS
 10
581.3408142202
 20
452.0084123864
 11
580.4834016305
 21
452.0084751781
  0
LINE
  5
24C
100
AcDbEntity
  8
0
100
AcDbLine
 62
7
  6
CONTINUOUS
 10
571.3408197718
 20
452.0083909031
 11
570.4834047997
 21
452.0084677743
  0
LINE
  5
24D
100
AcDbEntity
  8
0
100
AcDbLine
 62
7
  6
CONTINUOUS
 10
75.4365947052
 20
461.1966601443
 11
519.4365947052
 21
461.1966601443
  0
LINE
  5
24E
100
AcDbEntity
  8
0
100
AcDbLine
 62
7
  6
CONTINUOUS
 10
569.4365947052
 20
461.1966601443
 11
589.4365947052
 21
461.1966601443
  0
LINE
  5
24F
100
AcDbEntity
  8
0
100
AcDbLine
 62
7
  6
CONTINUOUS
 10
575.4365947052
 20
461.2466601443
 11
583.4365947052
 21
461.2466601443
  0
LINE
  5
250
100
AcDbEntity
  8
0
100
AcDbLine
 62
7
  6
CONTINUOUS
 10
480.9365947052
 20
461.3966601443
 11
467.9365947052
 21
461.3966601443
  0
LINE
  5
251
100
AcDbEntity
  8
0
100
AcDbLine
 62
7
  6
CONTINUOUS
 10
126.9365947052
 20
461.3966601443
 11
113.9365947052
 21
461.3966601443
  0
LINE
  5
252
100
AcDbEntity
  8
0
100
AcDbLine
 62
7
  6
CONTINUOUS
 10
583.4365947052
 20
462.9966601443
 11
575.4365947052
 21
462.9966601443
  0
LINE
  5
253
100
AcDbEntity
  8
0
100
AcDbLine
 62
7
  6
CONTINUOUS
 10
574.4366603876
 20
467.1966601443
 11
584.4365290229
 21
467.1966601443
  0
LINE
  5
254
100
AcDbEntity
  8
0
100
AcDbLine
 62
7
  6
CONTINUOUS
 10
573.4365947052
 20
468.1966601443
 11
585.4365947052
 21
468.1966601443
  0
LINE
  5
255
100
AcDbEntity
  8
0
100
AcDbLine
 62
7
  6
CONTINUOUS
 10
585.4365947052
 20
470.7966601443
 11
573.4365947052
 21
470.7966601443
  0
LINE
  5
256
100
AcDbEntity
  8
0
100
AcDbLine
 62
7
  6
CONTINUOUS
 10
580.6499952017
 20
471.7966601443
 11
578.2231942087
 21
471.7966601443
  0
LINE
  5
257
100
AcDbEntity
  8
0
100
AcDbLine
 62
7
  6
CONTINUOUS
 10
577.667217424
 20
471.7966601443
 11
576.3865947052
 21
471.7964101434
  0
LINE
  5
258
100
AcDbEntity
  8
0
100
AcDbLine
 62
7
  6
CONTINUOUS
 10
581.2059719865
 20
471.7966601443
 11
582.4865947052
 21
471.7964101434
  0
LINE
  5
259
100
AcDbEntity
  8
0
100
AcDbLine
 62
7
  6
CONTINUOUS
 10
587.5324360043
 20
452.008633063
 11
586.8493609891
 21
452.2673051405
  0
LINE
  5
25A
100
AcDbEntity
  8
0
100
AcDbLine
 62
7
  6
CONTINUOUS
 10
587.4700929818
 20
453.2816963118
 11
588.1531637186
 21
453.0230172477
  0
LINE
  5
25B
100
AcDbEntity
  8
0
100
AcDbLine
 62
7
  6
CONTINUOUS
 10
577.5324382639
 20
452.0086166017
 11
576.8493619798
 21
452.2673161747
  0
LINE
  5
25C
100
AcDbEntity
  8
0
100
AcDbLine
 62
7
  6
CONTINUOUS
 10
577.4701273726
 20
453.2816979421
 11
578.1531900004
 21
453.0229760568
  0
LINE
  5
25D
100
AcDbEntity
  8
0
100
AcDbLine
 62
7
  6
CONTINUOUS
 10
571.4029884313
 20
453.2817013501
 11
570.7199431642
 21
453.0228878108
  0
LINE
  5
25E
100
AcDbEntity
  8
0
100
AcDbLine
 62
7
  6
CONTINUOUS
 10
571.3408453616
 20
452.0084194847
 11
572.0238877289
 21
452.2672377706
  0
LINE
  5
25F
100
AcDbEntity
  8
0
100
AcDbLine
 62
7
  6
CONTINUOUS
 10
581.403005321
 20
453.2817005774
 11
580.7199560698
 21
453.02290807
  0
LINE
  5
260
100
AcDbEntity
  8
0
100
AcDbLine
 62
7
  6
CONTINUOUS
 10
581.3408388295
 20
452.0084400596
 11
582.0238821421
 21
452.267242277
  0
LINE
  5
261
100
AcDbEntity
  8
0
100
AcDbLine
 62
7
  6
CONTINUOUS
 10
467.9365947052
 20
461.1966601443
 11
467.9365947052
 21
461.3966601443
  0
LINE
  5
262
100
AcDbEntity
  8
0
100
AcDbLine
 62
7
  6
CONTINUOUS
 10
573.5535724837
 20
458.5837672127
 11
573.2363303123
 21
458.3654825922
  0
LINE
  5
263
100
AcDbEntity
  8
0
100
AcDbLine
 62
7
  6
CONTINUOUS
 10
573.7990772995
 20
458.056132657
 11
573.9365947052
 21
458.1507545108
  0
LINE
  5
264
100
AcDbEntity
  8
0
100
AcDbLine
 62
7
  6
CONTINUOUS
 10
573.2363303471
 20
454.1694302329
 11
573.5535724837
 21
453.9511457295
  0
LINE
  5
265
100
AcDbEntity
  8
0
100
AcDbLine
 62
7
  6
CONTINUOUS
 10
573.9365947052
 20
454.3841584314
 11
573.799077136
 21
454.4787803277
  0
LINE
  5
266
100
AcDbEntity
  8
0
100
AcDbLine
 62
7
  6
CONTINUOUS
 10
573.9365947052
 20
458.1507545108
 11
574.0741122745
 21
458.0561326145
  0
LINE
  5
267
100
AcDbEntity
  8
0
100
AcDbLine
 62
7
  6
CONTINUOUS
 10
574.6368590633
 20
458.3654827093
 11
574.3196169268
 21
458.5837672127
  0
LINE
  5
268
100
AcDbEntity
  8
0
100
AcDbLine
 62
7
  6
CONTINUOUS
 10
584.2363303471
 20
454.1694302329
 11
584.5535724837
 21
453.9511457295
  0
LINE
  5
269
100
AcDbEntity
  8
0
100
AcDbLine
 62
7
  6
CONTINUOUS
 10
584.9365947052
 20
454.3841584314
 11
584.799077136
 21
454.4787803277
  0
LWPOLYLINE
  5
26A
100
AcDbEntity
  8
0
100
AcDbPolyline
 62
7
  6
CONTINUOUS
 90
6
 70
0
 10
572.837440637
 20
450.4817356648
 10
573.286965896
 20
450.1475268098
 10
573.8510185782
 20
450.0013858631
 10
574.1444570435
 20
450.0138985715
 10
574.6895164035
 20
450.2027307744
 10
575.0362109875
 20
450.482078823
  0
LINE
  5
26B
100
AcDbEntity
  8
0
100
AcDbLine
 62
7
  6
CONTINUOUS
 10
480.9365947052
 20
461.1966601443
 11
480.9365947052
 21
461.3966601443
  0
LINE
  5
26C
100
AcDbEntity
  8
0
100
AcDbLine
 62
7
  6
CONTINUOUS
 10
574.074112111
 20
454.4787802852
 11
573.9365947052
 21
454.3841584314
  0
LINE
  5
26D
100
AcDbEntity
  8
0
100
AcDbLine
 62
7
  6
CONTINUOUS
 10
574.3196169268
 20
453.9511457295
 11
574.6368590982
 21
454.16943035
  0
LINE
  5
26E
100
AcDbEntity
  8
0
100
AcDbLine
 62
7
  6
CONTINUOUS
 10
584.5535724837
 20
458.5837672127
 11
584.2363303123
 21
458.3654825922
  0
LINE
  5
26F
100
AcDbEntity
  8
0
100
AcDbLine
 62
7
  6
CONTINUOUS
 10
584.7990772995
 20
458.056132657
 11
584.9365947052
 21
458.1507545108
  0
LINE
  5
270
100
AcDbEntity
  8
0
100
AcDbLine
 62
7
  6
CONTINUOUS
 10
585.074112111
 20
454.4787802852
 11
584.9365947052
 21
454.3841584314
  0
LINE
  5
271
100
AcDbEntity
  8
0
100
AcDbLine
 62
7
  6
CONTINUOUS
 10
585.3196169268
 20
453.9511457295
 11
585.6368590982
 21
454.16943035
  0
LINE
  5
272
100
AcDbEntity
  8
0
100
AcDbLine
 62
7
  6
CONTINUOUS
 10
584.9365947052
 20
458.1507545108
 11
585.0741122745
 21
458.0561326145
  0
LINE
  5
273
100
AcDbEntity
  8
0
100
AcDbLine
 62
7
  6
CONTINUOUS
 10
585.6368590633
 20
458.3654827093
 11
585.3196169268
 21
458.5837672127
  0
LWPOLYLINE
  5
274
100
AcDbEntity
  8
0
100
AcDbPolyline
 62
7
  6
CONTINUOUS
 90
6
 70
0
 10
583.8373983731
 20
450.4817814868
 10
584.286965896
 20
450.1475268098
 10
584.8510185782
 20
450.0013858631
 10
585.1444570436
 20
450.0138985715
 10
585.6895164036
 20
450.2027307745
 10
586.0362109875
 20
450.482078823
  0
LINE
  5
275
100
AcDbEntity
  8
0
100
AcDbLine
 62
7
  6
CONTINUOUS
 10
504.4365947052
 20
445.6974564711
 11
504.4365947052
 21
461.1966601443
  0
LINE
  5
276
100
AcDbEntity
  8
0
100
AcDbLine
 62
7
  6
CONTINUOUS
 10
577.4365947052
 20
457.1966601443
 11
576.4365947052
 21
458.1966601443
  0
LINE
  5
277
100
AcDbEntity
  8
0
100
AcDbLine
 62
7
  6
CONTINUOUS
 10
572.837440637
 20
450.4817356648
 11
572.8376887708
 21
450.4814674184
  0
LINE
  5
278
100
AcDbEntity
  8
0
100
AcDbLine
 62
7
  6
CONTINUOUS
 10
519.4365947052
 20
459.6966601443
 11
519.4365947052
 21
461.1966601443
  0
LINE
  5
279
100
AcDbEntity
  8
0
100
AcDbLine
 62
7
  6
CONTINUOUS
 10
572.7875280405
 20
461.574733238
 11
572.4702870471
 21
461.1966601443
  0
LINE
  5
27A
100
AcDbEntity
  8
0
100
AcDbLine
 62
7
  6
CONTINUOUS
 10
573.7990732577
 20
461.1966601443
 11
573.9365947052
 21
461.3605518235
  0
LINE
  5
27B
100
AcDbEntity
  8
0
100
AcDbLine
 62
7
  6
CONTINUOUS
 10
574.0741161528
 20
450.8966601443
 11
573.9365947052
 21
450.7327684651
  0
LINE
  5
27C
100
AcDbEntity
  8
0
100
AcDbLine
 62
7
  6
CONTINUOUS
 10
583.7875280405
 20
461.574733238
 11
583.4702870471
 21
461.1966601443
  0
LWPOLYLINE
  5
27D
100
AcDbEntity
  8
0
100
AcDbPolyline
 62
7
  6
CONTINUOUS
 90
4
 70
0
 10
575.0360371049
 20
450.4816989536
 10
575.1664277559
 20
450.6254423717
 10
575.3045104409
 20
450.7823736399
 10
575.4026946638
 20
450.8968362998
  0
LINE
  5
27E
100
AcDbEntity
  8
0
100
AcDbLine
 62
7
  6
CONTINUOUS
 10
575.0363050338
 20
450.4819904129
 11
575.0360371049
 21
450.4816989536
  0
LINE
  5
27F
100
AcDbEntity
  8
0
100
AcDbLine
 62
7
  6
CONTINUOUS
 10
581.4365947052
 20
457.1966601443
 11
582.4365947052
 21
458.1966601443
  0
LINE
  5
280
100
AcDbEntity
  8
0
100
AcDbLine
 62
7
  6
CONTINUOUS
 10
583.8375124704
 20
450.4813079808
 11
583.8372607381
 21
450.4815817634
  0
LWPOLYLINE
  5
281
100
AcDbEntity
  8
0
100
AcDbPolyline
 62
7
  6
CONTINUOUS
 90
4
 70
0
 10
572.4704947536
 20
450.8968362916
 10
572.5707855522
 20
450.779943726
 10
572.7089013796
 20
450.6230483837
 10
572.8375088305
 20
450.4813119319
  0
LWPOLYLINE
  5
282
100
AcDbEntity
  8
0
100
AcDbPolyline
 62
7
  6
CONTINUOUS
 90
4
 70
0
 10
583.4704947536
 20
450.8968362916
 10
583.5707865198
 20
450.7799426101
 10
583.7089034652
 20
450.6230460508
 10
583.8375124704
 20
450.4813079808
  0
LINE
  5
283
100
AcDbEntity
  8
0
100
AcDbLine
 62
7
  6
CONTINUOUS
 10
573.9365947052
 20
450.7327684651
 11
573.7990732577
 21
450.8966601443
  0
LINE
  5
284
100
AcDbEntity
  8
0
100
AcDbLine
 62
7
  6
CONTINUOUS
 10
573.9365947052
 20
461.3605518235
 11
574.0741161528
 21
461.1966601443
  0
LINE
  5
285
100
AcDbEntity
  8
0
100
AcDbLine
 62
7
  6
CONTINUOUS
 10
575.4029023634
 20
461.1966601443
 11
575.0856613699
 21
461.574733238
  0
LINE
  5
286
100
AcDbEntity
  8
0
100
AcDbLine
 62
7
  6
CONTINUOUS
 10
584.9365947052
 20
450.7327684651
 11
584.7990732577
 21
450.8966601443
  0
LINE
  5
287
100
AcDbEntity
  8
0
100
AcDbLine
 62
7
  6
CONTINUOUS
 10
584.7990732577
 20
461.1966601443
 11
584.9365947052
 21
461.3605518235
  0
LINE
  5
288
100
AcDbEntity
  8
0
100
AcDbLine
 62
7
  6
CONTINUOUS
 10
585.0741161528
 20
450.8966601443
 11
584.9365947052
 21
450.7327684651
  0
LWPOLYLINE
  5
289
100
AcDbEntity
  8
0
100
AcDbPolyline
 62
7
  6
CONTINUOUS
 90
4
 70
0
 10
586.0360371049
 20
450.4816989536
 10
586.1664277563
 20
450.6254423722
 10
586.3045104414
 20
450.7823736404
 10
586.4026946638
 20
450.8968362998
  0
LINE
  5
28A
100
AcDbEntity
  8
0
100
AcDbLine
 62
7
  6
CONTINUOUS
 10
586.0363050338
 20
450.4819904129
 11
586.0360371049
 21
450.4816989536
  0
LINE
  5
28B
100
AcDbEntity
  8
0
100
AcDbLine
 62
7
  6
CONTINUOUS
 10
584.9365947052
 20
461.3605518235
 11
585.0741161528
 21
461.1966601443
  0
LINE
  5
28C
100
AcDbEntity
  8
0
100
AcDbLine
 62
7
  6
CONTINUOUS
 10
586.4029023634
 20
461.1966601443
 11
586.0856613699
 21
461.574733238
  0
LINE
  5
28D
100
AcDbEntity
  8
0
100
AcDbLine
 62
7
  6
CONTINUOUS
 10
572.0238721926
 20
452.2672185127
 11
571.4029884313
 21
453.2817013501
  0
LINE
  5
28E
100
AcDbEntity
  8
0
100
AcDbLine
 62
7
  6
CONTINUOUS
 10
570.7199431642
 20
453.0228878108
 11
571.3408197718
 21
452.0083909031
  0
LINE
  5
28F
100
AcDbEntity
  8
0
100
AcDbLine
 62
7
  6
CONTINUOUS
 10
572.3957118974
 20
451.9871193412
 11
571.9900358411
 21
451.1680490111
  0
LINE
  5
290
100
AcDbEntity
  8
0
100
AcDbLine
 62
7
  6
CONTINUOUS
 10
577.4701273726
 20
453.2816979421
 11
576.8493340389
 21
452.2673372331
  0
LINE
  5
291
100
AcDbEntity
  8
0
100
AcDbLine
 62
7
  6
CONTINUOUS
 10
577.5324187678
 20
452.0086298299
 11
578.1531900004
 21
453.0229760568
  0
LINE
  5
292
100
AcDbEntity
  8
0
100
AcDbLine
 62
7
  6
CONTINUOUS
 10
587.4700929818
 20
453.2816963118
 11
586.849324744
 21
452.2673339043
  0
LINE
  5
293
100
AcDbEntity
  8
0
100
AcDbLine
 62
7
  6
CONTINUOUS
 10
587.5324180344
 20
452.0086448821
 11
588.1531637186
 21
453.0230172477
  0
LINE
  5
294
100
AcDbEntity
  8
0
100
AcDbLine
 62
7
  6
CONTINUOUS
 10
580.7199560698
 20
453.02290807
 11
581.3408142202
 21
452.0084123864
  0
LINE
  5
295
100
AcDbEntity
  8
0
100
AcDbLine
 62
7
  6
CONTINUOUS
 10
582.0238692272
 20
452.2672254482
 11
581.403005321
 21
453.2817005774
  0
LINE
  5
296
100
AcDbEntity
  8
0
100
AcDbLine
 62
7
  6
CONTINUOUS
 10
586.4775989193
 20
451.9871751747
 11
586.8833902123
 21
451.1682184084
  0
LINE
  5
297
100
AcDbEntity
  8
0
100
AcDbLine
 62
7
  6
CONTINUOUS
 10
576.4775719056
 20
451.9871627473
 11
576.8833383185
 21
451.1681812369
  0
LINE
  5
298
100
AcDbEntity
  8
0
100
AcDbLine
 62
7
  6
CONTINUOUS
 10
575.0267941952
 20
450.8966601443
 11
575.0246722788
 21
451.8966594174
  0
LINE
  5
299
100
AcDbEntity
  8
0
100
AcDbLine
 62
7
  6
CONTINUOUS
 10
585.0267941952
 20
450.8966601443
 11
585.0246722788
 21
451.8966594174
  0
LINE
  5
29A
100
AcDbEntity
  8
0
100
AcDbLine
 62
7
  6
CONTINUOUS
 10
569.2365947052
 20
459.1966601443
 11
569.2365947052
 21
452.8966601443
  0
LINE
  5
29B
100
AcDbEntity
  8
0
100
AcDbLine
 62
7
  6
CONTINUOUS
 10
569.4365947052
 20
450.8966601443
 11
569.4365947052
 21
452.8966601443
  0
LINE
  5
29C
100
AcDbEntity
  8
0
100
AcDbLine
 62
7
  6
CONTINUOUS
 10
569.4365947052
 20
459.1966601443
 11
569.4365947052
 21
461.1966601443
  0
LINE
  5
29D
100
AcDbEntity
  8
0
100
AcDbLine
 62
7
  6
CONTINUOUS
 10
569.729487924
 20
451.8966601443
 11
569.729487924
 21
450.8966601443
  0
LINE
  5
29E
100
AcDbEntity
  8
0
100
AcDbLine
 62
7
  6
CONTINUOUS
 10
570.6623168661
 20
451.1679907191
 11
570.6623210059
 21
450.896660213
  0
LINE
  5
29F
100
AcDbEntity
  8
0
100
AcDbLine
 62
7
  6
CONTINUOUS
 10
571.4365947052
 20
461.1966601443
 11
571.4365947052
 21
460.1966601443
  0
LINE
  5
2A0
100
AcDbEntity
  8
0
100
AcDbLine
 62
7
  6
CONTINUOUS
 10
572.4702870471
 20
451.9617872259
 11
572.4702870471
 21
454.169426332
  0
LINE
  5
2A1
100
AcDbEntity
  8
0
100
AcDbLine
 62
7
  6
CONTINUOUS
 10
572.4702870471
 20
458.3654866102
 11
572.4702870471
 21
460.1966601443
  0
LINE
  5
2A2
100
AcDbEntity
  8
0
100
AcDbLine
 62
7
  6
CONTINUOUS
 10
573.2363314902
 20
460.1966601443
 11
573.2363303123
 21
458.3654825922
  0
LINE
  5
2A3
100
AcDbEntity
  8
0
100
AcDbLine
 62
7
  6
CONTINUOUS
 10
573.2363303471
 20
454.1694302329
 11
573.2363314902
 21
451.8966601443
  0
LINE
  5
2A4
100
AcDbEntity
  8
0
100
AcDbLine
 62
7
  6
CONTINUOUS
 10
573.4365947052
 20
470.7966601443
 11
573.4365947052
 21
468.1966601443
  0
LINE
  5
2A5
100
AcDbEntity
  8
0
100
AcDbLine
 62
7
  6
CONTINUOUS
 10
573.5535724837
 20
451.8966601443
 11
573.5535724837
 21
453.9511457295
  0
LINE
  5
2A6
100
AcDbEntity
  8
0
100
AcDbLine
 62
7
  6
CONTINUOUS
 10
573.5535724837
 20
458.5837672127
 11
573.5535724837
 21
460.1966601443
  0
LINE
  5
2A7
100
AcDbEntity
  8
0
100
AcDbLine
 62
7
  6
CONTINUOUS
 10
573.7990732561
 20
458.0561326358
 11
573.7990732561
 21
457.1901062019
  0
LINE
  5
2A8
100
AcDbEntity
  8
0
100
AcDbLine
 62
7
  6
CONTINUOUS
 10
573.7990707681
 20
455.3448067403
 11
573.7990707681
 21
454.4787803064
  0
LINE
  5
2A9
100
AcDbEntity
  8
0
100
AcDbLine
 62
7
  6
CONTINUOUS
 10
574.0741161544
 20
454.4787803064
 11
574.0741161544
 21
455.3448067403
  0
LINE
  5
2AA
100
AcDbEntity
  8
0
100
AcDbLine
 62
7
  6
CONTINUOUS
 10
574.0741186424
 20
457.1901062019
 11
574.0741186424
 21
458.0561326358
  0
LINE
  5
2AB
100
AcDbEntity
  8
0
100
AcDbLine
 62
7
  6
CONTINUOUS
 10
574.3196169268
 20
460.1966601443
 11
574.3196169268
 21
458.5837672127
  0
LINE
  5
2AC
100
AcDbEntity
  8
0
100
AcDbLine
 62
7
  6
CONTINUOUS
 10
574.3196169268
 20
453.9511457295
 11
574.3196169268
 21
451.8966601443
  0
LINE
  5
2AD
100
AcDbEntity
  8
0
100
AcDbLine
 62
7
  6
CONTINUOUS
 10
574.6368579203
 20
451.8966601443
 11
574.6368590982
 21
454.16943035
  0
LINE
  5
2AE
100
AcDbEntity
  8
0
100
AcDbLine
 62
7
  6
CONTINUOUS
 10
574.6368590633
 20
458.3654827093
 11
574.6368579203
 21
460.1966601443
  0
LWPOLYLINE
  5
2AF
100
AcDbEntity
  8
0
100
AcDbPolyline
 62
7
  6
CONTINUOUS
 90
3
 70
0
 10
575.0258448825
 20
451.2316658505
 10
575.0258448825
 20
451.564999238
 10
575.0248955697
 20
451.8966601443
  0
LINE
  5
2B0
100
AcDbEntity
  8
0
100
AcDbLine
 62
7
  6
CONTINUOUS
 10
575.4029023634
 20
460.1966601443
 11
575.4029023633
 21
458.3654866104
  0
LINE
  5
2B1
100
AcDbEntity
  8
0
100
AcDbLine
 62
7
  6
CONTINUOUS
 10
575.4029023633
 20
454.169426332
 11
575.4029023634
 21
451.8971118891
  0
LINE
  5
2B2
100
AcDbEntity
  8
0
100
AcDbLine
 62
7
  6
CONTINUOUS
 10
575.4365947052
 20
461.2466601443
 11
575.4365947052
 21
462.9966601443
  0
LINE
  5
2B3
100
AcDbEntity
  8
0
100
AcDbLine
 62
7
  6
CONTINUOUS
 10
576.2365947052
 20
457.1966601443
 11
576.2365947052
 21
467.1966601443
  0
LINE
  5
2B4
100
AcDbEntity
  8
0
100
AcDbLine
 62
7
  6
CONTINUOUS
 10
576.4365947052
 20
467.1966601443
 11
576.4365947052
 21
462.9966601443
  0
LINE
  5
2B5
100
AcDbEntity
  8
0
100
AcDbLine
 62
7
  6
CONTINUOUS
 10
576.4365947052
 20
462.9966601443
 11
576.4365947052
 21
460.1966601443
  0
LINE
  5
2B6
100
AcDbEntity
  8
0
100
AcDbLine
 62
7
  6
CONTINUOUS
 10
576.4365947052
 20
460.1966601443
 11
576.4365947052
 21
458.1966601443
  0
LINE
  5
2B7
100
AcDbEntity
  8
0
100
AcDbLine
 62
7
  6
CONTINUOUS
 10
578.2108684001
 20
451.1681483304
 11
578.2108684022
 21
450.896660152
  0
LINE
  5
2B8
100
AcDbEntity
  8
0
100
AcDbLine
 62
7
  6
CONTINUOUS
 10
578.4365947052
 20
451.8966601443
 11
578.4365947052
 21
450.8966601443
  0
LINE
  5
2B9
100
AcDbEntity
  8
0
100
AcDbLine
 62
7
  6
CONTINUOUS
 10
580.4365947052
 20
451.8966601443
 11
580.4365947052
 21
450.8966601443
  0
LINE
  5
2BA
100
AcDbEntity
  8
0
100
AcDbLine
 62
7
  6
CONTINUOUS
 10
580.6623169758
 20
451.1680078122
 11
580.6623210224
 21
450.8966601327
  0
LINE
  5
2BB
100
AcDbEntity
  8
0
100
AcDbLine
 62
7
  6
CONTINUOUS
 10
582.4365947052
 20
467.1966601443
 11
582.4365947052
 21
462.9966601443
  0
LINE
  5
2BC
100
AcDbEntity
  8
0
100
AcDbLine
 62
7
  6
CONTINUOUS
 10
582.4365947052
 20
462.9966601443
 11
582.4365947052
 21
460.1966601443
  0
LINE
  5
2BD
100
AcDbEntity
  8
0
100
AcDbLine
 62
7
  6
CONTINUOUS
 10
582.4365947052
 20
460.1966601443
 11
582.4365947052
 21
458.1966601443
  0
LINE
  5
2BE
100
AcDbEntity
  8
0
100
AcDbLine
 62
7
  6
CONTINUOUS
 10
582.6365947052
 20
457.1966601443
 11
582.6365947052
 21
467.1966601443
  0
LINE
  5
2BF
100
AcDbEntity
  8
0
100
AcDbLine
 62
7
  6
CONTINUOUS
 10
583.4365947052
 20
461.2466601443
 11
583.4365947052
 21
462.9966601443
  0
LINE
  5
2C0
100
AcDbEntity
  8
0
100
AcDbLine
 62
7
  6
CONTINUOUS
 10
583.4702870471
 20
451.8971118296
 11
583.4702870471
 21
454.169426332
  0
LINE
  5
2C1
100
AcDbEntity
  8
0
100
AcDbLine
 62
7
  6
CONTINUOUS
 10
583.4702870471
 20
458.3654866102
 11
583.4702870471
 21
460.1966601443
  0
LINE
  5
2C2
100
AcDbEntity
  8
0
100
AcDbLine
 62
7
  6
CONTINUOUS
 10
584.2363314902
 20
460.1966601443
 11
584.2363303123
 21
458.3654825922
  0
LINE
  5
2C3
100
AcDbEntity
  8
0
100
AcDbLine
 62
7
  6
CONTINUOUS
 10
584.2363303471
 20
454.1694302329
 11
584.2363314902
 21
451.8966601443
  0
LINE
  5
2C4
100
AcDbEntity
  8
0
100
AcDbLine
 62
7
  6
CONTINUOUS
 10
584.5535724837
 20
451.8966601443
 11
584.5535724837
 21
453.9511457295
  0
LINE
  5
2C5
100
AcDbEntity
  8
0
100
AcDbLine
 62
7
  6
CONTINUOUS
 10
584.5535724837
 20
458.5837672127
 11
584.5535724837
 21
460.1966601443
  0
LINE
  5
2C6
100
AcDbEntity
  8
0
100
AcDbLine
 62
7
  6
CONTINUOUS
 10
584.7990707681
 20
455.3448067403
 11
584.7990707681
 21
454.4787803064
  0
LINE
  5
2C7
100
AcDbEntity
  8
0
100
AcDbLine
 62
7
  6
CONTINUOUS
 10
584.7990732561
 20
458.0561326358
 11
584.7990732561
 21
457.1901062019
  0
LWPOLYLINE
  5
2C8
100
AcDbEntity
  8
0
100
AcDbPolyline
 62
7
  6
CONTINUOUS
 90
3
 70
0
 10
585.0258448825
 20
451.2316658505
 10
585.0258448825
 20
451.564999238
 10
585.0248955697
 20
451.8966601443
  0
LINE
  5
2C9
100
AcDbEntity
  8
0
100
AcDbLine
 62
7
  6
CONTINUOUS
 10
585.0741161544
 20
454.4787803064
 11
585.0741161544
 21
455.3448067403
  0
LINE
  5
2CA
100
AcDbEntity
  8
0
100
AcDbLine
 62
7
  6
CONTINUOUS
 10
585.0741186424
 20
457.1901062019
 11
585.0741186424
 21
458.0561326358
  0
LINE
  5
2CB
100
AcDbEntity
  8
0
100
AcDbLine
 62
7
  6
CONTINUOUS
 10
585.3196169268
 20
460.1966601443
 11
585.3196169268
 21
458.5837672127
  0
LINE
  5
2CC
100
AcDbEntity
  8
0
100
AcDbLine
 62
7
  6
CONTINUOUS
 10
585.3196169268
 20
453.9511457295
 11
585.3196169268
 21
451.8966601443
  0
LINE
  5
2CD
100
AcDbEntity
  8
0
100
AcDbLine
 62
7
  6
CONTINUOUS
 10
585.4365947052
 20
470.7966601443
 11
585.4365947052
 21
468.1966601443
  0
LINE
  5
2CE
100
AcDbEntity
  8
0
100
AcDbLine
 62
7
  6
CONTINUOUS
 10
585.6368590633
 20
458.3654827093
 11
585.6368579203
 21
460.1966601443
  0
LINE
  5
2CF
100
AcDbEntity
  8
0
100
AcDbLine
 62
7
  6
CONTINUOUS
 10
585.6368579203
 20
451.8966601443
 11
585.6368590982
 21
454.16943035
  0
LINE
  5
2D0
100
AcDbEntity
  8
0
100
AcDbLine
 62
7
  6
CONTINUOUS
 10
586.4029023634
 20
460.1966601443
 11
586.4029023633
 21
458.3654866102
  0
LINE
  5
2D1
100
AcDbEntity
  8
0
100
AcDbLine
 62
7
  6
CONTINUOUS
 10
586.4029023633
 20
454.169426332
 11
586.4029023634
 21
451.9618223338
  0
LINE
  5
2D2
100
AcDbEntity
  8
0
100
AcDbLine
 62
7
  6
CONTINUOUS
 10
587.4365947052
 20
460.1966601443
 11
587.4365947052
 21
461.1966601443
  0
LINE
  5
2D3
100
AcDbEntity
  8
0
100
AcDbLine
 62
7
  6
CONTINUOUS
 10
588.2108683964
 20
451.1681645168
 11
588.2108683951
 21
450.8966601707
  0
LINE
  5
2D4
100
AcDbEntity
  8
0
100
AcDbLine
 62
7
  6
CONTINUOUS
 10
589.1437014864
 20
450.8966601443
 11
589.1437014864
 21
451.8966601443
  0
LINE
  5
2D5
100
AcDbEntity
  8
0
100
AcDbLine
 62
7
  6
CONTINUOUS
 10
589.4365947052
 20
450.8966601443
 11
589.4365947052
 21
452.8966601443
  0
LINE
  5
2D6
100
AcDbEntity
  8
0
100
AcDbLine
 62
7
  6
CONTINUOUS
 10
589.4365947052
 20
459.1966601443
 11
589.4365947052
 21
461.1966601443
  0
LINE
  5
2D7
100
AcDbEntity
  8
0
100
AcDbLine
 62
7
  6
CONTINUOUS
 10
589.6365947052
 20
452.8966601443
 11
589.6365947052
 21
459.1966601443
  0
LINE
  5
2D8
100
AcDbEntity
  8
0
100
AcDbLine
 62
7
  6
CONTINUOUS
 10
573.8463952152
 20
450.8966601443
 11
573.8482938408
 21
451.8966601443
  0
LINE
  5
2D9
100
AcDbEntity
  8
0
100
AcDbLine
 62
7
  6
CONTINUOUS
 10
583.8463952152
 20
450.8966601443
 11
583.8482938408
 21
451.8966601443
  0
LINE
  5
2DA
100
AcDbEntity
  8
0
100
AcDbLine
 62
7
  6
CONTINUOUS
 10
570.4834047997
 20
452.0084677743
 11
570.7199431642
 21
453.0228878108
  0
LINE
  5
2DB
100
AcDbEntity
  8
0
100
AcDbLine
 62
7
  6
CONTINUOUS
 10
580.4834016305
 20
452.0084751781
 11
580.7199560698
 21
453.02290807
  0
LINE
  5
2DC
100
AcDbEntity
  8
0
100
AcDbLine
 62
7
  6
CONTINUOUS
 10
582.3956983546
 20
451.9871255606
 11
581.9900188958
 21
451.1680611301
  0
LINE
  5
2DD
100
AcDbEntity
  8
0
100
AcDbLine
 62
7
  6
CONTINUOUS
 10
578.1531900004
 20
453.0229760568
 11
578.3898265303
 21
452.0086940088
  0
LINE
  5
2DE
100
AcDbEntity
  8
0
100
AcDbLine
 62
7
  6
CONTINUOUS
 10
588.1531637186
 20
453.0230172477
 11
588.3898317924
 21
452.0087376626
  0
ARC
  5
2DF
100
AcDbEntity
  8
0
100
AcDbCircle
 62
7
  6
CONTINUOUS
 10
120.4365947052
 20
440.7716601443
 40
21.625
100
AcDbArc
 50
72.5076754749
 51
107.4923245251
  0
ARC
  5
2E0
100
AcDbEntity
  8
0
100
AcDbCircle
 62
7
  6
CONTINUOUS
 10
502.3408947871
 20
450.1226204847
 40
70.849482755
100
AcDbArc
 50
0.6259809324
 51
1.4348118447
  0
ARC
  5
2E1
100
AcDbEntity
  8
0
100
AcDbCircle
 62
7
  6
CONTINUOUS
 10
512.4810958601
 20
450.1251511591
 40
70.7092617682
100
AcDbArc
 50
0.6251716124
 51
1.4356064742
  0
ARC
  5
2E2
100
AcDbEntity
  8
0
100
AcDbCircle
 62
7
  6
CONTINUOUS
 10
474.4365947052
 20
440.7716601443
 40
21.625
100
AcDbArc
 50
72.5076754749
 51
107.4923245251
  0
ARC
  5
2E3
100
AcDbEntity
  8
0
100
AcDbCircle
 62
7
  6
CONTINUOUS
 10
573.9365934672
 20
451.4827630661
 40
1.4776574805
100
AcDbArc
 50
224.4271084528
 51
315.5727791912
  0
ARC
  5
2E4
100
AcDbEntity
  8
0
100
AcDbCircle
 62
7
  6
CONTINUOUS
 10
584.9365934672
 20
451.4827630661
 40
1.4776574805
100
AcDbArc
 50
224.4271084528
 51
315.5727791912
  0
ARC
  5
2E5
100
AcDbEntity
  8
0
100
AcDbCircle
 62
7
  6
CONTINUOUS
 10
579.337042237
 20
456.7717330639
 40
9.0366418347
100
AcDbArc
 50
220.5520796848
 51
224.0635950694
  0
ARC
  5
2E6
100
AcDbEntity
  8
0
100
AcDbCircle
 62
7
  6
CONTINUOUS
 10
590.3370411253
 20
456.771732074
 40
9.0366403465
100
AcDbArc
 50
220.5520794984
 51
224.0636295177
  0
ARC
  5
2E7
100
AcDbEntity
  8
0
100
AcDbCircle
 62
7
  6
CONTINUOUS
 10
568.5368308546
 20
456.7711351394
 40
9.0357336285
100
AcDbArc
 50
315.9394541067
 51
319.4479825992
  0
ARC
  5
2E8
100
AcDbEntity
  8
0
100
AcDbCircle
 62
7
  6
CONTINUOUS
 10
579.5368308548
 20
456.7711351392
 40
9.0357336282
100
AcDbArc
 50
315.9394541066
 51
319.4479825992
  0
ARC
  5
2E9
100
AcDbEntity
  8
0
100
AcDbCircle
 62
7
  6
CONTINUOUS
 10
579.2141865996
 20
456.6550931387
 40
8.8672438355
100
AcDbArc
 50
224.074107814
 51
224.4235806851
  0
ARC
  5
2EA
100
AcDbEntity
  8
0
100
AcDbCircle
 62
7
  6
CONTINUOUS
 10
590.2141857343
 20
456.6550922941
 40
8.8672426263
100
AcDbArc
 50
224.0741424891
 51
224.423580701
  0
ARC
  5
2EB
100
AcDbEntity
  8
0
100
AcDbCircle
 62
7
  6
CONTINUOUS
 10
568.6624310364
 20
456.6518638094
 40
8.8625333737
100
AcDbArc
 50
315.5757878045
 51
315.9288798574
  0
ARC
  5
2EC
100
AcDbEntity
  8
0
100
AcDbCircle
 62
7
  6
CONTINUOUS
 10
579.6624310361
 20
456.6518638096
 40
8.862533374
100
AcDbArc
 50
315.5757878044
 51
315.9288798573
  0
ARC
  5
2ED
100
AcDbEntity
  8
0
100
AcDbCircle
 62
7
  6
CONTINUOUS
 10
582.4365947052
 20
466.7966601443
 40
5.0
100
AcDbArc
 50
53.1301023542
 51
89.4270326551
  0
ARC
  5
2EE
100
AcDbEntity
  8
0
100
AcDbCircle
 62
7
  6
CONTINUOUS
 10
576.4365947052
 20
466.7966601443
 40
5.0
100
AcDbArc
 50
90.5729673449
 51
126.8698976458
  0
ARC
  5
2EF
100
AcDbEntity
  8
0
100
AcDbCircle
 62
7
  6
CONTINUOUS
 10
573.9365947052
 20
460.6105518235
 40
1.5
100
AcDbArc
 50
39.9999999999
 51
140.0
  0
ARC
  5
2F0
100
AcDbEntity
  8
0
100
AcDbCircle
 62
7
  6
CONTINUOUS
 10
584.9365947052
 20
460.6105518235
 40
1.5
100
AcDbArc
 50
39.9999999999
 51
140.0
  0
ARC
  5
2F1
100
AcDbEntity
  8
0
100
AcDbCircle
 62
7
  6
CONTINUOUS
 10
574.4365947052
 20
468.1966601443
 40
1.0
100
AcDbArc
 50
180.0
 51
269.9999996079
  0
ARC
  5
2F2
100
AcDbEntity
  8
0
100
AcDbCircle
 62
7
  6
CONTINUOUS
 10
584.4365947052
 20
468.1966601443
 40
1.0
100
AcDbArc
 50
270.0000003921
 51
360.0
  0
ARC
  5
2F3
100
AcDbEntity
  8
0
100
AcDbCircle
 62
7
  6
CONTINUOUS
 10
583.4865947052
 20
461.2466601443
 40
0.05
100
AcDbArc
 50
180.0
 51
270.0
  0
ARC
  5
2F4
100
AcDbEntity
  8
0
100
AcDbCircle
 62
7
  6
CONTINUOUS
 10
575.3865947052
 20
461.2466601443
 40
0.05
100
AcDbArc
 50
270.0
 51
360.0
  0
SPLINE
  5
2F5
100
AcDbEntity
  8
0
100
AcDbSpline
 62
7
  6
CONTINUOUS
 70
0
 71
3
 72
9
 73
5
 74
0
 42
0.0000001
 43
0.0000001
 44
0.0000000001
 40
0.0
 40
0.0
 40
0.0
 40
0.0
 40
0.4395457009
 40
1.0
 40
1.0
 40
1.0
 40
1.0
 10
577.6672174248
 20
471.796661176
 30
0.0
 10
577.7486765268
 20
471.7966615984
 30
0.0
 10
577.934002026
 20
471.796151693
 30
0.0
 10
578.1193276396
 20
471.7966604114
 30
0.0
 10
578.2231942086
 20
471.7966601443
 30
0.0
  0
SPLINE
  5
2F6
100
AcDbEntity
  8
0
100
AcDbSpline
 62
7
  6
CONTINUOUS
 70
0
 71
3
 72
9
 73
5
 74
0
 42
0.0000001
 43
0.0000001
 44
0.0000000001
 40
0.0
 40
0.0
 40
0.0
 40
0.0
 40
0.5604543001
 40
1.0
 40
1.0
 40
1.0
 40
1.0
 10
580.6499952028
 20
471.7966609522
 30
0.0
 10
580.7538617719
 20
471.7966612192
 30
0.0
 10
580.9391873838
 20
471.7961520337
 30
0.0
 10
581.1245128848
 20
471.7966605667
 30
0.0
 10
581.2059719864
 20
471.7966601443
 30
0.0
  0
SPLINE
  5
2F7
100
AcDbEntity
  8
0
100
AcDbSpline
 62
7
  6
CONTINUOUS
 70
0
 71
3
 72
13
 73
9
 74
0
 42
0.0000001
 43
0.0000001
 44
0.0000000001
 40
0.0
 40
0.0
 40
0.0
 40
0.0
 40
0.0420660557
 40
0.1089568707
 40
0.2015373259
 40
0.3185789677
 40
0.6197163328
 40
1.0
 40
1.0
 40
1.0
 40
1.0
 10
580.8431991524
 20
450.9128108822
 30
0.0
 10
580.8436317949
 20
450.9171576363
 30
0.0
 10
580.8389666326
 20
450.9282927566
 30
0.0
 10
580.827263453
 20
450.9452464448
 30
0.0
 10
580.8095602584
 20
450.9680475704
 30
0.0
 10
580.7765224679
 20
451.0094402923
 30
0.0
 10
580.7262599528
 20
451.0754852578
 30
0.0
 10
580.6870720368
 20
451.1344655795
 30
0.0
 10
580.666231333
 20
451.1680078706
 30
0.0
  0
SPLINE
  5
2F8
100
AcDbEntity
  8
0
100
AcDbSpline
 62
7
  6
CONTINUOUS
 70
0
 71
3
 72
13
 73
9
 74
0
 42
0.0000001
 43
0.0000001
 44
0.0000000001
 40
0.0
 40
0.0
 40
0.0
 40
0.0
 40
0.0420673597
 40
0.1089594706
 40
0.2015416012
 40
0.3185846059
 40
0.6197292255
 40
1.0
 40
1.0
 40
1.0
 40
1.0
 10
570.843199149
 20
450.9128108883
 30
0.0
 10
570.8436317667
 20
450.9171574503
 30
0.0
 10
570.8389670298
 20
450.9282920341
 30
0.0
 10
570.8272646016
 20
450.9452449316
 30
0.0
 10
570.8095624228
 20
450.9680446509
 30
0.0
 10
570.7765269296
 20
451.0094354465
 30
0.0
 10
570.7262650646
 20
451.0754726624
 30
0.0
 10
570.6870868323
 20
451.1344523538
 30
0.0
 10
570.6662480814
 20
451.167990779
 30
0.0
  0
SPLINE
  5
2F9
100
AcDbEntity
  8
0
100
AcDbSpline
 62
7
  6
CONTINUOUS
 70
0
 71
3
 72
10
 73
6
 74
0
 42
0.0000001
 43
0.0000001
 44
0.0000000001
 40
0.0
 40
0.0
 40
0.0
 40
0.0
 40
0.4612584272
 40
0.723621397
 40
1.0
 40
1.0
 40
1.0
 40
1.0
 10
573.1683837041
 20
451.8966607148
 30
0.0
 10
573.0480015274
 20
451.896669744
 30
0.0
 10
572.8588667189
 20
451.8955137454
 30
0.0
 10
572.5988891382
 20
451.9201159766
 30
0.0
 10
572.4612350256
 20
451.956953301
 30
0.0
 10
572.3956999824
 20
451.9870871274
 30
0.0
  0
SPLINE
  5
2FA
100
AcDbEntity
  8
0
100
AcDbSpline
 62
7
  6
CONTINUOUS
 70
0
 71
3
 72
9
 73
5
 74
0
 42
0.0000001
 43
0.0000001
 44
0.0000000001
 40
0.0
 40
0.0
 40
0.0
 40
0.0
 40
0.2554403041
 40
1.0
 40
1.0
 40
1.0
 40
1.0
 10
572.3956999824
 20
451.9870871274
 30
0.0
 10
572.3595294048
 20
452.0037193688
 30
0.0
 10
572.2217452922
 20
452.0770083393
 30
0.0
 10
572.1005482177
 20
452.1801614884
 30
0.0
 10
572.023823625
 20
452.2672199859
 30
0.0
  0
SPLINE
  5
2FB
100
AcDbEntity
  8
0
100
AcDbSpline
 62
7
  6
CONTINUOUS
 70
0
 71
3
 72
9
 73
5
 74
0
 42
0.0000001
 43
0.0000001
 44
0.0000000001
 40
0.0
 40
0.0
 40
0.0
 40
0.0
 40
0.2439817673
 40
1.0
 40
1.0
 40
1.0
 40
1.0
 10
576.8493752314
 20
452.2673303583
 30
0.0
 10
576.824248216
 20
452.2388120523
 30
0.0
 10
576.7159804684
 20
452.126767366
 30
0.0
 10
576.5845635656
 20
452.03640928
 30
0.0
 10
576.4775687429
 20
451.9871816516
 30
0.0
  0
SPLINE
  5
2FC
100
AcDbEntity
  8
0
100
AcDbSpline
 62
7
  6
CONTINUOUS
 70
0
 71
3
 72
10
 73
6
 74
0
 42
0.0000001
 43
0.0000001
 44
0.0000000001
 40
0.0
 40
0.0
 40
0.0
 40
0.0
 40
0.2764160262
 40
0.5388081145
 40
1.0
 40
1.0
 40
1.0
 40
1.0
 10
576.4775687429
 20
451.9871816516
 30
0.0
 10
576.4120316128
 20
451.9570255061
 30
0.0
 10
576.2743762585
 20
451.920108813
 30
0.0
 10
576.0143866889
 20
451.8955242563
 30
0.0
 10
575.8252602317
 20
451.896671603
 30
0.0
 10
575.7048929926
 20
451.8966609404
 30
0.0
  0
SPLINE
  5
2FD
100
AcDbEntity
  8
0
100
AcDbSpline
 62
7
  6
CONTINUOUS
 70
0
 71
3
 72
10
 73
6
 74
0
 42
0.0000001
 43
0.0000001
 44
0.0000000001
 40
0.0
 40
0.0
 40
0.0
 40
0.0
 40
0.4612437599
 40
0.7236134257
 40
1.0
 40
1.0
 40
1.0
 40
1.0
 10
583.1683617695
 20
451.8966607634
 30
0.0
 10
583.0479845193
 20
451.8966701689
 30
0.0
 10
582.858853876
 20
451.8955155172
 30
0.0
 10
582.5988776818
 20
451.920115019
 30
0.0
 10
582.4612238246
 20
451.9569638808
 30
0.0
 10
582.3956886366
 20
451.9871007965
 30
0.0
  0
SPLINE
  5
2FE
100
AcDbEntity
  8
0
100
AcDbSpline
 62
7
  6
CONTINUOUS
 70
0
 71
3
 72
9
 73
5
 74
0
 42
0.0000001
 43
0.0000001
 44
0.0000000001
 40
0.0
 40
0.0
 40
0.0
 40
0.0
 40
0.2554398861
 40
1.0
 40
1.0
 40
1.0
 40
1.0
 10
582.3956886366
 20
451.9871007965
 30
0.0
 10
582.3595199057
 20
452.0037335784
 30
0.0
 10
582.2217384226
 20
452.0770154362
 30
0.0
 10
582.1005461274
 20
452.180166917
 30
0.0
 10
582.0238244205
 20
452.2672226566
 30
0.0
  0
SPLINE
  5
2FF
100
AcDbEntity
  8
0
100
AcDbSpline
 62
7
  6
CONTINUOUS
 70
0
 71
3
 72
9
 73
5
 74
0
 42
0.0000001
 43
0.0000001
 44
0.0000000001
 40
0.0
 40
0.0
 40
0.0
 40
0.0
 40
0.24398675
 40
1.0
 40
1.0
 40
1.0
 40
1.0
 10
586.849373575
 20
452.2673357132
 30
0.0
 10
586.8242479101
 20
452.2388186023
 30
0.0
 10
586.7159979001
 20
452.1267703262
 30
0.0
 10
586.5845750299
 20
452.0364400431
 30
0.0
 10
586.4775912818
 20
451.9872092224
 30
0.0
  0
SPLINE
  5
300
100
AcDbEntity
  8
0
100
AcDbSpline
 62
7
  6
CONTINUOUS
 70
0
 71
3
 72
10
 73
6
 74
0
 42
0.0000001
 43
0.0000001
 44
0.0000000001
 40
0.0
 40
0.0
 40
0.0
 40
0.0
 40
0.2764318733
 40
0.5388374764
 40
1.0
 40
1.0
 40
1.0
 40
1.0
 10
586.4775912818
 20
451.9872092224
 30
0.0
 10
586.4120545868
 20
451.9570466462
 30
0.0
 10
586.274400601
 20
451.9201073271
 30
0.0
 10
586.0144158196
 20
451.8955278722
 30
0.0
 10
585.8252990107
 20
451.8966724913
 30
0.0
 10
585.7049425093
 20
451.8966610593
 30
0.0
  0
SPLINE
  5
301
100
AcDbEntity
  8
0
100
AcDbSpline
 62
7
  6
CONTINUOUS
 70
0
 71
3
 72
9
 73
5
 74
0
 42
0.0000001
 43
0.0000001
 44
0.0000000001
 40
0.0
 40
0.0
 40
0.0
 40
0.0
 40
0.5450663342
 40
1.0
 40
1.0
 40
1.0
 40
1.0
 10
588.3899057571
 20
452.0086708653
 30
0.0
 10
588.3964112413
 20
451.85088855
 30
0.0
 10
588.3762081934
 20
451.5589574903
 30
0.0
 10
588.276653538
 20
451.2801283402
 30
0.0
 10
588.2071108942
 20
451.1681645168
 30
0.0
  0
SPLINE
  5
302
100
AcDbEntity
  8
0
100
AcDbSpline
 62
7
  6
CONTINUOUS
 70
0
 71
3
 72
13
 73
9
 74
0
 42
0.0000001
 43
0.0000001
 44
0.0000000001
 40
0.0
 40
0.0
 40
0.0
 40
0.0
 40
0.3803966818
 40
0.6814678913
 40
0.798497963
 40
0.8910633435
 40
0.9579437476
 40
1.0
 40
1.0
 40
1.0
 40
1.0
 10
588.2071108942
 20
451.1681645168
 30
0.0
 10
588.1862525509
 20
451.1345874792
 30
0.0
 10
588.146977107
 20
451.0756016103
 30
0.0
 10
588.0967091654
 20
451.009486182
 30
0.0
 10
588.0636502154
 20
450.9680760438
 30
0.0
 10
588.0459377164
 20
450.9452618188
 30
0.0
 10
588.034227553
 20
450.9283006729
 30
0.0
 10
588.0295573834
 20
450.917160816
 30
0.0
 10
588.0299898652
 20
450.9128120593
 30
0.0
  0
SPLINE
  5
303
100
AcDbEntity
  8
0
100
AcDbSpline
 62
7
  6
CONTINUOUS
 70
0
 71
3
 72
9
 73
5
 74
0
 42
0.0000001
 43
0.0000001
 44
0.0000000001
 40
0.0
 40
0.0
 40
0.0
 40
0.0
 40
0.4549668195
 40
1.0
 40
1.0
 40
1.0
 40
1.0
 10
580.666231333
 20
451.1680078706
 30
0.0
 10
580.5966637143
 20
451.2799595998
 30
0.0
 10
580.4969440898
 20
451.5587220386
 30
0.0
 10
580.4768422369
 20
451.8506578886
 30
0.0
 10
580.4833282719
 20
452.0084233595
 30
0.0
  0
SPLINE
  5
304
100
AcDbEntity
  8
0
100
AcDbSpline
 62
7
  6
CONTINUOUS
 70
0
 71
3
 72
9
 73
5
 74
0
 42
0.0000001
 43
0.0000001
 44
0.0000000001
 40
0.0
 40
0.0
 40
0.0
 40
0.0
 40
0.5450601276
 40
1.0
 40
1.0
 40
1.0
 40
1.0
 10
578.3898999128
 20
452.0086415086
 30
0.0
 10
578.396403059
 20
451.8508619361
 30
0.0
 10
578.3762173655
 20
451.5589290051
 30
0.0
 10
578.2766339348
 20
451.2801114403
 30
0.0
 10
578.2070883773
 20
451.1681483303
 30
0.0
  0
SPLINE
  5
305
100
AcDbEntity
  8
0
100
AcDbSpline
 62
7
  6
CONTINUOUS
 70
0
 71
3
 72
13
 73
9
 74
0
 42
0.0000001
 43
0.0000001
 44
0.0000000001
 40
0.0
 40
0.0
 40
0.0
 40
0.0
 40
0.3803858929
 40
0.6814783932
 40
0.7985101493
 40
0.8910746555
 40
0.9579499693
 40
1.0
 40
1.0
 40
1.0
 40
1.0
 10
578.2070883773
 20
451.1681483303
 30
0.0
 10
578.1862316193
 20
451.1345747462
 30
0.0
 10
578.1469719425
 20
451.0755827061
 30
0.0
 10
578.0966995805
 20
451.0094755985
 30
0.0
 10
578.0636423619
 20
450.9680658449
 30
0.0
 10
578.0459313658
 20
450.9452532693
 30
0.0
 10
578.0342234178
 20
450.9282941819
 30
0.0
 10
578.0295559118
 20
450.9171544976
 30
0.0
 10
578.0299903742
 20
450.9128068824
 30
0.0
  0
SPLINE
  5
306
100
AcDbEntity
  8
0
100
AcDbSpline
 62
7
  6
CONTINUOUS
 70
0
 71
3
 72
9
 73
5
 74
0
 42
0.0000001
 43
0.0000001
 44
0.0000000001
 40
0.0
 40
0.0
 40
0.0
 40
0.0
 40
0.4549698054
 40
1.0
 40
1.0
 40
1.0
 40
1.0
 10
570.6662480814
 20
451.167990779
 30
0.0
 10
570.5966768244
 20
451.2799426572
 30
0.0
 10
570.4969399286
 20
451.5587024644
 30
0.0
 10
570.4768461865
 20
451.8506428484
 30
0.0
 10
570.4833311511
 20
452.0084089146
 30
0.0
  0
SPLINE
  5
307
100
AcDbEntity
  8
0
100
AcDbSpline
 62
7
  6
CONTINUOUS
 70
0
 71
3
 72
13
 73
9
 74
0
 42
0.0000001
 43
0.0000001
 44
0.0000000001
 40
0.0
 40
0.0
 40
0.0
 40
0.0
 40
0.1252430179
 40
0.2504359945
 40
0.3755949718
 40
0.5007635742
 40
0.7500206174
 40
1.0
 40
1.0
 40
1.0
 40
1.0
 10
583.4702870471
 20
454.169426332
 30
0.0
 10
583.4702918847
 20
454.2523732476
 30
0.0
 10
583.4853840761
 20
454.418778295
 30
0.0
 10
583.5596111806
 20
454.6582962978
 30
0.0
 10
583.6872260541
 20
454.8745573136
 30
0.0
 10
583.9197326079
 20
455.1140147889
 30
0.0
 10
584.3004649365
 20
455.3041570711
 30
0.0
 10
584.6335149766
 20
455.3447970053
 30
0.0
 10
584.7990732577
 20
455.3448067402
 30
0.0
  0
SPLINE
  5
308
100
AcDbEntity
  8
0
100
AcDbSpline
 62
7
  6
CONTINUOUS
 70
0
 71
3
 72
12
 73
8
 74
0
 42
0.0000001
 43
0.0000001
 44
0.0000000001
 40
0.0
 40
0.0
 40
0.0
 40
0.0
 40
0.3201833736
 40
0.5990409321
 40
0.7193897795
 40
0.8259988931
 40
1.0
 40
1.0
 40
1.0
 40
1.0
 10
573.9365947052
 20
450.7327684651
 30
0.0
 10
574.0382923206
 20
450.6687676415
 30
0.0
 10
574.2353386751
 20
450.559306114
 30
0.0
 10
574.4882427811
 20
450.461175866
 30
0.0
 10
574.6742610875
 20
450.4203445585
 30
0.0
 10
574.8238494648
 20
450.4066341112
 30
0.0
 10
574.9325099454
 20
450.4211390122
 30
0.0
 10
574.9918480935
 20
450.4483988488
 30
0.0
  0
SPLINE
  5
309
100
AcDbEntity
  8
0
100
AcDbSpline
 62
7
  6
CONTINUOUS
 70
0
 71
3
 72
12
 73
8
 74
0
 42
0.0000001
 43
0.0000001
 44
0.0000000001
 40
0.0
 40
0.0
 40
0.0
 40
0.0
 40
0.1740004642
 40
0.2806093482
 40
0.4009580988
 40
0.6798159
 40
1.0
 40
1.0
 40
1.0
 40
1.0
 10
572.8813370291
 20
450.4484008187
 30
0.0
 10
572.9406747836
 20
450.4211400587
 30
0.0
 10
573.0493354143
 20
450.4066341481
 30
0.0
 10
573.1989241002
 20
450.4203438559
 30
0.0
 10
573.3849432972
 20
450.4611747127
 30
0.0
 10
573.6378489116
 20
450.5593051413
 30
0.0
 10
573.8348964403
 20
450.6687672327
 30
0.0
 10
573.9365947052
 20
450.7327684651
 30
0.0
  0
SPLINE
  5
30A
100
AcDbEntity
  8
0
100
AcDbSpline
 62
7
  6
CONTINUOUS
 70
0
 71
3
 72
13
 73
9
 74
0
 42
0.0000001
 43
0.0000001
 44
0.0000000001
 40
0.0
 40
0.0
 40
0.0
 40
0.0
 40
0.2499782026
 40
0.4992363437
 40
0.6244049548
 40
0.7495640811
 40
0.874756992
 40
1.0
 40
1.0
 40
1.0
 40
1.0
 10
585.0741161528
 20
455.3448067402
 30
0.0
 10
585.2396736463
 20
455.3447972731
 30
0.0
 10
585.5727234115
 20
455.30415671
 30
0.0
 10
585.953456412
 20
455.1140157079
 30
0.0
 10
586.185963204
 20
454.8745572367
 30
0.0
 10
586.3135780674
 20
454.6582962005
 30
0.0
 10
586.3878054356
 20
454.4187782648
 30
0.0
 10
586.4028977893
 20
454.252373238
 30
0.0
 10
586.4029023633
 20
454.169426332
 30
0.0
  0
SPLINE
  5
30B
100
AcDbEntity
  8
0
100
AcDbSpline
 62
7
  6
CONTINUOUS
 70
0
 71
3
 72
9
 73
5
 74
0
 42
0.0000001
 43
0.0000001
 44
0.0000000001
 40
0.0
 40
0.0
 40
0.0
 40
0.0
 40
0.2571792093
 40
1.0
 40
1.0
 40
1.0
 40
1.0
 10
574.3196169268
 20
458.5837672127
 30
0.0
 10
574.3058078864
 20
458.5351933473
 30
0.0
 10
574.2299763729
 20
458.3541020572
 30
0.0
 10
574.0736825839
 20
458.2005638437
 30
0.0
 10
573.936593916
 20
458.150754224
 30
0.0
  0
SPLINE
  5
30C
100
AcDbEntity
  8
0
100
AcDbSpline
 62
7
  6
CONTINUOUS
 70
0
 71
3
 72
9
 73
5
 74
0
 42
0.0000001
 43
0.0000001
 44
0.0000000001
 40
0.0
 40
0.0
 40
0.0
 40
0.0
 40
0.2376061597
 40
1.0
 40
1.0
 40
1.0
 40
1.0
 10
573.9365955278
 20
458.1507542119
 30
0.0
 10
573.8926977539
 20
458.1667039686
 30
0.0
 10
573.7187628682
 20
458.2615573655
 30
0.0
 10
573.5945527056
 20
458.4396176031
 30
0.0
 10
573.5535724837
 20
458.5837672127
 30
0.0
  0
SPLINE
  5
30D
100
AcDbEntity
  8
0
100
AcDbSpline
 62
7
  6
CONTINUOUS
 70
0
 71
3
 72
13
 73
9
 74
0
 42
0.0000001
 43
0.0000001
 44
0.0000000001
 40
0.0
 40
0.0
 40
0.0
 40
0.0
 40
0.2499782026
 40
0.4992363437
 40
0.6244049548
 40
0.7495640811
 40
0.874756992
 40
1.0
 40
1.0
 40
1.0
 40
1.0
 10
574.0741161528
 20
455.3448067402
 30
0.0
 10
574.2396736463
 20
455.3447972731
 30
0.0
 10
574.5727234115
 20
455.30415671
 30
0.0
 10
574.9534564121
 20
455.1140157079
 30
0.0
 10
575.185963204
 20
454.8745572367
 30
0.0
 10
575.3135780674
 20
454.6582962005
 30
0.0
 10
575.3878054356
 20
454.4187782648
 30
0.0
 10
575.4028977893
 20
454.252373238
 30
0.0
 10
575.4029023633
 20
454.169426332
 30
0.0
  0
SPLINE
  5
30E
100
AcDbEntity
  8
0
100
AcDbSpline
 62
7
  6
CONTINUOUS
 70
0
 71
3
 72
14
 73
10
 74
0
 42
0.0000001
 43
0.0000001
 44
0.0000000001
 40
0.0
 40
0.0
 40
0.0
 40
0.0
 40
0.0356989148
 40
0.0825641236
 40
0.1531383965
 40
0.2535105809
 40
0.3872712631
 40
0.5562082616
 40
1.0
 40
1.0
 40
1.0
 40
1.0
 10
588.0299898652
 20
450.9128120593
 30
0.0
 10
588.0302091949
 20
450.9106066229
 30
0.0
 10
588.0327939786
 20
450.9056108397
 30
0.0
 10
588.0418443723
 20
450.9016469886
 30
0.0
 10
588.055075209
 20
450.899132864
 30
0.0
 10
588.0739978949
 20
450.8976785002
 30
0.0
 10
588.098995539
 20
450.8969522499
 30
0.0
 10
588.1453496893
 20
450.896584935
 30
0.0
 10
588.1833856243
 20
450.8966601475
 30
0.0
 10
588.2109377952
 20
450.8966601475
 30
0.0
  0
SPLINE
  5
30F
100
AcDbEntity
  8
0
100
AcDbSpline
 62
7
  6
CONTINUOUS
 70
0
 71
3
 72
13
 73
9
 74
0
 42
0.0000001
 43
0.0000001
 44
0.0000000001
 40
0.0
 40
0.0
 40
0.0
 40
0.0
 40
0.1252430179
 40
0.2504359945
 40
0.3755949718
 40
0.5007635742
 40
0.7500206174
 40
1.0
 40
1.0
 40
1.0
 40
1.0
 10
586.4029023633
 20
458.3654866102
 30
0.0
 10
586.4028975257
 20
458.2825396946
 30
0.0
 10
586.3878053344
 20
458.1161346472
 30
0.0
 10
586.3135782299
 20
457.8766166445
 30
0.0
 10
586.1859633563
 20
457.6603556287
 30
0.0
 10
585.9534568025
 20
457.4208981533
 30
0.0
 10
585.5727244739
 20
457.2307558711
 30
0.0
 10
585.2396744339
 20
457.1901159369
 30
0.0
 10
585.0741161528
 20
457.190106202
 30
0.0
  0
SPLINE
  5
310
100
AcDbEntity
  8
0
100
AcDbSpline
 62
7
  6
CONTINUOUS
 70
0
 71
3
 72
13
 73
9
 74
0
 42
0.0000001
 43
0.0000001
 44
0.0000000001
 40
0.0
 40
0.0
 40
0.0
 40
0.0
 40
0.2499782026
 40
0.4992363437
 40
0.6244049548
 40
0.7495640811
 40
0.874756992
 40
1.0
 40
1.0
 40
1.0
 40
1.0
 10
584.7990732577
 20
457.190106202
 30
0.0
 10
584.6335157642
 20
457.1901156692
 30
0.0
 10
584.3004659989
 20
457.2307562322
 30
0.0
 10
583.9197329984
 20
457.4208972343
 30
0.0
 10
583.6872262064
 20
457.6603557055
 30
0.0
 10
583.559611343
 20
457.8766167418
 30
0.0
 10
583.4853839748
 20
458.1161346774
 30
0.0
 10
583.4702916211
 20
458.2825397042
 30
0.0
 10
583.4702870471
 20
458.3654866102
 30
0.0
  0
SPLINE
  5
311
100
AcDbEntity
  8
0
100
AcDbSpline
 62
7
  6
CONTINUOUS
 70
0
 71
3
 72
14
 73
10
 74
0
 42
0.0000001
 43
0.0000001
 44
0.0000000001
 40
0.0
 40
0.0
 40
0.0
 40
0.0
 40
0.0357067965
 40
0.0825919748
 40
0.1531936263
 40
0.2536025964
 40
0.3873887277
 40
0.5563925531
 40
1.0
 40
1.0
 40
1.0
 40
1.0
 10
578.0299903742
 20
450.9128068824
 30
0.0
 10
578.0302107445
 20
450.9106016613
 30
0.0
 10
578.0327987652
 20
450.9056073513
 30
0.0
 10
578.0418502675
 20
450.9016454428
 30
0.0
 10
578.055082944
 20
450.8991318824
 30
0.0
 10
578.0740060401
 20
450.8976782601
 30
0.0
 10
578.0990049426
 20
450.8969520071
 30
0.0
 10
578.1453408194
 20
450.8965852138
 30
0.0
 10
578.183359168
 20
450.8966601447
 30
0.0
 10
578.2108924383
 20
450.8966601447
 30
0.0
  0
SPLINE
  5
312
100
AcDbEntity
  8
0
100
AcDbSpline
 62
7
  6
CONTINUOUS
 70
0
 71
3
 72
13
 73
9
 74
0
 42
0.0000001
 43
0.0000001
 44
0.0000000001
 40
0.0
 40
0.0
 40
0.0
 40
0.0
 40
0.1252430179
 40
0.2504359945
 40
0.3755949718
 40
0.5007635742
 40
0.7500206174
 40
1.0
 40
1.0
 40
1.0
 40
1.0
 10
575.4029023633
 20
458.3654866104
 30
0.0
 10
575.4028975257
 20
458.2825396947
 30
0.0
 10
575.3878053344
 20
458.1161346474
 30
0.0
 10
575.3135782299
 20
457.8766166446
 30
0.0
 10
575.1859633564
 20
457.6603556287
 30
0.0
 10
574.9534568026
 20
457.4208981533
 30
0.0
 10
574.572724474
 20
457.2307558711
 30
0.0
 10
574.2396744339
 20
457.1901159369
 30
0.0
 10
574.0741161528
 20
457.190106202
 30
0.0
  0
SPLINE
  5
313
100
AcDbEntity
  8
0
100
AcDbSpline
 62
7
  6
CONTINUOUS
 70
0
 71
3
 72
13
 73
9
 74
0
 42
0.0000001
 43
0.0000001
 44
0.0000000001
 40
0.0
 40
0.0
 40
0.0
 40
0.0
 40
0.2499782026
 40
0.4992363437
 40
0.6244049548
 40
0.7495640811
 40
0.874756992
 40
1.0
 40
1.0
 40
1.0
 40
1.0
 10
573.7990732577
 20
457.190106202
 30
0.0
 10
573.6335157642
 20
457.1901156692
 30
0.0
 10
573.3004659989
 20
457.2307562322
 30
0.0
 10
572.9197329984
 20
457.4208972343
 30
0.0
 10
572.6872262064
 20
457.6603557055
 30
0.0
 10
572.559611343
 20
457.8766167418
 30
0.0
 10
572.4853839748
 20
458.1161346774
 30
0.0
 10
572.4702916211
 20
458.2825397042
 30
0.0
 10
572.4702870471
 20
458.3654866102
 30
0.0
  0
SPLINE
  5
314
100
AcDbEntity
  8
0
100
AcDbSpline
 62
7
  6
CONTINUOUS
 70
0
 71
3
 72
9
 73
5
 74
0
 42
0.0000001
 43
0.0000001
 44
0.0000000001
 40
0.0
 40
0.0
 40
0.0
 40
0.0
 40
0.2593488345
 40
1.0
 40
1.0
 40
1.0
 40
1.0
 10
586.0360387916
 20
450.4816997606
 30
0.0
 10
586.0340806138
 20
450.4795745047
 30
0.0
 10
586.026338059
 20
450.4715614683
 30
0.0
 10
586.0177852439
 20
450.4643129929
 30
0.0
 10
586.0110314668
 20
450.4595700216
 30
0.0
  0
SPLINE
  5
315
100
AcDbEntity
  8
0
100
AcDbSpline
 62
7
  6
CONTINUOUS
 70
0
 71
3
 72
8
 73
4
 74
0
 42
0.0000001
 43
0.0000001
 44
0.0000000001
 40
0.0
 40
0.0
 40
0.0
 40
0.0
 40
1.0
 40
1.0
 40
1.0
 40
1.0
 10
586.0110314668
 20
450.4595700216
 30
0.0
 10
586.0049775961
 20
450.4553185732
 30
0.0
 10
585.9985480877
 20
450.4515475843
 30
0.0
 10
585.9918487223
 20
450.4484102815
 30
0.0
  0
SPLINE
  5
316
100
AcDbEntity
  8
0
100
AcDbSpline
 62
7
  6
CONTINUOUS
 70
0
 71
3
 72
16
 73
12
 74
0
 42
0.0000001
 43
0.0000001
 44
0.0000000001
 40
0.0
 40
0.0
 40
0.0
 40
0.0
 40
0.1205331334
 40
0.2417239201
 40
0.3639789001
 40
0.4881447013
 40
0.615733222
 40
0.6816555641
 40
0.7476903687
 40
0.8756123337
 40
1.0
 40
1.0
 40
1.0
 40
1.0
 10
573.7990752262
 20
458.0561320953
 30
0.0
 10
573.7658715477
 20
458.0467991713
 30
0.0
 10
573.6987178471
 20
458.0299843659
 30
0.0
 10
573.5959857092
 20
458.0122088323
 30
0.0
 10
573.4907287107
 20
458.0049473927
 30
0.0
 10
573.3836941523
 20
458.0139156874
 30
0.0
 10
573.2959124985
 20
458.0471123625
 30
0.0
 10
573.2418206359
 20
458.0998663036
 30
0.0
 10
573.2080867422
 20
458.1676698473
 30
0.0
 10
573.2052210559
 20
458.2620272934
 30
0.0
 10
573.2243278029
 20
458.3319785944
 30
0.0
 10
573.2363316666
 20
458.3654867316
 30
0.0
  0
SPLINE
  5
317
100
AcDbEntity
  8
0
100
AcDbSpline
 62
7
  6
CONTINUOUS
 70
0
 71
3
 72
8
 73
4
 74
0
 42
0.0000001
 43
0.0000001
 44
0.0000000001
 40
0.0
 40
0.0
 40
0.0
 40
0.0
 40
1.0
 40
1.0
 40
1.0
 40
1.0
 10
575.6870437393
 20
450.8966604742
 30
0.0
 10
575.6911493794
 20
451.230022619
 30
0.0
 10
575.6961460125
 20
451.5633918918
 30
0.0
 10
575.7050202192
 20
451.8966611889
 30
0.0
  0
SPLINE
  5
318
100
AcDbEntity
  8
0
100
AcDbSpline
 62
7
  6
CONTINUOUS
 70
0
 71
3
 72
16
 73
12
 74
0
 42
0.0000001
 43
0.0000001
 44
0.0000000001
 40
0.0
 40
0.0
 40
0.0
 40
0.0
 40
0.1243874327
 40
0.2523080218
 40
0.3183416821
 40
0.3842610371
 40
0.5118516853
 40
0.6360187826
 40
0.7582748014
 40
0.8794662738
 40
1.0
 40
1.0
 40
1.0
 40
1.0
 10
574.6368577468
 20
458.3654867296
 30
0.0
 10
574.648861332
 20
458.3319786765
 30
0.0
 10
574.6679663577
 20
458.2620281425
 30
0.0
 10
574.6651059835
 20
458.1676713222
 30
0.0
 10
574.6313700919
 20
458.0998698175
 30
0.0
 10
574.5772749807
 20
458.0471215282
 30
0.0
 10
574.4894984575
 20
458.0139152182
 30
0.0
 10
574.3824616343
 20
458.0049480697
 30
0.0
 10
574.2772043472
 20
458.0122080739
 30
0.0
 10
574.1744718506
 20
458.0299844258
 30
0.0
 10
574.1073180139
 20
458.0467991612
 30
0.0
 10
574.0741142636
 20
458.0561320758
 30
0.0
  0
SPLINE
  5
319
100
AcDbEntity
  8
0
100
AcDbSpline
 62
7
  6
CONTINUOUS
 70
0
 71
3
 72
9
 73
5
 74
0
 42
0.0000001
 43
0.0000001
 44
0.0000000001
 40
0.0
 40
0.0
 40
0.0
 40
0.0
 40
0.2376061597
 40
1.0
 40
1.0
 40
1.0
 40
1.0
 10
584.9365938827
 20
454.3841587303
 30
0.0
 10
584.9804916565
 20
454.3682089737
 30
0.0
 10
585.1544265423
 20
454.2733555767
 30
0.0
 10
585.2786367048
 20
454.0952953391
 30
0.0
 10
585.3196169268
 20
453.9511457295
 30
0.0
  0
SPLINE
  5
31A
100
AcDbEntity
  8
0
100
AcDbSpline
 62
7
  6
CONTINUOUS
 70
0
 71
3
 72
9
 73
5
 74
0
 42
0.0000001
 43
0.0000001
 44
0.0000000001
 40
0.0
 40
0.0
 40
0.0
 40
0.0
 40
0.2571792093
 40
1.0
 40
1.0
 40
1.0
 40
1.0
 10
584.5535724837
 20
453.9511457295
 30
0.0
 10
584.5673815241
 20
453.9997195949
 30
0.0
 10
584.6432130375
 20
454.180810885
 30
0.0
 10
584.7995068266
 20
454.3343490985
 30
0.0
 10
584.9365954945
 20
454.3841587182
 30
0.0
  0
SPLINE
  5
31B
100
AcDbEntity
  8
0
100
AcDbSpline
 62
7
  6
CONTINUOUS
 70
0
 71
3
 72
16
 73
12
 74
0
 42
0.0000001
 43
0.0000001
 44
0.0000000001
 40
0.0
 40
0.0
 40
0.0
 40
0.0
 40
0.1205331334
 40
0.2417239201
 40
0.3639789001
 40
0.4881447013
 40
0.615733222
 40
0.6816555641
 40
0.7476903687
 40
0.8756123337
 40
1.0
 40
1.0
 40
1.0
 40
1.0
 10
585.0741141843
 20
454.4787808469
 30
0.0
 10
585.1073178628
 20
454.488113771
 30
0.0
 10
585.1744715633
 20
454.5049285763
 30
0.0
 10
585.2772037013
 20
454.5227041099
 30
0.0
 10
585.3824606997
 20
454.5299655495
 30
0.0
 10
585.4894952581
 20
454.5209972548
 30
0.0
 10
585.577276912
 20
454.4878005798
 30
0.0
 10
585.6313687745
 20
454.4350466387
 30
0.0
 10
585.6651026682
 20
454.3672430949
 30
0.0
 10
585.6679683546
 20
454.2728856489
 30
0.0
 10
585.6488616075
 20
454.2029343478
 30
0.0
 10
585.6368577438
 20
454.1694262106
 30
0.0
  0
SPLINE
  5
31C
100
AcDbEntity
  8
0
100
AcDbSpline
 62
7
  6
CONTINUOUS
 70
0
 71
3
 72
8
 73
4
 74
0
 42
0.0000001
 43
0.0000001
 44
0.0000000001
 40
0.0
 40
0.0
 40
0.0
 40
0.0
 40
1.0
 40
1.0
 40
1.0
 40
1.0
 10
585.6870505466
 20
450.8966604612
 30
0.0
 10
585.6911704967
 20
451.2300224085
 30
0.0
 10
585.6961699525
 20
451.563391373
 30
0.0
 10
585.7050260989
 20
451.8966611294
 30
0.0
  0
SPLINE
  5
31D
100
AcDbEntity
  8
0
100
AcDbSpline
 62
7
  6
CONTINUOUS
 70
0
 71
3
 72
16
 73
12
 74
0
 42
0.0000001
 43
0.0000001
 44
0.0000000001
 40
0.0
 40
0.0
 40
0.0
 40
0.0
 40
0.1243874327
 40
0.2523080218
 40
0.3183416821
 40
0.3842610371
 40
0.5118516853
 40
0.6360187826
 40
0.7582748014
 40
0.8794662738
 40
1.0
 40
1.0
 40
1.0
 40
1.0
 10
584.2363316636
 20
454.1694262126
 30
0.0
 10
584.2243280784
 20
454.2029342657
 30
0.0
 10
584.2052230527
 20
454.2728847997
 30
0.0
 10
584.2080834269
 20
454.36724162
 30
0.0
 10
584.2418193185
 20
454.4350431248
 30
0.0
 10
584.2959144297
 20
454.487791414
 30
0.0
 10
584.383690953
 20
454.520997724
 30
0.0
 10
584.4907277761
 20
454.5299648725
 30
0.0
 10
584.5959850632
 20
454.5227048683
 30
0.0
 10
584.6987175599
 20
454.5049285164
 30
0.0
 10
584.7658713966
 20
454.488113781
 30
0.0
 10
584.7990751469
 20
454.4787808665
 30
0.0
  0
SPLINE
  5
31E
100
AcDbEntity
  8
0
100
AcDbSpline
 62
7
  6
CONTINUOUS
 70
0
 71
3
 72
9
 73
5
 74
0
 42
0.0000001
 43
0.0000001
 44
0.0000000001
 40
0.0
 40
0.0
 40
0.0
 40
0.0
 40
0.2593488345
 40
1.0
 40
1.0
 40
1.0
 40
1.0
 10
575.0360387916
 20
450.4816997606
 30
0.0
 10
575.0340806138
 20
450.4795745047
 30
0.0
 10
575.026338059
 20
450.4715614683
 30
0.0
 10
575.0177852439
 20
450.4643129929
 30
0.0
 10
575.0110314668
 20
450.4595700216
 30
0.0
  0
SPLINE
  5
31F
100
AcDbEntity
  8
0
100
AcDbSpline
 62
7
  6
CONTINUOUS
 70
0
 71
3
 72
8
 73
4
 74
0
 42
0.0000001
 43
0.0000001
 44
0.0000000001
 40
0.0
 40
0.0
 40
0.0
 40
0.0
 40
1.0
 40
1.0
 40
1.0
 40
1.0
 10
575.0110314668
 20
450.4595700216
 30
0.0
 10
575.0049775961
 20
450.4553185732
 30
0.0
 10
574.9985480877
 20
450.4515475843
 30
0.0
 10
574.9918487223
 20
450.4484102815
 30
0.0
  0
SPLINE
  5
320
100
AcDbEntity
  8
0
100
AcDbSpline
 62
7
  6
CONTINUOUS
 70
0
 71
3
 72
11
 73
7
 74
0
 42
0.0000001
 43
0.0000001
 44
0.0000000001
 40
0.0
 40
0.0
 40
0.0
 40
0.0
 40
0.2340947758
 40
0.495174925
 40
0.7514377356
 40
1.0
 40
1.0
 40
1.0
 40
1.0
 10
585.6869974079
 20
450.8966604636
 30
0.0
 10
585.7843564004
 20
450.8966657411
 30
0.0
 10
585.9903062348
 20
450.8965343149
 30
0.0
 10
586.3026024863
 20
450.9239002746
 30
0.0
 10
586.6122522532
 20
451.0073509804
 30
0.0
 10
586.7993111496
 20
451.1080485283
 30
0.0
 10
586.8833728606
 20
451.1682167707
 30
0.0
  0
SPLINE
  5
321
100
AcDbEntity
  8
0
100
AcDbSpline
 62
7
  6
CONTINUOUS
 70
0
 71
3
 72
9
 73
5
 74
0
 42
0.0000001
 43
0.0000001
 44
0.0000000001
 40
0.0
 40
0.0
 40
0.0
 40
0.0
 40
0.491675746
 40
1.0
 40
1.0
 40
1.0
 40
1.0
 10
586.8833728606
 20
451.1682167707
 30
0.0
 10
587.0262400587
 20
451.2704651753
 30
0.0
 10
587.2837241863
 20
451.5268415837
 30
0.0
 10
587.4621474415
 20
451.8412009426
 30
0.0
 10
587.5324700046
 20
452.0086708653
 30
0.0
  0
SPLINE
  5
322
100
AcDbEntity
  8
0
100
AcDbSpline
 62
7
  6
CONTINUOUS
 70
0
 71
3
 72
9
 73
5
 74
0
 42
0.0000001
 43
0.0000001
 44
0.0000000001
 40
0.0
 40
0.0
 40
0.0
 40
0.0
 40
0.2651935812
 40
1.0
 40
1.0
 40
1.0
 40
1.0
 10
572.8375073304
 20
450.4813135602
 30
0.0
 10
572.840803312
 20
450.4777362311
 30
0.0
 10
572.8537520145
 20
450.4647545512
 30
0.0
 10
572.8691189306
 20
450.4540385906
 30
0.0
 10
572.8813569531
 20
450.4483917815
 30
0.0
  0
SPLINE
  5
323
100
AcDbEntity
  8
0
100
AcDbSpline
 62
7
  6
CONTINUOUS
 70
0
 71
3
 72
9
 73
5
 74
0
 42
0.0000001
 43
0.0000001
 44
0.0000000001
 40
0.0
 40
0.0
 40
0.0
 40
0.0
 40
0.2571792093
 40
1.0
 40
1.0
 40
1.0
 40
1.0
 10
585.3196169268
 20
458.5837672127
 30
0.0
 10
585.3058078864
 20
458.5351933473
 30
0.0
 10
585.2299763729
 20
458.3541020572
 30
0.0
 10
585.0736825839
 20
458.2005638437
 30
0.0
 10
584.936593916
 20
458.150754224
 30
0.0
  0
SPLINE
  5
324
100
AcDbEntity
  8
0
100
AcDbSpline
 62
7
  6
CONTINUOUS
 70
0
 71
3
 72
9
 73
5
 74
0
 42
0.0000001
 43
0.0000001
 44
0.0000000001
 40
0.0
 40
0.0
 40
0.0
 40
0.0
 40
0.2376061597
 40
1.0
 40
1.0
 40
1.0
 40
1.0
 10
584.9365955278
 20
458.1507542119
 30
0.0
 10
584.8926977539
 20
458.1667039686
 30
0.0
 10
584.7187628682
 20
458.2615573655
 30
0.0
 10
584.5945527056
 20
458.4396176031
 30
0.0
 10
584.5535724837
 20
458.5837672127
 30
0.0
  0
SPLINE
  5
325
100
AcDbEntity
  8
0
100
AcDbSpline
 62
7
  6
CONTINUOUS
 70
0
 71
3
 72
14
 73
10
 74
0
 42
0.0000001
 43
0.0000001
 44
0.0000000001
 40
0.0
 40
0.0
 40
0.0
 40
0.0
 40
0.4435384424
 40
0.612581317
 40
0.7463770882
 40
0.8467973514
 40
0.9174013996
 40
0.9642874425
 40
1.0
 40
1.0
 40
1.0
 40
1.0
 10
580.6623210224
 20
450.8966601443
 30
0.0
 10
580.6898470198
 20
450.8966601443
 30
0.0
 10
580.7278593699
 20
450.8965853277
 30
0.0
 10
580.7741889766
 20
450.8969520308
 30
0.0
 10
580.7991888377
 20
450.8976785203
 30
0.0
 10
580.8181114079
 20
450.8991324397
 30
0.0
 10
580.831343217
 20
450.9016465304
 30
0.0
 10
580.8403942813
 20
450.9056097369
 30
0.0
 10
580.8429796415
 20
450.910605458
 30
0.0
 10
580.8431991524
 20
450.9128108822
 30
0.0
  0
SPLINE
  5
326
100
AcDbEntity
  8
0
100
AcDbSpline
 62
7
  6
CONTINUOUS
 70
0
 71
3
 72
9
 73
5
 74
0
 42
0.0000001
 43
0.0000001
 44
0.0000000001
 40
0.0
 40
0.0
 40
0.0
 40
0.0
 40
0.5083380707
 40
1.0
 40
1.0
 40
1.0
 40
1.0
 10
581.3407685353
 20
452.0084233595
 30
0.0
 10
581.4111119346
 20
451.8409596605
 30
0.0
 10
581.5896433063
 20
451.5266743052
 30
0.0
 10
581.8470993493
 20
451.2702826126
 30
0.0
 10
581.9899772958
 20
451.1680620459
 30
0.0
  0
SPLINE
  5
327
100
AcDbEntity
  8
0
100
AcDbSpline
 62
7
  6
CONTINUOUS
 70
0
 71
3
 72
11
 73
7
 74
0
 42
0.0000001
 43
0.0000001
 44
0.0000000001
 40
0.0
 40
0.0
 40
0.0
 40
0.0
 40
0.2485598537
 40
0.5048021337
 40
0.7658557169
 40
1.0
 40
1.0
 40
1.0
 40
1.0
 10
581.9899772958
 20
451.1680620459
 30
0.0
 10
582.0740445777
 20
451.1079167632
 30
0.0
 10
582.2611156075
 20
451.0072986886
 30
0.0
 10
582.5707214657
 20
450.9238778597
 30
0.0
 10
582.8829976231
 20
450.8965320984
 30
0.0
 10
583.0889409604
 20
450.8966647217
 30
0.0
 10
583.1863131685
 20
450.8966603622
 30
0.0
  0
SPLINE
  5
328
100
AcDbEntity
  8
0
100
AcDbSpline
 62
7
  6
CONTINUOUS
 70
0
 71
3
 72
11
 73
7
 74
0
 42
0.0000001
 43
0.0000001
 44
0.0000000001
 40
0.0
 40
0.0
 40
0.0
 40
0.0
 40
0.2341148078
 40
0.4951856402
 40
0.7514409563
 40
1.0
 40
1.0
 40
1.0
 40
1.0
 10
575.6869482324
 20
450.8966604229
 30
0.0
 10
575.7843156014
 20
450.896665352
 30
0.0
 10
575.990269892
 20
450.8965332595
 30
0.0
 10
576.302568233
 20
450.923894459
 30
0.0
 10
576.612210208
 20
451.0073382128
 30
0.0
 10
576.7992729992
 20
451.1080186168
 30
0.0
 10
576.8833366451
 20
451.168181937
 30
0.0
  0
SPLINE
  5
329
100
AcDbEntity
  8
0
100
AcDbSpline
 62
7
  6
CONTINUOUS
 70
0
 71
3
 72
9
 73
5
 74
0
 42
0.0000001
 43
0.0000001
 44
0.0000000001
 40
0.0
 40
0.0
 40
0.0
 40
0.0
 40
0.4916728459
 40
1.0
 40
1.0
 40
1.0
 40
1.0
 10
576.8833366451
 20
451.168181937
 30
0.0
 10
577.026209753
 20
451.2704265729
 30
0.0
 10
577.2836948873
 20
451.5268126209
 30
0.0
 10
577.4621379497
 20
451.8411681448
 30
0.0
 10
577.5324647385
 20
452.0086415086
 30
0.0
  0
SPLINE
  5
32A
100
AcDbEntity
  8
0
100
AcDbSpline
 62
7
  6
CONTINUOUS
 70
0
 71
3
 72
16
 73
12
 74
0
 42
0.0000001
 43
0.0000001
 44
0.0000000001
 40
0.0
 40
0.0
 40
0.0
 40
0.0
 40
0.1243874327
 40
0.2523080218
 40
0.3183416821
 40
0.3842610371
 40
0.5118516853
 40
0.6360187826
 40
0.7582748014
 40
0.8794662738
 40
1.0
 40
1.0
 40
1.0
 40
1.0
 10
573.2363316636
 20
454.1694262126
 30
0.0
 10
573.2243280785
 20
454.2029342657
 30
0.0
 10
573.2052230527
 20
454.2728847997
 30
0.0
 10
573.2080834269
 20
454.36724162
 30
0.0
 10
573.2418193185
 20
454.4350431248
 30
0.0
 10
573.2959144297
 20
454.487791414
 30
0.0
 10
573.383690953
 20
454.520997724
 30
0.0
 10
573.4907277761
 20
454.5299648725
 30
0.0
 10
573.5959850632
 20
454.5227048683
 30
0.0
 10
573.6987175599
 20
454.5049285164
 30
0.0
 10
573.7658713966
 20
454.488113781
 30
0.0
 10
573.7990751469
 20
454.4787808665
 30
0.0
  0
SPLINE
  5
32B
100
AcDbEntity
  8
0
100
AcDbSpline
 62
7
  6
CONTINUOUS
 70
0
 71
3
 72
14
 73
10
 74
0
 42
0.0000001
 43
0.0000001
 44
0.0000000001
 40
0.0
 40
0.0
 40
0.0
 40
0.0
 40
0.4435384499
 40
0.6125813333
 40
0.746377098
 40
0.8467973644
 40
0.9174014018
 40
0.964287447
 40
1.0
 40
1.0
 40
1.0
 40
1.0
 10
570.6623210059
 20
450.8966601443
 30
0.0
 10
570.689847007
 20
450.8966601443
 30
0.0
 10
570.7278593624
 20
450.8965853281
 30
0.0
 10
570.7741889751
 20
450.8969520308
 30
0.0
 10
570.7991888391
 20
450.8976785203
 30
0.0
 10
570.8181114114
 20
450.8991324397
 30
0.0
 10
570.8313432198
 20
450.9016465324
 30
0.0
 10
570.8403942879
 20
450.9056097372
 30
0.0
 10
570.8429796409
 20
450.9106054639
 30
0.0
 10
570.843199149
 20
450.9128108883
 30
0.0
  0
SPLINE
  5
32C
100
AcDbEntity
  8
0
100
AcDbSpline
 62
7
  6
CONTINUOUS
 70
0
 71
3
 72
9
 73
5
 74
0
 42
0.0000001
 43
0.0000001
 44
0.0000000001
 40
0.0
 40
0.0
 40
0.0
 40
0.0
 40
0.5083392826
 40
1.0
 40
1.0
 40
1.0
 40
1.0
 10
571.3407711283
 20
452.0084089146
 30
0.0
 10
571.4111155553
 20
451.8409460279
 30
0.0
 10
571.5896534741
 20
451.5266669358
 30
0.0
 10
571.8471044655
 20
451.2702727404
 30
0.0
 10
571.9899823091
 20
451.1680540773
 30
0.0
  0
SPLINE
  5
32D
100
AcDbEntity
  8
0
100
AcDbSpline
 62
7
  6
CONTINUOUS
 70
0
 71
3
 72
11
 73
7
 74
0
 42
0.0000001
 43
0.0000001
 44
0.0000000001
 40
0.0
 40
0.0
 40
0.0
 40
0.0
 40
0.248561851
 40
0.5048030518
 40
0.7658542234
 40
1.0
 40
1.0
 40
1.0
 40
1.0
 10
571.9899823091
 20
451.1680540773
 30
0.0
 10
572.07405181
 20
451.1079085658
 30
0.0
 10
572.2611281819
 20
451.0072949527
 30
0.0
 10
572.5707363889
 20
450.9238733882
 30
0.0
 10
572.8830156597
 20
450.8965320971
 30
0.0
 10
573.0889607121
 20
450.8966645354
 30
0.0
 10
573.1863345842
 20
450.8966603456
 30
0.0
  0
SPLINE
  5
32E
100
AcDbEntity
  8
0
100
AcDbSpline
 62
7
  6
CONTINUOUS
 70
0
 71
3
 72
16
 73
12
 74
0
 42
0.0000001
 43
0.0000001
 44
0.0000000001
 40
0.0
 40
0.0
 40
0.0
 40
0.0
 40
0.1205331334
 40
0.2417239201
 40
0.3639789001
 40
0.4881447013
 40
0.615733222
 40
0.6816555641
 40
0.7476903687
 40
0.8756123338
 40
1.0
 40
1.0
 40
1.0
 40
1.0
 10
574.0741141843
 20
454.4787808469
 30
0.0
 10
574.1073178628
 20
454.488113771
 30
0.0
 10
574.1744715633
 20
454.5049285763
 30
0.0
 10
574.2772037013
 20
454.5227041099
 30
0.0
 10
574.3824606997
 20
454.5299655495
 30
0.0
 10
574.4894952581
 20
454.5209972548
 30
0.0
 10
574.577276912
 20
454.4878005798
 30
0.0
 10
574.6313687745
 20
454.4350466387
 30
0.0
 10
574.6651026682
 20
454.3672430949
 30
0.0
 10
574.6679683546
 20
454.2728856489
 30
0.0
 10
574.6488616075
 20
454.2029343478
 30
0.0
 10
574.6368577438
 20
454.1694262106
 30
0.0
  0
SPLINE
  5
32F
100
AcDbEntity
  8
0
100
AcDbSpline
 62
7
  6
CONTINUOUS
 70
0
 71
3
 72
13
 73
9
 74
0
 42
0.0000001
 43
0.0000001
 44
0.0000000001
 40
0.0
 40
0.0
 40
0.0
 40
0.0
 40
0.1252430179
 40
0.2504359945
 40
0.3755949718
 40
0.5007635742
 40
0.7500206174
 40
1.0
 40
1.0
 40
1.0
 40
1.0
 10
572.4702870471
 20
454.169426332
 30
0.0
 10
572.4702918847
 20
454.2523732477
 30
0.0
 10
572.4853840761
 20
454.418778295
 30
0.0
 10
572.5596111806
 20
454.6582962978
 30
0.0
 10
572.6872260541
 20
454.8745573136
 30
0.0
 10
572.919732608
 20
455.1140147889
 30
0.0
 10
573.3004649365
 20
455.3041570711
 30
0.0
 10
573.6335149766
 20
455.3447970053
 30
0.0
 10
573.7990732577
 20
455.3448067402
 30
0.0
  0
SPLINE
  5
330
100
AcDbEntity
  8
0
100
AcDbSpline
 62
7
  6
CONTINUOUS
 70
0
 71
3
 72
16
 73
12
 74
0
 42
0.0000001
 43
0.0000001
 44
0.0000000001
 40
0.0
 40
0.0
 40
0.0
 40
0.0
 40
0.1205331334
 40
0.2417239201
 40
0.3639789001
 40
0.4881447013
 40
0.615733222
 40
0.6816555641
 40
0.7476903687
 40
0.8756123337
 40
1.0
 40
1.0
 40
1.0
 40
1.0
 10
584.7990752262
 20
458.0561320953
 30
0.0
 10
584.7658715477
 20
458.0467991712
 30
0.0
 10
584.6987178471
 20
458.0299843659
 30
0.0
 10
584.5959857092
 20
458.0122088323
 30
0.0
 10
584.4907287107
 20
458.0049473927
 30
0.0
 10
584.3836941523
 20
458.0139156874
 30
0.0
 10
584.2959124985
 20
458.0471123625
 30
0.0
 10
584.2418206359
 20
458.0998663036
 30
0.0
 10
584.2080867422
 20
458.1676698473
 30
0.0
 10
584.2052210559
 20
458.2620272934
 30
0.0
 10
584.2243278029
 20
458.3319785944
 30
0.0
 10
584.2363316666
 20
458.3654867316
 30
0.0
  0
SPLINE
  5
331
100
AcDbEntity
  8
0
100
AcDbSpline
 62
7
  6
CONTINUOUS
 70
0
 71
3
 72
16
 73
12
 74
0
 42
0.0000001
 43
0.0000001
 44
0.0000000001
 40
0.0
 40
0.0
 40
0.0
 40
0.0
 40
0.1243874327
 40
0.2523080218
 40
0.3183416821
 40
0.3842610371
 40
0.5118516853
 40
0.6360187826
 40
0.7582748014
 40
0.8794662738
 40
1.0
 40
1.0
 40
1.0
 40
1.0
 10
585.6368577468
 20
458.3654867296
 30
0.0
 10
585.648861332
 20
458.3319786765
 30
0.0
 10
585.6679663577
 20
458.2620281425
 30
0.0
 10
585.6651059835
 20
458.1676713222
 30
0.0
 10
585.6313700919
 20
458.0998698175
 30
0.0
 10
585.5772749807
 20
458.0471215282
 30
0.0
 10
585.4894984575
 20
458.0139152182
 30
0.0
 10
585.3824616343
 20
458.0049480697
 30
0.0
 10
585.2772043472
 20
458.0122080739
 30
0.0
 10
585.1744718506
 20
458.0299844258
 30
0.0
 10
585.1073180139
 20
458.0467991612
 30
0.0
 10
585.0741142636
 20
458.0561320758
 30
0.0
  0
SPLINE
  5
332
100
AcDbEntity
  8
0
100
AcDbSpline
 62
7
  6
CONTINUOUS
 70
0
 71
3
 72
13
 73
9
 74
0
 42
0.0000001
 43
0.0000001
 44
0.0000000001
 40
0.0
 40
0.0
 40
0.0
 40
0.0
 40
0.0768941615
 40
0.1623798472
 40
0.2621190261
 40
0.3787286007
 40
0.6618718175
 40
1.0
 40
1.0
 40
1.0
 40
1.0
 10
575.0856613699
 20
461.574733238
 30
0.0
 10
575.0651686924
 20
461.59915546
 30
0.0
 10
575.0109521143
 20
461.6421695326
 30
0.0
 10
574.9062578514
 20
461.6767274111
 30
0.0
 10
574.7803996744
 20
461.6847338029
 30
0.0
 10
574.5740098112
 20
461.6595268807
 30
0.0
 10
574.2821730117
 20
461.5587301334
 30
0.0
 10
574.0552449906
 20
461.4352213815
 30
0.0
 10
573.9365947052
 20
461.3605518235
 30
0.0
  0
SPLINE
  5
333
100
AcDbEntity
  8
0
100
AcDbSpline
 62
7
  6
CONTINUOUS
 70
0
 71
3
 72
13
 73
9
 74
0
 42
0.0000001
 43
0.0000001
 44
0.0000000001
 40
0.0
 40
0.0
 40
0.0
 40
0.0
 40
0.3381281825
 40
0.6212713993
 40
0.7378809739
 40
0.8376201528
 40
0.9231058385
 40
1.0
 40
1.0
 40
1.0
 40
1.0
 10
573.9365947052
 20
461.3605518235
 30
0.0
 10
573.8179444198
 20
461.4352213815
 30
0.0
 10
573.5910163988
 20
461.5587301334
 30
0.0
 10
573.2991795993
 20
461.6595268807
 30
0.0
 10
573.0927897361
 20
461.6847338029
 30
0.0
 10
572.9669315591
 20
461.6767274111
 30
0.0
 10
572.8622372961
 20
461.6421695326
 30
0.0
 10
572.808020718
 20
461.59915546
 30
0.0
 10
572.7875280405
 20
461.574733238
 30
0.0
  0
SPLINE
  5
334
100
AcDbEntity
  8
0
100
AcDbSpline
 62
7
  6
CONTINUOUS
 70
0
 71
3
 72
9
 73
5
 74
0
 42
0.0000001
 43
0.0000001
 44
0.0000000001
 40
0.0
 40
0.0
 40
0.0
 40
0.0
 40
0.2382834976
 40
1.0
 40
1.0
 40
1.0
 40
1.0
 10
583.8813569618
 20
450.4483917775
 30
0.0
 10
583.8773872826
 20
450.4502234473
 30
0.0
 10
583.8611597288
 20
450.4588501941
 30
0.0
 10
583.8469773961
 20
450.4710351724
 30
0.0
 10
583.8375076266
 20
450.4813132387
 30
0.0
  0
SPLINE
  5
335
100
AcDbEntity
  8
0
100
AcDbSpline
 62
7
  6
CONTINUOUS
 70
0
 71
3
 72
9
 73
5
 74
0
 42
0.0000001
 43
0.0000001
 44
0.0000000001
 40
0.0
 40
0.0
 40
0.0
 40
0.0
 40
0.2376061597
 40
1.0
 40
1.0
 40
1.0
 40
1.0
 10
573.9365938827
 20
454.3841587303
 30
0.0
 10
573.9804916565
 20
454.3682089737
 30
0.0
 10
574.1544265423
 20
454.2733555767
 30
0.0
 10
574.2786367048
 20
454.0952953391
 30
0.0
 10
574.3196169268
 20
453.9511457295
 30
0.0
  0
SPLINE
  5
336
100
AcDbEntity
  8
0
100
AcDbSpline
 62
7
  6
CONTINUOUS
 70
0
 71
3
 72
9
 73
5
 74
0
 42
0.0000001
 43
0.0000001
 44
0.0000000001
 40
0.0
 40
0.0
 40
0.0
 40
0.0
 40
0.2571792093
 40
1.0
 40
1.0
 40
1.0
 40
1.0
 10
573.5535724837
 20
453.9511457295
 30
0.0
 10
573.5673815241
 20
453.9997195949
 30
0.0
 10
573.6432130375
 20
454.180810885
 30
0.0
 10
573.7995068266
 20
454.3343490985
 30
0.0
 10
573.9365954945
 20
454.3841587182
 30
0.0
  0
SPLINE
  5
337
100
AcDbEntity
  8
0
100
AcDbSpline
 62
7
  6
CONTINUOUS
 70
0
 71
3
 72
12
 73
8
 74
0
 42
0.0000001
 43
0.0000001
 44
0.0000000001
 40
0.0
 40
0.0
 40
0.0
 40
0.0
 40
0.3201833802
 40
0.5990409423
 40
0.7193897922
 40
0.8259989064
 40
1.0
 40
1.0
 40
1.0
 40
1.0
 10
584.9365947052
 20
450.7327684651
 30
0.0
 10
585.0382923226
 20
450.6687676402
 30
0.0
 10
585.2353386807
 20
450.5593061112
 30
0.0
 10
585.4882427915
 20
450.4611758621
 30
0.0
 10
585.6742611011
 20
450.4203445563
 30
0.0
 10
585.8238494749
 20
450.4066341132
 30
0.0
 10
585.9325099499
 20
450.4211390143
 30
0.0
 10
585.9918480935
 20
450.4483988488
 30
0.0
  0
SPLINE
  5
338
100
AcDbEntity
  8
0
100
AcDbSpline
 62
7
  6
CONTINUOUS
 70
0
 71
3
 72
13
 73
9
 74
0
 42
0.0000001
 43
0.0000001
 44
0.0000000001
 40
0.0
 40
0.0
 40
0.0
 40
0.0
 40
0.3381281825
 40
0.6212713993
 40
0.7378809739
 40
0.8376201528
 40
0.9231058385
 40
1.0
 40
1.0
 40
1.0
 40
1.0
 10
584.9365947052
 20
461.3605518235
 30
0.0
 10
584.8179444198
 20
461.4352213815
 30
0.0
 10
584.5910163988
 20
461.5587301334
 30
0.0
 10
584.2991795993
 20
461.6595268807
 30
0.0
 10
584.0927897361
 20
461.6847338029
 30
0.0
 10
583.9669315591
 20
461.6767274111
 30
0.0
 10
583.8622372961
 20
461.6421695326
 30
0.0
 10
583.808020718
 20
461.59915546
 30
0.0
 10
583.7875280405
 20
461.574733238
 30
0.0
  0
SPLINE
  5
339
100
AcDbEntity
  8
0
100
AcDbSpline
 62
7
  6
CONTINUOUS
 70
0
 71
3
 72
13
 73
9
 74
0
 42
0.0000001
 43
0.0000001
 44
0.0000000001
 40
0.0
 40
0.0
 40
0.0
 40
0.0
 40
0.0768941615
 40
0.1623798472
 40
0.2621190261
 40
0.3787286007
 40
0.6618718175
 40
1.0
 40
1.0
 40
1.0
 40
1.0
 10
586.0856613699
 20
461.574733238
 30
0.0
 10
586.0651686924
 20
461.59915546
 30
0.0
 10
586.0109521143
 20
461.6421695326
 30
0.0
 10
585.9062578514
 20
461.6767274111
 30
0.0
 10
585.7803996744
 20
461.6847338029
 30
0.0
 10
585.5740098112
 20
461.6595268807
 30
0.0
 10
585.2821730117
 20
461.5587301334
 30
0.0
 10
585.0552449906
 20
461.4352213815
 30
0.0
 10
584.9365947052
 20
461.3605518235
 30
0.0
  0
SPLINE
  5
33A
100
AcDbEntity
  8
0
100
AcDbSpline
 62
7
  6
CONTINUOUS
 70
0
 71
3
 72
12
 73
8
 74
0
 42
0.0000001
 43
0.0000001
 44
0.0000000001
 40
0.0
 40
0.0
 40
0.0
 40
0.0
 40
0.1740004628
 40
0.2806093469
 40
0.4009580978
 40
0.6798158993
 40
1.0
 40
1.0
 40
1.0
 40
1.0
 10
583.8813370291
 20
450.4484008187
 30
0.0
 10
583.9406747831
 20
450.4211400589
 30
0.0
 10
584.0493354133
 20
450.4066341483
 30
0.0
 10
584.1989240988
 20
450.4203438557
 30
0.0
 10
584.3849432961
 20
450.4611747123
 30
0.0
 10
584.637848911
 20
450.559305141
 30
0.0
 10
584.8348964401
 20
450.6687672326
 30
0.0
 10
584.9365947052
 20
450.7327684651
 30
0.0
  0
ENDSEC
  0
SECTION
  2
OBJECTS
  0
DICTIONARY
  5
C
100
AcDbDictionary
280
0
281
1
  3
ACAD_GROUP
350
D
  3
ACAD_MLINESTYLE
350
17
  3
ACAD_LAYOUT
350
1A
  3
ACAD_PLOTSETTINGS
350
19
  3
ACAD_PLOTSTYLENAME
350
E
  0
DICTIONARY
  5
D
102
{ACAD_REACTORS
330
C
102
}
100
AcDbDictionary
280
0
281
1
  0
ACDBDICTIONARYWDFLT
  5
E
102
{ACAD_REACTORS
330
C
102
}
100
AcDbDictionary
281
1
  3
Normal
350
F
100
AcDbDictionaryWithDefault
340
F
  0
DICTIONARY
  5
17
102
{ACAD_REACTORS
330
C
102
}
100
AcDbDictionary
280
0
281
1
  3
Standard
350
18
  0
DICTIONARY
  5
19
102
{ACAD_REACTORS
330
C
102
}
100
AcDbDictionary
281
1
  0
DICTIONARY
  5
1A
102
{ACAD_REACTORS
330
C
102
}
100
AcDbDictionary
281
1
  3
Model
350
33B
  3
Layout1
350
33C
  0
ACDBPLACEHOLDER
  5
F
102
{ACAD_REACTORS
330
E
102
}
  0
MLINESTYLE
  5
18
102
{ACAD_REACTORS
330
17
102
}
100
AcDbMlineStyle
  2
STANDARD
 70
0
  3

 62
256
 51
90.0
 52
90.0
 71
2
 49
0.5
 62
256
  6
BYLAYER
 49
-0.5
 62
256
  6
BYLAYER
  0
LAYOUT
  5
33B
102
{ACAD_REACTORS
330
1A
102
}
100
AcDbPlotSettings
  1

  2
none_device
  4

  6

 40
0.0
 41
0.0
 42
0.0
 43
0.0
 44
210.0
 45
297.0
 46
0.0
 47
0.0
 48
0.0
 49
0.0
140
0.0
141
0.0
142
1.0
143
1.0
 70
1024
 72
1
 73
0
 74
0
  7

 75
0
147
1.0
148
0.0
149
0.0
100
AcDbLayout
  1
Model
 70
0
 71
0
 10
0.0
 20
0.0
 11
210.0
 21
297.0
 12
0.0
 22
0.0
 32
0.0
 14
0.0
 24
0.0
 34
0.0
 15
0.0
 25
0.0
 35
0.0
146
0.0
 13
0.0
 23
0.0
 33
0.0
 16
1.0
 26
0.0
 36
0.0
 17
0.0
 27
1.0
 37
0.0
 76
0
330
210
345
0
346
0
  0
LAYOUT
  5
33C
102
{ACAD_REACTORS
330
1A
102
}
100
AcDbPlotSettings
  1

  2
none_device
  4

  6

 40
0.0
 41
0.0
 42
0.0
 43
0.0
 44
210.0
 45
297.0
 46
0.0
 47
0.0
 48
0.0
 49
0.0
140
0.0
141
0.0
142
1.0
143
1.0
 70
0
 72
1
 73
0
 74
0
  7

 75
0
147
1.0
148
0.0
149
0.0
100
AcDbLayout
  1
Layout1
 70
0
 71
1
 10
0.0
 20
0.0
 11
210.0
 21
297.0
 12
0.0
 22
0.0
 32
0.0
 14
0.0
 24
0.0
 34
0.0
 15
0.0
 25
0.0
 35
0.0
146
0.0
 13
0.0
 23
0.0
 33
0.0
 16
1.0
 26
0.0
 36
0.0
 17
0.0
 27
1.0
 37
0.0
 76
0
330
211
345
0
346
0
  0
ENDSEC
  0
EOF
