999
DXF file: C:\Users\sesa63760\OneDrive - Schneider Electric\Documents\7-Dev\_Creo\CAD\MCADUE0000163_3D-CAD\drw0001_6.dxf
999
Pro/ENGINEER 2019471 by Parametric Technology Corporation
  0
SECTION
  2
HEADER
  9
$ACADVER
  1
AC1024
  9
$DWGCODEPAGE
  3
ANSI_1252
  9
$EXTMAX
 10
51.2073102011
 20
72.4217672845
 30
0.0
  9
$EXTMIN
 10
0.0
 20
0.0
 30
0.0
  9
$LIMMIN
 10
0.0
 20
0.0
  9
$LIMMAX
 10
51.2073102011
 20
72.4217672845
  9
$VIEWCTR
 10
25.6036551006
 20
36.2108836422
  9
$VIEWSIZE
 40
72.4217672845
  9
$CLAYER
  8
0
  9
$LTSCALE
 40
4.7208263119
  9
$CELTYPE
  6
BYLAYER
  9
$DIMSCALE
 40
1.0
  9
$DIMASZ
 40
0.6096108357
  9
$DIMEXO
 40
1.0
  9
$DIMDLI
 40
3.2616618155
  9
$DIMEXE
 40
1.0
  9
$DIMCEN
 40
0.772498851
  9
$DIMLFAC
 40
1.0
  9
$DIMBLK
  1
_FILLED
  9
$DIMALT
 70
0
  9
$DIMALTF
 40
0.0393700787
  9
$DIMTXT
 40
0.85345517
  9
$DIMTOL
 70
1
  9
$DIMLIM
 70
0
  9
$DIMTFAC
 40
1.0
  9
$DIMTP
 40
0.01
  9
$DIMTM
 40
0.01
  9
$DIMGAP
 40
0.625
  9
$DIMDSEP
 70
46
  9
$AUNITS
 70
0
  9
$PDMODE
 70
3
  9
$PDSIZE
 40
0.3125
  9
$HANDSEED
  5
2CA
  9
$TILEMODE
 70
1
  9
$MEASUREMENT
 70
1
  9
$INSUNITS
 70
4
  0
ENDSEC
  0
SECTION
  2
CLASSES
  0
CLASS
  1
ACDBDICTIONARYWDFLT
  2
AcDbDictionaryWithDefault
  3
AutoCAD 2000
 90
0
 91
1
280
0
281
0
  0
CLASS
  1
ACDBPLACEHOLDER
  2
AcDbPlaceHolder
  3
AutoCAD 2000
 90
0
 91
1
280
0
281
0
  0
CLASS
  1
LAYOUT
  2
AcDbLayout
  3
AutoCAD 2000
 90
0
 91
0
280
0
281
0
  0
ENDSEC
  0
SECTION
  2
TABLES
  0
TABLE
  2
VPORT
  5
8
100
AcDbSymbolTable
 70
2
  0
VPORT
  5
1F4
100
AcDbSymbolTableRecord
100
AcDbViewportTableRecord
  2
*ACTIVE
 70
0
 10
0.0
 20
0.0
 11
1.0
 21
1.0
 12
25.6036551006
 22
36.2108836422
 13
0.0
 23
0.0
 14
1.0
 24
1.0
 15
0.0
 25
0.0
 16
0.0
 26
0.0
 36
1.0
 17
0.0
 27
0.0
 37
0.0
 40
72.4217672845
 41
0.7070707071
 42
50.0
 43
0.0
 44
0.0
 50
0.0
 51
0.0
 71
0
 72
100
 73
1
 74
1
 75
0
 76
0
 77
0
 78
0
  0
ENDTAB
  0
TABLE
  2
LTYPE
  5
5
100
AcDbSymbolTable
 70
6
  0
LTYPE
  5
14
100
AcDbSymbolTableRecord
100
AcDbLinetypeTableRecord
  2
BYBLOCK
 70
0
  3

 72
65
 73
0
 40
0.0
  0
LTYPE
  5
15
100
AcDbSymbolTableRecord
100
AcDbLinetypeTableRecord
  2
BYLAYER
 70
0
  3

 72
65
 73
0
 40
0.0
  0
LTYPE
  5
16
100
AcDbSymbolTableRecord
100
AcDbLinetypeTableRecord
  2
CONTINUOUS
 70
64
  3
Solid line
 72
65
 73
0
 40
0.0
  0
LTYPE
  5
1F5
100
AcDbSymbolTableRecord
100
AcDbLinetypeTableRecord
  2
CENTER
 70
64
  3
____ _ ____ _ ____ _ ____ _ ____ _ ____ _ ____
 72
65
 73
4
 40
0.6
 49
0.375
 74
0
 49
-0.075
 74
0
 49
0.075
 74
0
 49
-0.075
 74
0
  0
LTYPE
  5
1F6
100
AcDbSymbolTableRecord
100
AcDbLinetypeTableRecord
  2
HIDDEN
 70
64
  3
- - - - - - - - - - - - - - - - - - - -
 72
65
 73
2
 40
0.2
 49
0.1
 74
0
 49
-0.1
 74
0
  0
LTYPE
  5
1F7
100
AcDbSymbolTableRecord
100
AcDbLinetypeTableRecord
  2
PHANTOM
 70
64
  3
_____ _ _ _____ _ _ _____ _ _ _____
 72
65
 73
6
 40
0.8
 49
0.45
 74
0
 49
-0.05
 74
0
 49
0.1
 74
0
 49
-0.05
 74
0
 49
0.1
 74
0
 49
-0.05
 74
0
  0
LTYPE
  5
1F8
100
AcDbSymbolTableRecord
100
AcDbLinetypeTableRecord
  2
DOT
 70
64
  3
. . . . . . . . . . . . . . . . . . . .
 72
65
 73
2
 40
0.2
 49
0.1
 74
0
 49
-0.1
 74
0
  0
LTYPE
  5
1F9
100
AcDbSymbolTableRecord
100
AcDbLinetypeTableRecord
  2
DASHED
 70
64
  3
- - - - - - - - - - - - - - - - - - - -
 72
65
 73
2
 40
0.2
 49
0.1
 74
0
 49
-0.1
 74
0
  0
ENDTAB
  0
TABLE
  2
LAYER
  5
2
100
AcDbSymbolTable
 70
36
  0
LAYER
  5
10
100
AcDbSymbolTableRecord
100
AcDbLayerTableRecord
  2
0
 70
0
 62
7
  6
CONTINUOUS
370
-3
390
F
  0
LAYER
  5
1FA
100
AcDbSymbolTableRecord
100
AcDbLayerTableRecord
  2
DEFAULT_1
 70
0
 62
7
  6
CENTER
370
-3
390
F
  0
LAYER
  5
1FB
100
AcDbSymbolTableRecord
100
AcDbLayerTableRecord
  2
DEFAULT_2
 70
0
 62
8
  6
HIDDEN
370
-3
390
F
  0
LAYER
  5
1FC
100
AcDbSymbolTableRecord
100
AcDbLayerTableRecord
  2
DEFAULT_3
 70
0
 62
7
  6
PHANTOM
370
-3
390
F
  0
LAYER
  5
1FD
100
AcDbSymbolTableRecord
100
AcDbLayerTableRecord
  2
00_COMPONENTS
 70
0
 62
7
  6
CONTINUOUS
370
-3
390
F
  0
LAYER
  5
1FE
100
AcDbSymbolTableRecord
100
AcDbLayerTableRecord
  2
01_1_DEFAULT_DATUMS
 70
0
 62
7
  6
CONTINUOUS
370
-3
390
F
  0
LAYER
  5
1FF
100
AcDbSymbolTableRecord
100
AcDbLayerTableRecord
  2
01_PLANES
 70
0
 62
7
  6
CONTINUOUS
370
-3
390
F
  0
LAYER
  5
200
100
AcDbSymbolTableRecord
100
AcDbLayerTableRecord
  2
02_COORD_SYS
 70
0
 62
7
  6
CONTINUOUS
370
-3
390
F
  0
LAYER
  5
201
100
AcDbSymbolTableRecord
100
AcDbLayerTableRecord
  2
03_AXES
 70
0
 62
7
  6
CONTINUOUS
370
-3
390
F
  0
LAYER
  5
202
100
AcDbSymbolTableRecord
100
AcDbLayerTableRecord
  2
04_POINTS
 70
0
 62
7
  6
CONTINUOUS
370
-3
390
F
  0
LAYER
  5
203
100
AcDbSymbolTableRecord
100
AcDbLayerTableRecord
  2
05_CURVES
 70
0
 62
7
  6
CONTINUOUS
370
-3
390
F
  0
LAYER
  5
204
100
AcDbSymbolTableRecord
100
AcDbLayerTableRecord
  2
06_SURFS
 70
0
 62
7
  6
CONTINUOUS
370
-3
390
F
  0
LAYER
  5
205
100
AcDbSymbolTableRecord
100
AcDbLayerTableRecord
  2
07_COSMETICS
 70
0
 62
7
  6
CONTINUOUS
370
-3
390
F
  0
LAYER
  5
206
100
AcDbSymbolTableRecord
100
AcDbLayerTableRecord
  2
10_NOTES
 70
0
 62
7
  6
CONTINUOUS
370
-3
390
F
  0
LAYER
  5
207
100
AcDbSymbolTableRecord
100
AcDbLayerTableRecord
  2
11_NOTES_PUB
 70
0
 62
7
  6
CONTINUOUS
370
-3
390
F
  0
LAYER
  5
208
100
AcDbSymbolTableRecord
100
AcDbLayerTableRecord
  2
13_REF_GTOL
 70
0
 62
7
  6
CONTINUOUS
370
-3
390
F
  0
LAYER
  5
209
100
AcDbSymbolTableRecord
100
AcDbLayerTableRecord
  2
16_MISC
 70
0
 62
7
  6
CONTINUOUS
370
-3
390
F
  0
LAYER
  5
20A
100
AcDbSymbolTableRecord
100
AcDbLayerTableRecord
  2
17_NO_PRINT
 70
0
 62
7
  6
CONTINUOUS
370
-3
390
F
  0
LAYER
  5
20B
100
AcDbSymbolTableRecord
100
AcDbLayerTableRecord
  2
18_DATUM_CAMS_JOINTS
 70
0
 62
7
  6
CONTINUOUS
370
-3
390
F
  0
LAYER
  5
20C
100
AcDbSymbolTableRecord
100
AcDbLayerTableRecord
  2
19_DATUM_FUNCTIONAL
 70
0
 62
7
  6
CONTINUOUS
370
-3
390
F
  0
LAYER
  5
20D
100
AcDbSymbolTableRecord
100
AcDbLayerTableRecord
  2
20_DATUM_KINEMATIC_SCHEME
 70
0
 62
7
  6
CONTINUOUS
370
-3
390
F
  0
ENDTAB
  0
TABLE
  2
STYLE
  5
3
100
AcDbSymbolTable
 70
1
  0
STYLE
  5
11
100
AcDbSymbolTableRecord
100
AcDbTextStyleTableRecord
  2
STANDARD
 70
0
 40
0.0
 41
0.8
 50
0.0
 71
0
 42
0.2
  3
txt
  4

  0
STYLE
  5
20E
100
AcDbSymbolTableRecord
100
AcDbTextStyleTableRecord
  2
TEXTSTYLE_1
 70
0
 40
0.0
 41
0.8
 50
0.0
 71
0
 42
0.2
  3
gdt
  4

  0
ENDTAB
  0
TABLE
  2
VIEW
  5
6
100
AcDbSymbolTable
 70
0
  0
ENDTAB
  0
TABLE
  2
UCS
  5
7
100
AcDbSymbolTable
 70
0
  0
ENDTAB
  0
TABLE
  2
APPID
  5
9
100
AcDbSymbolTable
 70
1
  0
APPID
  5
20F
100
AcDbSymbolTableRecord
100
AcDbRegAppTableRecord
  2
ACAD
 70
0
  0
ENDTAB
  0
TABLE
  2
BLOCK_RECORD
  5
1
100
AcDbSymbolTable
 70
0
  0
BLOCK_RECORD
  5
210
100
AcDbSymbolTableRecord
100
AcDbBlockTableRecord
  2
*Model_Space
  0
BLOCK_RECORD
  5
211
100
AcDbSymbolTableRecord
100
AcDbBlockTableRecord
  2
*Paper_Space
  0
BLOCK_RECORD
  5
212
100
AcDbSymbolTableRecord
100
AcDbBlockTableRecord
  2
_FILLED
  0
ENDTAB
  0
TABLE
  2
DIMSTYLE
  5
A
100
AcDbSymbolTable
 70
1
100
AcDbDimStyleTable
 71
0
  0
DIMSTYLE
105
213
100
AcDbSymbolTableRecord
100
AcDbDimStyleTableRecord
  2
STANDARD
 70
0
  3

  4

 40
1.0
 41
0.6096108357
 42
1.0
 43
0.38
 44
1.0
 45
0.0
 46
0.0
 47
0.01
 48
0.01
140
0.85345517
141
0.09
142
0.0
143
25.4
144
1.0
145
0.0
146
1.0
147
0.625
 71
1
 72
0
 73
0
 74
0
 75
0
 76
0
 77
1
 78
8
 79
2
170
0
171
1
172
0
173
0
174
0
175
0
176
0
177
0
178
0
270
2
179
2
271
2
272
2
273
2
274
2
275
0
280
0
281
0
282
0
283
1
284
8
285
0
286
0
287
3
288
0
340
11
278
46
341
212
342
212
343
212
344
212
  0
ENDTAB
  0
ENDSEC
  0
SECTION
  2
BLOCKS
  0
BLOCK
  5
20
100
AcDbEntity
  8
0
100
AcDbBlockBegin
  2
*Model_Space
 70
0
 10
0.0
 20
0.0
 30
0.0
  3
*Model_Space
  1

  0
ENDBLK
  5
21
100
AcDbEntity
  8
0
100
AcDbBlockEnd
  0
BLOCK
  5
1C
100
AcDbEntity
  8
0
100
AcDbBlockBegin
  2
*Paper_Space
 70
0
 10
0.0
 20
0.0
 30
0.0
  3
*Paper_Space
  1

  0
ENDBLK
  5
1D
100
AcDbEntity
  8
0
100
AcDbBlockEnd
  0
BLOCK
  5
214
100
AcDbEntity
  8
0
100
AcDbBlockBegin
  2
_FILLED
 70
64
 10
0.0
 20
0.0
  3
_FILLED
  1

  0
SOLID
  5
215
100
AcDbEntity
  8
0
  6
BYBLOCK
 62
0
100
AcDbTrace
 10
0.0
 20
0.0
 11
-1.0
 21
0.25
 12
-1.0
 22
-0.25
 13
-1.0
 23
-0.25
  0
ENDBLK
  5
216
100
AcDbEntity
  8
0
  6
BYBLOCK
 62
0
100
AcDbBlockEnd
  0
ENDSEC
  0
SECTION
  2
ENTITIES
  0
LINE
  5
217
100
AcDbEntity
  8
0
100
AcDbLine
 62
7
  6
CONTINUOUS
 10
14.3084196377
 20
16.2108836422
 11
12.9923704155
 21
16.4945573179
  0
LINE
  5
218
100
AcDbEntity
  8
0
100
AcDbLine
 62
7
  6
CONTINUOUS
 10
13.0541317163
 20
16.9833350374
 11
14.3084196377
 21
16.7129739757
  0
LINE
  5
219
100
AcDbEntity
  8
0
100
AcDbLine
 62
7
  6
CONTINUOUS
 10
5.8084196377
 20
47.1108836422
 11
5.8084196377
 21
25.3108836422
  0
LINE
  5
21A
100
AcDbEntity
  8
0
100
AcDbLine
 62
7
  6
CONTINUOUS
 10
14.3084196377
 20
17.2108836422
 11
14.8084196377
 21
17.2108836422
  0
LINE
  5
21B
100
AcDbEntity
  8
0
100
AcDbLine
 62
7
  6
CONTINUOUS
 10
14.8084196377
 20
18.0717105413
 11
14.3084196377
 21
18.0717105413
  0
LINE
  5
21C
100
AcDbEntity
  8
0
100
AcDbLine
 62
7
  6
CONTINUOUS
 10
14.3084196377
 20
16.2108836422
 11
14.3084196377
 21
56.2108836422
  0
LINE
  5
21D
100
AcDbEntity
  8
0
100
AcDbLine
 62
7
  6
CONTINUOUS
 10
14.8084196377
 20
17.2108836422
 11
14.8084196377
 21
55.2108836422
  0
LINE
  5
21E
100
AcDbEntity
  8
0
100
AcDbLine
 62
7
  6
CONTINUOUS
 10
16.3084196377
 20
24.6408836422
 11
14.8084196377
 21
24.6408836422
  0
LINE
  5
21F
100
AcDbEntity
  8
0
100
AcDbLine
 62
7
  6
CONTINUOUS
 10
16.3084196377
 20
47.780686164
 11
16.3084196377
 21
24.6410811205
  0
LINE
  5
220
100
AcDbEntity
  8
0
100
AcDbLine
 62
7
  6
CONTINUOUS
 10
16.7434196377
 20
46.0608826846
 11
16.7434196377
 21
41.7643236142
  0
LINE
  5
221
100
AcDbEntity
  8
0
100
AcDbLine
 62
7
  6
CONTINUOUS
 10
16.7434196377
 20
30.6574475256
 11
16.7434196377
 21
26.3608910724
  0
LINE
  5
222
100
AcDbEntity
  8
0
100
AcDbLine
 62
7
  6
CONTINUOUS
 10
22.3084196377
 20
46.3608836422
 11
22.0084196377
 21
46.0608836422
  0
LINE
  5
223
100
AcDbEntity
  8
0
100
AcDbLine
 62
7
  6
CONTINUOUS
 10
27.3084196377
 20
26.3608836422
 11
16.3084194241
 21
26.3608836422
  0
LINE
  5
224
100
AcDbEntity
  8
0
100
AcDbLine
 62
7
  6
CONTINUOUS
 10
31.8084121749
 20
26.4108836422
 11
27.3084196377
 21
26.4108836422
  0
LINE
  5
225
100
AcDbEntity
  8
0
100
AcDbLine
 62
7
  6
CONTINUOUS
 10
22.0084196377
 20
26.3608836422
 11
22.3084196377
 21
26.0608836422
  0
LINE
  5
226
100
AcDbEntity
  8
0
100
AcDbLine
 62
7
  6
CONTINUOUS
 10
17.4484196377
 20
26.3608836422
 11
17.4484196377
 21
32.1710816669
  0
LINE
  5
227
100
AcDbEntity
  8
0
100
AcDbLine
 62
7
  6
CONTINUOUS
 10
17.4484196377
 20
40.2506856176
 11
17.4484196377
 21
46.0608836422
  0
LINE
  5
228
100
AcDbEntity
  8
0
100
AcDbLine
 62
7
  6
CONTINUOUS
 10
18.1584196377
 20
26.3608836422
 11
18.1584196377
 21
30.6861664549
  0
LINE
  5
229
100
AcDbEntity
  8
0
100
AcDbLine
 62
7
  6
CONTINUOUS
 10
18.1584196377
 20
41.7356008296
 11
18.1584196377
 21
46.0608836422
  0
LINE
  5
22A
100
AcDbEntity
  8
0
100
AcDbLine
 62
7
  6
CONTINUOUS
 10
45.802082705
 20
27.9608836422
 11
33.3084196377
 21
27.9608836422
  0
LINE
  5
22B
100
AcDbEntity
  8
0
100
AcDbLine
 62
7
  6
CONTINUOUS
 10
46.3020556708
 20
28.4608836422
 11
44.5320747097
 21
28.4608927562
  0
LINE
  5
22C
100
AcDbEntity
  8
0
100
AcDbLine
 62
7
  6
CONTINUOUS
 10
18.8484196377
 20
26.3608836422
 11
18.8484196377
 21
32.1710816669
  0
LINE
  5
22D
100
AcDbEntity
  8
0
100
AcDbLine
 62
7
  6
CONTINUOUS
 10
18.8484196377
 20
40.2506856176
 11
18.8484196377
 21
46.0608836422
  0
LINE
  5
22E
100
AcDbEntity
  8
0
100
AcDbLine
 62
7
  6
CONTINUOUS
 10
19.5484196377
 20
26.3608836422
 11
19.5484196377
 21
30.6861664549
  0
LINE
  5
22F
100
AcDbEntity
  8
0
100
AcDbLine
 62
7
  6
CONTINUOUS
 10
19.5484196377
 20
41.7356008296
 11
19.5484196377
 21
46.0608836422
  0
LINE
  5
230
100
AcDbEntity
  8
0
100
AcDbLine
 62
7
  6
CONTINUOUS
 10
20.2584196377
 20
26.3608836422
 11
20.2584196377
 21
32.1710816669
  0
LINE
  5
231
100
AcDbEntity
  8
0
100
AcDbLine
 62
7
  6
CONTINUOUS
 10
20.2584196377
 20
40.2506856176
 11
20.2584196377
 21
46.0608836422
  0
LINE
  5
232
100
AcDbEntity
  8
0
100
AcDbLine
 62
7
  6
CONTINUOUS
 10
44.8119975091
 20
31.4435554139
 11
44.5184196377
 21
31.4177305565
  0
LINE
  5
233
100
AcDbEntity
  8
0
100
AcDbLine
 62
7
  6
CONTINUOUS
 10
44.5184196377
 20
31.3917222522
 11
43.1956510061
 21
31.2759949924
  0
LINE
  5
234
100
AcDbEntity
  8
0
100
AcDbLine
 62
7
  6
CONTINUOUS
 10
16.3084196377
 20
30.5135158289
 11
14.8084196377
 21
30.5135158289
  0
LINE
  5
235
100
AcDbEntity
  8
0
100
AcDbLine
 62
7
  6
CONTINUOUS
 10
44.0667208367
 20
29.5447682494
 11
44.0667344894
 21
29.5447677725
  0
LINE
  5
236
100
AcDbEntity
  8
0
100
AcDbLine
 62
7
  6
CONTINUOUS
 10
20.9584196377
 20
26.3608836422
 11
20.9584196377
 21
30.6861664549
  0
LINE
  5
237
100
AcDbEntity
  8
0
100
AcDbLine
 62
7
  6
CONTINUOUS
 10
20.9584196377
 20
41.7356008296
 11
20.9584196377
 21
46.0608836422
  0
LINE
  5
238
100
AcDbEntity
  8
0
100
AcDbLine
 62
7
  6
CONTINUOUS
 10
21.6684196377
 20
26.3608836422
 11
21.6684196377
 21
32.1710816669
  0
LINE
  5
239
100
AcDbEntity
  8
0
100
AcDbLine
 62
7
  6
CONTINUOUS
 10
21.6684196377
 20
40.2506856176
 11
21.6684196377
 21
46.0608836422
  0
LINE
  5
23A
100
AcDbEntity
  8
0
100
AcDbLine
 62
7
  6
CONTINUOUS
 10
22.3684196377
 20
26.3608836422
 11
22.3684196377
 21
30.6861664549
  0
LINE
  5
23B
100
AcDbEntity
  8
0
100
AcDbLine
 62
7
  6
CONTINUOUS
 10
22.3684196377
 20
41.7356008296
 11
22.3684196377
 21
46.0608836422
  0
LINE
  5
23C
100
AcDbEntity
  8
0
100
AcDbLine
 62
7
  6
CONTINUOUS
 10
14.8084196377
 20
31.2108836422
 11
14.3084196377
 21
31.2108836422
  0
LWPOLYLINE
  5
23D
100
AcDbEntity
  8
0
100
AcDbPolyline
 62
7
  6
CONTINUOUS
 90
17
 70
0
 10
44.0669968454
 20
29.5447848813
 10
44.0667959187
 20
29.5448063087
 10
44.0518089315
 20
29.548330881
 10
44.0103970826
 20
29.5701737055
 10
43.9280495734
 20
29.6382729493
 10
43.8149009732
 20
29.7713636038
 10
43.6768389318
 20
29.9874193984
 10
43.5259532113
 20
30.2918210794
 10
43.4479324858
 20
30.4798162269
 10
43.2899345608
 20
30.9339371627
 10
43.1351785855
 20
31.4953870697
 10
42.990731725
 20
32.1657376386
 10
42.8632984097
 20
32.9419499991
 10
42.7596034558
 20
33.8157533357
 10
42.6865624865
 20
34.7748489871
 10
42.6500769101
 20
35.8001946307
 10
42.6468467685
 20
36.2108836422
  0
LINE
  5
23E
100
AcDbEntity
  8
0
100
AcDbLine
 62
7
  6
CONTINUOUS
 10
23.0784196377
 20
26.3608836422
 11
23.0784196377
 21
32.1710816669
  0
LINE
  5
23F
100
AcDbEntity
  8
0
100
AcDbLine
 62
7
  6
CONTINUOUS
 10
23.0784196377
 20
40.2506856176
 11
23.0784196377
 21
46.0608836422
  0
LINE
  5
240
100
AcDbEntity
  8
0
100
AcDbLine
 62
7
  6
CONTINUOUS
 10
23.7784196377
 20
26.3608836422
 11
23.7784196377
 21
30.6861664549
  0
LINE
  5
241
100
AcDbEntity
  8
0
100
AcDbLine
 62
7
  6
CONTINUOUS
 10
23.7784196377
 20
41.7356008296
 11
23.7784196377
 21
46.0608836422
  0
LINE
  5
242
100
AcDbEntity
  8
0
100
AcDbLine
 62
7
  6
CONTINUOUS
 10
46.285018584
 20
33.1397678764
 11
46.3019202153
 21
33.1397678764
  0
LINE
  5
243
100
AcDbEntity
  8
0
100
AcDbLine
 62
7
  6
CONTINUOUS
 10
32.3084196377
 20
33.7108836422
 11
33.3084196377
 21
33.7108836422
  0
LINE
  5
244
100
AcDbEntity
  8
0
100
AcDbLine
 62
7
  6
CONTINUOUS
 10
24.4884196377
 20
26.3608836422
 11
24.4884196377
 21
32.1710816669
  0
LINE
  5
245
100
AcDbEntity
  8
0
100
AcDbLine
 62
7
  6
CONTINUOUS
 10
24.4884196377
 20
40.2506856176
 11
24.4884196377
 21
46.0608836422
  0
LINE
  5
246
100
AcDbEntity
  8
0
100
AcDbLine
 62
7
  6
CONTINUOUS
 10
25.1884196377
 20
26.3608836422
 11
25.1884196377
 21
30.6861664549
  0
LINE
  5
247
100
AcDbEntity
  8
0
100
AcDbLine
 62
7
  6
CONTINUOUS
 10
25.1884196377
 20
41.7356008296
 11
25.1884196377
 21
46.0608836422
  0
LINE
  5
248
100
AcDbEntity
  8
0
100
AcDbLine
 62
7
  6
CONTINUOUS
 10
25.8984196377
 20
26.3608836422
 11
25.8984196377
 21
32.1710816669
  0
LINE
  5
249
100
AcDbEntity
  8
0
100
AcDbLine
 62
7
  6
CONTINUOUS
 10
25.8984196377
 20
40.2506856176
 11
25.8984196377
 21
46.0608836422
  0
LINE
  5
24A
100
AcDbEntity
  8
0
100
AcDbLine
 62
7
  6
CONTINUOUS
 10
42.629789746
 20
36.2108836422
 11
42.6468467685
 21
36.2108836422
  0
LINE
  5
24B
100
AcDbEntity
  8
0
100
AcDbLine
 62
7
  6
CONTINUOUS
 10
45.7537803734
 20
36.2108836421
 11
46.2363194862
 21
36.2108836421
  0
LINE
  5
24C
100
AcDbEntity
  8
0
100
AcDbLine
 62
7
  6
CONTINUOUS
 10
42.4554726277
 20
36.2108836424
 11
41.9725094724
 21
36.2108836424
  0
LINE
  5
24D
100
AcDbEntity
  8
0
100
AcDbLine
 62
7
  6
CONTINUOUS
 10
26.5984196377
 20
26.3608836422
 11
26.5984196377
 21
30.6861664549
  0
LINE
  5
24E
100
AcDbEntity
  8
0
100
AcDbLine
 62
7
  6
CONTINUOUS
 10
26.5984196377
 20
41.7356008296
 11
26.5984196377
 21
46.0608836422
  0
LINE
  5
24F
100
AcDbEntity
  8
0
100
AcDbLine
 62
7
  6
CONTINUOUS
 10
27.3084196377
 20
46.0608836422
 11
27.3084196377
 21
26.3608836422
  0
LINE
  5
250
100
AcDbEntity
  8
0
100
AcDbLine
 62
7
  6
CONTINUOUS
 10
29.8084196377
 20
46.0107118014
 11
29.8084196377
 21
45.6866421871
  0
LINE
  5
251
100
AcDbEntity
  8
0
100
AcDbLine
 62
7
  6
CONTINUOUS
 10
44.0581778301
 20
42.875410227
 11
44.0667145596
 21
42.8769879957
  0
LINE
  5
252
100
AcDbEntity
  8
0
100
AcDbLine
 62
7
  6
CONTINUOUS
 10
33.3084196377
 20
38.7108836422
 11
32.3084196377
 21
38.7108836422
  0
LINE
  5
253
100
AcDbEntity
  8
0
100
AcDbLine
 62
7
  6
CONTINUOUS
 10
46.3020556708
 20
39.2819994081
 11
46.285018584
 21
39.2819994081
  0
LINE
  5
254
100
AcDbEntity
  8
0
100
AcDbLine
 62
7
  6
CONTINUOUS
 10
31.8084374605
 20
45.6866422338
 11
31.8084121749
 21
26.4108836422
  0
LINE
  5
255
100
AcDbEntity
  8
0
100
AcDbLine
 62
7
  6
CONTINUOUS
 10
22.3084196377
 20
26.0608836422
 11
22.6084196377
 21
26.3608836422
  0
LINE
  5
256
100
AcDbEntity
  8
0
100
AcDbLine
 62
7
  6
CONTINUOUS
 10
14.8084196377
 20
41.2108836422
 11
14.3084196377
 21
41.2108836422
  0
LINE
  5
257
100
AcDbEntity
  8
0
100
AcDbLine
 62
7
  6
CONTINUOUS
 10
14.8084196377
 20
41.9082514555
 11
16.3084196377
 21
41.9082514555
  0
LINE
  5
258
100
AcDbEntity
  8
0
100
AcDbLine
 62
7
  6
CONTINUOUS
 10
22.6084196377
 20
46.0608836422
 11
22.3084196377
 21
46.3608836422
  0
LINE
  5
259
100
AcDbEntity
  8
0
100
AcDbLine
 62
7
  6
CONTINUOUS
 10
32.3084196377
 20
45.1685787681
 11
32.3084196377
 21
26.9108667288
  0
LINE
  5
25A
100
AcDbEntity
  8
0
100
AcDbLine
 62
7
  6
CONTINUOUS
 10
33.3084196377
 20
27.9608836422
 11
33.3084196377
 21
33.7108836405
  0
LINE
  5
25B
100
AcDbEntity
  8
0
100
AcDbLine
 62
7
  6
CONTINUOUS
 10
33.3084196377
 20
38.7108836576
 11
33.3084196377
 21
44.4608836422
  0
LINE
  5
25C
100
AcDbEntity
  8
0
100
AcDbLine
 62
7
  6
CONTINUOUS
 10
44.0668430403
 20
42.8770032907
 11
44.0667182885
 21
42.8769989457
  0
LINE
  5
25D
100
AcDbEntity
  8
0
100
AcDbLine
 62
7
  6
CONTINUOUS
 10
46.3020556708
 20
43.9608836422
 11
44.5320747096
 21
43.9608745282
  0
LINE
  5
25E
100
AcDbEntity
  8
0
100
AcDbLine
 62
7
  6
CONTINUOUS
 10
44.5184196377
 20
41.0300450323
 11
43.1955248447
 21
41.1457833298
  0
LINE
  5
25F
100
AcDbEntity
  8
0
100
AcDbLine
 62
7
  6
CONTINUOUS
 10
44.5184196377
 20
41.004036728
 11
44.8119975091
 21
40.9782118706
  0
LINE
  5
260
100
AcDbEntity
  8
0
100
AcDbLine
 62
7
  6
CONTINUOUS
 10
33.3084196377
 20
44.4608836422
 11
45.8020824288
 21
44.4608836422
  0
LINE
  5
261
100
AcDbEntity
  8
0
100
AcDbLine
 62
7
  6
CONTINUOUS
 10
31.8084325097
 20
45.6866431445
 11
29.8084196377
 21
45.6866426658
  0
LINE
  5
262
100
AcDbEntity
  8
0
100
AcDbLine
 62
7
  6
CONTINUOUS
 10
31.8084121749
 20
26.4108583566
 11
32.3084196377
 21
26.9108667288
  0
LINE
  5
263
100
AcDbEntity
  8
0
100
AcDbLine
 62
7
  6
CONTINUOUS
 10
29.8084196377
 20
46.0108836422
 11
27.3084196377
 21
46.0108836422
  0
LINE
  5
264
100
AcDbEntity
  8
0
100
AcDbLine
 62
7
  6
CONTINUOUS
 10
16.3083983919
 20
46.0608836422
 11
27.3084196377
 21
46.0608836422
  0
LINE
  5
265
100
AcDbEntity
  8
0
100
AcDbLine
 62
7
  6
CONTINUOUS
 10
16.3084196377
 20
47.7808836422
 11
14.8084196377
 21
47.7808836422
  0
LINE
  5
266
100
AcDbEntity
  8
0
100
AcDbLine
 62
7
  6
CONTINUOUS
 10
43.9159670529
 20
29.4707305362
 11
43.3410973863
 21
30.6431458263
  0
LWPOLYLINE
  5
267
100
AcDbEntity
  8
0
100
AcDbPolyline
 62
7
  6
CONTINUOUS
 90
3
 70
0
 10
42.8966537659
 20
32.5681717386
 10
42.6599002072
 20
34.947319917
 10
42.629789746
 20
36.2108836422
  0
LWPOLYLINE
  5
268
100
AcDbEntity
  8
0
100
AcDbPolyline
 62
7
  6
CONTINUOUS
 90
14
 70
0
 10
42.6468467685
 20
36.2108836422
 10
42.6645391419
 20
37.1715381883
 10
42.7234274718
 20
38.1952654657
 10
42.8180747222
 20
39.137269136
 10
42.9411285056
 20
39.9801215729
 10
43.0849058809
 20
40.7121963949
 10
43.2418155309
 20
41.3272263304
 10
43.4039032956
 20
41.8257795718
 10
43.5635666564
 20
42.2128589915
 10
43.7152579259
 20
42.5002911624
 10
43.8509908745
 20
42.697319487
 10
43.9572033361
 20
42.8106643243
 10
44.0295957141
 20
42.8631582475
 10
44.0581778301
 20
42.875410227
  0
LINE
  5
269
100
AcDbEntity
  8
0
100
AcDbLine
 62
7
  6
CONTINUOUS
 10
42.8392715296
 20
39.282455901
 11
42.8945198537
 21
39.8400659633
  0
LWPOLYLINE
  5
26A
100
AcDbEntity
  8
0
100
AcDbPolyline
 62
7
  6
CONTINUOUS
 90
3
 70
0
 10
42.8945198537
 20
39.8400659633
 10
43.337548029
 20
41.7678630479
 10
43.9127251675
 20
42.9463975795
  0
LINE
  5
26B
100
AcDbEntity
  8
0
100
AcDbLine
 62
7
  6
CONTINUOUS
 10
43.3410973863
 20
30.6431458263
 11
42.8966537659
 21
32.5681717386
  0
LINE
  5
26C
100
AcDbEntity
  8
0
100
AcDbLine
 62
7
  6
CONTINUOUS
 10
44.5184196377
 20
41.0300422906
 11
44.5184196377
 21
41.004036728
  0
LINE
  5
26D
100
AcDbEntity
  8
0
100
AcDbLine
 62
7
  6
CONTINUOUS
 10
44.5184196377
 20
31.4177305565
 11
44.5184196377
 21
31.3917249939
  0
LINE
  5
26E
100
AcDbEntity
  8
0
100
AcDbLine
 62
7
  6
CONTINUOUS
 10
44.8119975091
 20
40.9782118706
 11
44.8119975091
 21
31.4435554139
  0
LINE
  5
26F
100
AcDbEntity
  8
0
100
AcDbLine
 62
7
  6
CONTINUOUS
 10
45.2684196377
 20
40.477062656
 11
45.2684196377
 21
31.9447046285
  0
LINE
  5
270
100
AcDbEntity
  8
0
100
AcDbLine
 62
7
  6
CONTINUOUS
 10
14.3084196377
 20
54.3500567432
 11
14.8084196377
 21
54.3500567432
  0
LINE
  5
271
100
AcDbEntity
  8
0
100
AcDbLine
 62
7
  6
CONTINUOUS
 10
14.8084196377
 20
55.2108836422
 11
14.3084196377
 21
55.2108836422
  0
LWPOLYLINE
  5
272
100
AcDbEntity
  8
0
100
AcDbPolyline
 62
7
  6
CONTINUOUS
 90
4
 70
0
 10
46.3015491542
 20
33.1622680977
 10
46.2668863257
 20
34.0985436152
 10
46.2432826744
 20
35.1971253636
 10
46.2363194862
 20
36.2108836421
  0
LINE
  5
273
100
AcDbEntity
  8
0
100
AcDbLine
 62
7
  6
CONTINUOUS
 10
46.3015494097
 20
33.1622624283
 11
46.3020556708
 21
33.1397678764
  0
LINE
  5
274
100
AcDbEntity
  8
0
100
AcDbLine
 62
7
  6
CONTINUOUS
 10
46.285018584
 20
43.960882725
 11
46.285018584
 21
39.2819994081
  0
LINE
  5
275
100
AcDbEntity
  8
0
100
AcDbLine
 62
7
  6
CONTINUOUS
 10
46.285018584
 20
33.1397678763
 11
46.285018584
 21
28.4608836422
  0
LINE
  5
276
100
AcDbEntity
  8
0
100
AcDbLine
 62
7
  6
CONTINUOUS
 10
46.3020556708
 20
43.9608836422
 11
46.3020556708
 21
39.2819994081
  0
LINE
  5
277
100
AcDbEntity
  8
0
100
AcDbLine
 62
7
  6
CONTINUOUS
 10
46.3020556708
 20
28.4608836422
 11
46.3020556708
 21
33.1397678764
  0
LWPOLYLINE
  5
278
100
AcDbEntity
  8
0
100
AcDbPolyline
 62
7
  6
CONTINUOUS
 90
4
 70
0
 10
46.2363194862
 20
36.2108836421
 10
46.2432826744
 20
37.2246419208
 10
46.2668863256
 20
38.3232236692
 10
46.3015491542
 20
39.2594991867
  0
LINE
  5
279
100
AcDbEntity
  8
0
100
AcDbLine
 62
7
  6
CONTINUOUS
 10
46.3015494097
 20
39.2595048561
 11
46.3020556708
 21
39.2819994081
  0
LINE
  5
27A
100
AcDbEntity
  8
0
100
AcDbLine
 62
7
  6
CONTINUOUS
 10
14.3084196377
 20
55.7087933088
 11
13.0541317086
 21
55.4384322454
  0
LINE
  5
27B
100
AcDbEntity
  8
0
100
AcDbLine
 62
7
  6
CONTINUOUS
 10
12.9923650899
 20
55.9272088186
 11
14.3084196377
 21
56.2108836422
  0
ARC
  5
27C
100
AcDbEntity
  8
0
100
AcDbCircle
 62
7
  6
CONTINUOUS
 10
33.9212837748
 20
33.7603021407
 40
18.9510138187
100
AcDbArc
 50
155.0169891913
 51
158.339822375
  0
ARC
  5
27D
100
AcDbEntity
  8
0
100
AcDbCircle
 62
7
  6
CONTINUOUS
 10
13.3084196377
 20
17.9608836422
 40
1.5
100
AcDbArc
 50
169.22446239
 51
257.8365501014
  0
ARC
  5
27E
100
AcDbEntity
  8
0
100
AcDbCircle
 62
7
  6
CONTINUOUS
 10
11.7984196377
 20
19.7408836422
 40
1.5
100
AcDbArc
 50
168.8421884912
 51
291.1819908799
  0
ARC
  5
27F
100
AcDbEntity
  8
0
100
AcDbCircle
 62
7
  6
CONTINUOUS
 10
10.2984196377
 20
21.5308836422
 40
1.5
100
AcDbArc
 50
169.2244604873
 51
271.0830745046
  0
ARC
  5
280
100
AcDbEntity
  8
0
100
AcDbCircle
 62
7
  6
CONTINUOUS
 10
8.7884196377
 20
23.3108836422
 40
1.5
100
AcDbArc
 50
169.2350509351
 51
271.392396381
  0
ARC
  5
281
100
AcDbEntity
  8
0
100
AcDbCircle
 62
7
  6
CONTINUOUS
 10
7.292198597
 20
25.0908836422
 40
1.5
100
AcDbArc
 50
171.5661959021
 51
270.8639955506
  0
ARC
  5
282
100
AcDbEntity
  8
0
100
AcDbCircle
 62
7
  6
CONTINUOUS
 10
13.2650142562
 20
17.9609697464
 40
1.0000919117
100
AcDbArc
 50
157.5911952226
 51
257.8274132738
  0
ARC
  5
283
100
AcDbEntity
  8
0
100
AcDbCircle
 62
7
  6
CONTINUOUS
 10
33.3084196377
 20
28.9608836422
 40
1.0
100
AcDbArc
 50
179.9999999999
 51
270.0
  0
ARC
  5
284
100
AcDbEntity
  8
0
100
AcDbCircle
 62
7
  6
CONTINUOUS
 10
33.9649638806
 20
38.6800616698
 40
18.9985356449
100
AcDbArc
 50
201.6639183756
 51
204.9783621506
  0
ARC
  5
285
100
AcDbEntity
  8
0
100
AcDbCircle
 62
7
  6
CONTINUOUS
 10
13.3084196377
 20
54.4608836422
 40
1.5
100
AcDbArc
 50
102.163450834
 51
190.7755376274
  0
ARC
  5
286
100
AcDbEntity
  8
0
100
AcDbCircle
 62
7
  6
CONTINUOUS
 10
7.292198597
 20
47.3308836422
 40
1.5
100
AcDbArc
 50
89.1360044494
 51
188.4338040979
  0
ARC
  5
287
100
AcDbEntity
  8
0
100
AcDbCircle
 62
7
  6
CONTINUOUS
 10
8.7884196377
 20
49.1108836422
 40
1.5
100
AcDbArc
 50
88.607603619
 51
190.7649490649
  0
ARC
  5
288
100
AcDbEntity
  8
0
100
AcDbCircle
 62
7
  6
CONTINUOUS
 10
10.2984196377
 20
50.8908836422
 40
1.5
100
AcDbArc
 50
88.9169254954
 51
190.7755395127
  0
ARC
  5
289
100
AcDbEntity
  8
0
100
AcDbCircle
 62
7
  6
CONTINUOUS
 10
11.7984196377
 20
52.6808836422
 40
1.5
100
AcDbArc
 50
68.8180091202
 51
191.1578115088
  0
ARC
  5
28A
100
AcDbEntity
  8
0
100
AcDbCircle
 62
7
  6
CONTINUOUS
 10
13.2650136688
 20
54.460797624
 40
1.0000914582
100
AcDbArc
 50
102.172555324
 51
202.408822155
  0
ARC
  5
28B
100
AcDbEntity
  8
0
100
AcDbCircle
 62
7
  6
CONTINUOUS
 10
33.3084196377
 20
43.4608836422
 40
1.0
100
AcDbArc
 50
90.0
 51
180.0
  0
ARC
  5
28C
100
AcDbEntity
  8
0
100
AcDbCircle
 62
7
  6
CONTINUOUS
 10
45.8020556708
 20
28.4608836422
 40
0.5
100
AcDbArc
 50
270.0000202936
 51
360.0
  0
ARC
  5
28D
100
AcDbEntity
  8
0
100
AcDbCircle
 62
7
  6
CONTINUOUS
 10
68.7314090569
 20
36.2192191595
 40
26.1016206418
100
AcDbArc
 50
176.0422277296
 51
180.01829733
  0
ARC
  5
28E
100
AcDbEntity
  8
0
100
AcDbCircle
 62
7
  6
CONTINUOUS
 10
65.2168549983
 20
36.4553549228
 40
22.5791508288
100
AcDbArc
 50
172.7125727302
 51
176.0244490152
  0
ARC
  5
28F
100
AcDbEntity
  8
0
100
AcDbCircle
 62
7
  6
CONTINUOUS
 10
45.8020556708
 20
43.9608836422
 40
0.5
100
AcDbArc
 50
0.0
 51
89.9999349494
  0
SPLINE
  5
290
100
AcDbEntity
  8
0
100
AcDbSpline
 62
7
  6
CONTINUOUS
 70
0
 71
3
 72
11
 73
7
 74
0
 42
0.0000001
 43
0.0000001
 44
0.0000000001
 40
0.0
 40
0.0
 40
0.0
 40
0.0
 40
0.2500122811
 40
0.4999813171
 40
0.749957175
 40
1.0
 40
1.0
 40
1.0
 40
1.0
 10
44.8119975091
 20
31.4435554139
 30
0.0
 10
44.8734258643
 20
31.4489591761
 30
0.0
 10
44.9954375659
 20
31.483246427
 30
0.0
 10
45.1461211465
 20
31.5975788376
 30
0.0
 10
45.2454314879
 20
31.7585052604
 30
0.0
 10
45.2684196377
 20
31.8830315171
 30
0.0
 10
45.2684196377
 20
31.9447046285
 30
0.0
  0
SPLINE
  5
291
100
AcDbEntity
  8
0
100
AcDbSpline
 62
7
  6
CONTINUOUS
 70
0
 71
3
 72
11
 73
7
 74
0
 42
0.0000001
 43
0.0000001
 44
0.0000000001
 40
0.0
 40
0.0
 40
0.0
 40
0.0
 40
0.2500479832
 40
0.5000300516
 40
0.7499984297
 40
1.0
 40
1.0
 40
1.0
 40
1.0
 10
45.2684196377
 20
40.477062656
 30
0.0
 10
45.2684196377
 20
40.5387370304
 30
0.0
 10
45.2454305911
 20
40.6632661977
 30
0.0
 10
45.1461163891
 20
40.8241936537
 30
0.0
 10
44.9954320894
 20
40.9385228099
 30
0.0
 10
44.8734232235
 20
40.9728083407
 30
0.0
 10
44.8119975091
 20
40.9782118706
 30
0.0
  0
SPLINE
  5
292
100
AcDbEntity
  8
0
100
AcDbSpline
 62
7
  6
CONTINUOUS
 70
0
 71
3
 72
8
 73
4
 74
0
 42
0.0000001
 43
0.0000001
 44
0.0000000001
 40
0.0
 40
0.0
 40
0.0
 40
0.0
 40
1.0
 40
1.0
 40
1.0
 40
1.0
 10
32.3084205774
 20
45.1685736805
 30
0.0
 10
32.14192882
 20
45.3414283047
 30
0.0
 10
31.9752571573
 20
45.5141097757
 30
0.0
 10
31.8084325097
 20
45.6866431445
 30
0.0
  0
SPLINE
  5
293
100
AcDbEntity
  8
0
100
AcDbSpline
 62
7
  6
CONTINUOUS
 70
0
 71
3
 72
15
 73
11
 74
0
 42
0.0000001
 43
0.0000001
 44
0.0000000001
 40
0.0
 40
0.0
 40
0.0
 40
0.0
 40
0.1469637519
 40
0.2741046894
 40
0.3920417795
 40
0.5055497591
 40
0.6183585389
 40
0.7342201644
 40
0.8579303488
 40
1.0
 40
1.0
 40
1.0
 40
1.0
 10
44.5320747095
 20
43.9608836422
 30
0.0
 10
44.5320747095
 20
43.9986528258
 30
0.0
 10
44.5252323751
 20
44.069503702
 30
0.0
 10
44.492756951
 20
44.1655518068
 30
0.0
 10
44.4484227909
 20
44.2468443585
 30
0.0
 10
44.3926357238
 20
44.3161247301
 30
0.0
 10
44.3257588969
 20
44.3739772425
 30
0.0
 10
44.2472194944
 20
44.4199860357
 30
0.0
 10
44.1543865961
 20
44.4537281896
 30
0.0
 10
44.0856363065
 20
44.4608827524
 30
0.0
 10
44.0491248902
 20
44.4608836421
 30
0.0
  0
SPLINE
  5
294
100
AcDbEntity
  8
0
100
AcDbSpline
 62
7
  6
CONTINUOUS
 70
0
 71
3
 72
9
 73
5
 74
0
 42
0.0000001
 43
0.0000001
 44
0.0000000001
 40
0.0
 40
0.0
 40
0.0
 40
0.0
 40
0.2500326557
 40
1.0
 40
1.0
 40
1.0
 40
1.0
 10
24.4884196377
 20
40.2506856176
 30
0.0
 10
24.5403817345
 20
40.3772897181
 30
0.0
 10
24.7553538558
 20
40.8806990939
 30
0.0
 10
24.9965139031
 20
41.3727352781
 30
0.0
 10
25.1884196377
 20
41.7356008296
 30
0.0
  0
SPLINE
  5
295
100
AcDbEntity
  8
0
100
AcDbSpline
 62
7
  6
CONTINUOUS
 70
0
 71
3
 72
9
 73
5
 74
0
 42
0.0000001
 43
0.0000001
 44
0.0000000001
 40
0.0
 40
0.0
 40
0.0
 40
0.0
 40
0.7499668341
 40
1.0
 40
1.0
 40
1.0
 40
1.0
 10
25.1884196377
 20
41.7356008296
 30
0.0
 10
25.3829653051
 20
41.3729246415
 30
0.0
 10
25.6275511403
 20
40.8809683653
 30
0.0
 10
25.8456864635
 20
40.3773588083
 30
0.0
 10
25.8984196377
 20
40.2506856176
 30
0.0
  0
LINE
  5
296
100
AcDbEntity
  8
0
100
AcDbLine
 62
7
  6
CONTINUOUS
 10
42.0936325008
 20
38.986283021
 11
42.098476561
 21
39.0396979481
  0
SPLINE
  5
297
100
AcDbEntity
  8
0
100
AcDbSpline
 62
7
  6
CONTINUOUS
 70
0
 71
3
 72
9
 73
5
 74
0
 42
0.0000001
 43
0.0000001
 44
0.0000000001
 40
0.0
 40
0.0
 40
0.0
 40
0.0
 40
0.507390025
 40
1.0
 40
1.0
 40
1.0
 40
1.0
 10
41.9725124521
 20
36.2108836435
 30
0.0
 10
41.9725124522
 20
36.680848861
 30
0.0
 10
41.9926126678
 20
37.6071905469
 30
0.0
 10
42.0528712271
 20
38.5318321028
 30
0.0
 10
42.0936394805
 20
38.9862824649
 30
0.0
  0
SPLINE
  5
298
100
AcDbEntity
  8
0
100
AcDbSpline
 62
7
  6
CONTINUOUS
 70
0
 71
3
 72
26
 73
22
 74
0
 42
0.0000001
 43
0.0000001
 44
0.0000000001
 40
0.0
 40
0.0
 40
0.0
 40
0.0
 40
0.0113682034
 40
0.0231239847
 40
0.0356105903
 40
0.0491080528
 40
0.0638320749
 40
0.079943141
 40
0.0975584965
 40
0.1167630618
 40
0.1601327259
 40
0.2102129111
 40
0.2669020146
 40
0.3300008527
 40
0.3991626793
 40
0.473844571
 40
0.553451668
 40
0.6373528563
 40
0.7248389305
 40
0.8150421168
 40
1.0
 40
1.0
 40
1.0
 40
1.0
 10
44.0491162526
 20
27.9608836422
 30
0.0
 10
44.0155753743
 20
27.9608836573
 30
0.0
 10
43.9471811635
 20
27.9676252054
 30
0.0
 10
43.8458909794
 20
27.9974894684
 30
0.0
 10
43.7454943413
 20
28.0467163578
 30
0.0
 10
43.6461988126
 20
28.1149173252
 30
0.0
 10
43.5480766818
 20
28.2018222389
 30
0.0
 10
43.4512320341
 20
28.3072513964
 30
0.0
 10
43.3557869873
 20
28.4310651106
 30
0.0
 10
43.2253054817
 20
28.6286294584
 30
0.0
 10
43.0691585952
 20
28.9228658189
 30
0.0
 10
42.8970939782
 20
29.3314751026
 30
0.0
 10
42.7349854337
 20
29.8060717829
 30
0.0
 10
42.5846841877
 20
30.3431536454
 30
0.0
 10
42.4478275984
 20
30.9383768923
 30
0.0
 10
42.3255937798
 20
31.5863688635
 30
0.0
 10
42.2194231824
 20
32.2811917419
 30
0.0
 10
42.1307730887
 20
33.0165166238
 30
0.0
 10
42.0609061397
 20
33.7852568539
 30
0.0
 10
41.9928511792
 20
34.8531324757
 30
0.0
 10
41.9725094724
 20
35.6651817759
 30
0.0
 10
41.9725094724
 20
36.2108836435
 30
0.0
  0
SPLINE
  5
299
100
AcDbEntity
  8
0
100
AcDbSpline
 62
7
  6
CONTINUOUS
 70
0
 71
3
 72
9
 73
5
 74
0
 42
0.0000001
 43
0.0000001
 44
0.0000000001
 40
0.0
 40
0.0
 40
0.0
 40
0.0
 40
0.2500326557
 40
1.0
 40
1.0
 40
1.0
 40
1.0
 10
25.8984196377
 20
40.2506856176
 30
0.0
 10
25.9503817345
 20
40.3772897181
 30
0.0
 10
26.1653538558
 20
40.8806990939
 30
0.0
 10
26.4065139031
 20
41.3727352781
 30
0.0
 10
26.5984196377
 20
41.7356008296
 30
0.0
  0
SPLINE
  5
29A
100
AcDbEntity
  8
0
100
AcDbSpline
 62
7
  6
CONTINUOUS
 70
0
 71
3
 72
9
 73
5
 74
0
 42
0.0000001
 43
0.0000001
 44
0.0000000001
 40
0.0
 40
0.0
 40
0.0
 40
0.0
 40
0.7499665944
 40
1.0
 40
1.0
 40
1.0
 40
1.0
 10
26.5984196377
 20
30.6861664549
 30
0.0
 10
26.7929652687
 20
31.0488425753
 30
0.0
 10
27.0375616922
 20
31.5407940709
 30
0.0
 10
27.2556864059
 20
32.0444083379
 30
0.0
 10
27.3084196377
 20
32.1710816669
 30
0.0
  0
SPLINE
  5
29B
100
AcDbEntity
  8
0
100
AcDbSpline
 62
7
  6
CONTINUOUS
 70
0
 71
3
 72
9
 73
5
 74
0
 42
0.0000001
 43
0.0000001
 44
0.0000000001
 40
0.0
 40
0.0
 40
0.0
 40
0.0
 40
0.2500334096
 40
1.0
 40
1.0
 40
1.0
 40
1.0
 10
27.3084196377
 20
40.2506856176
 30
0.0
 10
27.255686405
 20
40.3773589488
 30
0.0
 10
27.0375617912
 20
40.8809732602
 30
0.0
 10
26.7929652679
 20
41.3729247107
 30
0.0
 10
26.5984196377
 20
41.7356008296
 30
0.0
  0
SPLINE
  5
29C
100
AcDbEntity
  8
0
100
AcDbSpline
 62
7
  6
CONTINUOUS
 70
0
 71
3
 72
25
 73
21
 74
0
 42
0.0000001
 43
0.0000001
 44
0.0000000001
 40
0.0
 40
0.0
 40
0.0
 40
0.0
 40
0.0463948203
 40
0.0859956287
 40
0.103779619
 40
0.1205915981
 40
0.1367990517
 40
0.1528116196
 40
0.1690543394
 40
0.185935662
 40
0.2229344931
 40
0.2660415722
 40
0.3164787801
 40
0.3749032758
 40
0.44157794
 40
0.5164087516
 40
0.5991557583
 40
0.6894954188
 40
0.7868918758
 40
1.0
 40
1.0
 40
1.0
 40
1.0
 10
43.910825129
 20
42.9679118137
 30
0.0
 10
43.9617537505
 20
43.0350556221
 30
0.0
 10
44.0641102511
 20
43.1539213472
 30
0.0
 10
44.2130104424
 20
43.2724041458
 30
0.0
 10
44.3334448932
 20
43.3338347571
 30
0.0
 10
44.4212578162
 20
43.3633827261
 30
0.0
 10
44.5095485999
 20
43.3778998299
 30
0.0
 10
44.5980051798
 20
43.3772695713
 30
0.0
 10
44.6862715804
 20
43.3614851325
 30
0.0
 10
44.806911949
 20
43.3191153199
 30
0.0
 10
44.9577015464
 20
43.2238556478
 30
0.0
 10
45.1269380022
 20
43.0560701312
 30
0.0
 10
45.2908651906
 20
42.8329210789
 30
0.0
 10
45.4486398087
 20
42.5552267559
 30
0.0
 10
45.5992707061
 20
42.2243673962
 30
0.0
 10
45.7418006507
 20
41.8424930523
 30
0.0
 10
45.8749522876
 20
41.4120867951
 30
0.0
 10
45.9973100863
 20
40.9360751835
 30
0.0
 10
46.149192431
 20
40.2238328975
 30
0.0
 10
46.236211025
 20
39.6660084607
 30
0.0
 10
46.285018584
 20
39.2819994081
 30
0.0
  0
SPLINE
  5
29D
100
AcDbEntity
  8
0
100
AcDbSpline
 62
7
  6
CONTINUOUS
 70
0
 71
3
 72
25
 73
21
 74
0
 42
0.0000001
 43
0.0000001
 44
0.0000000001
 40
0.0
 40
0.0
 40
0.0
 40
0.0
 40
0.2130698016
 40
0.3104629438
 40
0.4008122365
 40
0.4835820892
 40
0.5584492811
 40
0.6251738684
 40
0.68366008
 40
0.7341663155
 40
0.777343397
 40
0.8144012947
 40
0.8313017373
 40
0.847553414
 40
0.8635627399
 40
0.879753565
 40
0.8965353657
 40
0.9142763118
 40
0.9537575023
 40
1.0
 40
1.0
 40
1.0
 40
1.0
 10
46.285018584
 20
33.1397678763
 30
0.0
 10
46.2362682331
 20
32.7562089268
 30
0.0
 10
46.1493653077
 20
32.1990116399
 30
0.0
 10
45.9977280975
 20
31.4875160298
 30
0.0
 10
45.8755692142
 20
31.0119029227
 30
0.0
 10
45.7426360585
 20
30.5817671916
 30
0.0
 10
45.6003391256
 20
30.2000276055
 30
0.0
 10
45.4499522919
 20
29.8691607368
 30
0.0
 10
45.2924317493
 20
29.5913137009
 30
0.0
 10
45.1287649011
 20
29.3678695878
 30
0.0
 10
44.9598024265
 20
29.1996496412
 30
0.0
 10
44.8092637058
 20
29.103856165
 30
0.0
 10
44.6887801902
 20
29.060959079
 30
0.0
 10
44.6006366356
 20
29.0447553367
 30
0.0
 10
44.512293398
 20
29.043665227
 30
0.0
 10
44.4241044335
 20
29.0576859796
 30
0.0
 10
44.336382924
 20
29.0867045822
 30
0.0
 10
44.2160889426
 20
29.1473449048
 30
0.0
 10
44.0673007096
 20
29.2647598372
 30
0.0
 10
43.965002564
 20
29.3828255808
 30
0.0
 10
43.9141064868
 20
29.4495417655
 30
0.0
  0
SPLINE
  5
29E
100
AcDbEntity
  8
0
100
AcDbSpline
 62
7
  6
CONTINUOUS
 70
0
 71
3
 72
17
 73
13
 74
0
 42
0.0000001
 43
0.0000001
 44
0.0000000001
 40
0.0
 40
0.0
 40
0.0
 40
0.0
 40
0.0702911284
 40
0.1542725301
 40
0.25861913
 40
0.384342746
 40
0.4546534934
 40
0.5288194636
 40
0.6058518489
 40
0.68471569
 40
0.8441322772
 40
1.0
 40
1.0
 40
1.0
 40
1.0
 10
46.3015212225
 20
39.2595004502
 30
0.0
 10
46.3009224347
 20
39.2465273037
 30
0.0
 10
46.2931069804
 20
39.2181056541
 30
0.0
 10
46.2628843781
 20
39.1799490447
 30
0.0
 10
46.215574607
 20
39.1455634123
 30
0.0
 10
46.1650388187
 20
39.1219686331
 30
0.0
 10
46.1177791966
 20
39.1058179997
 30
0.0
 10
46.0782870588
 20
39.0949815492
 30
0.0
 10
46.0367241116
 20
39.085986993
 30
0.0
 10
45.9792115552
 20
39.0765653623
 30
0.0
 10
45.906599491
 20
39.0698920253
 30
0.0
 10
45.8482964202
 20
39.069018453
 30
0.0
 10
45.8195054192
 20
39.0696556803
 30
0.0
  0
SPLINE
  5
29F
100
AcDbEntity
  8
0
100
AcDbSpline
 62
7
  6
CONTINUOUS
 70
0
 71
3
 72
11
 73
7
 74
0
 42
0.0000001
 43
0.0000001
 44
0.0000000001
 40
0.0
 40
0.0
 40
0.0
 40
0.0
 40
0.2540212648
 40
0.505659785
 40
0.7539854768
 40
1.0
 40
1.0
 40
1.0
 40
1.0
 10
46.285018584
 20
28.4608881992
 30
0.0
 10
46.2850189102
 20
28.3959330839
 30
0.0
 10
46.2601924854
 20
28.2652744058
 30
0.0
 10
46.1533107933
 20
28.0991904791
 30
0.0
 10
45.9928260501
 20
27.987217351
 30
0.0
 10
45.8649634031
 20
27.9608836422
 30
0.0
 10
45.8020556708
 20
27.9608836422
 30
0.0
  0
SPLINE
  5
2A0
100
AcDbEntity
  8
0
100
AcDbSpline
 62
7
  6
CONTINUOUS
 70
0
 71
3
 72
15
 73
11
 74
0
 42
0.0000001
 43
0.0000001
 44
0.0000000001
 40
0.0
 40
0.0
 40
0.0
 40
0.0
 40
0.1420715544
 40
0.2657821332
 40
0.3816435348
 40
0.4944518383
 40
0.6079592197
 40
0.7258957031
 40
0.8530361795
 40
1.0
 40
1.0
 40
1.0
 40
1.0
 10
44.0491117962
 20
27.9608836422
 30
0.0
 10
44.0856245336
 20
27.9608836422
 30
0.0
 10
44.154377197
 20
27.9680366791
 30
0.0
 10
44.2472133601
 20
28.00177818
 30
0.0
 10
44.3257549977
 20
28.0477871441
 30
0.0
 10
44.3926335935
 20
28.1056402002
 30
0.0
 10
44.4484219982
 20
28.1749215648
 30
0.0
 10
44.4927570923
 20
28.2562155377
 30
0.0
 10
44.5252329958
 20
28.3522656757
 30
0.0
 10
44.5320749981
 20
28.4231181375
 30
0.0
 10
44.5320747094
 20
28.4608881992
 30
0.0
  0
SPLINE
  5
2A1
100
AcDbEntity
  8
0
100
AcDbSpline
 62
7
  6
CONTINUOUS
 70
0
 71
3
 72
9
 73
5
 74
0
 42
0.0000001
 43
0.0000001
 44
0.0000000001
 40
0.0
 40
0.0
 40
0.0
 40
0.0
 40
0.4878962063
 40
1.0
 40
1.0
 40
1.0
 40
1.0
 10
45.8195164985
 20
33.3521118976
 30
0.0
 10
45.7970432716
 20
33.8166521943
 30
0.0
 10
45.7645231421
 20
34.7694553235
 30
0.0
 10
45.7537803732
 20
35.7227243557
 30
0.0
 10
45.7537803732
 20
36.2108836422
 30
0.0
  0
SPLINE
  5
2A2
100
AcDbEntity
  8
0
100
AcDbSpline
 62
7
  6
CONTINUOUS
 70
0
 71
3
 72
9
 73
5
 74
0
 42
0.0000001
 43
0.0000001
 44
0.0000000001
 40
0.0
 40
0.0
 40
0.0
 40
0.0
 40
0.7499669372
 40
1.0
 40
1.0
 40
1.0
 40
1.0
 10
16.7434583133
 20
41.7642534881
 30
0.0
 10
16.9370514428
 20
41.3943488342
 30
0.0
 10
17.1800847366
 20
40.892797786
 30
0.0
 10
17.3962175416
 20
40.3797177861
 30
0.0
 10
17.4484196377
 20
40.2506856176
 30
0.0
  0
SPLINE
  5
2A3
100
AcDbEntity
  8
0
100
AcDbSpline
 62
7
  6
CONTINUOUS
 70
0
 71
3
 72
9
 73
5
 74
0
 42
0.0000001
 43
0.0000001
 44
0.0000000001
 40
0.0
 40
0.0
 40
0.0
 40
0.0
 40
0.2500332161
 40
1.0
 40
1.0
 40
1.0
 40
1.0
 10
17.4484196377
 20
40.2506856176
 30
0.0
 10
17.5011528222
 20
40.3773588329
 30
0.0
 10
17.7192886824
 20
40.8809681516
 30
0.0
 10
17.9638739847
 20
41.3729246682
 30
0.0
 10
18.1584196377
 20
41.7356008296
 30
0.0
  0
SPLINE
  5
2A4
100
AcDbEntity
  8
0
100
AcDbSpline
 62
7
  6
CONTINUOUS
 70
0
 71
3
 72
20
 73
16
 74
0
 42
0.0000001
 43
0.0000001
 44
0.0000000001
 40
0.0
 40
0.0
 40
0.0
 40
0.0
 40
0.1917689912
 40
0.3671822943
 40
0.5233788103
 40
0.5936716696
 40
0.65856141
 40
0.7179543858
 40
0.7718243993
 40
0.8203062805
 40
0.8636960273
 40
0.9024630997
 40
0.937329276
 40
0.9693628706
 40
1.0
 40
1.0
 40
1.0
 40
1.0
 10
45.8195056887
 20
39.0696552856
 30
0.0
 10
45.7812789259
 20
39.3495820826
 30
0.0
 10
45.6951173426
 20
39.8839385307
 30
0.0
 10
45.5295427614
 20
40.6374550394
 30
0.0
 10
45.3630744194
 20
41.2064038419
 30
0.0
 10
45.2146991146
 20
41.6093837217
 30
0.0
 10
45.1019972685
 20
41.8731173408
 30
0.0
 10
44.9845306769
 20
42.1080366134
 30
0.0
 10
44.8627383213
 20
42.3131422096
 30
0.0
 10
44.7371704633
 20
42.4877217844
 30
0.0
 10
44.6083339316
 20
42.6313206719
 30
0.0
 10
44.476555788
 20
42.7434732913
 30
0.0
 10
44.3419490313
 20
42.8235107812
 30
0.0
 10
44.2048418411
 20
42.8702431984
 30
0.0
 10
44.1117965346
 20
42.8785530907
 30
0.0
 10
44.0666873686
 20
42.8769870458
 30
0.0
  0
SPLINE
  5
2A5
100
AcDbEntity
  8
0
100
AcDbSpline
 62
7
  6
CONTINUOUS
 70
0
 71
3
 72
9
 73
5
 74
0
 42
0.0000001
 43
0.0000001
 44
0.0000000001
 40
0.0
 40
0.0
 40
0.0
 40
0.0
 40
0.7499679502
 40
1.0
 40
1.0
 40
1.0
 40
1.0
 10
18.1584196377
 20
41.7356008296
 30
0.0
 10
18.3476823667
 20
41.3725463204
 30
0.0
 10
18.5854166856
 20
40.8804314397
 30
0.0
 10
18.7972276768
 20
40.3772209527
 30
0.0
 10
18.8484196377
 20
40.2506856176
 30
0.0
  0
SPLINE
  5
2A6
100
AcDbEntity
  8
0
100
AcDbSpline
 62
7
  6
CONTINUOUS
 70
0
 71
3
 72
9
 73
5
 74
0
 42
0.0000001
 43
0.0000001
 44
0.0000000001
 40
0.0
 40
0.0
 40
0.0
 40
0.0
 40
0.2500326557
 40
1.0
 40
1.0
 40
1.0
 40
1.0
 10
18.8484196377
 20
40.2506856176
 30
0.0
 10
18.9003817345
 20
40.3772897181
 30
0.0
 10
19.1153538558
 20
40.8806990939
 30
0.0
 10
19.3565139031
 20
41.3727352781
 30
0.0
 10
19.5484196377
 20
41.7356008296
 30
0.0
  0
SPLINE
  5
2A7
100
AcDbEntity
  8
0
100
AcDbSpline
 62
7
  6
CONTINUOUS
 70
0
 71
3
 72
9
 73
5
 74
0
 42
0.0000001
 43
0.0000001
 44
0.0000000001
 40
0.0
 40
0.0
 40
0.0
 40
0.0
 40
0.5121037937
 40
1.0
 40
1.0
 40
1.0
 40
1.0
 10
45.7537803734
 20
36.2108834887
 30
0.0
 10
45.7537803722
 20
36.6990428013
 30
0.0
 10
45.76452314
 20
37.6523118848
 30
0.0
 10
45.7970432706
 20
38.6051150652
 30
0.0
 10
45.8195164987
 20
39.0696553868
 30
0.0
  0
SPLINE
  5
2A8
100
AcDbEntity
  8
0
100
AcDbSpline
 62
7
  6
CONTINUOUS
 70
0
 71
3
 72
19
 73
15
 74
0
 42
0.0000001
 43
0.0000001
 44
0.0000000001
 40
0.0
 40
0.0
 40
0.0
 40
0.0
 40
0.1811845895
 40
0.3654716494
 40
0.5424467112
 40
0.7004144812
 40
0.8286532549
 40
0.8797820534
 40
0.9215367871
 40
0.9536166816
 40
0.9765510962
 40
0.9848845836
 40
0.9913535206
 40
1.0
 40
1.0
 40
1.0
 40
1.0
 10
13.0541317043
 20
55.4384322445
 30
0.0
 10
13.0478562096
 20
55.4677690324
 30
0.0
 10
13.0356547287
 20
55.5270436994
 30
0.0
 10
13.0189522833
 20
55.6152996032
 30
0.0
 10
13.0046201888
 20
55.700077755
 30
0.0
 10
12.9935826756
 20
55.7759793453
 30
0.0
 10
12.9873927846
 20
55.8315133688
 30
0.0
 10
12.9848933794
 20
55.8680463521
 30
0.0
 10
12.9842401456
 20
55.8887353785
 30
0.0
 10
12.9846839388
 20
55.9047642727
 30
0.0
 10
12.9858743643
 20
55.9152065534
 30
0.0
 10
12.98754478
 20
55.9212752883
 30
0.0
 10
12.9890282041
 20
55.924797824
 30
0.0
 10
12.9909550607
 20
55.9269043116
 30
0.0
 10
12.9923545966
 20
55.9272059905
 30
0.0
  0
SPLINE
  5
2A9
100
AcDbEntity
  8
0
100
AcDbSpline
 62
7
  6
CONTINUOUS
 70
0
 71
3
 72
9
 73
5
 74
0
 42
0.0000001
 43
0.0000001
 44
0.0000000001
 40
0.0
 40
0.0
 40
0.0
 40
0.0
 40
0.7499668341
 40
1.0
 40
1.0
 40
1.0
 40
1.0
 10
19.5484196377
 20
41.7356008296
 30
0.0
 10
19.7429653051
 20
41.3729246415
 30
0.0
 10
19.9875511403
 20
40.8809683653
 30
0.0
 10
20.2056864635
 20
40.3773588083
 30
0.0
 10
20.2584196377
 20
40.2506856176
 30
0.0
  0
SPLINE
  5
2AA
100
AcDbEntity
  8
0
100
AcDbSpline
 62
7
  6
CONTINUOUS
 70
0
 71
3
 72
9
 73
5
 74
0
 42
0.0000001
 43
0.0000001
 44
0.0000000001
 40
0.0
 40
0.0
 40
0.0
 40
0.0
 40
0.2500326557
 40
1.0
 40
1.0
 40
1.0
 40
1.0
 10
20.2584196377
 20
40.2506856176
 30
0.0
 10
20.3103817345
 20
40.3772897181
 30
0.0
 10
20.5253538558
 20
40.8806990939
 30
0.0
 10
20.7665139031
 20
41.3727352781
 30
0.0
 10
20.9584196377
 20
41.7356008296
 30
0.0
  0
SPLINE
  5
2AB
100
AcDbEntity
  8
0
100
AcDbSpline
 62
7
  6
CONTINUOUS
 70
0
 71
3
 72
9
 73
5
 74
0
 42
0.0000001
 43
0.0000001
 44
0.0000000001
 40
0.0
 40
0.0
 40
0.0
 40
0.0
 40
0.7499668341
 40
1.0
 40
1.0
 40
1.0
 40
1.0
 10
20.9584196377
 20
41.7356008296
 30
0.0
 10
21.1529653051
 20
41.3729246415
 30
0.0
 10
21.3975511403
 20
40.8809683653
 30
0.0
 10
21.6156864635
 20
40.3773588083
 30
0.0
 10
21.6684196377
 20
40.2506856176
 30
0.0
  0
SPLINE
  5
2AC
100
AcDbEntity
  8
0
100
AcDbSpline
 62
7
  6
CONTINUOUS
 70
0
 71
3
 72
13
 73
9
 74
0
 42
0.0000001
 43
0.0000001
 44
0.0000000001
 40
0.0
 40
0.0
 40
0.0
 40
0.0
 40
0.3429619869
 40
0.5852182842
 40
0.7928158551
 40
0.8934107744
 40
0.9451303889
 40
1.0
 40
1.0
 40
1.0
 40
1.0
 10
45.8195054192
 20
39.0696556803
 30
0.0
 10
45.8792519057
 20
39.0767606449
 30
0.0
 10
45.9805765096
 20
39.0965399506
 30
0.0
 10
46.1119378837
 20
39.1432475582
 30
0.0
 10
46.1973504547
 20
39.1898576156
 30
0.0
 10
46.2459800077
 20
39.2305742468
 30
0.0
 10
46.2703020183
 20
39.2576919238
 30
0.0
 10
46.2805304361
 20
39.2734837088
 30
0.0
 10
46.285018584
 20
39.2819994082
 30
0.0
  0
SPLINE
  5
2AD
100
AcDbEntity
  8
0
100
AcDbSpline
 62
7
  6
CONTINUOUS
 70
0
 71
3
 72
19
 73
15
 74
0
 42
0.0000001
 43
0.0000001
 44
0.0000000001
 40
0.0
 40
0.0
 40
0.0
 40
0.0
 40
0.0086464812
 40
0.0151154199
 40
0.0234489092
 40
0.0463833274
 40
0.0784632243
 40
0.1202179599
 40
0.1713467607
 40
0.2995855363
 40
0.457553304
 40
0.634528362
 40
0.8188154164
 40
1.0
 40
1.0
 40
1.0
 40
1.0
 10
12.9923546308
 20
16.4945612866
 30
0.0
 10
12.9909550948
 20
16.4948629662
 30
0.0
 10
12.9890282388
 20
16.4969694551
 30
0.0
 10
12.9875448149
 20
16.5004919917
 30
0.0
 10
12.9858743995
 20
16.5065607279
 30
0.0
 10
12.9846839741
 20
16.5170030099
 30
0.0
 10
12.9842401808
 20
16.5330319054
 30
0.0
 10
12.9848934144
 20
16.5537209329
 30
0.0
 10
12.9873928193
 20
16.5902539172
 30
0.0
 10
12.9935827092
 20
16.645787941
 30
0.0
 10
13.0046202206
 20
16.7216895306
 30
0.0
 10
13.0189523129
 20
16.8064676808
 30
0.0
 10
13.0356547556
 20
16.8947235824
 30
0.0
 10
13.0478562347
 20
16.9539982477
 30
0.0
 10
13.0541317284
 20
16.9833350348
 30
0.0
  0
SPLINE
  5
2AE
100
AcDbEntity
  8
0
100
AcDbSpline
 62
7
  6
CONTINUOUS
 70
0
 71
3
 72
20
 73
16
 74
0
 42
0.0000001
 43
0.0000001
 44
0.0000000001
 40
0.0
 40
0.0
 40
0.0
 40
0.0
 40
0.0306374644
 40
0.0626702904
 40
0.0975350042
 40
0.1363003293
 40
0.179688329
 40
0.2281686483
 40
0.2820374022
 40
0.3414295298
 40
0.4063188768
 40
0.4766118045
 40
0.6328098111
 40
0.8082263485
 40
1.0
 40
1.0
 40
1.0
 40
1.0
 10
44.0665764227
 20
29.5447841015
 30
0.0
 10
44.111686896
 20
29.5432089822
 30
0.0
 10
44.2047356966
 20
29.5515006682
 30
0.0
 10
44.3418518491
 20
29.5982104666
 30
0.0
 10
44.4764675941
 20
29.678229679
 30
0.0
 10
44.6082543614
 20
29.7903679239
 30
0.0
 10
44.7370993139
 20
29.9339559255
 30
0.0
 10
44.8626754502
 20
30.1085279981
 30
0.0
 10
44.9844760006
 20
30.3136294544
 30
0.0
 10
45.1019505299
 20
30.5485480339
 30
0.0
 10
45.2146600563
 20
30.8122843248
 30
0.0
 10
45.363045958
 20
31.2152736098
 30
0.0
 10
45.5295258003
 20
31.7842419812
 30
0.0
 10
45.6951108225
 20
32.537790166
 30
0.0
 10
45.7812770409
 20
33.0721713986
 30
0.0
 10
45.8195056887
 20
33.3521119989
 30
0.0
  0
SPLINE
  5
2AF
100
AcDbEntity
  8
0
100
AcDbSpline
 62
7
  6
CONTINUOUS
 70
0
 71
3
 72
13
 73
9
 74
0
 42
0.0000001
 43
0.0000001
 44
0.0000000001
 40
0.0
 40
0.0
 40
0.0
 40
0.0
 40
0.0548696111
 40
0.1065892256
 40
0.2071841449
 40
0.4147817158
 40
0.6570380132
 40
1.0
 40
1.0
 40
1.0
 40
1.0
 10
46.285018584
 20
33.1397678763
 30
0.0
 10
46.2805304361
 20
33.1482835756
 30
0.0
 10
46.2703020183
 20
33.1640753606
 30
0.0
 10
46.2459800077
 20
33.1911930377
 30
0.0
 10
46.1973504547
 20
33.2319096689
 30
0.0
 10
46.1119378837
 20
33.2785197263
 30
0.0
 10
45.9805765096
 20
33.3252273338
 30
0.0
 10
45.8792519057
 20
33.3450066396
 30
0.0
 10
45.8195054192
 20
33.3521116041
 30
0.0
  0
SPLINE
  5
2B0
100
AcDbEntity
  8
0
100
AcDbSpline
 62
7
  6
CONTINUOUS
 70
0
 71
3
 72
9
 73
5
 74
0
 42
0.0000001
 43
0.0000001
 44
0.0000000001
 40
0.0
 40
0.0
 40
0.0
 40
0.0
 40
0.2500326557
 40
1.0
 40
1.0
 40
1.0
 40
1.0
 10
21.6684196377
 20
40.2506856176
 30
0.0
 10
21.7203817345
 20
40.3772897181
 30
0.0
 10
21.9353538558
 20
40.8806990939
 30
0.0
 10
22.1765139031
 20
41.3727352781
 30
0.0
 10
22.3684196377
 20
41.7356008296
 30
0.0
  0
SPLINE
  5
2B1
100
AcDbEntity
  8
0
100
AcDbSpline
 62
7
  6
CONTINUOUS
 70
0
 71
3
 72
17
 73
13
 74
0
 42
0.0000001
 43
0.0000001
 44
0.0000000001
 40
0.0
 40
0.0
 40
0.0
 40
0.0
 40
0.1558677228
 40
0.31528431
 40
0.3941481511
 40
0.4711805364
 40
0.5453465066
 40
0.615657254
 40
0.74138087
 40
0.8457274699
 40
0.9297088716
 40
1.0
 40
1.0
 40
1.0
 40
1.0
 10
45.8195054192
 20
33.3521116042
 30
0.0
 10
45.8482964202
 20
33.3527488314
 30
0.0
 10
45.906599491
 20
33.3518752592
 30
0.0
 10
45.9792115552
 20
33.3452019222
 30
0.0
 10
46.0367241116
 20
33.3357802915
 30
0.0
 10
46.0782870588
 20
33.3267857352
 30
0.0
 10
46.1177791966
 20
33.3159492848
 30
0.0
 10
46.1650388187
 20
33.2997986514
 30
0.0
 10
46.215574607
 20
33.2762038721
 30
0.0
 10
46.2628843781
 20
33.2418182398
 30
0.0
 10
46.2931069804
 20
33.2036616304
 30
0.0
 10
46.3009224347
 20
33.1752399808
 30
0.0
 10
46.3015212225
 20
33.1622668342
 30
0.0
  0
SPLINE
  5
2B2
100
AcDbEntity
  8
0
100
AcDbSpline
 62
7
  6
CONTINUOUS
 70
0
 71
3
 72
9
 73
5
 74
0
 42
0.0000001
 43
0.0000001
 44
0.0000000001
 40
0.0
 40
0.0
 40
0.0
 40
0.0
 40
0.7499673892
 40
1.0
 40
1.0
 40
1.0
 40
1.0
 10
26.5984196377
 20
30.6861664549
 30
0.0
 10
26.4065138905
 20
31.0490320304
 30
0.0
 10
26.1653533549
 20
31.5410679973
 30
0.0
 10
25.9503817255
 20
32.0444775883
 30
0.0
 10
25.8984196377
 20
32.1710816669
 30
0.0
  0
SPLINE
  5
2B3
100
AcDbEntity
  8
0
100
AcDbSpline
 62
7
  6
CONTINUOUS
 70
0
 71
3
 72
9
 73
5
 74
0
 42
0.0000001
 43
0.0000001
 44
0.0000000001
 40
0.0
 40
0.0
 40
0.0
 40
0.0
 40
0.2500332155
 40
1.0
 40
1.0
 40
1.0
 40
1.0
 10
25.8984196377
 20
32.1710816669
 30
0.0
 10
25.8456864534
 20
32.0444084518
 30
0.0
 10
25.627550666
 20
31.5407991007
 30
0.0
 10
25.3829652911
 20
31.0488426169
 30
0.0
 10
25.1884196377
 20
30.6861664549
 30
0.0
  0
SPLINE
  5
2B4
100
AcDbEntity
  8
0
100
AcDbSpline
 62
7
  6
CONTINUOUS
 70
0
 71
3
 72
9
 73
5
 74
0
 42
0.0000001
 43
0.0000001
 44
0.0000000001
 40
0.0
 40
0.0
 40
0.0
 40
0.0
 40
0.7499673892
 40
1.0
 40
1.0
 40
1.0
 40
1.0
 10
25.1884196377
 20
30.6861664549
 30
0.0
 10
24.9965138905
 20
31.0490320304
 30
0.0
 10
24.7553533549
 20
31.5410679973
 30
0.0
 10
24.5403817255
 20
32.0444775883
 30
0.0
 10
24.4884196377
 20
32.1710816669
 30
0.0
  0
SPLINE
  5
2B5
100
AcDbEntity
  8
0
100
AcDbSpline
 62
7
  6
CONTINUOUS
 70
0
 71
3
 72
9
 73
5
 74
0
 42
0.0000001
 43
0.0000001
 44
0.0000000001
 40
0.0
 40
0.0
 40
0.0
 40
0.0
 40
0.2500332155
 40
1.0
 40
1.0
 40
1.0
 40
1.0
 10
24.4884196377
 20
32.1710816669
 30
0.0
 10
24.4356864534
 20
32.0444084518
 30
0.0
 10
24.217550666
 20
31.5407991007
 30
0.0
 10
23.9729652911
 20
31.0488426169
 30
0.0
 10
23.7784196377
 20
30.6861664549
 30
0.0
  0
SPLINE
  5
2B6
100
AcDbEntity
  8
0
100
AcDbSpline
 62
7
  6
CONTINUOUS
 70
0
 71
3
 72
9
 73
5
 74
0
 42
0.0000001
 43
0.0000001
 44
0.0000000001
 40
0.0
 40
0.0
 40
0.0
 40
0.0
 40
0.7499673892
 40
1.0
 40
1.0
 40
1.0
 40
1.0
 10
23.7784196377
 20
30.6861664549
 30
0.0
 10
23.5865138905
 20
31.0490320304
 30
0.0
 10
23.3453533549
 20
31.5410679973
 30
0.0
 10
23.1303817255
 20
32.0444775883
 30
0.0
 10
23.0784196377
 20
32.1710816669
 30
0.0
  0
SPLINE
  5
2B7
100
AcDbEntity
  8
0
100
AcDbSpline
 62
7
  6
CONTINUOUS
 70
0
 71
3
 72
9
 73
5
 74
0
 42
0.0000001
 43
0.0000001
 44
0.0000000001
 40
0.0
 40
0.0
 40
0.0
 40
0.0
 40
0.2500332155
 40
1.0
 40
1.0
 40
1.0
 40
1.0
 10
23.0784196377
 20
32.1710816669
 30
0.0
 10
23.0256864534
 20
32.0444084518
 30
0.0
 10
22.807550666
 20
31.5407991007
 30
0.0
 10
22.5629652911
 20
31.0488426169
 30
0.0
 10
22.3684196377
 20
30.6861664549
 30
0.0
  0
SPLINE
  5
2B8
100
AcDbEntity
  8
0
100
AcDbSpline
 62
7
  6
CONTINUOUS
 70
0
 71
3
 72
9
 73
5
 74
0
 42
0.0000001
 43
0.0000001
 44
0.0000000001
 40
0.0
 40
0.0
 40
0.0
 40
0.0
 40
0.7499673892
 40
1.0
 40
1.0
 40
1.0
 40
1.0
 10
22.3684196377
 20
30.6861664549
 30
0.0
 10
22.1765138905
 20
31.0490320304
 30
0.0
 10
21.9353533549
 20
31.5410679973
 30
0.0
 10
21.7203817255
 20
32.0444775883
 30
0.0
 10
21.6684196377
 20
32.1710816669
 30
0.0
  0
SPLINE
  5
2B9
100
AcDbEntity
  8
0
100
AcDbSpline
 62
7
  6
CONTINUOUS
 70
0
 71
3
 72
9
 73
5
 74
0
 42
0.0000001
 43
0.0000001
 44
0.0000000001
 40
0.0
 40
0.0
 40
0.0
 40
0.0
 40
0.2500332155
 40
1.0
 40
1.0
 40
1.0
 40
1.0
 10
21.6684196377
 20
32.1710816669
 30
0.0
 10
21.6156864534
 20
32.0444084518
 30
0.0
 10
21.397550666
 20
31.5407991007
 30
0.0
 10
21.1529652911
 20
31.0488426169
 30
0.0
 10
20.9584196377
 20
30.6861664549
 30
0.0
  0
SPLINE
  5
2BA
100
AcDbEntity
  8
0
100
AcDbSpline
 62
7
  6
CONTINUOUS
 70
0
 71
3
 72
9
 73
5
 74
0
 42
0.0000001
 43
0.0000001
 44
0.0000000001
 40
0.0
 40
0.0
 40
0.0
 40
0.0
 40
0.7499673892
 40
1.0
 40
1.0
 40
1.0
 40
1.0
 10
20.9584196377
 20
30.6861664549
 30
0.0
 10
20.7665138905
 20
31.0490320304
 30
0.0
 10
20.5253533549
 20
31.5410679973
 30
0.0
 10
20.3103817255
 20
32.0444775883
 30
0.0
 10
20.2584196377
 20
32.1710816669
 30
0.0
  0
SPLINE
  5
2BB
100
AcDbEntity
  8
0
100
AcDbSpline
 62
7
  6
CONTINUOUS
 70
0
 71
3
 72
9
 73
5
 74
0
 42
0.0000001
 43
0.0000001
 44
0.0000000001
 40
0.0
 40
0.0
 40
0.0
 40
0.0
 40
0.2500332155
 40
1.0
 40
1.0
 40
1.0
 40
1.0
 10
20.2584196377
 20
32.1710816669
 30
0.0
 10
20.2056864534
 20
32.0444084518
 30
0.0
 10
19.987550666
 20
31.5407991007
 30
0.0
 10
19.7429652911
 20
31.0488426169
 30
0.0
 10
19.5484196377
 20
30.6861664549
 30
0.0
  0
SPLINE
  5
2BC
100
AcDbEntity
  8
0
100
AcDbSpline
 62
7
  6
CONTINUOUS
 70
0
 71
3
 72
9
 73
5
 74
0
 42
0.0000001
 43
0.0000001
 44
0.0000000001
 40
0.0
 40
0.0
 40
0.0
 40
0.0
 40
0.7499673892
 40
1.0
 40
1.0
 40
1.0
 40
1.0
 10
19.5484196377
 20
30.6861664549
 30
0.0
 10
19.3565138905
 20
31.0490320304
 30
0.0
 10
19.1153533549
 20
31.5410679973
 30
0.0
 10
18.9003817255
 20
32.0444775883
 30
0.0
 10
18.8484196377
 20
32.1710816669
 30
0.0
  0
SPLINE
  5
2BD
100
AcDbEntity
  8
0
100
AcDbSpline
 62
7
  6
CONTINUOUS
 70
0
 71
3
 72
9
 73
5
 74
0
 42
0.0000001
 43
0.0000001
 44
0.0000000001
 40
0.0
 40
0.0
 40
0.0
 40
0.0
 40
0.2500320879
 40
1.0
 40
1.0
 40
1.0
 40
1.0
 10
18.8484196377
 20
32.1710816669
 30
0.0
 10
18.7972276692
 20
32.044546313
 30
0.0
 10
18.5854163407
 20
31.5413359715
 30
0.0
 10
18.3476823564
 20
31.0492209442
 30
0.0
 10
18.1584196377
 20
30.6861664549
 30
0.0
  0
SPLINE
  5
2BE
100
AcDbEntity
  8
0
100
AcDbSpline
 62
7
  6
CONTINUOUS
 70
0
 71
3
 72
9
 73
5
 74
0
 42
0.0000001
 43
0.0000001
 44
0.0000000001
 40
0.0
 40
0.0
 40
0.0
 40
0.0
 40
0.7499668347
 40
1.0
 40
1.0
 40
1.0
 40
1.0
 10
18.1584196377
 20
30.6861664549
 30
0.0
 10
17.9638739702
 20
31.0488426434
 30
0.0
 10
17.7192881182
 20
31.540798912
 30
0.0
 10
17.5011528118
 20
32.0444084765
 30
0.0
 10
17.4484196377
 20
32.1710816669
 30
0.0
  0
SPLINE
  5
2BF
100
AcDbEntity
  8
0
100
AcDbSpline
 62
7
  6
CONTINUOUS
 70
0
 71
3
 72
9
 73
5
 74
0
 42
0.0000001
 43
0.0000001
 44
0.0000000001
 40
0.0
 40
0.0
 40
0.0
 40
0.0
 40
0.2500331147
 40
1.0
 40
1.0
 40
1.0
 40
1.0
 10
17.4484196377
 20
32.1710816669
 30
0.0
 10
17.396214734
 20
32.0420425586
 30
0.0
 10
17.1800703243
 20
31.5289349991
 30
0.0
 10
16.9370154799
 20
31.0273612379
 30
0.0
 10
16.7434120972
 20
30.6574367363
 30
0.0
  0
SPLINE
  5
2C0
100
AcDbEntity
  8
0
100
AcDbSpline
 62
7
  6
CONTINUOUS
 70
0
 71
3
 72
11
 73
7
 74
0
 42
0.0000001
 43
0.0000001
 44
0.0000000001
 40
0.0
 40
0.0
 40
0.0
 40
0.0
 40
0.2460144356
 40
0.4943402464
 40
0.745978783
 40
1.0
 40
1.0
 40
1.0
 40
1.0
 10
45.8020687647
 20
44.460883642
 30
0.0
 10
45.8649750547
 20
44.4608818764
 30
0.0
 10
45.992833994
 20
44.4345458006
 30
0.0
 10
46.1533134987
 20
44.3225732133
 30
0.0
 10
46.2601917544
 20
44.1564927059
 30
0.0
 10
46.285018584
 20
44.0258372793
 30
0.0
 10
46.285018584
 20
43.9608836422
 30
0.0
  0
SPLINE
  5
2C1
100
AcDbEntity
  8
0
100
AcDbSpline
 62
7
  6
CONTINUOUS
 70
0
 71
3
 72
24
 73
20
 74
0
 42
0.0000001
 43
0.0000001
 44
0.0000000001
 40
0.0
 40
0.0
 40
0.0
 40
0.0
 40
0.1836731165
 40
0.2732702844
 40
0.3601929101
 40
0.4435880055
 40
0.5227601036
 40
0.5970917666
 40
0.6660031505
 40
0.7289685728
 40
0.7856596032
 40
0.8358981758
 40
0.8796099435
 40
0.9169642659
 40
0.9485668659
 40
0.9625678708
 40
0.9756194507
 40
0.9879894928
 40
1.0
 40
1.0
 40
1.0
 40
1.0
 10
42.4554726277
 20
36.2108836422
 30
0.0
 10
42.4554726277
 20
35.6982337367
 30
0.0
 10
42.4758212734
 20
34.9352849342
 30
0.0
 10
42.5438772418
 20
33.9321677544
 30
0.0
 10
42.6137517916
 20
33.2099758869
 30
0.0
 10
42.7024130621
 20
32.5191716641
 30
0.0
 10
42.8085997734
 20
31.8664076914
 30
0.0
 10
42.9308574815
 20
31.2576224965
 30
0.0
 10
43.0677520827
 20
30.6983885268
 30
0.0
 10
43.2181094024
 20
30.1937467198
 30
0.0
 10
43.3803103081
 20
29.7477962774
 30
0.0
 10
43.5525080233
 20
29.3637327556
 30
0.0
 10
43.7333121168
 20
29.0441008704
 30
0.0
 10
43.9216351017
 20
28.7910754589
 30
0.0
 10
44.0908627687
 20
28.6302827142
 30
0.0
 10
44.2288334226
 20
28.5413170219
 30
0.0
 10
44.3291931223
 20
28.4951670248
 30
0.0
 10
44.4303530916
 20
28.4672032376
 30
0.0
 10
44.4985521913
 20
28.46090227
 30
0.0
 10
44.5320747094
 20
28.460902309
 30
0.0
  0
SPLINE
  5
2C2
100
AcDbEntity
  8
0
100
AcDbSpline
 62
7
  6
CONTINUOUS
 70
0
 71
3
 72
24
 73
20
 74
0
 42
0.0000001
 43
0.0000001
 44
0.0000000001
 40
0.0
 40
0.0
 40
0.0
 40
0.0
 40
0.0120105072
 40
0.0243805493
 40
0.0374321292
 40
0.0514331341
 40
0.0830357341
 40
0.1203900565
 40
0.1641018242
 40
0.2143403968
 40
0.2710314272
 40
0.3339968495
 40
0.4029082334
 40
0.4772398964
 40
0.5564119945
 40
0.6398070899
 40
0.7267297156
 40
0.8163268835
 40
1.0
 40
1.0
 40
1.0
 40
1.0
 10
44.5320747093
 20
43.9608649755
 30
0.0
 10
44.4985521913
 20
43.9608650145
 30
0.0
 10
44.4303530916
 20
43.9545640469
 30
0.0
 10
44.3291931223
 20
43.9266002596
 30
0.0
 10
44.2288334225
 20
43.8804502626
 30
0.0
 10
44.0908627687
 20
43.7914845703
 30
0.0
 10
43.9216351017
 20
43.6306918256
 30
0.0
 10
43.7333121167
 20
43.377666414
 30
0.0
 10
43.5525080233
 20
43.0580345288
 30
0.0
 10
43.380310308
 20
42.673971007
 30
0.0
 10
43.2181094024
 20
42.2280205646
 30
0.0
 10
43.0677520827
 20
41.7233787576
 30
0.0
 10
42.9308574815
 20
41.1641447879
 30
0.0
 10
42.8085997734
 20
40.555359593
 30
0.0
 10
42.7024130621
 20
39.9025956203
 30
0.0
 10
42.6137517916
 20
39.2117913975
 30
0.0
 10
42.5438772418
 20
38.48959953
 30
0.0
 10
42.4758212734
 20
37.4864823502
 30
0.0
 10
42.4554726277
 20
36.7235335477
 30
0.0
 10
42.4554726277
 20
36.2108836422
 30
0.0
  0
SPLINE
  5
2C3
100
AcDbEntity
  8
0
100
AcDbSpline
 62
7
  6
CONTINUOUS
 70
0
 71
3
 72
9
 73
5
 74
0
 42
0.0000001
 43
0.0000001
 44
0.0000000001
 40
0.0
 40
0.0
 40
0.0
 40
0.0
 40
0.7499668341
 40
1.0
 40
1.0
 40
1.0
 40
1.0
 10
22.3684196377
 20
41.7356008296
 30
0.0
 10
22.5629653051
 20
41.3729246415
 30
0.0
 10
22.8075511403
 20
40.8809683653
 30
0.0
 10
23.0256864635
 20
40.3773588083
 30
0.0
 10
23.0784196377
 20
40.2506856176
 30
0.0
  0
SPLINE
  5
2C4
100
AcDbEntity
  8
0
100
AcDbSpline
 62
7
  6
CONTINUOUS
 70
0
 71
3
 72
22
 73
18
 74
0
 42
0.0000001
 43
0.0000001
 44
0.0000000001
 40
0.0
 40
0.0
 40
0.0
 40
0.0
 40
0.1945327592
 40
0.3734352109
 40
0.4559469748
 40
0.5332891443
 40
0.6051049678
 40
0.6711820177
 40
0.7313767238
 40
0.7855902826
 40
0.8337972919
 40
0.8761498848
 40
0.9130497661
 40
0.9451691973
 40
0.9735896646
 40
0.9869311375
 40
1.0
 40
1.0
 40
1.0
 40
1.0
 10
42.1026666074
 20
39.0849566921
 30
0.0
 10
42.1386626115
 20
39.4705895203
 30
0.0
 10
42.2235644239
 20
40.2095172405
 30
0.0
 10
42.371459742
 20
41.1056540346
 30
0.0
 10
42.5111458892
 20
41.7655881682
 30
0.0
 10
42.6216132283
 20
42.2135137533
 30
0.0
 10
42.7400670995
 20
42.625467474
 30
0.0
 10
42.8656721139
 20
42.9994739668
 30
0.0
 10
42.9975996947
 20
43.3339254156
 30
0.0
 10
43.1350552764
 20
43.6273428088
 30
0.0
 10
43.2774095902
 20
43.8783963819
 30
0.0
 10
43.4240992193
 20
44.0861086466
 30
0.0
 10
43.5746102222
 20
44.2500202238
 30
0.0
 10
43.7287579262
 20
44.3696612666
 30
0.0
 10
43.8636541854
 20
44.4325807968
 30
0.0
 10
43.9704300012
 20
44.4568730321
 30
0.0
 10
44.0230958507
 20
44.460883633
 30
0.0
 10
44.0491155825
 20
44.4608836422
 30
0.0
  0
SPLINE
  5
2C5
100
AcDbEntity
  8
0
100
AcDbSpline
 62
7
  6
CONTINUOUS
 70
0
 71
3
 72
9
 73
5
 74
0
 42
0.0000001
 43
0.0000001
 44
0.0000000001
 40
0.0
 40
0.0
 40
0.0
 40
0.0
 40
0.2500326557
 40
1.0
 40
1.0
 40
1.0
 40
1.0
 10
23.0784196377
 20
40.2506856176
 30
0.0
 10
23.1303817345
 20
40.3772897181
 30
0.0
 10
23.3453538558
 20
40.8806990939
 30
0.0
 10
23.5865139031
 20
41.3727352781
 30
0.0
 10
23.7784196377
 20
41.7356008296
 30
0.0
  0
LINE
  5
2C6
100
AcDbEntity
  8
0
100
AcDbLine
 62
7
  6
CONTINUOUS
 10
42.0984766794
 20
39.0396979384
 11
42.102663349
 21
39.0849569598
  0
SPLINE
  5
2C7
100
AcDbEntity
  8
0
100
AcDbSpline
 62
7
  6
CONTINUOUS
 70
0
 71
3
 72
9
 73
5
 74
0
 42
0.0000001
 43
0.0000001
 44
0.0000000001
 40
0.0
 40
0.0
 40
0.0
 40
0.0
 40
0.7499668341
 40
1.0
 40
1.0
 40
1.0
 40
1.0
 10
23.7784196377
 20
41.7356008296
 30
0.0
 10
23.9729653051
 20
41.3729246415
 30
0.0
 10
24.2175511403
 20
40.8809683653
 30
0.0
 10
24.4356864635
 20
40.3773588083
 30
0.0
 10
24.4884196377
 20
40.2506856176
 30
0.0
  0
ENDSEC
  0
SECTION
  2
OBJECTS
  0
DICTIONARY
  5
C
100
AcDbDictionary
280
0
281
1
  3
ACAD_GROUP
350
D
  3
ACAD_MLINESTYLE
350
17
  3
ACAD_LAYOUT
350
1A
  3
ACAD_PLOTSETTINGS
350
19
  3
ACAD_PLOTSTYLENAME
350
E
  0
DICTIONARY
  5
D
102
{ACAD_REACTORS
330
C
102
}
100
AcDbDictionary
280
0
281
1
  0
ACDBDICTIONARYWDFLT
  5
E
102
{ACAD_REACTORS
330
C
102
}
100
AcDbDictionary
281
1
  3
Normal
350
F
100
AcDbDictionaryWithDefault
340
F
  0
DICTIONARY
  5
17
102
{ACAD_REACTORS
330
C
102
}
100
AcDbDictionary
280
0
281
1
  3
Standard
350
18
  0
DICTIONARY
  5
19
102
{ACAD_REACTORS
330
C
102
}
100
AcDbDictionary
281
1
  0
DICTIONARY
  5
1A
102
{ACAD_REACTORS
330
C
102
}
100
AcDbDictionary
281
1
  3
Model
350
2C8
  3
Layout1
350
2C9
  0
ACDBPLACEHOLDER
  5
F
102
{ACAD_REACTORS
330
E
102
}
  0
MLINESTYLE
  5
18
102
{ACAD_REACTORS
330
17
102
}
100
AcDbMlineStyle
  2
STANDARD
 70
0
  3

 62
256
 51
90.0
 52
90.0
 71
2
 49
0.5
 62
256
  6
BYLAYER
 49
-0.5
 62
256
  6
BYLAYER
  0
LAYOUT
  5
2C8
102
{ACAD_REACTORS
330
1A
102
}
100
AcDbPlotSettings
  1

  2
none_device
  4

  6

 40
0.0
 41
0.0
 42
0.0
 43
0.0
 44
210.0
 45
297.0
 46
0.0
 47
0.0
 48
0.0
 49
0.0
140
0.0
141
0.0
142
1.0
143
1.0
 70
1024
 72
1
 73
0
 74
0
  7

 75
0
147
1.0
148
0.0
149
0.0
100
AcDbLayout
  1
Model
 70
0
 71
0
 10
0.0
 20
0.0
 11
210.0
 21
297.0
 12
0.0
 22
0.0
 32
0.0
 14
0.0
 24
0.0
 34
0.0
 15
0.0
 25
0.0
 35
0.0
146
0.0
 13
0.0
 23
0.0
 33
0.0
 16
1.0
 26
0.0
 36
0.0
 17
0.0
 27
1.0
 37
0.0
 76
0
330
210
345
0
346
0
  0
LAYOUT
  5
2C9
102
{ACAD_REACTORS
330
1A
102
}
100
AcDbPlotSettings
  1

  2
none_device
  4

  6

 40
0.0
 41
0.0
 42
0.0
 43
0.0
 44
210.0
 45
297.0
 46
0.0
 47
0.0
 48
0.0
 49
0.0
140
0.0
141
0.0
142
1.0
143
1.0
 70
0
 72
1
 73
0
 74
0
  7

 75
0
147
1.0
148
0.0
149
0.0
100
AcDbLayout
  1
Layout1
 70
0
 71
1
 10
0.0
 20
0.0
 11
210.0
 21
297.0
 12
0.0
 22
0.0
 32
0.0
 14
0.0
 24
0.0
 34
0.0
 15
0.0
 25
0.0
 35
0.0
146
0.0
 13
0.0
 23
0.0
 33
0.0
 16
1.0
 26
0.0
 36
0.0
 17
0.0
 27
1.0
 37
0.0
 76
0
330
211
345
0
346
0
  0
ENDSEC
  0
EOF
