999
DXF file: C:\Users\sesa63760\Dev\_Creo\CAD\MCADID0004251_3D-CAD\drw0001_6.dxf
999
Pro/ENGINEER 2019471 by Parametric Technology Corporation
  0
SECTION
  2
HEADER
  9
$ACADVER
  1
AC1024
  9
$DWGCODEPAGE
  3
ANSI_1252
  9
$EXTMAX
 10
1604.3659332458
 20
2269.0318198762
 30
0.0
  9
$EXTMIN
 10
0.0
 20
0.0
 30
0.0
  9
$LIMMIN
 10
0.0
 20
0.0
  9
$LIMMAX
 10
1604.3659332458
 20
2269.0318198762
  9
$VIEWCTR
 10
802.1829666229
 20
1134.5159099381
  9
$VIEWSIZE
 40
2269.0318198762
  9
$CLAYER
  8
0
  9
$LTSCALE
 40
147.9072593697
  9
$CELTYPE
  6
BYLAYER
  9
$DIMSCALE
 40
1.0
  9
$DIMASZ
 40
19.0995944434
  9
$DIMEXO
 40
1.0
  9
$DIMDLI
 40
102.19047011
  9
$DIMEXE
 40
1.0
  9
$DIMCEN
 40
24.2030060787
  9
$DIMLFAC
 40
1.0
  9
$DIMBLK
  1
_FILLED
  9
$DIMALT
 70
0
  9
$DIMALTF
 40
0.0393700787
  9
$DIMTXT
 40
26.7394322208
  9
$DIMTOL
 70
1
  9
$DIMLIM
 70
0
  9
$DIMTFAC
 40
1.0
  9
$DIMTP
 40
0.01
  9
$DIMTM
 40
0.01
  9
$DIMGAP
 40
0.625
  9
$DIMDSEP
 70
46
  9
$AUNITS
 70
0
  9
$PDMODE
 70
3
  9
$PDSIZE
 40
0.3125
  9
$HANDSEED
  5
336
  9
$TILEMODE
 70
1
  9
$MEASUREMENT
 70
1
  9
$INSUNITS
 70
4
  0
ENDSEC
  0
SECTION
  2
CLASSES
  0
CLASS
  1
ACDBDICTIONARYWDFLT
  2
AcDbDictionaryWithDefault
  3
AutoCAD 2000
 90
0
 91
1
280
0
281
0
  0
CLASS
  1
ACDBPLACEHOLDER
  2
AcDbPlaceHolder
  3
AutoCAD 2000
 90
0
 91
1
280
0
281
0
  0
CLASS
  1
LAYOUT
  2
AcDbLayout
  3
AutoCAD 2000
 90
0
 91
0
280
0
281
0
  0
ENDSEC
  0
SECTION
  2
TABLES
  0
TABLE
  2
VPORT
  5
8
100
AcDbSymbolTable
 70
2
  0
VPORT
  5
1F4
100
AcDbSymbolTableRecord
100
AcDbViewportTableRecord
  2
*ACTIVE
 70
0
 10
0.0
 20
0.0
 11
1.0
 21
1.0
 12
802.1829666229
 22
1134.5159099381
 13
0.0
 23
0.0
 14
1.0
 24
1.0
 15
0.0
 25
0.0
 16
0.0
 26
0.0
 36
1.0
 17
0.0
 27
0.0
 37
0.0
 40
2269.0318198762
 41
0.7070707071
 42
50.0
 43
0.0
 44
0.0
 50
0.0
 51
0.0
 71
0
 72
100
 73
1
 74
1
 75
0
 76
0
 77
0
 78
0
  0
ENDTAB
  0
TABLE
  2
LTYPE
  5
5
100
AcDbSymbolTable
 70
6
  0
LTYPE
  5
14
100
AcDbSymbolTableRecord
100
AcDbLinetypeTableRecord
  2
BYBLOCK
 70
0
  3

 72
65
 73
0
 40
0.0
  0
LTYPE
  5
15
100
AcDbSymbolTableRecord
100
AcDbLinetypeTableRecord
  2
BYLAYER
 70
0
  3

 72
65
 73
0
 40
0.0
  0
LTYPE
  5
16
100
AcDbSymbolTableRecord
100
AcDbLinetypeTableRecord
  2
CONTINUOUS
 70
64
  3
Solid line
 72
65
 73
0
 40
0.0
  0
LTYPE
  5
1F5
100
AcDbSymbolTableRecord
100
AcDbLinetypeTableRecord
  2
CENTER
 70
64
  3
____ _ ____ _ ____ _ ____ _ ____ _ ____ _ ____
 72
65
 73
4
 40
0.6
 49
0.375
 74
0
 49
-0.075
 74
0
 49
0.075
 74
0
 49
-0.075
 74
0
  0
LTYPE
  5
1F6
100
AcDbSymbolTableRecord
100
AcDbLinetypeTableRecord
  2
HIDDEN
 70
64
  3
- - - - - - - - - - - - - - - - - - - -
 72
65
 73
2
 40
0.2
 49
0.1
 74
0
 49
-0.1
 74
0
  0
LTYPE
  5
1F7
100
AcDbSymbolTableRecord
100
AcDbLinetypeTableRecord
  2
PHANTOM
 70
64
  3
_____ _ _ _____ _ _ _____ _ _ _____
 72
65
 73
6
 40
0.8
 49
0.45
 74
0
 49
-0.05
 74
0
 49
0.1
 74
0
 49
-0.05
 74
0
 49
0.1
 74
0
 49
-0.05
 74
0
  0
LTYPE
  5
1F8
100
AcDbSymbolTableRecord
100
AcDbLinetypeTableRecord
  2
DOT
 70
64
  3
. . . . . . . . . . . . . . . . . . . .
 72
65
 73
2
 40
0.2
 49
0.1
 74
0
 49
-0.1
 74
0
  0
LTYPE
  5
1F9
100
AcDbSymbolTableRecord
100
AcDbLinetypeTableRecord
  2
DASHED
 70
64
  3
- - - - - - - - - - - - - - - - - - - -
 72
65
 73
2
 40
0.2
 49
0.1
 74
0
 49
-0.1
 74
0
  0
ENDTAB
  0
TABLE
  2
LAYER
  5
2
100
AcDbSymbolTable
 70
36
  0
LAYER
  5
10
100
AcDbSymbolTableRecord
100
AcDbLayerTableRecord
  2
0
 70
0
 62
7
  6
CONTINUOUS
370
-3
390
F
  0
LAYER
  5
1FA
100
AcDbSymbolTableRecord
100
AcDbLayerTableRecord
  2
DEFAULT_1
 70
0
 62
7
  6
CENTER
370
-3
390
F
  0
LAYER
  5
1FB
100
AcDbSymbolTableRecord
100
AcDbLayerTableRecord
  2
DEFAULT_2
 70
0
 62
7
  6
HIDDEN
370
-3
390
F
  0
LAYER
  5
1FC
100
AcDbSymbolTableRecord
100
AcDbLayerTableRecord
  2
DEFAULT_3
 70
0
 62
7
  6
PHANTOM
370
-3
390
F
  0
LAYER
  5
1FD
100
AcDbSymbolTableRecord
100
AcDbLayerTableRecord
  2
00_COMPONENTS
 70
0
 62
7
  6
CONTINUOUS
370
-3
390
F
  0
LAYER
  5
1FE
100
AcDbSymbolTableRecord
100
AcDbLayerTableRecord
  2
01_1_DEFAULT_DATUMS
 70
0
 62
7
  6
CONTINUOUS
370
-3
390
F
  0
LAYER
  5
1FF
100
AcDbSymbolTableRecord
100
AcDbLayerTableRecord
  2
01_PLANES
 70
0
 62
7
  6
CONTINUOUS
370
-3
390
F
  0
LAYER
  5
200
100
AcDbSymbolTableRecord
100
AcDbLayerTableRecord
  2
02_COORD_SYS
 70
0
 62
7
  6
CONTINUOUS
370
-3
390
F
  0
LAYER
  5
201
100
AcDbSymbolTableRecord
100
AcDbLayerTableRecord
  2
03_AXES
 70
0
 62
7
  6
CONTINUOUS
370
-3
390
F
  0
LAYER
  5
202
100
AcDbSymbolTableRecord
100
AcDbLayerTableRecord
  2
04_POINTS
 70
0
 62
7
  6
CONTINUOUS
370
-3
390
F
  0
LAYER
  5
203
100
AcDbSymbolTableRecord
100
AcDbLayerTableRecord
  2
05_CURVES
 70
0
 62
7
  6
CONTINUOUS
370
-3
390
F
  0
LAYER
  5
204
100
AcDbSymbolTableRecord
100
AcDbLayerTableRecord
  2
06_SURFS
 70
0
 62
7
  6
CONTINUOUS
370
-3
390
F
  0
LAYER
  5
205
100
AcDbSymbolTableRecord
100
AcDbLayerTableRecord
  2
07_COSMETICS
 70
0
 62
7
  6
CONTINUOUS
370
-3
390
F
  0
LAYER
  5
206
100
AcDbSymbolTableRecord
100
AcDbLayerTableRecord
  2
10_NOTES
 70
0
 62
7
  6
CONTINUOUS
370
-3
390
F
  0
LAYER
  5
207
100
AcDbSymbolTableRecord
100
AcDbLayerTableRecord
  2
11_NOTES_PUB
 70
0
 62
7
  6
CONTINUOUS
370
-3
390
F
  0
LAYER
  5
208
100
AcDbSymbolTableRecord
100
AcDbLayerTableRecord
  2
13_REF_GTOL
 70
0
 62
7
  6
CONTINUOUS
370
-3
390
F
  0
LAYER
  5
209
100
AcDbSymbolTableRecord
100
AcDbLayerTableRecord
  2
16_MISC
 70
0
 62
7
  6
CONTINUOUS
370
-3
390
F
  0
LAYER
  5
20A
100
AcDbSymbolTableRecord
100
AcDbLayerTableRecord
  2
17_NO_PRINT
 70
0
 62
7
  6
CONTINUOUS
370
-3
390
F
  0
LAYER
  5
20B
100
AcDbSymbolTableRecord
100
AcDbLayerTableRecord
  2
18_DATUM_CAMS_JOINTS
 70
0
 62
7
  6
CONTINUOUS
370
-3
390
F
  0
LAYER
  5
20C
100
AcDbSymbolTableRecord
100
AcDbLayerTableRecord
  2
19_DATUM_FUNCTIONAL
 70
0
 62
7
  6
CONTINUOUS
370
-3
390
F
  0
LAYER
  5
20D
100
AcDbSymbolTableRecord
100
AcDbLayerTableRecord
  2
20_DATUM_KINEMATIC_SCHEME
 70
0
 62
7
  6
CONTINUOUS
370
-3
390
F
  0
LAYER
  5
20E
100
AcDbSymbolTableRecord
100
AcDbLayerTableRecord
  2
3
 70
0
 62
7
  6
CONTINUOUS
370
-3
390
F
  0
LAYER
  5
20F
100
AcDbSymbolTableRecord
100
AcDbLayerTableRecord
  2
4
 70
0
 62
7
  6
CONTINUOUS
370
-3
390
F
  0
ENDTAB
  0
TABLE
  2
STYLE
  5
3
100
AcDbSymbolTable
 70
1
  0
STYLE
  5
11
100
AcDbSymbolTableRecord
100
AcDbTextStyleTableRecord
  2
STANDARD
 70
0
 40
0.0
 41
1.0
 50
0.0
 71
0
 42
0.2
  3
ARIAL.TTF
  4

  0
STYLE
  5
210
100
AcDbSymbolTableRecord
100
AcDbTextStyleTableRecord
  2
TEXTSTYLE_1
 70
0
 40
0.0
 41
0.8
 50
0.0
 71
0
 42
0.2
  3
gdt
  4

  0
ENDTAB
  0
TABLE
  2
VIEW
  5
6
100
AcDbSymbolTable
 70
0
  0
ENDTAB
  0
TABLE
  2
UCS
  5
7
100
AcDbSymbolTable
 70
0
  0
ENDTAB
  0
TABLE
  2
APPID
  5
9
100
AcDbSymbolTable
 70
1
  0
APPID
  5
211
100
AcDbSymbolTableRecord
100
AcDbRegAppTableRecord
  2
ACAD
 70
0
  0
ENDTAB
  0
TABLE
  2
BLOCK_RECORD
  5
1
100
AcDbSymbolTable
 70
0
  0
BLOCK_RECORD
  5
212
100
AcDbSymbolTableRecord
100
AcDbBlockTableRecord
  2
*Model_Space
  0
BLOCK_RECORD
  5
213
100
AcDbSymbolTableRecord
100
AcDbBlockTableRecord
  2
*Paper_Space
  0
BLOCK_RECORD
  5
214
100
AcDbSymbolTableRecord
100
AcDbBlockTableRecord
  2
_FILLED
  0
ENDTAB
  0
TABLE
  2
DIMSTYLE
  5
A
100
AcDbSymbolTable
 70
1
100
AcDbDimStyleTable
 71
0
  0
DIMSTYLE
105
215
100
AcDbSymbolTableRecord
100
AcDbDimStyleTableRecord
  2
STANDARD
 70
0
  3

  4

 40
1.0
 41
19.0995944434
 42
1.0
 43
0.38
 44
1.0
 45
0.0
 46
0.0
 47
0.01
 48
0.01
140
26.7394322208
141
0.09
142
0.0
143
25.4
144
1.0
145
0.0
146
1.0
147
0.625
 71
1
 72
0
 73
0
 74
0
 75
0
 76
0
 77
1
 78
8
 79
2
170
0
171
1
172
0
173
0
174
0
175
0
176
0
177
0
178
0
270
2
179
2
271
2
272
2
273
2
274
2
275
0
280
0
281
0
282
0
283
1
284
8
285
0
286
0
287
3
288
0
340
11
278
46
341
214
342
214
343
214
344
214
  0
ENDTAB
  0
ENDSEC
  0
SECTION
  2
BLOCKS
  0
BLOCK
  5
20
100
AcDbEntity
  8
0
100
AcDbBlockBegin
  2
*Model_Space
 70
0
 10
0.0
 20
0.0
 30
0.0
  3
*Model_Space
  1

  0
ENDBLK
  5
21
100
AcDbEntity
  8
0
100
AcDbBlockEnd
  0
BLOCK
  5
1C
100
AcDbEntity
  8
0
100
AcDbBlockBegin
  2
*Paper_Space
 70
0
 10
0.0
 20
0.0
 30
0.0
  3
*Paper_Space
  1

  0
ENDBLK
  5
1D
100
AcDbEntity
  8
0
100
AcDbBlockEnd
  0
BLOCK
  5
216
100
AcDbEntity
  8
0
100
AcDbBlockBegin
  2
_FILLED
 70
64
 10
0.0
 20
0.0
  3
_FILLED
  1

  0
SOLID
  5
217
100
AcDbEntity
  8
0
  6
BYBLOCK
 62
0
100
AcDbTrace
 10
0.0
 20
0.0
 11
-1.0
 21
0.25
 12
-1.0
 22
-0.25
 13
-1.0
 23
-0.25
  0
ENDBLK
  5
218
100
AcDbEntity
  8
0
  6
BYBLOCK
 62
0
100
AcDbBlockEnd
  0
ENDSEC
  0
SECTION
  2
ENTITIES
  0
LINE
  5
219
100
AcDbEntity
  8
0
100
AcDbLine
 62
7
  6
BYLAYER
 10
816.2533538006
 20
187.4659092309
 11
811.6535304983
 21
187.4659092309
  0
LINE
  5
21A
100
AcDbEntity
  8
0
100
AcDbLine
 62
7
  6
BYLAYER
 10
776.2533656794
 20
187.4659092309
 11
771.6535423771
 21
187.4659092309
  0
LINE
  5
21B
100
AcDbEntity
  8
0
100
AcDbLine
 62
7
  6
BYLAYER
 10
771.2806641176
 20
187.5657990924
 11
764.4534463997
 21
187.5657990924
  0
LINE
  5
21C
100
AcDbEntity
  8
0
100
AcDbLine
 62
7
  6
BYLAYER
 10
776.6262524395
 20
187.5657990924
 11
811.2806522387
 21
187.5657990924
  0
LINE
  5
21D
100
AcDbEntity
  8
0
100
AcDbLine
 62
7
  6
BYLAYER
 10
816.6262405606
 20
187.5657990924
 11
817.4534463997
 21
187.5657990924
  0
LINE
  5
21E
100
AcDbEntity
  8
0
100
AcDbLine
 62
7
  6
BYLAYER
 10
795.0948945798
 20
188.0657990924
 11
786.8129627455
 21
188.0657990924
  0
LINE
  5
21F
100
AcDbEntity
  8
0
100
AcDbLine
 62
7
  6
BYLAYER
 10
817.2534463997
 20
188.4659092309
 11
810.6534463997
 21
188.4659092309
  0
LINE
  5
220
100
AcDbEntity
  8
0
100
AcDbLine
 62
7
  6
BYLAYER
 10
777.2534582785
 20
188.4659092309
 11
770.6534582785
 21
188.4659092309
  0
LINE
  5
221
100
AcDbEntity
  8
0
100
AcDbLine
 62
7
  6
BYLAYER
 10
818.4534463997
 20
188.5657990924
 11
817.2534463997
 21
188.5657990924
  0
LINE
  5
222
100
AcDbEntity
  8
0
100
AcDbLine
 62
7
  6
BYLAYER
 10
810.6534463997
 20
188.5657990924
 11
794.9534463997
 21
188.565799099
  0
LINE
  5
223
100
AcDbEntity
  8
0
100
AcDbLine
 62
7
  6
BYLAYER
 10
786.9534463997
 20
188.5657990925
 11
777.2534582785
 21
188.5657990924
  0
LINE
  5
224
100
AcDbEntity
  8
0
100
AcDbLine
 62
7
  6
BYLAYER
 10
770.6534582785
 20
188.5657990924
 11
763.4534463997
 21
188.5657990924
  0
LINE
  5
225
100
AcDbEntity
  8
0
100
AcDbLine
 62
7
  6
BYLAYER
 10
770.0411311702
 20
189.5657990924
 11
770.6534582785
 21
189.5657990924
  0
LINE
  5
226
100
AcDbEntity
  8
0
100
AcDbLine
 62
7
  6
BYLAYER
 10
777.2534582785
 20
189.5657990924
 11
778.4534463997
 21
189.5657990353
  0
LINE
  5
227
100
AcDbEntity
  8
0
100
AcDbLine
 62
7
  6
BYLAYER
 10
809.4534463997
 20
189.5657990235
 11
810.6534463997
 21
189.5657990924
  0
LINE
  5
228
100
AcDbEntity
  8
0
100
AcDbLine
 62
7
  6
BYLAYER
 10
817.2534463997
 20
189.5657990924
 11
818.4534463997
 21
189.5657990234
  0
LINE
  5
229
100
AcDbEntity
  8
0
100
AcDbLine
 62
7
  6
BYLAYER
 10
810.9534463997
 20
190.0657990924
 11
817.9534463997
 21
190.0657990924
  0
LINE
  5
22A
100
AcDbEntity
  8
0
100
AcDbLine
 62
7
  6
BYLAYER
 10
770.4036929061
 20
190.0657990924
 11
776.9534463997
 21
190.0657990924
  0
LINE
  5
22B
100
AcDbEntity
  8
0
100
AcDbLine
 62
7
  6
BYLAYER
 10
818.4534463997
 20
190.5657990924
 11
810.9534463997
 21
190.5657990924
  0
LINE
  5
22C
100
AcDbEntity
  8
0
100
AcDbLine
 62
7
  6
BYLAYER
 10
776.9534463997
 20
190.5657990924
 11
768.5413647078
 21
190.5657990924
  0
LINE
  5
22D
100
AcDbEntity
  8
0
100
AcDbLine
 62
7
  6
BYLAYER
 10
763.4534463997
 20
205.0657990924
 11
794.9529476104
 21
205.0657990924
  0
LINE
  5
22E
100
AcDbEntity
  8
0
100
AcDbLine
 62
7
  6
BYLAYER
 10
794.9534463997
 20
205.0657990924
 11
818.4534463997
 21
205.0657990924
  0
LINE
  5
22F
100
AcDbEntity
  8
3
100
AcDbLine
 62
7
  6
BYLAYER
 10
763.4452201075
 20
205.0659220394
 11
818.4529649253
 21
205.0659220394
  0
LINE
  5
230
100
AcDbEntity
  8
4
100
AcDbLine
 62
7
  6
BYLAYER
 10
863.6948664775
 20
232.4140843541
 11
818.6948664775
 21
232.4140843541
  0
LINE
  5
231
100
AcDbEntity
  8
4
100
AcDbLine
 62
7
  6
BYLAYER
 10
846.9948664775
 20
239.1640843541
 11
860.4948664775
 21
239.1640843541
  0
LINE
  5
232
100
AcDbEntity
  8
4
100
AcDbLine
 62
7
  6
BYLAYER
 10
818.6948664775
 20
239.4140843541
 11
818.4529649253
 21
239.4140843541
  0
LINE
  5
233
100
AcDbEntity
  8
4
100
AcDbLine
 62
7
  6
BYLAYER
 10
818.6948664775
 20
245.4140843541
 11
818.4529649253
 21
245.4140843541
  0
LINE
  5
234
100
AcDbEntity
  8
4
100
AcDbLine
 62
7
  6
BYLAYER
 10
860.4948664775
 20
245.6640843541
 11
846.9948664775
 21
245.6640843541
  0
LINE
  5
235
100
AcDbEntity
  8
4
100
AcDbLine
 62
7
  6
BYLAYER
 10
846.9948664775
 20
269.1640843541
 11
860.4948664775
 21
269.1640843541
  0
LINE
  5
236
100
AcDbEntity
  8
4
100
AcDbLine
 62
7
  6
BYLAYER
 10
818.6948664775
 20
269.4140843541
 11
818.4529649253
 21
269.4140843541
  0
LINE
  5
237
100
AcDbEntity
  8
4
100
AcDbLine
 62
7
  6
BYLAYER
 10
818.6948664775
 20
275.4140843541
 11
818.4529649253
 21
275.4140843541
  0
LINE
  5
238
100
AcDbEntity
  8
4
100
AcDbLine
 62
7
  6
BYLAYER
 10
860.4948664775
 20
275.6640843541
 11
846.9948664775
 21
275.6640843541
  0
LINE
  5
239
100
AcDbEntity
  8
4
100
AcDbLine
 62
7
  6
BYLAYER
 10
818.6948664775
 20
282.4140843541
 11
863.6948664775
 21
282.4140843541
  0
LINE
  5
23A
100
AcDbEntity
  8
0
100
AcDbLine
 62
7
  6
BYLAYER
 10
774.9532050982
 20
2081.5659106453
 11
774.4532041145
 21
2081.0659098414
  0
LINE
  5
23B
100
AcDbEntity
  8
0
100
AcDbLine
 62
7
  6
BYLAYER
 10
773.2032056625
 20
2077.5659092309
 11
772.7032056625
 21
2077.0659092309
  0
LINE
  5
23C
100
AcDbEntity
  8
0
100
AcDbLine
 62
7
  6
BYLAYER
 10
773.2032056625
 20
2072.5659092309
 11
772.7032056625
 21
2072.0659092309
  0
LINE
  5
23D
100
AcDbEntity
  8
0
100
AcDbLine
 62
7
  6
BYLAYER
 10
788.2032056625
 20
2071.2659092309
 11
788.0032056625
 21
2071.0659092309
  0
LINE
  5
23E
100
AcDbEntity
  8
0
100
AcDbLine
 62
7
  6
BYLAYER
 10
795.7032056625
 20
2077.5659092309
 11
795.2032056625
 21
2077.0659092309
  0
LINE
  5
23F
100
AcDbEntity
  8
3
100
AcDbLine
 62
7
  6
BYLAYER
 10
763.4529476104
 20
2053.5659220394
 11
763.4529476104
 21
205.0659220394
  0
LINE
  5
240
100
AcDbEntity
  8
0
100
AcDbLine
 62
7
  6
BYLAYER
 10
763.4532056625
 20
2070.0659092309
 11
763.4532056625
 21
2053.5659092309
  0
LINE
  5
241
100
AcDbEntity
  8
0
100
AcDbLine
 62
7
  6
BYLAYER
 10
763.4534463997
 20
205.0657990924
 11
763.4534463997
 21
188.5657990924
  0
LINE
  5
242
100
AcDbEntity
  8
3
100
AcDbLine
 62
7
  6
BYLAYER
 10
763.4570577526
 20
205.0659220394
 11
763.4539754101
 21
1705.0659220394
  0
LINE
  5
243
100
AcDbEntity
  8
3
100
AcDbLine
 62
7
  6
BYLAYER
 10
764.9035053547
 20
205.0659220394
 11
764.9035053547
 21
2053.5659220394
  0
LINE
  5
244
100
AcDbEntity
  8
0
100
AcDbLine
 62
7
  6
BYLAYER
 10
764.9037634067
 20
2053.5659092309
 11
764.9037634067
 21
2070.0659092309
  0
LINE
  5
245
100
AcDbEntity
  8
0
100
AcDbLine
 62
7
  6
BYLAYER
 10
764.9040041439
 20
188.5657990924
 11
764.9040041439
 21
205.0657990924
  0
LINE
  5
246
100
AcDbEntity
  8
0
100
AcDbLine
 62
7
  6
BYLAYER
 10
768.5411239707
 20
2070.0659092309
 11
768.5411239707
 21
2068.0659092309
  0
LINE
  5
247
100
AcDbEntity
  8
0
100
AcDbLine
 62
7
  6
BYLAYER
 10
768.5413647078
 20
190.5657990924
 11
768.5413647078
 21
188.5657990924
  0
LINE
  5
248
100
AcDbEntity
  8
3
100
AcDbLine
 62
7
  6
BYLAYER
 10
769.1062857779
 20
2053.5659220394
 11
769.1062857779
 21
205.0659220394
  0
LINE
  5
249
100
AcDbEntity
  8
0
100
AcDbLine
 62
7
  6
BYLAYER
 10
769.1065438299
 20
2068.0659092309
 11
769.1065438299
 21
2053.5659092309
  0
LINE
  5
24A
100
AcDbEntity
  8
0
100
AcDbLine
 62
7
  6
BYLAYER
 10
769.1067845671
 20
205.0657990924
 11
769.1067845671
 21
190.5657990924
  0
LINE
  5
24B
100
AcDbEntity
  8
0
100
AcDbLine
 62
7
  6
BYLAYER
 10
770.4532056625
 20
2069.0659092309
 11
770.4532056625
 21
2070.0659092309
  0
LINE
  5
24C
100
AcDbEntity
  8
0
100
AcDbLine
 62
7
  6
BYLAYER
 10
770.4534463997
 20
188.5657990924
 11
770.4534463997
 21
189.5657990924
  0
LINE
  5
24D
100
AcDbEntity
  8
0
100
AcDbLine
 62
7
  6
BYLAYER
 10
770.6532056625
 20
2068.6675081076
 11
770.6532056625
 21
2070.1659092309
  0
LINE
  5
24E
100
AcDbEntity
  8
0
100
AcDbLine
 62
7
  6
BYLAYER
 10
770.6534582785
 20
189.9642120946
 11
770.6534582785
 21
188.4659092309
  0
LINE
  5
24F
100
AcDbEntity
  8
3
100
AcDbLine
 62
7
  6
BYLAYER
 10
771.8534970568
 20
205.0659220394
 11
771.8534970568
 21
2053.5659220394
  0
LINE
  5
250
100
AcDbEntity
  8
0
100
AcDbLine
 62
7
  6
BYLAYER
 10
771.8537551089
 20
2053.5659092309
 11
771.8537551089
 21
2068.5659092309
  0
LINE
  5
251
100
AcDbEntity
  8
0
100
AcDbLine
 62
7
  6
BYLAYER
 10
771.8539958461
 20
190.0657990924
 11
771.8539958461
 21
205.0657990924
  0
LINE
  5
252
100
AcDbEntity
  8
0
100
AcDbLine
 62
7
  6
BYLAYER
 10
772.7032056625
 20
2071.1659092309
 11
772.7032056625
 21
2077.0659092309
  0
LINE
  5
253
100
AcDbEntity
  8
0
100
AcDbLine
 62
7
  6
BYLAYER
 10
774.4532056625
 20
2073.5659092309
 11
774.4532056625
 21
2081.0659082935
  0
LINE
  5
254
100
AcDbEntity
  8
0
100
AcDbLine
 62
7
  6
BYLAYER
 10
774.9532056625
 20
2072.5659092309
 11
774.9532056625
 21
2073.5659092309
  0
LINE
  5
255
100
AcDbEntity
  8
0
100
AcDbLine
 62
7
  6
BYLAYER
 10
776.9532055897
 20
2068.5659092309
 11
776.9532055897
 21
2068.0659092309
  0
LINE
  5
256
100
AcDbEntity
  8
0
100
AcDbLine
 62
7
  6
BYLAYER
 10
776.9534463322
 20
190.5657990924
 11
776.9534463322
 21
190.0657990924
  0
LINE
  5
257
100
AcDbEntity
  8
0
100
AcDbLine
 62
7
  6
BYLAYER
 10
777.2532056625
 20
2068.6700916662
 11
777.2532056625
 21
2070.1659092309
  0
LINE
  5
258
100
AcDbEntity
  8
0
100
AcDbLine
 62
7
  6
BYLAYER
 10
777.2534582785
 20
189.9617363475
 11
777.2534582785
 21
188.4659092309
  0
LINE
  5
259
100
AcDbEntity
  8
0
100
AcDbLine
 62
7
  6
BYLAYER
 10
777.4532056625
 20
2070.0659092309
 11
777.4532056625
 21
2069.0659092309
  0
LINE
  5
25A
100
AcDbEntity
  8
0
100
AcDbLine
 62
7
  6
BYLAYER
 10
777.4534463997
 20
189.5657990924
 11
777.4534463997
 21
188.5657990924
  0
LINE
  5
25B
100
AcDbEntity
  8
0
100
AcDbLine
 62
7
  6
BYLAYER
 10
778.4532056625
 20
2069.0659092309
 11
778.4532056625
 21
2071.0659092309
  0
LINE
  5
25C
100
AcDbEntity
  8
0
100
AcDbLine
 62
7
  6
BYLAYER
 10
778.4534463997
 20
187.5657990924
 11
778.4534463997
 21
189.5657990924
  0
LINE
  5
25D
100
AcDbEntity
  8
0
100
AcDbLine
 62
7
  6
BYLAYER
 10
785.9532056625
 20
2073.5659092309
 11
785.9532056625
 21
2072.5659092309
  0
LINE
  5
25E
100
AcDbEntity
  8
3
100
AcDbLine
 62
7
  6
BYLAYER
 10
786.4529476104
 20
2053.5659220394
 11
786.4529476104
 21
205.0659220394
  0
LINE
  5
25F
100
AcDbEntity
  8
0
100
AcDbLine
 62
7
  6
BYLAYER
 10
786.4532056625
 20
2070.0659092309
 11
786.4532056625
 21
2053.5659092309
  0
LINE
  5
260
100
AcDbEntity
  8
0
100
AcDbLine
 62
7
  6
BYLAYER
 10
786.4532056625
 20
2073.5659092309
 11
786.4532056625
 21
2081.0659082935
  0
LINE
  5
261
100
AcDbEntity
  8
0
100
AcDbLine
 62
7
  6
BYLAYER
 10
786.4534463997
 20
205.0657990924
 11
786.4534463997
 21
188.5657990924
  0
LINE
  5
262
100
AcDbEntity
  8
3
100
AcDbLine
 62
7
  6
BYLAYER
 10
786.9529476104
 20
205.0659220394
 11
786.9529476104
 21
2053.5659220394
  0
LINE
  5
263
100
AcDbEntity
  8
0
100
AcDbLine
 62
7
  6
BYLAYER
 10
786.9532056625
 20
2053.5659092309
 11
786.9532056625
 21
2070.0659092308
  0
LINE
  5
264
100
AcDbEntity
  8
0
100
AcDbLine
 62
7
  6
BYLAYER
 10
786.9534463997
 20
188.5657990924
 11
786.9534463997
 21
205.0657990924
  0
LINE
  5
265
100
AcDbEntity
  8
0
100
AcDbLine
 62
7
  6
BYLAYER
 10
788.2032056625
 20
2071.0659092309
 11
788.2032056625
 21
2077.0659092309
  0
LINE
  5
266
100
AcDbEntity
  8
3
100
AcDbLine
 62
7
  6
BYLAYER
 10
794.9529476104
 20
2053.5659220394
 11
794.9529476104
 21
205.0659220394
  0
LINE
  5
267
100
AcDbEntity
  8
0
100
AcDbLine
 62
7
  6
BYLAYER
 10
794.9532056625
 20
2070.0659092309
 11
794.9532056625
 21
2053.5659092309
  0
LINE
  5
268
100
AcDbEntity
  8
0
100
AcDbLine
 62
7
  6
BYLAYER
 10
794.9534463997
 20
205.0657990924
 11
794.9534463997
 21
188.5657990925
  0
LINE
  5
269
100
AcDbEntity
  8
0
100
AcDbLine
 62
7
  6
BYLAYER
 10
795.2032056625
 20
2071.0659092309
 11
795.2032056625
 21
2077.0659092309
  0
LINE
  5
26A
100
AcDbEntity
  8
3
100
AcDbLine
 62
7
  6
BYLAYER
 10
795.4529476104
 20
205.0659220394
 11
795.4529476104
 21
2053.5659220394
  0
LINE
  5
26B
100
AcDbEntity
  8
0
100
AcDbLine
 62
7
  6
BYLAYER
 10
795.4532056625
 20
2053.5659092309
 11
795.4532056625
 21
2070.0659092309
  0
LINE
  5
26C
100
AcDbEntity
  8
0
100
AcDbLine
 62
7
  6
BYLAYER
 10
795.4534463997
 20
188.5657990924
 11
795.4534463997
 21
205.0657990924
  0
LINE
  5
26D
100
AcDbEntity
  8
0
100
AcDbLine
 62
7
  6
BYLAYER
 10
798.8269456625
 20
2078.7659092309
 11
798.8269456625
 21
2077.5659092309
  0
LINE
  5
26E
100
AcDbEntity
  8
0
100
AcDbLine
 62
7
  6
BYLAYER
 10
807.0769456625
 20
2078.7659092309
 11
807.0769456625
 21
2077.5659092309
  0
LINE
  5
26F
100
AcDbEntity
  8
0
100
AcDbLine
 62
7
  6
BYLAYER
 10
809.4532056625
 20
2071.0659092309
 11
809.4532056625
 21
2069.0659092309
  0
LINE
  5
270
100
AcDbEntity
  8
0
100
AcDbLine
 62
7
  6
BYLAYER
 10
809.4534463997
 20
189.5657990924
 11
809.4534463997
 21
187.5657990924
  0
LINE
  5
271
100
AcDbEntity
  8
0
100
AcDbLine
 62
7
  6
BYLAYER
 10
810.4532056625
 20
2069.0659092309
 11
810.4532056625
 21
2070.0659092309
  0
LINE
  5
272
100
AcDbEntity
  8
0
100
AcDbLine
 62
7
  6
BYLAYER
 10
810.4534463997
 20
188.5657990924
 11
810.4534463997
 21
189.5657990924
  0
LINE
  5
273
100
AcDbEntity
  8
0
100
AcDbLine
 62
7
  6
BYLAYER
 10
810.6532056625
 20
2068.6699762254
 11
810.6532056625
 21
2070.1659092309
  0
LINE
  5
274
100
AcDbEntity
  8
0
100
AcDbLine
 62
7
  6
BYLAYER
 10
810.6534463997
 20
189.9616166576
 11
810.6534463997
 21
188.4659092309
  0
LINE
  5
275
100
AcDbEntity
  8
0
100
AcDbLine
 62
7
  6
BYLAYER
 10
810.7032056625
 20
2071.0659092309
 11
810.7032056625
 21
2077.0659092309
  0
LINE
  5
276
100
AcDbEntity
  8
0
100
AcDbLine
 62
7
  6
BYLAYER
 10
810.953205735
 20
2068.0659092309
 11
810.953205735
 21
2068.5659092309
  0
LINE
  5
277
100
AcDbEntity
  8
0
100
AcDbLine
 62
7
  6
BYLAYER
 10
810.9534464725
 20
190.0657990924
 11
810.9534464725
 21
190.5657990924
  0
LINE
  5
278
100
AcDbEntity
  8
3
100
AcDbLine
 62
7
  6
BYLAYER
 10
814.4529649253
 20
2053.5659220394
 11
814.4529649253
 21
205.0659220394
  0
LINE
  5
279
100
AcDbEntity
  8
0
100
AcDbLine
 62
7
  6
BYLAYER
 10
814.4532056625
 20
2068.5659092309
 11
814.4532056625
 21
2053.5659092309
  0
LINE
  5
27A
100
AcDbEntity
  8
0
100
AcDbLine
 62
7
  6
BYLAYER
 10
814.4534463997
 20
205.0657990924
 11
814.4534463997
 21
190.0657990924
  0
LINE
  5
27B
100
AcDbEntity
  8
0
100
AcDbLine
 62
7
  6
BYLAYER
 10
817.2532056625
 20
2068.5659092309
 11
817.2532056625
 21
2070.1659092309
  0
LINE
  5
27C
100
AcDbEntity
  8
0
100
AcDbLine
 62
7
  6
BYLAYER
 10
817.2534463997
 20
190.0659092309
 11
817.2534463997
 21
188.4659092309
  0
LINE
  5
27D
100
AcDbEntity
  8
0
100
AcDbLine
 62
7
  6
BYLAYER
 10
817.4532056625
 20
2071.0659092309
 11
817.4532056642
 21
2069.0659092309
  0
LINE
  5
27E
100
AcDbEntity
  8
0
100
AcDbLine
 62
7
  6
BYLAYER
 10
817.4534464014
 20
189.5657990924
 11
817.4534463997
 21
187.5657990924
  0
LINE
  5
27F
100
AcDbEntity
  8
3
100
AcDbLine
 62
7
  6
BYLAYER
 10
818.4529649253
 20
205.0659220394
 11
818.4529649253
 21
2053.5659220394
  0
LINE
  5
280
100
AcDbEntity
  8
0
100
AcDbLine
 62
7
  6
BYLAYER
 10
818.4532056625
 20
2053.5659092309
 11
818.4532056625
 21
2070.0659092309
  0
LINE
  5
281
100
AcDbEntity
  8
0
100
AcDbLine
 62
7
  6
BYLAYER
 10
818.4534463997
 20
190.5657990924
 11
818.4534463997
 21
205.0657990924
  0
LINE
  5
282
100
AcDbEntity
  8
0
100
AcDbLine
 62
7
  6
BYLAYER
 10
818.4534463997
 20
188.5657990924
 11
818.4534463997
 21
190.5539314167
  0
LINE
  5
283
100
AcDbEntity
  8
0
100
AcDbLine
 62
7
  6
BYLAYER
 10
818.4534446711
 20
189.5657569642
 11
818.4534463997
 21
190.5454719588
  0
LINE
  5
284
100
AcDbEntity
  8
4
100
AcDbLine
 62
7
  6
BYLAYER
 10
818.6948664775
 20
2028.748986815
 11
818.6948664775
 21
1978.748986815
  0
LINE
  5
285
100
AcDbEntity
  8
4
100
AcDbLine
 62
7
  6
BYLAYER
 10
818.6948664775
 20
1154.6982251939
 11
818.6948664775
 21
1104.6982251939
  0
LINE
  5
286
100
AcDbEntity
  8
4
100
AcDbLine
 62
7
  6
BYLAYER
 10
818.6948664775
 20
282.4140843541
 11
818.6948664775
 21
232.4140843541
  0
LINE
  5
287
100
AcDbEntity
  8
4
100
AcDbLine
 62
7
  6
BYLAYER
 10
863.6948664775
 20
1104.6982251939
 11
818.6948664775
 21
1104.6982251939
  0
LINE
  5
288
100
AcDbEntity
  8
4
100
AcDbLine
 62
7
  6
BYLAYER
 10
846.9948664775
 20
1111.4482251939
 11
860.4948664775
 21
1111.4482251939
  0
LINE
  5
289
100
AcDbEntity
  8
4
100
AcDbLine
 62
7
  6
BYLAYER
 10
818.6948664775
 20
1111.6982251939
 11
818.4529649253
 21
1111.6982251939
  0
LINE
  5
28A
100
AcDbEntity
  8
4
100
AcDbLine
 62
7
  6
BYLAYER
 10
818.6948664775
 20
1117.6982251939
 11
818.4529649253
 21
1117.6982251939
  0
LINE
  5
28B
100
AcDbEntity
  8
4
100
AcDbLine
 62
7
  6
BYLAYER
 10
860.4948664775
 20
1117.9482251939
 11
846.9948664775
 21
1117.9482251939
  0
LINE
  5
28C
100
AcDbEntity
  8
4
100
AcDbLine
 62
7
  6
BYLAYER
 10
846.9948664775
 20
1141.4482251939
 11
860.4948664775
 21
1141.4482251939
  0
LINE
  5
28D
100
AcDbEntity
  8
4
100
AcDbLine
 62
7
  6
BYLAYER
 10
818.6948664775
 20
1141.6982251939
 11
818.4529649253
 21
1141.6982251939
  0
LINE
  5
28E
100
AcDbEntity
  8
4
100
AcDbLine
 62
7
  6
BYLAYER
 10
825.6948664775
 20
232.4140843541
 11
825.6948664775
 21
282.4140843541
  0
LINE
  5
28F
100
AcDbEntity
  8
4
100
AcDbLine
 62
7
  6
BYLAYER
 10
825.6948664775
 20
1104.6982251939
 11
825.6948664775
 21
1154.6982251939
  0
LINE
  5
290
100
AcDbEntity
  8
4
100
AcDbLine
 62
7
  6
BYLAYER
 10
825.6948664775
 20
1978.748986815
 11
825.6948664775
 21
2028.748986815
  0
LINE
  5
291
100
AcDbEntity
  8
4
100
AcDbLine
 62
7
  6
BYLAYER
 10
868.6948664775
 20
2023.748986815
 11
868.6948664775
 21
1983.748986815
  0
LINE
  5
292
100
AcDbEntity
  8
4
100
AcDbLine
 62
7
  6
BYLAYER
 10
868.6948664775
 20
1149.6982251939
 11
868.6948664775
 21
1109.6982251939
  0
LINE
  5
293
100
AcDbEntity
  8
4
100
AcDbLine
 62
7
  6
BYLAYER
 10
868.6948664775
 20
277.4140843541
 11
868.6948664775
 21
237.4140843541
  0
LINE
  5
294
100
AcDbEntity
  8
4
100
AcDbLine
 62
7
  6
BYLAYER
 10
818.6948664775
 20
1147.6982251939
 11
818.4529649253
 21
1147.6982251939
  0
LINE
  5
295
100
AcDbEntity
  8
4
100
AcDbLine
 62
7
  6
BYLAYER
 10
860.4948664775
 20
1147.9482251939
 11
846.9948664775
 21
1147.9482251939
  0
LINE
  5
296
100
AcDbEntity
  8
4
100
AcDbLine
 62
7
  6
BYLAYER
 10
818.6948664775
 20
1154.6982251939
 11
863.6948664775
 21
1154.6982251939
  0
LINE
  5
297
100
AcDbEntity
  8
0
100
AcDbLine
 62
7
  6
BYLAYER
 10
772.8032056625
 20
2071.1659092309
 11
772.7032056625
 21
2071.2659092309
  0
LINE
  5
298
100
AcDbEntity
  8
0
100
AcDbLine
 62
7
  6
BYLAYER
 10
788.2032056625
 20
2072.0659092309
 11
787.7032056625
 21
2072.5659092309
  0
LINE
  5
299
100
AcDbEntity
  8
0
100
AcDbLine
 62
7
  6
BYLAYER
 10
788.2032056625
 20
2077.0659092309
 11
787.7032056625
 21
2077.5659092309
  0
LINE
  5
29A
100
AcDbEntity
  8
0
100
AcDbLine
 62
7
  6
BYLAYER
 10
786.4532072105
 20
2081.0659098414
 11
785.9532062268
 21
2081.5659106453
  0
LINE
  5
29B
100
AcDbEntity
  8
0
100
AcDbLine
 62
7
  6
BYLAYER
 10
810.7032056625
 20
2077.0659092309
 11
810.2032056625
 21
2077.5659092309
  0
LINE
  5
29C
100
AcDbEntity
  8
4
100
AcDbLine
 62
7
  6
BYLAYER
 10
863.6948664775
 20
1978.748986815
 11
818.6948664775
 21
1978.748986815
  0
LINE
  5
29D
100
AcDbEntity
  8
4
100
AcDbLine
 62
7
  6
BYLAYER
 10
846.9948664775
 20
1985.498986815
 11
860.4948664775
 21
1985.498986815
  0
LINE
  5
29E
100
AcDbEntity
  8
4
100
AcDbLine
 62
7
  6
BYLAYER
 10
818.6948664775
 20
1985.748986815
 11
818.4529649253
 21
1985.748986815
  0
LINE
  5
29F
100
AcDbEntity
  8
4
100
AcDbLine
 62
7
  6
BYLAYER
 10
818.6948664775
 20
1991.748986815
 11
818.4529649253
 21
1991.748986815
  0
LINE
  5
2A0
100
AcDbEntity
  8
4
100
AcDbLine
 62
7
  6
BYLAYER
 10
860.4948664775
 20
1991.998986815
 11
846.9948664775
 21
1991.998986815
  0
LINE
  5
2A1
100
AcDbEntity
  8
4
100
AcDbLine
 62
7
  6
BYLAYER
 10
846.9948664775
 20
2015.498986815
 11
860.4948664775
 21
2015.498986815
  0
LINE
  5
2A2
100
AcDbEntity
  8
4
100
AcDbLine
 62
7
  6
BYLAYER
 10
818.6948664775
 20
2015.748986815
 11
818.4529649253
 21
2015.748986815
  0
LINE
  5
2A3
100
AcDbEntity
  8
4
100
AcDbLine
 62
7
  6
BYLAYER
 10
818.6948664775
 20
2021.748986815
 11
818.4529649253
 21
2021.748986815
  0
LINE
  5
2A4
100
AcDbEntity
  8
4
100
AcDbLine
 62
7
  6
BYLAYER
 10
860.4948664775
 20
2021.998986815
 11
846.9948664775
 21
2021.998986815
  0
LINE
  5
2A5
100
AcDbEntity
  8
4
100
AcDbLine
 62
7
  6
BYLAYER
 10
818.6948664775
 20
2028.748986815
 11
863.6948664775
 21
2028.748986815
  0
LINE
  5
2A6
100
AcDbEntity
  8
0
100
AcDbLine
 62
7
  6
BYLAYER
 10
763.4532056625
 20
2053.5659092309
 11
818.4532056625
 21
2053.5659092309
  0
LINE
  5
2A7
100
AcDbEntity
  8
3
100
AcDbLine
 62
7
  6
BYLAYER
 10
763.4529476104
 20
2053.5659220394
 11
818.4529649253
 21
2053.5659220394
  0
LINE
  5
2A8
100
AcDbEntity
  8
0
100
AcDbLine
 62
7
  6
BYLAYER
 10
802.969607571
 20
2067.0659092309
 11
794.9532056625
 21
2067.0659092309
  0
LINE
  5
2A9
100
AcDbEntity
  8
0
100
AcDbLine
 62
7
  6
BYLAYER
 10
780.436803754
 20
2067.0659092309
 11
788.4532056625
 21
2067.0659092309
  0
LINE
  5
2AA
100
AcDbEntity
  8
0
100
AcDbLine
 62
7
  6
BYLAYER
 10
780.4370194576
 20
2067.0771034819
 11
788.3479966336
 21
2067.0771034819
  0
LINE
  5
2AB
100
AcDbEntity
  8
0
100
AcDbLine
 62
7
  6
BYLAYER
 10
802.9693916881
 20
2067.0771223138
 11
795.0585021472
 21
2067.0771223138
  0
LINE
  5
2AC
100
AcDbEntity
  8
0
100
AcDbLine
 62
7
  6
BYLAYER
 10
802.9698234539
 20
2068.054696148
 11
794.8479091779
 21
2068.054696148
  0
LINE
  5
2AD
100
AcDbEntity
  8
0
100
AcDbLine
 62
7
  6
BYLAYER
 10
780.4365880504
 20
2068.0547149799
 11
788.5584146914
 21
2068.0547149799
  0
LINE
  5
2AE
100
AcDbEntity
  8
0
100
AcDbLine
 62
7
  6
BYLAYER
 10
768.5411239707
 20
2068.0659092309
 11
776.9532056625
 21
2068.0659092309
  0
LINE
  5
2AF
100
AcDbEntity
  8
0
100
AcDbLine
 62
7
  6
BYLAYER
 10
810.9532056625
 20
2068.0659092309
 11
818.4532056625
 21
2068.0659092309
  0
LINE
  5
2B0
100
AcDbEntity
  8
0
100
AcDbLine
 62
7
  6
BYLAYER
 10
770.40345217
 20
2068.5659092309
 11
776.9532056625
 21
2068.5659092309
  0
LINE
  5
2B1
100
AcDbEntity
  8
0
100
AcDbLine
 62
7
  6
BYLAYER
 10
810.9532056625
 20
2068.5659092309
 11
817.9532056625
 21
2068.5659092309
  0
LINE
  5
2B2
100
AcDbEntity
  8
0
100
AcDbLine
 62
7
  6
BYLAYER
 10
818.4532056625
 20
2069.0659092998
 11
817.2532056625
 21
2069.0659092309
  0
LINE
  5
2B3
100
AcDbEntity
  8
0
100
AcDbLine
 62
7
  6
BYLAYER
 10
810.6532056625
 20
2069.0659092309
 11
809.4532056625
 21
2069.0659092999
  0
LINE
  5
2B4
100
AcDbEntity
  8
0
100
AcDbLine
 62
7
  6
BYLAYER
 10
778.4532056625
 20
2069.0659092998
 11
777.2532056625
 21
2069.0659092309
  0
LINE
  5
2B5
100
AcDbEntity
  8
0
100
AcDbLine
 62
7
  6
BYLAYER
 10
770.6532056625
 20
2069.0659092309
 11
770.0408904537
 21
2069.0659092309
  0
LINE
  5
2B6
100
AcDbEntity
  8
0
100
AcDbLine
 62
7
  6
BYLAYER
 10
763.4532056625
 20
2070.0659092309
 11
770.6532056625
 21
2070.0659092309
  0
LINE
  5
2B7
100
AcDbEntity
  8
0
100
AcDbLine
 62
7
  6
BYLAYER
 10
777.2532056625
 20
2070.0659092309
 11
786.9532056625
 21
2070.0659092243
  0
LINE
  5
2B8
100
AcDbEntity
  8
0
100
AcDbLine
 62
7
  6
BYLAYER
 10
794.9532056625
 20
2070.0659092308
 11
810.6532056625
 21
2070.0659092309
  0
LINE
  5
2B9
100
AcDbEntity
  8
0
100
AcDbLine
 62
7
  6
BYLAYER
 10
817.2532056625
 20
2070.0659092309
 11
818.4532056625
 21
2070.0659092309
  0
LINE
  5
2BA
100
AcDbEntity
  8
0
100
AcDbLine
 62
7
  6
BYLAYER
 10
770.6532056625
 20
2070.1659092309
 11
777.2532056625
 21
2070.1659092309
  0
LINE
  5
2BB
100
AcDbEntity
  8
0
100
AcDbLine
 62
7
  6
BYLAYER
 10
810.6532056625
 20
2070.1659092309
 11
817.2532056625
 21
2070.1659092309
  0
LINE
  5
2BC
100
AcDbEntity
  8
0
100
AcDbLine
 62
7
  6
BYLAYER
 10
786.8117574824
 20
2070.5659092309
 11
795.0936893166
 21
2070.5659092309
  0
LINE
  5
2BD
100
AcDbEntity
  8
0
100
AcDbLine
 62
7
  6
BYLAYER
 10
817.4532056625
 20
2071.0659092309
 11
816.626410866
 21
2071.0659092309
  0
LINE
  5
2BE
100
AcDbEntity
  8
0
100
AcDbLine
 62
7
  6
BYLAYER
 10
764.4532056625
 20
2071.0659092309
 11
771.280000459
 21
2071.0659092309
  0
LINE
  5
2BF
100
AcDbEntity
  8
0
100
AcDbLine
 62
7
  6
BYLAYER
 10
776.626410866
 20
2071.0659092309
 11
811.280000459
 21
2071.0659092309
  0
LINE
  5
2C0
100
AcDbEntity
  8
0
100
AcDbLine
 62
7
  6
BYLAYER
 10
771.6532897611
 20
2071.1659092309
 11
776.2531130634
 21
2071.1659092309
  0
LINE
  5
2C1
100
AcDbEntity
  8
0
100
AcDbLine
 62
7
  6
BYLAYER
 10
811.6532897611
 20
2071.1659092309
 11
816.2531130634
 21
2071.1659092309
  0
LINE
  5
2C2
100
AcDbEntity
  8
0
100
AcDbLine
 62
7
  6
BYLAYER
 10
788.2032056625
 20
2071.2659092309
 11
772.7032056625
 21
2071.2659092309
  0
LINE
  5
2C3
100
AcDbEntity
  8
0
100
AcDbLine
 62
7
  6
BYLAYER
 10
772.7032056625
 20
2072.0659092309
 11
788.2032056625
 21
2072.0659092309
  0
LINE
  5
2C4
100
AcDbEntity
  8
0
100
AcDbLine
 62
7
  6
BYLAYER
 10
810.7031413657
 20
2072.5659092309
 11
795.2032699593
 21
2072.5659092309
  0
LINE
  5
2C5
100
AcDbEntity
  8
0
100
AcDbLine
 62
7
  6
BYLAYER
 10
772.7032699593
 20
2072.5659092309
 11
788.2031413657
 21
2072.5659092309
  0
LINE
  5
2C6
100
AcDbEntity
  8
0
100
AcDbLine
 62
7
  6
BYLAYER
 10
786.4531990792
 20
2073.5659092309
 11
774.4532122459
 21
2073.5659092309
  0
LINE
  5
2C7
100
AcDbEntity
  8
0
100
AcDbLine
 62
7
  6
BYLAYER
 10
810.7032056625
 20
2075.5659092309
 11
795.2032056625
 21
2075.5659092309
  0
LINE
  5
2C8
100
AcDbEntity
  8
0
100
AcDbLine
 62
7
  6
BYLAYER
 10
788.2032056625
 20
2075.5659092309
 11
786.4532056625
 21
2075.5659092309
  0
LINE
  5
2C9
100
AcDbEntity
  8
0
100
AcDbLine
 62
7
  6
BYLAYER
 10
774.4532056625
 20
2075.5659092309
 11
772.7032056625
 21
2075.5659092309
  0
LINE
  5
2CA
100
AcDbEntity
  8
0
100
AcDbLine
 62
7
  6
BYLAYER
 10
772.7032056625
 20
2077.0659092309
 11
774.4532056625
 21
2077.0659092309
  0
LINE
  5
2CB
100
AcDbEntity
  8
0
100
AcDbLine
 62
7
  6
BYLAYER
 10
786.4532056625
 20
2077.0659092309
 11
788.2032056625
 21
2077.0659092309
  0
LINE
  5
2CC
100
AcDbEntity
  8
0
100
AcDbLine
 62
7
  6
BYLAYER
 10
795.2032056625
 20
2077.0659092309
 11
810.7032056625
 21
2077.0659092309
  0
LINE
  5
2CD
100
AcDbEntity
  8
0
100
AcDbLine
 62
7
  6
BYLAYER
 10
773.2032056625
 20
2077.5659092309
 11
774.4532056625
 21
2077.5659092309
  0
LINE
  5
2CE
100
AcDbEntity
  8
0
100
AcDbLine
 62
7
  6
BYLAYER
 10
786.4532056625
 20
2077.5659092309
 11
787.7032056625
 21
2077.5659092309
  0
LINE
  5
2CF
100
AcDbEntity
  8
0
100
AcDbLine
 62
7
  6
BYLAYER
 10
795.7032056625
 20
2077.5659092309
 11
810.2032056625
 21
2077.5659092309
  0
LINE
  5
2D0
100
AcDbEntity
  8
0
100
AcDbLine
 62
7
  6
BYLAYER
 10
798.8269456625
 20
2078.7659092309
 11
807.0769456625
 21
2078.7659092309
  0
LINE
  5
2D1
100
AcDbEntity
  8
0
100
AcDbLine
 62
7
  6
BYLAYER
 10
799.1268852946
 20
2079.0659092309
 11
806.7769675538
 21
2079.0659092309
  0
LINE
  5
2D2
100
AcDbEntity
  8
0
100
AcDbLine
 62
7
  6
BYLAYER
 10
774.4532056625
 20
2081.0659082935
 11
786.4532056625
 21
2081.0659082935
  0
LINE
  5
2D3
100
AcDbEntity
  8
0
100
AcDbLine
 62
7
  6
BYLAYER
 10
774.9532050982
 20
2081.5659092309
 11
785.9532062268
 21
2081.5659092309
  0
ARC
  5
2D4
100
AcDbEntity
  8
0
100
AcDbCircle
 62
7
  6
BYLAYER
 10
776.2534582785
 20
188.4659092309
 40
1.0
100
AcDbArc
 50
270.0
 51
360.0
  0
ARC
  5
2D5
100
AcDbEntity
  8
0
100
AcDbCircle
 62
7
  6
BYLAYER
 10
771.6534582785
 20
188.4659092309
 40
1.0
100
AcDbArc
 50
180.0
 51
270.0
  0
ARC
  5
2D6
100
AcDbEntity
  8
0
100
AcDbCircle
 62
7
  6
BYLAYER
 10
785.9534463997
 20
188.5657990924
 40
1.0
100
AcDbArc
 50
270.0
 51
360.0
  0
ARC
  5
2D7
100
AcDbEntity
  8
0
100
AcDbCircle
 62
7
  6
BYLAYER
 10
769.4534463997
 20
188.5657990924
 40
1.0
100
AcDbArc
 50
270.0000000004
 51
359.9999999998
  0
ARC
  5
2D8
100
AcDbEntity
  8
0
100
AcDbCircle
 62
7
  6
BYLAYER
 10
778.4534463997
 20
188.5657990924
 40
1.0
100
AcDbArc
 50
180.0
 51
270.0
  0
ARC
  5
2D9
100
AcDbEntity
  8
0
100
AcDbCircle
 62
7
  6
BYLAYER
 10
764.4534463997
 20
188.5657990924
 40
1.0
100
AcDbArc
 50
180.0000000002
 51
270.0000000009
  0
ARC
  5
2DA
100
AcDbEntity
  8
0
100
AcDbCircle
 62
7
  6
BYLAYER
 10
770.9534463997
 20
189.5657990924
 40
0.5
100
AcDbArc
 50
90.0
 51
180.0
  0
ARC
  5
2DB
100
AcDbEntity
  8
0
100
AcDbCircle
 62
7
  6
BYLAYER
 10
776.9534463997
 20
189.5657990924
 40
0.5
100
AcDbArc
 50
0.0
 51
90.0000000001
  0
ARC
  5
2DC
100
AcDbEntity
  8
0
100
AcDbCircle
 62
7
  6
BYLAYER
 10
792.1804344923
 20
175.0344193111
 40
27.6896077751
100
AcDbArc
 50
146.3934359328
 51
146.9026052151
  0
ARC
  5
2DD
100
AcDbEntity
  8
0
100
AcDbCircle
 62
7
  6
BYLAYER
 10
811.6534463997
 20
188.4659092309
 40
1.0
100
AcDbArc
 50
180.0
 51
270.0
  0
ARC
  5
2DE
100
AcDbEntity
  8
0
100
AcDbCircle
 62
7
  6
BYLAYER
 10
809.4534463997
 20
188.5657990924
 40
1.0
100
AcDbArc
 50
270.0
 51
360.0
  0
ARC
  5
2DF
100
AcDbEntity
  8
0
100
AcDbCircle
 62
7
  6
BYLAYER
 10
795.9534463997
 20
188.5657990924
 40
1.0
100
AcDbArc
 50
179.9999999984
 51
270.0
  0
ARC
  5
2E0
100
AcDbEntity
  8
0
100
AcDbCircle
 62
7
  6
BYLAYER
 10
810.9534463997
 20
189.5657990924
 40
0.5
100
AcDbArc
 50
90.0000000001
 51
180.0
  0
ARC
  5
2E1
100
AcDbEntity
  8
0
100
AcDbCircle
 62
7
  6
BYLAYER
 10
776.2532056625
 20
2070.1659092309
 40
1.0
100
AcDbArc
 50
0.0
 51
90.0
  0
ARC
  5
2E2
100
AcDbEntity
  8
0
100
AcDbCircle
 62
7
  6
BYLAYER
 10
771.6532056625
 20
2070.1659092309
 40
1.0
100
AcDbArc
 50
90.0
 51
180.0
  0
ARC
  5
2E3
100
AcDbEntity
  8
0
100
AcDbCircle
 62
7
  6
BYLAYER
 10
778.4532056625
 20
2070.0659092309
 40
1.0
100
AcDbArc
 50
90.0
 51
180.0
  0
ARC
  5
2E4
100
AcDbEntity
  8
0
100
AcDbCircle
 62
7
  6
BYLAYER
 10
785.9532056625
 20
2070.0659092309
 40
1.0
100
AcDbArc
 50
0.0
 51
90.0
  0
ARC
  5
2E5
100
AcDbEntity
  8
0
100
AcDbCircle
 62
7
  6
BYLAYER
 10
764.4532056625
 20
2070.0659092309
 40
1.0
100
AcDbArc
 50
90.0000000017
 51
180.0000000003
  0
ARC
  5
2E6
100
AcDbEntity
  8
0
100
AcDbCircle
 62
7
  6
BYLAYER
 10
769.4532056625
 20
2070.0659092309
 40
1.0
100
AcDbArc
 50
0.0
 51
90.0
  0
ARC
  5
2E7
100
AcDbEntity
  8
0
100
AcDbCircle
 62
7
  6
BYLAYER
 10
770.9532056625
 20
2069.0659092309
 40
0.5
100
AcDbArc
 50
180.0
 51
270.0
  0
ARC
  5
2E8
100
AcDbEntity
  8
0
100
AcDbCircle
 62
7
  6
BYLAYER
 10
776.9532056625
 20
2069.0659092309
 40
0.5
100
AcDbArc
 50
269.9999999999
 51
359.9999999999
  0
ARC
  5
2E9
100
AcDbEntity
  8
0
100
AcDbCircle
 62
7
  6
BYLAYER
 10
811.6532056625
 20
2070.1659092309
 40
1.0
100
AcDbArc
 50
90.0
 51
180.0
  0
ARC
  5
2EA
100
AcDbEntity
  8
0
100
AcDbCircle
 62
7
  6
BYLAYER
 10
809.4532056625
 20
2070.0659092309
 40
1.0
100
AcDbArc
 50
0.0
 51
90.0
  0
ARC
  5
2EB
100
AcDbEntity
  8
0
100
AcDbCircle
 62
7
  6
BYLAYER
 10
795.9532056625
 20
2070.0659092309
 40
1.0
100
AcDbArc
 50
90.0
 51
180.0000000009
  0
ARC
  5
2EC
100
AcDbEntity
  8
0
100
AcDbCircle
 62
7
  6
BYLAYER
 10
810.9532056625
 20
2069.0659092309
 40
0.5
100
AcDbArc
 50
180.0000000001
 51
270.0
  0
ARC
  5
2ED
100
AcDbEntity
  8
0
100
AcDbCircle
 62
7
  6
BYLAYER
 10
788.4532056625
 20
2067.5659092309
 40
0.5
100
AcDbArc
 50
257.8531473856
 51
77.8531473856
  0
ARC
  5
2EE
100
AcDbEntity
  8
0
100
AcDbCircle
 62
7
  6
BYLAYER
 10
794.9532056625
 20
2067.5659092309
 40
0.5
100
AcDbArc
 50
102.1803352402
 51
282.1803352402
  0
ARC
  5
2EF
100
AcDbEntity
  8
0
100
AcDbCircle
 62
7
  6
BYLAYER
 10
790.7264030775
 20
2082.6404379188
 40
25.9492033581
100
AcDbArc
 50
213.0803197526
 51
213.6236390967
  0
ARC
  5
2F0
100
AcDbEntity
  8
0
100
AcDbCircle
 62
7
  6
BYLAYER
 10
799.1269456625
 20
2078.7659092309
 40
0.3
100
AcDbArc
 50
90.0
 51
179.9999999999
  0
ARC
  5
2F1
100
AcDbEntity
  8
0
100
AcDbCircle
 62
7
  6
BYLAYER
 10
806.7769456625
 20
2078.7659092309
 40
0.3
100
AcDbArc
 50
0.0
 51
90.0
  0
ARC
  5
2F2
100
AcDbEntity
  8
0
100
AcDbCircle
 62
7
  6
BYLAYER
 10
816.2534463997
 20
188.4659092309
 40
1.0
100
AcDbArc
 50
270.0
 51
360.0
  0
ARC
  5
2F3
100
AcDbEntity
  8
0
100
AcDbCircle
 62
7
  6
BYLAYER
 10
817.4534463997
 20
188.5657990924
 40
1.0
100
AcDbArc
 50
270.0
 51
360.0
  0
ARC
  5
2F4
100
AcDbEntity
  8
0
100
AcDbCircle
 62
7
  6
BYLAYER
 10
817.9534463997
 20
190.5657990924
 40
0.5
100
AcDbArc
 50
270.0
 51
360.0
  0
ARC
  5
2F5
100
AcDbEntity
  8
4
100
AcDbCircle
 62
7
  6
BYLAYER
 10
863.6948664775
 20
277.4140843541
 40
5.0
100
AcDbArc
 50
0.0
 51
90.0
  0
ARC
  5
2F6
100
AcDbEntity
  8
4
100
AcDbCircle
 62
7
  6
BYLAYER
 10
863.6948664775
 20
237.4140843541
 40
5.0
100
AcDbArc
 50
270.0
 51
360.0
  0
ARC
  5
2F7
100
AcDbEntity
  8
4
100
AcDbCircle
 62
7
  6
BYLAYER
 10
860.4948664775
 20
272.4140843541
 40
3.25
100
AcDbArc
 50
270.0
 51
90.0
  0
ARC
  5
2F8
100
AcDbEntity
  8
4
100
AcDbCircle
 62
7
  6
BYLAYER
 10
846.9948664775
 20
272.4140843541
 40
3.25
100
AcDbArc
 50
90.0
 51
270.0
  0
ARC
  5
2F9
100
AcDbEntity
  8
4
100
AcDbCircle
 62
7
  6
BYLAYER
 10
846.9948664775
 20
242.4140843541
 40
3.25
100
AcDbArc
 50
90.0
 51
270.0
  0
ARC
  5
2FA
100
AcDbEntity
  8
4
100
AcDbCircle
 62
7
  6
BYLAYER
 10
860.4948664775
 20
242.4140843541
 40
3.25
100
AcDbArc
 50
270.0
 51
90.0
  0
ARC
  5
2FB
100
AcDbEntity
  8
4
100
AcDbCircle
 62
7
  6
BYLAYER
 10
863.6948664775
 20
1109.6982251939
 40
5.0
100
AcDbArc
 50
270.0000000001
 51
360.0
  0
ARC
  5
2FC
100
AcDbEntity
  8
4
100
AcDbCircle
 62
7
  6
BYLAYER
 10
846.9948664775
 20
1114.6982251939
 40
3.25
100
AcDbArc
 50
90.0
 51
270.0
  0
ARC
  5
2FD
100
AcDbEntity
  8
4
100
AcDbCircle
 62
7
  6
BYLAYER
 10
860.4948664775
 20
1114.6982251939
 40
3.25
100
AcDbArc
 50
270.0
 51
90.0
  0
ARC
  5
2FE
100
AcDbEntity
  8
0
100
AcDbCircle
 62
7
  6
BYLAYER
 10
816.2532056625
 20
2070.1659092309
 40
1.0
100
AcDbArc
 50
0.0
 51
90.0
  0
ARC
  5
2FF
100
AcDbEntity
  8
0
100
AcDbCircle
 62
7
  6
BYLAYER
 10
817.4532056625
 20
2070.0659092309
 40
1.0
100
AcDbArc
 50
0.0
 51
90.0
  0
ARC
  5
300
100
AcDbEntity
  8
0
100
AcDbCircle
 62
7
  6
BYLAYER
 10
817.9532056625
 20
2068.0659092309
 40
0.5
100
AcDbArc
 50
0.0
 51
90.0
  0
ARC
  5
301
100
AcDbEntity
  8
4
100
AcDbCircle
 62
7
  6
BYLAYER
 10
863.6948664775
 20
1149.6982251939
 40
5.0
100
AcDbArc
 50
0.0
 51
90.0
  0
ARC
  5
302
100
AcDbEntity
  8
4
100
AcDbCircle
 62
7
  6
BYLAYER
 10
860.4948664775
 20
1144.6982251939
 40
3.25
100
AcDbArc
 50
270.0
 51
90.0
  0
ARC
  5
303
100
AcDbEntity
  8
4
100
AcDbCircle
 62
7
  6
BYLAYER
 10
846.9948664775
 20
1144.6982251939
 40
3.25
100
AcDbArc
 50
90.0
 51
270.0
  0
ARC
  5
304
100
AcDbEntity
  8
4
100
AcDbCircle
 62
7
  6
BYLAYER
 10
863.6948664775
 20
2023.748986815
 40
5.0
100
AcDbArc
 50
0.0
 51
90.0
  0
ARC
  5
305
100
AcDbEntity
  8
4
100
AcDbCircle
 62
7
  6
BYLAYER
 10
863.6948664775
 20
1983.748986815
 40
5.0
100
AcDbArc
 50
270.0
 51
360.0
  0
ARC
  5
306
100
AcDbEntity
  8
4
100
AcDbCircle
 62
7
  6
BYLAYER
 10
860.4948664775
 20
2018.748986815
 40
3.25
100
AcDbArc
 50
270.0
 51
90.0
  0
ARC
  5
307
100
AcDbEntity
  8
4
100
AcDbCircle
 62
7
  6
BYLAYER
 10
846.9948664775
 20
2018.748986815
 40
3.25
100
AcDbArc
 50
90.0
 51
270.0
  0
ARC
  5
308
100
AcDbEntity
  8
4
100
AcDbCircle
 62
7
  6
BYLAYER
 10
846.9948664775
 20
1988.748986815
 40
3.25
100
AcDbArc
 50
90.0
 51
270.0
  0
ARC
  5
309
100
AcDbEntity
  8
4
100
AcDbCircle
 62
7
  6
BYLAYER
 10
860.4948664775
 20
1988.748986815
 40
3.25
100
AcDbArc
 50
270.0
 51
90.0
  0
SPLINE
  5
30A
100
AcDbEntity
  8
0
100
AcDbSpline
 62
7
  6
BYLAYER
 70
0
 71
3
 72
11
 73
7
 74
0
 42
0.0000001
 43
0.0000001
 44
0.0000000001
 40
0.0
 40
0.0
 40
0.0
 40
0.0
 40
0.2478324097
 40
0.4979557222
 40
0.7486362922
 40
1.0
 40
1.0
 40
1.0
 40
1.0
 10
778.4534463997
 20
189.5657990924
 30
0.0
 10
778.4534461314
 20
189.7299205123
 30
0.0
 10
778.3212865832
 20
190.0599991702
 30
0.0
 10
777.9337695786
 20
190.3865275747
 30
0.0
 10
777.455203333
 20
190.5592733037
 30
0.0
 10
777.1199063421
 20
190.5657991001
 30
0.0
 10
776.9534463997
 20
190.5657990924
 30
0.0
  0
SPLINE
  5
30B
100
AcDbEntity
  8
0
100
AcDbSpline
 62
7
  6
BYLAYER
 70
0
 71
3
 72
11
 73
7
 74
0
 42
0.0000001
 43
0.0000001
 44
0.0000000001
 40
0.0
 40
0.0
 40
0.0
 40
0.0
 40
0.3404385698
 40
0.6266185405
 40
0.8401374976
 40
1.0
 40
1.0
 40
1.0
 40
1.0
 10
795.4534478229
 20
188.5657990924
 30
0.0
 10
795.4534478233
 20
188.4291980743
 30
0.0
 10
795.4783093372
 20
188.1765502842
 30
0.0
 10
795.5860589074
 20
187.8542869562
 30
0.0
 10
795.7405391724
 20
187.631382247
 30
0.0
 10
795.8893044934
 20
187.5658135857
 30
0.0
 10
795.9534493405
 20
187.565799092
 30
0.0
  0
SPLINE
  5
30C
100
AcDbEntity
  8
0
100
AcDbSpline
 62
7
  6
BYLAYER
 70
0
 71
3
 72
11
 73
7
 74
0
 42
0.0000001
 43
0.0000001
 44
0.0000000001
 40
0.0
 40
0.0
 40
0.0
 40
0.0
 40
0.1598605771
 40
0.3733762137
 40
0.6595504004
 40
1.0
 40
1.0
 40
1.0
 40
1.0
 10
785.9534443654
 20
187.5657990921
 30
0.0
 10
786.0175884466
 20
187.5658122225
 30
0.0
 10
786.1663518561
 20
187.6313813007
 30
0.0
 10
786.3208311704
 20
187.854279972
 30
0.0
 10
786.4285837796
 20
188.1765436779
 30
0.0
 10
786.4534452139
 20
188.4291936353
 30
0.0
 10
786.4534458589
 20
188.5657990924
 30
0.0
  0
SPLINE
  5
30D
100
AcDbEntity
  8
0
100
AcDbSpline
 62
7
  6
BYLAYER
 70
0
 71
3
 72
11
 73
7
 74
0
 42
0.0000001
 43
0.0000001
 44
0.0000000001
 40
0.0
 40
0.0
 40
0.0
 40
0.0
 40
0.2478327053
 40
0.4979558062
 40
0.7486361583
 40
1.0
 40
1.0
 40
1.0
 40
1.0
 10
809.4534463997
 20
189.5657990924
 30
0.0
 10
809.4534468352
 20
189.7299207079
 30
0.0
 10
809.5856063134
 20
190.0599994218
 30
0.0
 10
809.9731234265
 20
190.3865275988
 30
0.0
 10
810.4516894168
 20
190.5592733189
 30
0.0
 10
810.7869863689
 20
190.5657991338
 30
0.0
 10
810.9534463997
 20
190.5657990924
 30
0.0
  0
SPLINE
  5
30E
100
AcDbEntity
  8
0
100
AcDbSpline
 62
7
  6
BYLAYER
 70
0
 71
3
 72
14
 73
10
 74
0
 42
0.0000001
 43
0.0000001
 44
0.0000000001
 40
0.0
 40
0.0
 40
0.0
 40
0.0
 40
0.2636818339
 40
0.5741124436
 40
0.7239609325
 40
0.8563067598
 40
0.9572538719
 40
0.9883480384
 40
1.0
 40
1.0
 40
1.0
 40
1.0
 10
817.453446388
 20
189.5657990924
 30
0.0
 10
817.4534465429
 20
189.6290931071
 30
0.0
 10
817.547810813
 20
189.7513322822
 30
0.0
 10
817.6745945363
 20
189.8617684805
 30
0.0
 10
817.7864174358
 20
189.9509733266
 30
0.0
 10
817.8591731687
 20
190.0069509236
 30
0.0
 10
817.9134010377
 20
190.0406758403
 30
0.0
 10
817.9410003209
 20
190.0607627687
 30
0.0
 10
817.9517104181
 20
190.0636060985
 30
0.0
 10
817.9534463914
 20
190.0657990895
 30
0.0
  0
SPLINE
  5
30F
100
AcDbEntity
  8
0
100
AcDbSpline
 62
7
  6
BYLAYER
 70
0
 71
3
 72
12
 73
8
 74
0
 42
0.0000001
 43
0.0000001
 44
0.0000000001
 40
0.0
 40
0.0
 40
0.0
 40
0.0
 40
0.3555601317
 40
0.6614267398
 40
0.7831217149
 40
0.8795320322
 40
1.0
 40
1.0
 40
1.0
 40
1.0
 10
768.5413647078
 20
188.5657990924
 30
0.0
 10
768.5413647078
 20
188.4380418111
 30
0.0
 10
768.5539512375
 20
188.2000173126
 30
0.0
 10
768.5990841536
 20
187.9221476892
 30
0.0
 10
768.6582932715
 20
187.7410525144
 30
0.0
 10
768.7078897502
 20
187.6344772105
 30
0.0
 10
768.7728001614
 20
187.5657990924
 30
0.0
 10
768.8160858357
 20
187.5657990924
 30
0.0
  0
SPLINE
  5
310
100
AcDbEntity
  8
0
100
AcDbSpline
 62
7
  6
BYLAYER
 70
0
 71
3
 72
9
 73
5
 74
0
 42
0.0000001
 43
0.0000001
 44
0.0000000001
 40
0.0
 40
0.0
 40
0.0
 40
0.0
 40
0.5196726509
 40
1.0
 40
1.0
 40
1.0
 40
1.0
 10
769.1189276165
 20
190.3602561827
 30
0.0
 10
769.3346418963
 20
190.2837529945
 30
0.0
 10
769.7557326582
 20
190.1585651502
 30
0.0
 10
770.1921430566
 20
190.0657995895
 30
0.0
 10
770.4036928169
 20
190.0657990924
 30
0.0
  0
SPLINE
  5
311
100
AcDbEntity
  8
0
100
AcDbSpline
 62
7
  6
BYLAYER
 70
0
 71
3
 72
8
 73
4
 74
0
 42
0.0000001
 43
0.0000001
 44
0.0000000001
 40
0.0
 40
0.0
 40
0.0
 40
0.0
 40
1.0
 40
1.0
 40
1.0
 40
1.0
 10
769.1067845671
 20
190.5657990924
 30
0.0
 10
769.1067845671
 20
190.4971653962
 30
0.0
 10
769.1104894468
 20
190.4283693867
 30
0.0
 10
769.1189276759
 20
190.3602563884
 30
0.0
  0
SPLINE
  5
312
100
AcDbEntity
  8
0
100
AcDbSpline
 62
7
  6
BYLAYER
 70
0
 71
3
 72
10
 73
6
 74
0
 42
0.0000001
 43
0.0000001
 44
0.0000000001
 40
0.0
 40
0.0
 40
0.0
 40
0.0
 40
0.5485257156
 40
0.7949517469
 40
1.0
 40
1.0
 40
1.0
 40
1.0
 10
770.0411311693
 20
189.5657990924
 30
0.0
 10
770.0411311825
 20
189.6888513437
 30
0.0
 10
770.089067589
 20
189.8767122946
 30
0.0
 10
770.2551538008
 20
190.0370665116
 30
0.0
 10
770.3576937859
 20
190.0657990928
 30
0.0
 10
770.4036928128
 20
190.0657990924
 30
0.0
  0
SPLINE
  5
313
100
AcDbEntity
  8
0
100
AcDbSpline
 62
7
  6
BYLAYER
 70
0
 71
3
 72
10
 73
6
 74
0
 42
0.0000001
 43
0.0000001
 44
0.0000000001
 40
0.0
 40
0.0
 40
0.0
 40
0.0
 40
0.2114258548
 40
0.4596612947
 40
1.0
 40
1.0
 40
1.0
 40
1.0
 10
770.0411311702
 20
189.5657990924
 30
0.0
 10
769.9547301671
 20
189.5657996789
 30
0.0
 10
769.7694360596
 20
189.6215540537
 30
0.0
 10
769.4104958039
 20
189.8149357581
 30
0.0
 10
769.1502900099
 20
190.0098411373
 30
0.0
 10
768.9836442654
 20
190.1547136844
 30
0.0
  0
SPLINE
  5
314
100
AcDbEntity
  8
0
100
AcDbSpline
 62
7
  6
BYLAYER
 70
0
 71
3
 72
8
 73
4
 74
0
 42
0.0000001
 43
0.0000001
 44
0.0000000001
 40
0.0
 40
0.0
 40
0.0
 40
0.0
 40
1.0
 40
1.0
 40
1.0
 40
1.0
 10
768.9836441716
 20
190.1547135764
 30
0.0
 10
768.8317581382
 20
190.2867817907
 30
0.0
 10
768.6850784936
 20
190.424881633
 30
0.0
 10
768.5413646135
 20
190.5657989883
 30
0.0
  0
SPLINE
  5
315
100
AcDbEntity
  8
0
100
AcDbSpline
 62
7
  6
BYLAYER
 70
0
 71
3
 72
8
 73
4
 74
0
 42
0.0000001
 43
0.0000001
 44
0.0000000001
 40
0.0
 40
0.0
 40
0.0
 40
0.0
 40
1.0
 40
1.0
 40
1.0
 40
1.0
 10
768.5413647078
 20
190.5657990924
 30
0.0
 10
768.7331660305
 20
190.4952953031
 30
0.0
 10
768.9254408023
 20
190.4259934512
 30
0.0
 10
769.1189276759
 20
190.3602563884
 30
0.0
  0
SPLINE
  5
316
100
AcDbEntity
  8
0
100
AcDbSpline
 62
7
  6
BYLAYER
 70
0
 71
3
 72
12
 73
8
 74
0
 42
0.0000001
 43
0.0000001
 44
0.0000000001
 40
0.0
 40
0.0
 40
0.0
 40
0.0
 40
0.1204115357
 40
0.2167519688
 40
0.3384069038
 40
0.6443218671
 40
1.0
 40
1.0
 40
1.0
 40
1.0
 10
765.1787252718
 20
187.5657990924
 30
0.0
 10
765.1354597184
 20
187.5657990924
 30
0.0
 10
765.0705732835
 20
187.6344150051
 30
0.0
 10
765.0209808
 20
187.7409335805
 30
0.0
 10
764.9617533031
 20
187.9219987435
 30
0.0
 10
764.9165988235
 20
188.1999141789
 30
0.0
 10
764.9040041439
 20
188.4379989514
 30
0.0
 10
764.9040041439
 20
188.5657990924
 30
0.0
  0
SPLINE
  5
317
100
AcDbEntity
  8
0
100
AcDbSpline
 62
7
  6
BYLAYER
 70
0
 71
3
 72
8
 73
4
 74
0
 42
0.0000001
 43
0.0000001
 44
0.0000000001
 40
0.0
 40
0.0
 40
0.0
 40
0.0
 40
1.0
 40
1.0
 40
1.0
 40
1.0
 10
768.5411238385
 20
2068.0659093767
 30
0.0
 10
768.684837757
 20
2068.2068266935
 30
0.0
 10
768.8315173643
 20
2068.3449265742
 30
0.0
 10
768.9834033968
 20
2068.4769947902
 30
0.0
  0
SPLINE
  5
318
100
AcDbEntity
  8
0
100
AcDbSpline
 62
7
  6
BYLAYER
 70
0
 71
3
 72
8
 73
4
 74
0
 42
0.0000001
 43
0.0000001
 44
0.0000000001
 40
0.0
 40
0.0
 40
0.0
 40
0.0
 40
1.0
 40
1.0
 40
1.0
 40
1.0
 10
768.5411239707
 20
2068.0659092309
 30
0.0
 10
768.7329253104
 20
2068.1364129737
 30
0.0
 10
768.9252000615
 20
2068.2057148826
 30
0.0
 10
769.1186869387
 20
2068.2714519349
 30
0.0
  0
SPLINE
  5
319
100
AcDbEntity
  8
0
100
AcDbSpline
 62
7
  6
BYLAYER
 70
0
 71
3
 72
10
 73
6
 74
0
 42
0.0000001
 43
0.0000001
 44
0.0000000001
 40
0.0
 40
0.0
 40
0.0
 40
0.0
 40
0.2114262679
 40
0.4596614222
 40
1.0
 40
1.0
 40
1.0
 40
1.0
 10
770.0408904537
 20
2069.0659092309
 30
0.0
 10
769.9544892809
 20
2069.0659086485
 30
0.0
 10
769.7691951319
 20
2069.0101541569
 30
0.0
 10
769.4102549079
 20
2068.8167724258
 30
0.0
 10
769.1500492218
 20
2068.6218671683
 30
0.0
 10
768.9834035282
 20
2068.4769946389
 30
0.0
  0
SPLINE
  5
31A
100
AcDbEntity
  8
0
100
AcDbSpline
 62
7
  6
BYLAYER
 70
0
 71
3
 72
10
 73
6
 74
0
 42
0.0000001
 43
0.0000001
 44
0.0000000001
 40
0.0
 40
0.0
 40
0.0
 40
0.0
 40
0.2050482569
 40
0.4514742889
 40
1.0
 40
1.0
 40
1.0
 40
1.0
 10
770.4034520937
 20
2068.5659092309
 30
0.0
 10
770.3574530659
 20
2068.5659092306
 30
0.0
 10
770.2549130796
 20
2068.5946418116
 30
0.0
 10
770.0888268673
 20
2068.7549960289
 30
0.0
 10
770.0408904635
 20
2068.9428569804
 30
0.0
 10
770.0408904525
 20
2069.0659092309
 30
0.0
  0
SPLINE
  5
31B
100
AcDbEntity
  8
0
100
AcDbSpline
 62
7
  6
BYLAYER
 70
0
 71
3
 72
9
 73
5
 74
0
 42
0.0000001
 43
0.0000001
 44
0.0000000001
 40
0.0
 40
0.0
 40
0.0
 40
0.0
 40
0.480327371
 40
1.0
 40
1.0
 40
1.0
 40
1.0
 10
770.4034520731
 20
2068.5659092309
 30
0.0
 10
770.1919023041
 20
2068.565908736
 30
0.0
 10
769.7554919075
 20
2068.4731431752
 30
0.0
 10
769.334401145
 20
2068.3479553389
 30
0.0
 10
769.1186868762
 20
2068.2714521513
 30
0.0
  0
SPLINE
  5
31C
100
AcDbEntity
  8
0
100
AcDbSpline
 62
7
  6
BYLAYER
 70
0
 71
3
 72
8
 73
4
 74
0
 42
0.0000001
 43
0.0000001
 44
0.0000000001
 40
0.0
 40
0.0
 40
0.0
 40
0.0
 40
1.0
 40
1.0
 40
1.0
 40
1.0
 10
769.1186869387
 20
2068.2714519349
 30
0.0
 10
769.1102487096
 20
2068.2033389366
 30
0.0
 10
769.1065438299
 20
2068.1345429271
 30
0.0
 10
769.1065438299
 20
2068.0659092309
 30
0.0
  0
SPLINE
  5
31D
100
AcDbEntity
  8
0
100
AcDbSpline
 62
7
  6
BYLAYER
 70
0
 71
3
 72
11
 73
7
 74
0
 42
0.0000001
 43
0.0000001
 44
0.0000000001
 40
0.0
 40
0.0
 40
0.0
 40
0.0
 40
0.3404385908
 40
0.6266185619
 40
0.8401375074
 40
1.0
 40
1.0
 40
1.0
 40
1.0
 10
786.4532043548
 20
2070.0659092309
 30
0.0
 10
786.4532043544
 20
2070.2025102597
 30
0.0
 10
786.4283428371
 20
2070.4551580628
 30
0.0
 10
786.3205932584
 20
2070.7774213975
 30
0.0
 10
786.1661129864
 20
2071.0003260999
 30
0.0
 10
786.0173476639
 20
2071.0658947434
 30
0.0
 10
785.9532028196
 20
2071.0659092313
 30
0.0
  0
SPLINE
  5
31E
100
AcDbEntity
  8
0
100
AcDbSpline
 62
7
  6
BYLAYER
 70
0
 71
3
 72
11
 73
7
 74
0
 42
0.0000001
 43
0.0000001
 44
0.0000000001
 40
0.0
 40
0.0
 40
0.0
 40
0.0
 40
0.1598605678
 40
0.3733761936
 40
0.6595503807
 40
1.0
 40
1.0
 40
1.0
 40
1.0
 10
795.9532076044
 20
2071.0659092312
 30
0.0
 10
795.889063526
 20
2071.0658961062
 30
0.0
 10
795.740300115
 20
2071.000327045
 30
0.0
 10
795.5858207941
 20
2070.77742838
 30
0.0
 10
795.4780681769
 20
2070.4551646678
 30
0.0
 10
795.4532067394
 20
2070.202514698
 30
0.0
 10
795.4532060945
 20
2070.065909231
 30
0.0
  0
SPLINE
  5
31F
100
AcDbEntity
  8
0
100
AcDbSpline
 62
7
  6
BYLAYER
 70
0
 71
3
 72
14
 73
10
 74
0
 42
0.0000001
 43
0.0000001
 44
0.0000000001
 40
0.0
 40
0.0
 40
0.0
 40
0.0
 40
0.0116519616
 40
0.0427461281
 40
0.1436932403
 40
0.2760390677
 40
0.4258875568
 40
0.7363181666
 40
1.0
 40
1.0
 40
1.0
 40
1.0
 10
817.9532056551
 20
2068.5659092338
 30
0.0
 10
817.9514696147
 20
2068.5681021717
 30
0.0
 10
817.940759669
 20
2068.5709456214
 30
0.0
 10
817.9131601939
 20
2068.5910323979
 30
0.0
 10
817.8589324866
 20
2068.6247574427
 30
0.0
 10
817.7861766815
 20
2068.6807349826
 30
0.0
 10
817.6743538118
 20
2068.7699398522
 30
0.0
 10
817.5475700739
 20
2068.8803760386
 30
0.0
 10
817.4532058075
 20
2069.0026152163
 30
0.0
 10
817.4532056526
 20
2069.0659092309
 30
0.0
  0
SPLINE
  5
320
100
AcDbEntity
  8
0
100
AcDbSpline
 62
7
  6
BYLAYER
 70
0
 71
3
 72
11
 73
7
 74
0
 42
0.0000001
 43
0.0000001
 44
0.0000000001
 40
0.0
 40
0.0
 40
0.0
 40
0.0
 40
0.2478325037
 40
0.497955658
 40
0.7486362695
 40
1.0
 40
1.0
 40
1.0
 40
1.0
 10
809.4532056625
 20
2069.0659092309
 30
0.0
 10
809.4532060982
 20
2068.9017877487
 30
0.0
 10
809.5853654245
 20
2068.5717091288
 30
0.0
 10
809.9728825151
 20
2068.2451807663
 30
0.0
 10
810.4514486632
 20
2068.072435029
 30
0.0
 10
810.7867457051
 20
2068.0659091895
 30
0.0
 10
810.9532056625
 20
2068.0659092309
 30
0.0
  0
SPLINE
  5
321
100
AcDbEntity
  8
0
100
AcDbSpline
 62
7
  6
BYLAYER
 70
0
 71
3
 72
11
 73
7
 74
0
 42
0.0000001
 43
0.0000001
 44
0.0000000001
 40
0.0
 40
0.0
 40
0.0
 40
0.0
 40
0.2478327053
 40
0.4979558062
 40
0.7486361583
 40
1.0
 40
1.0
 40
1.0
 40
1.0
 10
778.4532056625
 20
2069.0659092309
 30
0.0
 10
778.4532052269
 20
2068.9017876154
 30
0.0
 10
778.3210457488
 20
2068.5717089015
 30
0.0
 10
777.9335286356
 20
2068.2451807245
 30
0.0
 10
777.4549626454
 20
2068.0724350045
 30
0.0
 10
777.1196656933
 20
2068.0659091895
 30
0.0
 10
776.9532056625
 20
2068.0659092309
 30
0.0
  0
SPLINE
  5
322
100
AcDbEntity
  8
0
100
AcDbSpline
 62
7
  6
BYLAYER
 70
0
 71
3
 72
12
 73
8
 74
0
 42
0.0000001
 43
0.0000001
 44
0.0000000001
 40
0.0
 40
0.0
 40
0.0
 40
0.0
 40
0.3555601317
 40
0.6614267398
 40
0.7831217149
 40
0.8795320322
 40
1.0
 40
1.0
 40
1.0
 40
1.0
 10
764.9037634067
 20
2070.0659092309
 30
0.0
 10
764.9037634067
 20
2070.1936665122
 30
0.0
 10
764.9163499364
 20
2070.4316910107
 30
0.0
 10
764.9614828525
 20
2070.7095606341
 30
0.0
 10
765.0206919704
 20
2070.8906558089
 30
0.0
 10
765.0702884491
 20
2070.9972311128
 30
0.0
 10
765.1351988603
 20
2071.0659092309
 30
0.0
 10
765.1784845346
 20
2071.0659092309
 30
0.0
  0
SPLINE
  5
323
100
AcDbEntity
  8
0
100
AcDbSpline
 62
7
  6
BYLAYER
 70
0
 71
3
 72
12
 73
8
 74
0
 42
0.0000001
 43
0.0000001
 44
0.0000000001
 40
0.0
 40
0.0
 40
0.0
 40
0.0
 40
0.1204115357
 40
0.2167519688
 40
0.3384069038
 40
0.6443218671
 40
1.0
 40
1.0
 40
1.0
 40
1.0
 10
768.8158450986
 20
2071.0659092309
 30
0.0
 10
768.7725795452
 20
2071.0659092309
 30
0.0
 10
768.7076931103
 20
2070.9972933182
 30
0.0
 10
768.6581006268
 20
2070.8907747428
 30
0.0
 10
768.5988731299
 20
2070.7097095798
 30
0.0
 10
768.5537186503
 20
2070.4317941444
 30
0.0
 10
768.5411239707
 20
2070.1937093719
 30
0.0
 10
768.5411239707
 20
2070.0659092309
 30
0.0
  0
SPLINE
  5
324
100
AcDbEntity
  8
0
100
AcDbSpline
 62
7
  6
BYLAYER
 70
0
 71
3
 72
16
 73
12
 74
0
 42
0.0000001
 43
0.0000001
 44
0.0000000001
 40
0.0
 40
0.0
 40
0.0
 40
0.0
 40
0.0660819509
 40
0.1837076052
 40
0.3386899351
 40
0.5123359223
 40
0.6837013925
 40
0.8321172397
 40
0.9396824817
 40
0.9934236715
 40
1.0
 40
1.0
 40
1.0
 40
1.0
 10
780.4698232746
 20
2068.0547149799
 30
0.0
 10
780.4700311212
 20
2068.0328949593
 30
0.0
 10
780.4702059731
 20
2067.9722416583
 30
0.0
 10
780.4704729649
 20
2067.8603241606
 30
0.0
 10
780.470591524
 20
2067.7133967496
 30
0.0
 10
780.4707022005
 20
2067.5464274533
 30
0.0
 10
780.4704120687
 20
2067.3901925503
 30
0.0
 10
780.4708983053
 20
2067.2292507733
 30
0.0
 10
780.4691733183
 20
2067.1720912912
 30
0.0
 10
780.471077284
 20
2067.0514128584
 30
0.0
 10
780.4694125518
 20
2067.0749320021
 30
0.0
 10
780.4693918674
 20
2067.0771034819
 30
0.0
  0
SPLINE
  5
325
100
AcDbEntity
  8
0
100
AcDbSpline
 62
7
  6
BYLAYER
 70
0
 71
3
 72
16
 73
12
 74
0
 42
0.0000001
 43
0.0000001
 44
0.0000000001
 40
0.0
 40
0.0
 40
0.0
 40
0.0
 40
0.0660819509
 40
0.1837076052
 40
0.3386899351
 40
0.5123359223
 40
0.6837013925
 40
0.8321172397
 40
0.9396824817
 40
0.9934236715
 40
1.0
 40
1.0
 40
1.0
 40
1.0
 10
780.4365880504
 20
2068.0547149799
 30
0.0
 10
780.4363802038
 20
2068.0328949593
 30
0.0
 10
780.436205352
 20
2067.9722416583
 30
0.0
 10
780.4359383601
 20
2067.8603241606
 30
0.0
 10
780.435819801
 20
2067.7133967496
 30
0.0
 10
780.4357091245
 20
2067.5464274533
 30
0.0
 10
780.4359992563
 20
2067.3901925503
 30
0.0
 10
780.4355130197
 20
2067.2292507733
 30
0.0
 10
780.4372380067
 20
2067.1720912912
 30
0.0
 10
780.435334041
 20
2067.0514128584
 30
0.0
 10
780.4369987732
 20
2067.0749320021
 30
0.0
 10
780.4370194576
 20
2067.0771034819
 30
0.0
  0
SPLINE
  5
326
100
AcDbEntity
  8
0
100
AcDbSpline
 62
7
  6
BYLAYER
 70
0
 71
3
 72
16
 73
12
 74
0
 42
0.0000001
 43
0.0000001
 44
0.0000000001
 40
0.0
 40
0.0
 40
0.0
 40
0.0
 40
0.0660819509
 40
0.1837076052
 40
0.3386899351
 40
0.5123359223
 40
0.6837013925
 40
0.8321172397
 40
0.9396824817
 40
0.9934236715
 40
1.0
 40
1.0
 40
1.0
 40
1.0
 10
780.4698232746
 20
2068.0547149799
 30
0.0
 10
780.4700311212
 20
2068.0328949593
 30
0.0
 10
780.4702059731
 20
2067.9722416583
 30
0.0
 10
780.4704729649
 20
2067.8603241606
 30
0.0
 10
780.470591524
 20
2067.7133967496
 30
0.0
 10
780.4707022005
 20
2067.5464274533
 30
0.0
 10
780.4704120687
 20
2067.3901925503
 30
0.0
 10
780.4708983053
 20
2067.2292507733
 30
0.0
 10
780.4691733183
 20
2067.1720912912
 30
0.0
 10
780.471077284
 20
2067.0514128584
 30
0.0
 10
780.4694125518
 20
2067.0749320021
 30
0.0
 10
780.4693918674
 20
2067.0771034819
 30
0.0
  0
SPLINE
  5
327
100
AcDbEntity
  8
0
100
AcDbSpline
 62
7
  6
BYLAYER
 70
0
 71
3
 72
16
 73
12
 74
0
 42
0.0000001
 43
0.0000001
 44
0.0000000001
 40
0.0
 40
0.0
 40
0.0
 40
0.0
 40
0.0660819509
 40
0.1837076052
 40
0.3386899351
 40
0.5123359223
 40
0.6837013925
 40
0.8321172397
 40
0.9396824817
 40
0.9934236715
 40
1.0
 40
1.0
 40
1.0
 40
1.0
 10
780.4365880504
 20
2068.0547149799
 30
0.0
 10
780.4363802038
 20
2068.0328949593
 30
0.0
 10
780.436205352
 20
2067.9722416583
 30
0.0
 10
780.4359383601
 20
2067.8603241606
 30
0.0
 10
780.435819801
 20
2067.7133967496
 30
0.0
 10
780.4357091245
 20
2067.5464274533
 30
0.0
 10
780.4359992563
 20
2067.3901925503
 30
0.0
 10
780.4355130197
 20
2067.2292507733
 30
0.0
 10
780.4372380067
 20
2067.1720912912
 30
0.0
 10
780.435334041
 20
2067.0514128584
 30
0.0
 10
780.4369987732
 20
2067.0749320021
 30
0.0
 10
780.4370194576
 20
2067.0771034819
 30
0.0
  0
SPLINE
  5
328
100
AcDbEntity
  8
0
100
AcDbSpline
 62
7
  6
BYLAYER
 70
0
 71
3
 72
16
 73
12
 74
0
 42
0.0000001
 43
0.0000001
 44
0.0000000001
 40
0.0
 40
0.0
 40
0.0
 40
0.0
 40
0.066109371
 40
0.1837553808
 40
0.338748546
 40
0.5123945412
 40
0.6837491914
 40
0.8321446955
 40
0.9396825251
 40
0.9933925399
 40
1.0
 40
1.0
 40
1.0
 40
1.0
 10
802.9365878711
 20
2068.054696148
 30
0.0
 10
802.9363801139
 20
2068.0328665343
 30
0.0
 10
802.9362051706
 20
2067.9721959678
 30
0.0
 10
802.9359382998
 20
2067.860256361
 30
0.0
 10
802.9358196677
 20
2067.713314957
 30
0.0
 10
802.9357094449
 20
2067.5463420565
 30
0.0
 10
802.9359982255
 20
2067.3901111232
 30
0.0
 10
802.9355162609
 20
2067.2291942156
 30
0.0
 10
802.9372313984
 20
2067.1720300165
 30
0.0
 10
802.9353418529
 20
2067.0514028047
 30
0.0
 10
802.9369988721
 20
2067.0749405006
 30
0.0
 10
802.9370196369
 20
2067.0771223138
 30
0.0
  0
SPLINE
  5
329
100
AcDbEntity
  8
0
100
AcDbSpline
 62
7
  6
BYLAYER
 70
0
 71
3
 72
16
 73
12
 74
0
 42
0.0000001
 43
0.0000001
 44
0.0000000001
 40
0.0
 40
0.0
 40
0.0
 40
0.0
 40
0.066109371
 40
0.1837553808
 40
0.338748546
 40
0.5123945412
 40
0.6837491914
 40
0.8321446955
 40
0.9396825251
 40
0.9933925399
 40
1.0
 40
1.0
 40
1.0
 40
1.0
 10
802.9698234539
 20
2068.054696148
 30
0.0
 10
802.9700312112
 20
2068.0328665343
 30
0.0
 10
802.9702061544
 20
2067.9721959678
 30
0.0
 10
802.9704730252
 20
2067.860256361
 30
0.0
 10
802.9705916573
 20
2067.713314957
 30
0.0
 10
802.9707018801
 20
2067.5463420565
 30
0.0
 10
802.9704130996
 20
2067.3901111232
 30
0.0
 10
802.9708950641
 20
2067.2291942156
 30
0.0
 10
802.9691799266
 20
2067.1720300165
 30
0.0
 10
802.9710694721
 20
2067.0514028047
 30
0.0
 10
802.9694124529
 20
2067.0749405006
 30
0.0
 10
802.9693916881
 20
2067.0771223138
 30
0.0
  0
SPLINE
  5
32A
100
AcDbEntity
  8
0
100
AcDbSpline
 62
7
  6
BYLAYER
 70
0
 71
3
 72
16
 73
12
 74
0
 42
0.0000001
 43
0.0000001
 44
0.0000000001
 40
0.0
 40
0.0
 40
0.0
 40
0.0
 40
0.0661715043
 40
0.1838636386
 40
0.3388813558
 40
0.5125273691
 40
0.6838575011
 40
0.8322069082
 40
0.9396826219
 40
0.9933219952
 40
1.0
 40
1.0
 40
1.0
 40
1.0
 10
802.9365874648
 20
2068.0546534141
 30
0.0
 10
802.9363799095
 20
2068.0328020637
 30
0.0
 10
802.9362047603
 20
2067.972092378
 30
0.0
 10
802.9359381625
 20
2067.8601026821
 30
0.0
 10
802.9358193682
 20
2067.7131295846
 30
0.0
 10
802.9357101604
 20
2067.5461485385
 30
0.0
 10
802.935995927
 20
2067.3899266132
 30
0.0
 10
802.9355234978
 20
2067.2290660959
 30
0.0
 10
802.9372166583
 20
2067.1718912052
 30
0.0
 10
802.9353592907
 20
2067.0513800932
 30
0.0
 10
802.9369990968
 20
2067.0749598171
 30
0.0
 10
802.9370200432
 20
2067.0771650476
 30
0.0
  0
SPLINE
  5
32B
100
AcDbEntity
  8
0
100
AcDbSpline
 62
7
  6
BYLAYER
 70
0
 71
3
 72
16
 73
12
 74
0
 42
0.0000001
 43
0.0000001
 44
0.0000000001
 40
0.0
 40
0.0
 40
0.0
 40
0.0
 40
0.0661715043
 40
0.1838636386
 40
0.3388813558
 40
0.5125273691
 40
0.6838575011
 40
0.8322069082
 40
0.9396826219
 40
0.9933219952
 40
1.0
 40
1.0
 40
1.0
 40
1.0
 10
802.9698238602
 20
2068.0546534141
 30
0.0
 10
802.9700314155
 20
2068.0328020637
 30
0.0
 10
802.9702065647
 20
2067.972092378
 30
0.0
 10
802.9704731625
 20
2067.8601026821
 30
0.0
 10
802.9705919568
 20
2067.7131295846
 30
0.0
 10
802.9707011646
 20
2067.5461485385
 30
0.0
 10
802.970415398
 20
2067.3899266132
 30
0.0
 10
802.9708878272
 20
2067.2290660959
 30
0.0
 10
802.9691946667
 20
2067.1718912052
 30
0.0
 10
802.9710520343
 20
2067.0513800932
 30
0.0
 10
802.9694122282
 20
2067.0749598171
 30
0.0
 10
802.9693912818
 20
2067.0771650476
 30
0.0
  0
SPLINE
  5
32C
100
AcDbEntity
  8
0
100
AcDbSpline
 62
7
  6
BYLAYER
 70
0
 71
3
 72
16
 73
12
 74
0
 42
0.0000001
 43
0.0000001
 44
0.0000000001
 40
0.0
 40
0.0
 40
0.0
 40
0.0
 40
0.0660819509
 40
0.1837076052
 40
0.3386899351
 40
0.5123359223
 40
0.6837013925
 40
0.8321172397
 40
0.9396824817
 40
0.9934236715
 40
1.0
 40
1.0
 40
1.0
 40
1.0
 10
780.4698232746
 20
2068.0547149799
 30
0.0
 10
780.4700311212
 20
2068.0328949593
 30
0.0
 10
780.4702059731
 20
2067.9722416583
 30
0.0
 10
780.4704729649
 20
2067.8603241606
 30
0.0
 10
780.470591524
 20
2067.7133967496
 30
0.0
 10
780.4707022005
 20
2067.5464274533
 30
0.0
 10
780.4704120687
 20
2067.3901925503
 30
0.0
 10
780.4708983053
 20
2067.2292507733
 30
0.0
 10
780.4691733183
 20
2067.1720912912
 30
0.0
 10
780.471077284
 20
2067.0514128584
 30
0.0
 10
780.4694125518
 20
2067.0749320021
 30
0.0
 10
780.4693918674
 20
2067.0771034819
 30
0.0
  0
SPLINE
  5
32D
100
AcDbEntity
  8
0
100
AcDbSpline
 62
7
  6
BYLAYER
 70
0
 71
3
 72
16
 73
12
 74
0
 42
0.0000001
 43
0.0000001
 44
0.0000000001
 40
0.0
 40
0.0
 40
0.0
 40
0.0
 40
0.0660819509
 40
0.1837076052
 40
0.3386899351
 40
0.5123359223
 40
0.6837013925
 40
0.8321172397
 40
0.9396824817
 40
0.9934236715
 40
1.0
 40
1.0
 40
1.0
 40
1.0
 10
780.4365880504
 20
2068.0547149799
 30
0.0
 10
780.4363802038
 20
2068.0328949593
 30
0.0
 10
780.436205352
 20
2067.9722416583
 30
0.0
 10
780.4359383601
 20
2067.8603241606
 30
0.0
 10
780.435819801
 20
2067.7133967496
 30
0.0
 10
780.4357091245
 20
2067.5464274533
 30
0.0
 10
780.4359992563
 20
2067.3901925503
 30
0.0
 10
780.4355130197
 20
2067.2292507733
 30
0.0
 10
780.4372380067
 20
2067.1720912912
 30
0.0
 10
780.435334041
 20
2067.0514128584
 30
0.0
 10
780.4369987732
 20
2067.0749320021
 30
0.0
 10
780.4370194576
 20
2067.0771034819
 30
0.0
  0
SPLINE
  5
32E
100
AcDbEntity
  8
0
100
AcDbSpline
 62
7
  6
BYLAYER
 70
0
 71
3
 72
16
 73
12
 74
0
 42
0.0000001
 43
0.0000001
 44
0.0000000001
 40
0.0
 40
0.0
 40
0.0
 40
0.0
 40
0.0660819509
 40
0.1837076052
 40
0.3386899351
 40
0.5123359223
 40
0.6837013925
 40
0.8321172397
 40
0.9396824817
 40
0.9934236715
 40
1.0
 40
1.0
 40
1.0
 40
1.0
 10
780.4698232746
 20
2068.0547149799
 30
0.0
 10
780.4700311212
 20
2068.0328949593
 30
0.0
 10
780.4702059731
 20
2067.9722416583
 30
0.0
 10
780.4704729649
 20
2067.8603241606
 30
0.0
 10
780.470591524
 20
2067.7133967496
 30
0.0
 10
780.4707022005
 20
2067.5464274533
 30
0.0
 10
780.4704120687
 20
2067.3901925503
 30
0.0
 10
780.4708983053
 20
2067.2292507733
 30
0.0
 10
780.4691733183
 20
2067.1720912912
 30
0.0
 10
780.471077284
 20
2067.0514128584
 30
0.0
 10
780.4694125518
 20
2067.0749320021
 30
0.0
 10
780.4693918674
 20
2067.0771034819
 30
0.0
  0
SPLINE
  5
32F
100
AcDbEntity
  8
0
100
AcDbSpline
 62
7
  6
BYLAYER
 70
0
 71
3
 72
16
 73
12
 74
0
 42
0.0000001
 43
0.0000001
 44
0.0000000001
 40
0.0
 40
0.0
 40
0.0
 40
0.0
 40
0.0660819509
 40
0.1837076052
 40
0.3386899351
 40
0.5123359223
 40
0.6837013925
 40
0.8321172397
 40
0.9396824817
 40
0.9934236715
 40
1.0
 40
1.0
 40
1.0
 40
1.0
 10
780.4365880504
 20
2068.0547149799
 30
0.0
 10
780.4363802038
 20
2068.0328949593
 30
0.0
 10
780.436205352
 20
2067.9722416583
 30
0.0
 10
780.4359383601
 20
2067.8603241606
 30
0.0
 10
780.435819801
 20
2067.7133967496
 30
0.0
 10
780.4357091245
 20
2067.5464274533
 30
0.0
 10
780.4359992563
 20
2067.3901925503
 30
0.0
 10
780.4355130197
 20
2067.2292507733
 30
0.0
 10
780.4372380067
 20
2067.1720912912
 30
0.0
 10
780.435334041
 20
2067.0514128584
 30
0.0
 10
780.4369987732
 20
2067.0749320021
 30
0.0
 10
780.4370194576
 20
2067.0771034819
 30
0.0
  0
SPLINE
  5
330
100
AcDbEntity
  8
0
100
AcDbSpline
 62
7
  6
BYLAYER
 70
0
 71
3
 72
16
 73
12
 74
0
 42
0.0000001
 43
0.0000001
 44
0.0000000001
 40
0.0
 40
0.0
 40
0.0
 40
0.0
 40
0.066109371
 40
0.1837553808
 40
0.338748546
 40
0.5123945412
 40
0.6837491914
 40
0.8321446955
 40
0.9396825251
 40
0.9933925399
 40
1.0
 40
1.0
 40
1.0
 40
1.0
 10
802.9365878711
 20
2068.054696148
 30
0.0
 10
802.9363801139
 20
2068.0328665343
 30
0.0
 10
802.9362051706
 20
2067.9721959678
 30
0.0
 10
802.9359382998
 20
2067.860256361
 30
0.0
 10
802.9358196677
 20
2067.713314957
 30
0.0
 10
802.9357094449
 20
2067.5463420565
 30
0.0
 10
802.9359982255
 20
2067.3901111232
 30
0.0
 10
802.9355162609
 20
2067.2291942156
 30
0.0
 10
802.9372313984
 20
2067.1720300165
 30
0.0
 10
802.9353418529
 20
2067.0514028047
 30
0.0
 10
802.9369988721
 20
2067.0749405006
 30
0.0
 10
802.9370196369
 20
2067.0771223138
 30
0.0
  0
SPLINE
  5
331
100
AcDbEntity
  8
0
100
AcDbSpline
 62
7
  6
BYLAYER
 70
0
 71
3
 72
16
 73
12
 74
0
 42
0.0000001
 43
0.0000001
 44
0.0000000001
 40
0.0
 40
0.0
 40
0.0
 40
0.0
 40
0.066109371
 40
0.1837553808
 40
0.338748546
 40
0.5123945412
 40
0.6837491914
 40
0.8321446955
 40
0.9396825251
 40
0.9933925399
 40
1.0
 40
1.0
 40
1.0
 40
1.0
 10
802.9698234539
 20
2068.054696148
 30
0.0
 10
802.9700312112
 20
2068.0328665343
 30
0.0
 10
802.9702061544
 20
2067.9721959678
 30
0.0
 10
802.9704730252
 20
2067.860256361
 30
0.0
 10
802.9705916573
 20
2067.713314957
 30
0.0
 10
802.9707018801
 20
2067.5463420565
 30
0.0
 10
802.9704130996
 20
2067.3901111232
 30
0.0
 10
802.9708950641
 20
2067.2291942156
 30
0.0
 10
802.9691799266
 20
2067.1720300165
 30
0.0
 10
802.9710694721
 20
2067.0514028047
 30
0.0
 10
802.9694124529
 20
2067.0749405006
 30
0.0
 10
802.9693916881
 20
2067.0771223138
 30
0.0
  0
SPLINE
  5
332
100
AcDbEntity
  8
0
100
AcDbSpline
 62
7
  6
BYLAYER
 70
0
 71
3
 72
16
 73
12
 74
0
 42
0.0000001
 43
0.0000001
 44
0.0000000001
 40
0.0
 40
0.0
 40
0.0
 40
0.0
 40
0.0661715043
 40
0.1838636386
 40
0.3388813558
 40
0.5125273691
 40
0.6838575011
 40
0.8322069082
 40
0.9396826219
 40
0.9933219952
 40
1.0
 40
1.0
 40
1.0
 40
1.0
 10
802.9365874648
 20
2068.0546534141
 30
0.0
 10
802.9363799095
 20
2068.0328020637
 30
0.0
 10
802.9362047603
 20
2067.972092378
 30
0.0
 10
802.9359381625
 20
2067.8601026821
 30
0.0
 10
802.9358193682
 20
2067.7131295846
 30
0.0
 10
802.9357101604
 20
2067.5461485385
 30
0.0
 10
802.935995927
 20
2067.3899266132
 30
0.0
 10
802.9355234978
 20
2067.2290660959
 30
0.0
 10
802.9372166583
 20
2067.1718912052
 30
0.0
 10
802.9353592907
 20
2067.0513800932
 30
0.0
 10
802.9369990968
 20
2067.0749598171
 30
0.0
 10
802.9370200432
 20
2067.0771650476
 30
0.0
  0
SPLINE
  5
333
100
AcDbEntity
  8
0
100
AcDbSpline
 62
7
  6
BYLAYER
 70
0
 71
3
 72
16
 73
12
 74
0
 42
0.0000001
 43
0.0000001
 44
0.0000000001
 40
0.0
 40
0.0
 40
0.0
 40
0.0
 40
0.0661715043
 40
0.1838636386
 40
0.3388813558
 40
0.5125273691
 40
0.6838575011
 40
0.8322069082
 40
0.9396826219
 40
0.9933219952
 40
1.0
 40
1.0
 40
1.0
 40
1.0
 10
802.9698238602
 20
2068.0546534141
 30
0.0
 10
802.9700314155
 20
2068.0328020637
 30
0.0
 10
802.9702065647
 20
2067.972092378
 30
0.0
 10
802.9704731625
 20
2067.8601026821
 30
0.0
 10
802.9705919568
 20
2067.7131295846
 30
0.0
 10
802.9707011646
 20
2067.5461485385
 30
0.0
 10
802.970415398
 20
2067.3899266132
 30
0.0
 10
802.9708878272
 20
2067.2290660959
 30
0.0
 10
802.9691946667
 20
2067.1718912052
 30
0.0
 10
802.9710520343
 20
2067.0513800932
 30
0.0
 10
802.9694122282
 20
2067.0749598171
 30
0.0
 10
802.9693912818
 20
2067.0771650476
 30
0.0
  0
ENDSEC
  0
SECTION
  2
OBJECTS
  0
DICTIONARY
  5
C
100
AcDbDictionary
280
0
281
1
  3
ACAD_GROUP
350
D
  3
ACAD_MLINESTYLE
350
17
  3
ACAD_LAYOUT
350
1A
  3
ACAD_PLOTSETTINGS
350
19
  3
ACAD_PLOTSTYLENAME
350
E
  0
DICTIONARY
  5
D
102
{ACAD_REACTORS
330
C
102
}
100
AcDbDictionary
280
0
281
1
  0
ACDBDICTIONARYWDFLT
  5
E
102
{ACAD_REACTORS
330
C
102
}
100
AcDbDictionary
281
1
  3
Normal
350
F
100
AcDbDictionaryWithDefault
340
F
  0
DICTIONARY
  5
17
102
{ACAD_REACTORS
330
C
102
}
100
AcDbDictionary
280
0
281
1
  3
Standard
350
18
  0
DICTIONARY
  5
19
102
{ACAD_REACTORS
330
C
102
}
100
AcDbDictionary
281
1
  0
DICTIONARY
  5
1A
102
{ACAD_REACTORS
330
C
102
}
100
AcDbDictionary
281
1
  3
Model
350
334
  3
Layout1
350
335
  0
ACDBPLACEHOLDER
  5
F
102
{ACAD_REACTORS
330
E
102
}
  0
MLINESTYLE
  5
18
102
{ACAD_REACTORS
330
17
102
}
100
AcDbMlineStyle
  2
STANDARD
 70
0
  3

 62
256
 51
90.0
 52
90.0
 71
2
 49
0.5
 62
256
  6
BYLAYER
 49
-0.5
 62
256
  6
BYLAYER
  0
LAYOUT
  5
334
102
{ACAD_REACTORS
330
1A
102
}
100
AcDbPlotSettings
  1

  2
none_device
  4

  6

 40
0.0
 41
0.0
 42
0.0
 43
0.0
 44
210.0
 45
297.0
 46
0.0
 47
0.0
 48
0.0
 49
0.0
140
0.0
141
0.0
142
1.0
143
1.0
 70
1024
 72
1
 73
0
 74
0
  7

 75
0
147
1.0
148
0.0
149
0.0
100
AcDbLayout
  1
Model
 70
0
 71
0
 10
0.0
 20
0.0
 11
210.0
 21
297.0
 12
0.0
 22
0.0
 32
0.0
 14
0.0
 24
0.0
 34
0.0
 15
0.0
 25
0.0
 35
0.0
146
0.0
 13
0.0
 23
0.0
 33
0.0
 16
1.0
 26
0.0
 36
0.0
 17
0.0
 27
1.0
 37
0.0
 76
0
330
212
345
0
346
0
  0
LAYOUT
  5
335
102
{ACAD_REACTORS
330
1A
102
}
100
AcDbPlotSettings
  1

  2
none_device
  4

  6

 40
0.0
 41
0.0
 42
0.0
 43
0.0
 44
210.0
 45
297.0
 46
0.0
 47
0.0
 48
0.0
 49
0.0
140
0.0
141
0.0
142
1.0
143
1.0
 70
0
 72
1
 73
0
 74
0
  7

 75
0
147
1.0
148
0.0
149
0.0
100
AcDbLayout
  1
Layout1
 70
0
 71
1
 10
0.0
 20
0.0
 11
210.0
 21
297.0
 12
0.0
 22
0.0
 32
0.0
 14
0.0
 24
0.0
 34
0.0
 15
0.0
 25
0.0
 35
0.0
146
0.0
 13
0.0
 23
0.0
 33
0.0
 16
1.0
 26
0.0
 36
0.0
 17
0.0
 27
1.0
 37
0.0
 76
0
330
213
345
0
346
0
  0
ENDSEC
  0
EOF
