999
DXF file: C:\Users\sesa63760\Dev\_Creo\CAD\MCADID0005651_3D-CAD\mcadid0005651_3d-simplified_6.dxf
999
Pro/ENGINEER 2019471 by Parametric Technology Corporation
  0
SECTION
  2
HEADER
  9
$ACADVER
  1
AC1024
  9
$DWGCODEPAGE
  3
ANSI_1252
  9
$EXTMAX
 10
75.2582385142
 20
106.4366516129
 30
0.0
  9
$EXTMIN
 10
0.0
 20
0.0
 30
0.0
  9
$LIMMIN
 10
0.0
 20
0.0
  9
$LIMMAX
 10
75.2582385142
 20
106.4366516129
  9
$VIEWCTR
 10
37.6291192571
 20
53.2183258065
  9
$VIEWSIZE
 40
106.4366516129
  9
$CLAYER
  8
0
  9
$LTSCALE
 40
6.9380928459
  9
$CELTYPE
  6
BYLAYER
  9
$DIMSCALE
 40
1.0
  9
$DIMASZ
 40
0.8959314109
  9
$DIMEXO
 40
1.0
  9
$DIMDLI
 40
4.7935914208
  9
$DIMEXE
 40
1.0
  9
$DIMCEN
 40
1.1353242839
  9
$DIMLFAC
 40
1.0
  9
$DIMBLK
  1
_FILLED
  9
$DIMALT
 70
0
  9
$DIMALTF
 40
0.0393700787
  9
$DIMTXT
 40
1.2543039752
  9
$DIMTOL
 70
1
  9
$DIMLIM
 70
0
  9
$DIMTFAC
 40
1.0
  9
$DIMTP
 40
0.01
  9
$DIMTM
 40
0.01
  9
$DIMGAP
 40
0.625
  9
$DIMDSEP
 70
46
  9
$AUNITS
 70
0
  9
$PDMODE
 70
3
  9
$PDSIZE
 40
0.3125
  9
$HANDSEED
  5
508
  9
$TILEMODE
 70
1
  9
$MEASUREMENT
 70
1
  9
$INSUNITS
 70
4
  0
ENDSEC
  0
SECTION
  2
CLASSES
  0
CLASS
  1
ACDBDICTIONARYWDFLT
  2
AcDbDictionaryWithDefault
  3
AutoCAD 2000
 90
0
 91
1
280
0
281
0
  0
CLASS
  1
ACDBPLACEHOLDER
  2
AcDbPlaceHolder
  3
AutoCAD 2000
 90
0
 91
1
280
0
281
0
  0
CLASS
  1
LAYOUT
  2
AcDbLayout
  3
AutoCAD 2000
 90
0
 91
0
280
0
281
0
  0
ENDSEC
  0
SECTION
  2
TABLES
  0
TABLE
  2
VPORT
  5
8
100
AcDbSymbolTable
 70
2
  0
VPORT
  5
1F4
100
AcDbSymbolTableRecord
100
AcDbViewportTableRecord
  2
*ACTIVE
 70
0
 10
0.0
 20
0.0
 11
1.0
 21
1.0
 12
37.6291192571
 22
53.2183258065
 13
0.0
 23
0.0
 14
1.0
 24
1.0
 15
0.0
 25
0.0
 16
0.0
 26
0.0
 36
1.0
 17
0.0
 27
0.0
 37
0.0
 40
106.4366516129
 41
0.7070707071
 42
50.0
 43
0.0
 44
0.0
 50
0.0
 51
0.0
 71
0
 72
100
 73
1
 74
1
 75
0
 76
0
 77
0
 78
0
  0
ENDTAB
  0
TABLE
  2
LTYPE
  5
5
100
AcDbSymbolTable
 70
6
  0
LTYPE
  5
14
100
AcDbSymbolTableRecord
100
AcDbLinetypeTableRecord
  2
BYBLOCK
 70
0
  3

 72
65
 73
0
 40
0.0
  0
LTYPE
  5
15
100
AcDbSymbolTableRecord
100
AcDbLinetypeTableRecord
  2
BYLAYER
 70
0
  3

 72
65
 73
0
 40
0.0
  0
LTYPE
  5
16
100
AcDbSymbolTableRecord
100
AcDbLinetypeTableRecord
  2
CONTINUOUS
 70
64
  3
Solid line
 72
65
 73
0
 40
0.0
  0
LTYPE
  5
1F5
100
AcDbSymbolTableRecord
100
AcDbLinetypeTableRecord
  2
CENTER
 70
64
  3
____ _ ____ _ ____ _ ____ _ ____ _ ____ _ ____
 72
65
 73
4
 40
0.6
 49
0.375
 74
0
 49
-0.075
 74
0
 49
0.075
 74
0
 49
-0.075
 74
0
  0
LTYPE
  5
1F6
100
AcDbSymbolTableRecord
100
AcDbLinetypeTableRecord
  2
HIDDEN
 70
64
  3
- - - - - - - - - - - - - - - - - - - -
 72
65
 73
2
 40
0.2
 49
0.1
 74
0
 49
-0.1
 74
0
  0
LTYPE
  5
1F7
100
AcDbSymbolTableRecord
100
AcDbLinetypeTableRecord
  2
PHANTOM
 70
64
  3
_____ _ _ _____ _ _ _____ _ _ _____
 72
65
 73
6
 40
0.8
 49
0.45
 74
0
 49
-0.05
 74
0
 49
0.1
 74
0
 49
-0.05
 74
0
 49
0.1
 74
0
 49
-0.05
 74
0
  0
LTYPE
  5
1F8
100
AcDbSymbolTableRecord
100
AcDbLinetypeTableRecord
  2
DOT
 70
64
  3
. . . . . . . . . . . . . . . . . . . .
 72
65
 73
2
 40
0.2
 49
0.1
 74
0
 49
-0.1
 74
0
  0
LTYPE
  5
1F9
100
AcDbSymbolTableRecord
100
AcDbLinetypeTableRecord
  2
DASHED
 70
64
  3
- - - - - - - - - - - - - - - - - - - -
 72
65
 73
2
 40
0.2
 49
0.1
 74
0
 49
-0.1
 74
0
  0
ENDTAB
  0
TABLE
  2
LAYER
  5
2
100
AcDbSymbolTable
 70
36
  0
LAYER
  5
10
100
AcDbSymbolTableRecord
100
AcDbLayerTableRecord
  2
0
 70
0
 62
7
  6
CONTINUOUS
370
-3
390
F
  0
LAYER
  5
1FA
100
AcDbSymbolTableRecord
100
AcDbLayerTableRecord
  2
DEFAULT_1
 70
0
 62
7
  6
CENTER
370
-3
390
F
  0
LAYER
  5
1FB
100
AcDbSymbolTableRecord
100
AcDbLayerTableRecord
  2
DEFAULT_2
 70
0
 62
7
  6
HIDDEN
370
-3
390
F
  0
LAYER
  5
1FC
100
AcDbSymbolTableRecord
100
AcDbLayerTableRecord
  2
DEFAULT_3
 70
0
 62
7
  6
PHANTOM
370
-3
390
F
  0
LAYER
  5
1FD
100
AcDbSymbolTableRecord
100
AcDbLayerTableRecord
  2
00_COMPONENTS
 70
0
 62
7
  6
CONTINUOUS
370
-3
390
F
  0
LAYER
  5
1FE
100
AcDbSymbolTableRecord
100
AcDbLayerTableRecord
  2
00_COMPONENTS_1
 70
0
 62
7
  6
CONTINUOUS
370
-3
390
F
  0
LAYER
  5
1FF
100
AcDbSymbolTableRecord
100
AcDbLayerTableRecord
  2
00_COMPONENTS_2
 70
0
 62
7
  6
CONTINUOUS
370
-3
390
F
  0
LAYER
  5
200
100
AcDbSymbolTableRecord
100
AcDbLayerTableRecord
  2
00_COMPONENTS_3
 70
0
 62
7
  6
CONTINUOUS
370
-3
390
F
  0
LAYER
  5
201
100
AcDbSymbolTableRecord
100
AcDbLayerTableRecord
  2
00_COMPONENTS_4
 70
0
 62
7
  6
CONTINUOUS
370
-3
390
F
  0
LAYER
  5
202
100
AcDbSymbolTableRecord
100
AcDbLayerTableRecord
  2
00_COMPONENTS_5
 70
0
 62
7
  6
CONTINUOUS
370
-3
390
F
  0
LAYER
  5
203
100
AcDbSymbolTableRecord
100
AcDbLayerTableRecord
  2
00_COMPONENTS_6
 70
0
 62
7
  6
CONTINUOUS
370
-3
390
F
  0
LAYER
  5
204
100
AcDbSymbolTableRecord
100
AcDbLayerTableRecord
  2
00_COMPONENTS_7
 70
0
 62
7
  6
CONTINUOUS
370
-3
390
F
  0
LAYER
  5
205
100
AcDbSymbolTableRecord
100
AcDbLayerTableRecord
  2
01_1_DEFAULT_DATUMS
 70
0
 62
7
  6
CONTINUOUS
370
-3
390
F
  0
LAYER
  5
206
100
AcDbSymbolTableRecord
100
AcDbLayerTableRecord
  2
01_PLANES
 70
0
 62
7
  6
CONTINUOUS
370
-3
390
F
  0
LAYER
  5
207
100
AcDbSymbolTableRecord
100
AcDbLayerTableRecord
  2
02_COORD_SYS
 70
0
 62
7
  6
CONTINUOUS
370
-3
390
F
  0
LAYER
  5
208
100
AcDbSymbolTableRecord
100
AcDbLayerTableRecord
  2
03_AXES
 70
0
 62
7
  6
CONTINUOUS
370
-3
390
F
  0
LAYER
  5
209
100
AcDbSymbolTableRecord
100
AcDbLayerTableRecord
  2
03_AXES_1
 70
0
 62
7
  6
CONTINUOUS
370
-3
390
F
  0
LAYER
  5
20A
100
AcDbSymbolTableRecord
100
AcDbLayerTableRecord
  2
03_AXES_4
 70
0
 62
7
  6
CONTINUOUS
370
-3
390
F
  0
LAYER
  5
20B
100
AcDbSymbolTableRecord
100
AcDbLayerTableRecord
  2
03_AXES_7
 70
0
 62
7
  6
CONTINUOUS
370
-3
390
F
  0
LAYER
  5
20C
100
AcDbSymbolTableRecord
100
AcDbLayerTableRecord
  2
04_POINTS
 70
0
 62
7
  6
CONTINUOUS
370
-3
390
F
  0
LAYER
  5
20D
100
AcDbSymbolTableRecord
100
AcDbLayerTableRecord
  2
05_CURVES
 70
0
 62
7
  6
CONTINUOUS
370
-3
390
F
  0
LAYER
  5
20E
100
AcDbSymbolTableRecord
100
AcDbLayerTableRecord
  2
06_SURFS
 70
0
 62
7
  6
CONTINUOUS
370
-3
390
F
  0
LAYER
  5
20F
100
AcDbSymbolTableRecord
100
AcDbLayerTableRecord
  2
07_COSMETICS
 70
0
 62
7
  6
CONTINUOUS
370
-3
390
F
  0
LAYER
  5
210
100
AcDbSymbolTableRecord
100
AcDbLayerTableRecord
  2
10_NOTES
 70
0
 62
7
  6
CONTINUOUS
370
-3
390
F
  0
LAYER
  5
211
100
AcDbSymbolTableRecord
100
AcDbLayerTableRecord
  2
11_NOTES_PUB
 70
0
 62
7
  6
CONTINUOUS
370
-3
390
F
  0
LAYER
  5
212
100
AcDbSymbolTableRecord
100
AcDbLayerTableRecord
  2
13_REF_GTOL
 70
0
 62
7
  6
CONTINUOUS
370
-3
390
F
  0
LAYER
  5
213
100
AcDbSymbolTableRecord
100
AcDbLayerTableRecord
  2
13_REF_GTOL_6
 70
0
 62
7
  6
CONTINUOUS
370
-3
390
F
  0
LAYER
  5
214
100
AcDbSymbolTableRecord
100
AcDbLayerTableRecord
  2
16_MISC
 70
0
 62
7
  6
CONTINUOUS
370
-3
390
F
  0
LAYER
  5
215
100
AcDbSymbolTableRecord
100
AcDbLayerTableRecord
  2
17_NO_PRINT
 70
0
 62
7
  6
CONTINUOUS
370
-3
390
F
  0
LAYER
  5
216
100
AcDbSymbolTableRecord
100
AcDbLayerTableRecord
  2
18_DATUM_CAMS_JOINTS
 70
0
 62
7
  6
CONTINUOUS
370
-3
390
F
  0
LAYER
  5
217
100
AcDbSymbolTableRecord
100
AcDbLayerTableRecord
  2
19_DATUM_FUNCTIONAL
 70
0
 62
7
  6
CONTINUOUS
370
-3
390
F
  0
LAYER
  5
218
100
AcDbSymbolTableRecord
100
AcDbLayerTableRecord
  2
20_DATUM_KINEMATIC_SCHEME
 70
0
 62
7
  6
CONTINUOUS
370
-3
390
F
  0
LAYER
  5
219
100
AcDbSymbolTableRecord
100
AcDbLayerTableRecord
  2
INTFCLR_28637
 70
0
 62
7
  6
CONTINUOUS
370
-3
390
F
  0
LAYER
  5
21A
100
AcDbSymbolTableRecord
100
AcDbLayerTableRecord
  2
INTFCLR_64039
 70
0
 62
7
  6
CONTINUOUS
370
-3
390
F
  0
LAYER
  5
21B
100
AcDbSymbolTableRecord
100
AcDbLayerTableRecord
  2
INTF_BLANK
 70
0
 62
7
  6
CONTINUOUS
370
-3
390
F
  0
LAYER
  5
21C
100
AcDbSymbolTableRecord
100
AcDbLayerTableRecord
  2
SHELL1
 70
0
 62
7
  6
CONTINUOUS
370
-3
390
F
  0
LAYER
  5
21D
100
AcDbSymbolTableRecord
100
AcDbLayerTableRecord
  2
SHELL1_1
 70
0
 62
7
  6
CONTINUOUS
370
-3
390
F
  0
LAYER
  5
21E
100
AcDbSymbolTableRecord
100
AcDbLayerTableRecord
  2
SHELL2
 70
0
 62
7
  6
CONTINUOUS
370
-3
390
F
  0
LAYER
  5
21F
100
AcDbSymbolTableRecord
100
AcDbLayerTableRecord
  2
SHELL8
 70
0
 62
7
  6
CONTINUOUS
370
-3
390
F
  0
LAYER
  5
220
100
AcDbSymbolTableRecord
100
AcDbLayerTableRecord
  2
_BLACK_HOLE
 70
0
 62
7
  6
CONTINUOUS
370
-3
390
F
  0
LAYER
  5
221
100
AcDbSymbolTableRecord
100
AcDbLayerTableRecord
  2
black
 70
0
 62
7
  6
CONTINUOUS
370
-3
390
F
  0
ENDTAB
  0
TABLE
  2
STYLE
  5
3
100
AcDbSymbolTable
 70
1
  0
STYLE
  5
11
100
AcDbSymbolTableRecord
100
AcDbTextStyleTableRecord
  2
STANDARD
 70
0
 40
0.0
 41
1.0
 50
0.0
 71
0
 42
0.2
  3
ARIAL.TTF
  4

  0
STYLE
  5
222
100
AcDbSymbolTableRecord
100
AcDbTextStyleTableRecord
  2
TEXTSTYLE_1
 70
0
 40
0.0
 41
0.8
 50
0.0
 71
0
 42
0.2
  3
gdt
  4

  0
ENDTAB
  0
TABLE
  2
VIEW
  5
6
100
AcDbSymbolTable
 70
0
  0
ENDTAB
  0
TABLE
  2
UCS
  5
7
100
AcDbSymbolTable
 70
0
  0
ENDTAB
  0
TABLE
  2
APPID
  5
9
100
AcDbSymbolTable
 70
1
  0
APPID
  5
223
100
AcDbSymbolTableRecord
100
AcDbRegAppTableRecord
  2
ACAD
 70
0
  0
ENDTAB
  0
TABLE
  2
BLOCK_RECORD
  5
1
100
AcDbSymbolTable
 70
0
  0
BLOCK_RECORD
  5
224
100
AcDbSymbolTableRecord
100
AcDbBlockTableRecord
  2
*Model_Space
  0
BLOCK_RECORD
  5
225
100
AcDbSymbolTableRecord
100
AcDbBlockTableRecord
  2
*Paper_Space
  0
BLOCK_RECORD
  5
226
100
AcDbSymbolTableRecord
100
AcDbBlockTableRecord
  2
_FILLED
  0
ENDTAB
  0
TABLE
  2
DIMSTYLE
  5
A
100
AcDbSymbolTable
 70
1
100
AcDbDimStyleTable
 71
0
  0
DIMSTYLE
105
227
100
AcDbSymbolTableRecord
100
AcDbDimStyleTableRecord
  2
STANDARD
 70
0
  3

  4

 40
1.0
 41
0.8959314109
 42
1.0
 43
0.38
 44
1.0
 45
0.0
 46
0.0
 47
0.01
 48
0.01
140
1.2543039752
141
0.09
142
0.0
143
25.4
144
1.0
145
0.0
146
1.0
147
0.625
 71
1
 72
0
 73
0
 74
0
 75
0
 76
0
 77
1
 78
8
 79
2
170
0
171
1
172
0
173
0
174
0
175
0
176
0
177
0
178
0
270
2
179
2
271
2
272
2
273
2
274
2
275
0
280
0
281
0
282
0
283
1
284
8
285
0
286
0
287
3
288
0
340
11
278
46
341
226
342
226
343
226
344
226
  0
ENDTAB
  0
ENDSEC
  0
SECTION
  2
BLOCKS
  0
BLOCK
  5
20
100
AcDbEntity
  8
0
100
AcDbBlockBegin
  2
*Model_Space
 70
0
 10
0.0
 20
0.0
 30
0.0
  3
*Model_Space
  1

  0
ENDBLK
  5
21
100
AcDbEntity
  8
0
100
AcDbBlockEnd
  0
BLOCK
  5
1C
100
AcDbEntity
  8
0
100
AcDbBlockBegin
  2
*Paper_Space
 70
0
 10
0.0
 20
0.0
 30
0.0
  3
*Paper_Space
  1

  0
ENDBLK
  5
1D
100
AcDbEntity
  8
0
100
AcDbBlockEnd
  0
BLOCK
  5
228
100
AcDbEntity
  8
0
100
AcDbBlockBegin
  2
_FILLED
 70
64
 10
0.0
 20
0.0
  3
_FILLED
  1

  0
SOLID
  5
229
100
AcDbEntity
  8
0
  6
BYBLOCK
 62
0
100
AcDbTrace
 10
0.0
 20
0.0
 11
-1.0
 21
0.25
 12
-1.0
 22
-0.25
 13
-1.0
 23
-0.25
  0
ENDBLK
  5
22A
100
AcDbEntity
  8
0
  6
BYBLOCK
 62
0
100
AcDbBlockEnd
  0
ENDSEC
  0
SECTION
  2
ENTITIES
  0
LINE
  5
22B
100
AcDbEntity
  8
00_COMPONENTS_2
100
AcDbLine
 62
7
  6
BYLAYER
 10
63.6932063539
 20
8.7937258065
 11
60.2324563539
 21
8.7937258065
  0
LINE
  5
22C
100
AcDbEntity
  8
00_COMPONENTS_2
100
AcDbLine
 62
7
  6
BYLAYER
 10
59.7244563539
 20
8.7937258065
 11
56.2637063539
 21
8.7937258065
  0
LINE
  5
22D
100
AcDbEntity
  8
00_COMPONENTS_2
100
AcDbLine
 62
7
  6
BYLAYER
 10
55.7557063539
 20
8.7937258065
 11
52.2949563539
 21
8.7937258065
  0
LINE
  5
22E
100
AcDbEntity
  8
00_COMPONENTS_2
100
AcDbLine
 62
7
  6
BYLAYER
 10
51.7869563539
 20
8.7937258065
 11
48.3262063539
 21
8.7937258065
  0
LINE
  5
22F
100
AcDbEntity
  8
00_COMPONENTS_2
100
AcDbLine
 62
7
  6
BYLAYER
 10
47.8182063539
 20
8.7937258065
 11
44.2893104057
 21
8.7937258065
  0
LINE
  5
230
100
AcDbEntity
  8
00_COMPONENTS_2
100
AcDbLine
 62
7
  6
BYLAYER
 10
43.7813104057
 20
8.7937258065
 11
40.3887063539
 21
8.7937258065
  0
LINE
  5
231
100
AcDbEntity
  8
00_COMPONENTS_2
100
AcDbLine
 62
7
  6
BYLAYER
 10
39.8807063539
 20
8.7937258065
 11
37.3910173005
 21
8.7937258065
  0
LINE
  5
232
100
AcDbEntity
  8
00_COMPONENTS_2
100
AcDbLine
 62
7
  6
BYLAYER
 10
37.2784318365
 20
9.0224518618
 11
39.8807063539
 21
9.0224518618
  0
LINE
  5
233
100
AcDbEntity
  8
00_COMPONENTS_2
100
AcDbLine
 62
7
  6
BYLAYER
 10
40.3887063539
 20
9.0224518618
 11
43.7813104057
 21
9.0224518618
  0
LINE
  5
234
100
AcDbEntity
  8
00_COMPONENTS_2
100
AcDbLine
 62
7
  6
BYLAYER
 10
44.2893104057
 20
9.0224518618
 11
47.8182063539
 21
9.0224518618
  0
LINE
  5
235
100
AcDbEntity
  8
00_COMPONENTS_2
100
AcDbLine
 62
7
  6
BYLAYER
 10
48.3262063539
 20
9.0224518618
 11
51.7869563539
 21
9.0224518618
  0
LINE
  5
236
100
AcDbEntity
  8
00_COMPONENTS_2
100
AcDbLine
 62
7
  6
BYLAYER
 10
52.2949563539
 20
9.0224518618
 11
55.7557063539
 21
9.0224518618
  0
LINE
  5
237
100
AcDbEntity
  8
00_COMPONENTS_2
100
AcDbLine
 62
7
  6
BYLAYER
 10
56.2637063539
 20
9.0224518618
 11
59.7244563539
 21
9.0224518618
  0
LINE
  5
238
100
AcDbEntity
  8
00_COMPONENTS_2
100
AcDbLine
 62
7
  6
BYLAYER
 10
60.2324563539
 20
9.0224518618
 11
63.9459458002
 21
9.0224518618
  0
LINE
  5
239
100
AcDbEntity
  8
0
100
AcDbLine
 62
7
  6
BYLAYER
 10
18.891303287
 20
89.7688726686
 11
24.9619564248
 21
95.8395258065
  0
LINE
  5
23A
100
AcDbEntity
  8
0
100
AcDbLine
 62
7
  6
BYLAYER
 10
28.962656636
 20
95.8395258065
 11
20.8916533926
 21
87.768522563
  0
LINE
  5
23B
100
AcDbEntity
  8
0
100
AcDbLine
 62
7
  6
BYLAYER
 10
14.5807803489
 20
80.5012483517
 11
21.3698539764
 21
87.2903219792
  0
LINE
  5
23C
100
AcDbEntity
  8
0
100
AcDbLine
 62
7
  6
BYLAYER
 10
19.7264671062
 20
83.8508838848
 11
17.1940348801
 21
81.3184516587
  0
LINE
  5
23D
100
AcDbEntity
  8
0
100
AcDbLine
 62
7
  6
BYLAYER
 10
23.370204082
 20
85.2899718736
 11
20.8287915997
 21
82.7485593913
  0
LINE
  5
23E
100
AcDbEntity
  8
0
100
AcDbLine
 62
7
  6
BYLAYER
 10
18.2963593736
 20
80.2161271652
 11
15.8826304544
 21
77.8023982461
  0
LINE
  5
23F
100
AcDbEntity
  8
0
100
AcDbLine
 62
7
  6
BYLAYER
 10
19.6725855695
 20
78.8399009693
 11
22.2050177956
 21
81.3723331954
  0
LINE
  5
240
100
AcDbEntity
  8
0
100
AcDbLine
 62
7
  6
BYLAYER
 10
21.0165835104
 20
78.8907420287
 11
20.3944131157
 21
78.268571634
  0
LINE
  5
241
100
AcDbEntity
  8
00_COMPONENTS_2
100
AcDbLine
 62
7
  6
BYLAYER
 10
21.583078443
 20
25.3755509275
 11
21.6569465675
 21
25.3103024537
  0
LINE
  5
242
100
AcDbEntity
  8
00_COMPONENTS_2
100
AcDbLine
 62
7
  6
BYLAYER
 10
21.457150546
 20
25.3755509275
 11
21.4920324759
 21
25.3426032851
  0
LINE
  5
243
100
AcDbEntity
  8
00_COMPONENTS_2
100
AcDbLine
 62
7
  6
BYLAYER
 10
22.1388063538
 20
24.6687258065
 11
21.7747397719
 21
25.0327923884
  0
LINE
  5
244
100
AcDbEntity
  8
00_COMPONENTS_2
100
AcDbLine
 62
7
  6
BYLAYER
 10
21.7679688086
 20
25.0396109698
 11
21.7457257696
 21
25.0619864229
  0
LINE
  5
245
100
AcDbEntity
  8
00_COMPONENTS_2
100
AcDbLine
 62
7
  6
BYLAYER
 10
21.4791493068
 20
25.3325480785
 11
21.4371246257
 21
25.3755509275
  0
LINE
  5
246
100
AcDbEntity
  8
0
100
AcDbLine
 62
7
  6
BYLAYER
 10
20.750216304
 20
77.7622702347
 11
23.2826485302
 21
80.2947024609
  0
LINE
  5
247
100
AcDbEntity
  8
0
100
AcDbLine
 62
7
  6
BYLAYER
 10
21.8278470386
 20
76.6846395002
 11
24.3602792647
 21
79.2170717264
  0
LINE
  5
248
100
AcDbEntity
  8
0
100
AcDbLine
 62
7
  6
BYLAYER
 10
24.8092920708
 20
78.7680589203
 11
22.2768598446
 21
76.2356266942
  0
LINE
  5
249
100
AcDbEntity
  8
0
100
AcDbLine
 62
7
  6
BYLAYER
 10
22.456464967
 20
76.0560215717
 11
24.9888971932
 21
78.5884537979
  0
LINE
  5
24A
100
AcDbEntity
  8
0
100
AcDbLine
 62
7
  6
BYLAYER
 10
26.2551133062
 20
79.4954596661
 11
25.1685023156
 21
78.4088486755
  0
LINE
  5
24B
100
AcDbEntity
  8
0
100
AcDbLine
 62
7
  6
BYLAYER
 10
22.6360700895
 20
75.8764164493
 11
21.5494590988
 21
74.7898054587
  0
LINE
  5
24C
100
AcDbEntity
  8
00_COMPONENTS_2
100
AcDbLine
 62
7
  6
BYLAYER
 10
39.8807063539
 20
24.4325971841
 11
40.3887063539
 21
24.4325971841
  0
LINE
  5
24D
100
AcDbEntity
  8
00_COMPONENTS_2
100
AcDbLine
 62
7
  6
BYLAYER
 10
43.7813104057
 20
24.4399997511
 11
40.3885526939
 21
24.4399997511
  0
LINE
  5
24E
100
AcDbEntity
  8
00_COMPONENTS_2
100
AcDbLine
 62
7
  6
BYLAYER
 10
39.8808600138
 20
24.4399997511
 11
26.860328037
 21
24.4399997511
  0
LINE
  5
24F
100
AcDbEntity
  8
00_COMPONENTS_2
100
AcDbLine
 62
7
  6
BYLAYER
 10
22.1388063538
 20
24.6687258065
 11
48.6056063539
 21
24.6687258065
  0
LINE
  5
250
100
AcDbEntity
  8
00_COMPONENTS_2
100
AcDbLine
 62
7
  6
BYLAYER
 10
21.3629386669
 20
25.4561258064
 11
21.3666955775
 21
25.4561258064
  0
LINE
  5
251
100
AcDbEntity
  8
00_COMPONENTS_2
100
AcDbLine
 62
7
  6
BYLAYER
 10
21.4658007424
 20
25.4561258064
 11
21.4770428819
 21
25.4561258064
  0
LINE
  5
252
100
AcDbEntity
  8
00_COMPONENTS_2
100
AcDbLine
 62
7
  6
BYLAYER
 10
21.6744989615
 20
25.4561258064
 11
21.6931407705
 21
25.4561258064
  0
LINE
  5
253
100
AcDbEntity
  8
00_COMPONENTS_2
100
AcDbLine
 62
7
  6
BYLAYER
 10
21.9874450047
 20
25.4561258064
 11
22.0133446078
 21
25.4561258064
  0
LINE
  5
254
100
AcDbEntity
  8
00_COMPONENTS_2
100
AcDbLine
 62
7
  6
BYLAYER
 10
22.4022571638
 20
25.4561258064
 11
22.4352174493
 21
25.4561258064
  0
LINE
  5
255
100
AcDbEntity
  8
00_COMPONENTS_2
100
AcDbLine
 62
7
  6
BYLAYER
 10
22.9157784677
 20
25.4561258064
 11
22.9555485879
 21
25.4561258064
  0
LINE
  5
256
100
AcDbEntity
  8
00_COMPONENTS_2
100
AcDbLine
 62
7
  6
BYLAYER
 10
23.5241007092
 20
25.4561258064
 11
23.5703779895
 21
25.4561258064
  0
LINE
  5
257
100
AcDbEntity
  8
00_COMPONENTS_2
100
AcDbLine
 62
7
  6
BYLAYER
 10
24.2225941887
 20
25.4561258064
 11
24.2750264311
 21
25.4561258064
  0
LINE
  5
258
100
AcDbEntity
  8
00_COMPONENTS_2
100
AcDbLine
 62
7
  6
BYLAYER
 10
25.0059429491
 20
25.4561258064
 11
25.0641311125
 21
25.4561258064
  0
LINE
  5
259
100
AcDbEntity
  8
00_COMPONENTS_2
100
AcDbLine
 62
7
  6
BYLAYER
 10
25.8681852334
 20
25.4561258064
 11
25.9316864708
 21
25.4561258064
  0
LINE
  5
25A
100
AcDbEntity
  8
00_COMPONENTS_2
100
AcDbLine
 62
7
  6
BYLAYER
 10
26.802758857
 20
25.4561258064
 11
26.8710898856
 21
25.4561258064
  0
LINE
  5
25B
100
AcDbEntity
  8
00_COMPONENTS_2
100
AcDbLine
 62
7
  6
BYLAYER
 10
27.8025511505
 20
25.4561258064
 11
27.87519193
 21
25.4561258064
  0
LINE
  5
25C
100
AcDbEntity
  8
00_COMPONENTS_2
100
AcDbLine
 62
7
  6
BYLAYER
 10
28.8599530908
 20
25.4561258065
 11
28.9363507809
 21
25.4561258065
  0
LINE
  5
25D
100
AcDbEntity
  8
00_COMPONENTS_2
100
AcDbLine
 62
7
  6
BYLAYER
 10
29.9669172106
 20
25.4561258065
 11
30.0464903788
 21
25.4561258065
  0
LINE
  5
25E
100
AcDbEntity
  8
00_COMPONENTS_2
100
AcDbLine
 62
7
  6
BYLAYER
 10
31.1150188446
 20
25.4561258065
 11
31.197161891
 21
25.4561258065
  0
LINE
  5
25F
100
AcDbEntity
  8
00_COMPONENTS_2
100
AcDbLine
 62
7
  6
BYLAYER
 10
32.2955202461
 20
25.4561258065
 11
32.3796080125
 21
25.4561258065
  0
LINE
  5
260
100
AcDbEntity
  8
00_COMPONENTS_2
100
AcDbLine
 62
7
  6
BYLAYER
 10
33.4994370866
 20
25.4561258065
 11
33.5848296144
 21
25.4561258065
  0
LINE
  5
261
100
AcDbEntity
  8
00_COMPONENTS_2
100
AcDbLine
 62
7
  6
BYLAYER
 10
34.7176068321
 20
25.4561258065
 11
34.8036542326
 21
25.4561258065
  0
LINE
  5
262
100
AcDbEntity
  8
00_COMPONENTS_2
100
AcDbLine
 62
7
  6
BYLAYER
 10
35.9407584752
 20
25.4561258065
 11
36.0268058756
 21
25.4561258065
  0
LINE
  5
263
100
AcDbEntity
  8
00_COMPONENTS_2
100
AcDbLine
 62
7
  6
BYLAYER
 10
37.1595830933
 20
25.4561258065
 11
37.2449756211
 21
25.4561258065
  0
LINE
  5
264
100
AcDbEntity
  8
00_COMPONENTS_2
100
AcDbLine
 62
7
  6
BYLAYER
 10
38.3648046952
 20
25.4561258065
 11
38.4488924616
 21
25.4561258065
  0
LINE
  5
265
100
AcDbEntity
  8
00_COMPONENTS_2
100
AcDbLine
 62
7
  6
BYLAYER
 10
39.5472508167
 20
25.4561258065
 11
39.6293938631
 21
25.4561258065
  0
LINE
  5
266
100
AcDbEntity
  8
00_COMPONENTS_2
100
AcDbLine
 62
7
  6
BYLAYER
 10
40.697922329
 20
25.4561258065
 11
40.7774954971
 21
25.4561258065
  0
LINE
  5
267
100
AcDbEntity
  8
00_COMPONENTS_2
100
AcDbLine
 62
7
  6
BYLAYER
 10
41.8080619269
 20
25.4561258064
 11
41.8844596169
 21
25.4561258064
  0
LINE
  5
268
100
AcDbEntity
  8
00_COMPONENTS_2
100
AcDbLine
 62
7
  6
BYLAYER
 10
42.8692207778
 20
25.4561258064
 11
42.9418615572
 21
25.4561258064
  0
LINE
  5
269
100
AcDbEntity
  8
00_COMPONENTS_2
100
AcDbLine
 62
7
  6
BYLAYER
 10
43.8733228221
 20
25.4561258064
 11
43.9416538507
 21
25.4561258064
  0
LINE
  5
26A
100
AcDbEntity
  8
00_COMPONENTS_2
100
AcDbLine
 62
7
  6
BYLAYER
 10
44.812726237
 20
25.4561258064
 11
44.8762274744
 21
25.4561258064
  0
LINE
  5
26B
100
AcDbEntity
  8
00_COMPONENTS_2
100
AcDbLine
 62
7
  6
BYLAYER
 10
45.6802815952
 20
25.4561258064
 11
45.7384697586
 21
25.4561258064
  0
LINE
  5
26C
100
AcDbEntity
  8
00_COMPONENTS_2
100
AcDbLine
 62
7
  6
BYLAYER
 10
46.4693862767
 20
25.4561258064
 11
46.521818519
 21
25.4561258064
  0
LINE
  5
26D
100
AcDbEntity
  8
00_COMPONENTS_2
100
AcDbLine
 62
7
  6
BYLAYER
 10
47.1740347183
 20
25.4561258064
 11
47.2203119986
 21
25.4561258064
  0
LINE
  5
26E
100
AcDbEntity
  8
00_COMPONENTS_2
100
AcDbLine
 62
7
  6
BYLAYER
 10
47.7888641198
 20
25.4561258064
 11
47.82863424
 21
25.4561258064
  0
LINE
  5
26F
100
AcDbEntity
  8
00_COMPONENTS_2
100
AcDbLine
 62
7
  6
BYLAYER
 10
48.3091952585
 20
25.4561258064
 11
48.3421555439
 21
25.4561258064
  0
LINE
  5
270
100
AcDbEntity
  8
00_COMPONENTS_2
100
AcDbLine
 62
7
  6
BYLAYER
 10
48.7310680999
 20
25.4561258064
 11
48.756967703
 21
25.4561258064
  0
LINE
  5
271
100
AcDbEntity
  8
00_COMPONENTS_2
100
AcDbLine
 62
7
  6
BYLAYER
 10
49.0512719372
 20
25.4561258064
 11
49.0699137462
 21
25.4561258064
  0
LINE
  5
272
100
AcDbEntity
  8
00_COMPONENTS_2
100
AcDbLine
 62
7
  6
BYLAYER
 10
49.2673698258
 20
25.4561258064
 11
49.2786119654
 21
25.4561258064
  0
LINE
  5
273
100
AcDbEntity
  8
00_COMPONENTS_2
100
AcDbLine
 62
7
  6
BYLAYER
 10
49.3777171302
 20
25.4561258064
 11
49.3814740408
 21
25.4561258064
  0
LINE
  5
274
100
AcDbEntity
  8
00_COMPONENTS_2
100
AcDbLine
 62
7
  6
BYLAYER
 10
46.5585484838
 20
22.2801599927
 11
63.9472063539
 21
20.6999758065
  0
LINE
  5
275
100
AcDbEntity
  8
00_COMPONENTS_2
100
AcDbLine
 62
7
  6
BYLAYER
 10
45.2096236697
 20
24.4995012235
 11
44.1320623315
 21
24.619185387
  0
LINE
  5
276
100
AcDbEntity
  8
00_COMPONENTS_4
100
AcDbLine
 62
7
  6
BYLAYER
 10
19.6262063499
 20
29.4439258065
 11
19.3722063499
 21
29.6979258065
  0
LINE
  5
277
100
AcDbEntity
  8
00_COMPONENTS_2
100
AcDbLine
 62
7
  6
BYLAYER
 10
40.1347063539
 20
9.0477258065
 11
40.3887063539
 21
8.7937258065
  0
LINE
  5
278
100
AcDbEntity
  8
00_COMPONENTS_2
100
AcDbLine
 62
7
  6
BYLAYER
 10
44.0353104057
 20
9.0477258065
 11
44.2893104057
 21
8.7937258065
  0
LINE
  5
279
100
AcDbEntity
  8
00_COMPONENTS_2
100
AcDbLine
 62
7
  6
BYLAYER
 10
35.5170269938
 20
9.7705419528
 11
25.0852063539
 21
24.6687258065
  0
LINE
  5
27A
100
AcDbEntity
  8
0
100
AcDbLine
 62
7
  6
BYLAYER
 10
12.6138063539
 20
71.2015258065
 11
12.6138063539
 21
63.7593258065
  0
LINE
  5
27B
100
AcDbEntity
  8
0
100
AcDbLine
 62
7
  6
BYLAYER
 10
13.9346063539
 20
71.2015258065
 11
13.9346063539
 21
68.7207924731
  0
LINE
  5
27C
100
AcDbEntity
  8
0
100
AcDbLine
 62
7
  6
BYLAYER
 10
14.1222620188
 20
63.7593258065
 11
14.1222620188
 21
68.7207924731
  0
LINE
  5
27D
100
AcDbEntity
  8
0
100
AcDbLine
 62
7
  6
BYLAYER
 10
14.5807803489
 20
79.1042483517
 11
14.5807803489
 21
80.5012483517
  0
LINE
  5
27E
100
AcDbEntity
  8
0
100
AcDbLine
 62
7
  6
BYLAYER
 10
26.0575476716
 20
78.5794735418
 11
22.4654452232
 21
74.9873710933
  0
LINE
  5
27F
100
AcDbEntity
  8
0
100
AcDbLine
 62
7
  6
BYLAYER
 10
23.4353128842
 20
72.9039516732
 11
28.1409670917
 21
77.6096058807
  0
LINE
  5
280
100
AcDbEntity
  8
00_COMPONENTS_2
100
AcDbLine
 62
7
  6
BYLAYER
 10
21.3514065389
 20
28.7327258065
 11
21.3627297482
 21
28.7327258065
  0
LINE
  5
281
100
AcDbEntity
  8
00_COMPONENTS_2
100
AcDbLine
 62
7
  6
BYLAYER
 10
21.3666955775
 20
28.7327258065
 11
21.4658007424
 21
28.7327258065
  0
LINE
  5
282
100
AcDbEntity
  8
00_COMPONENTS_2
100
AcDbLine
 62
7
  6
BYLAYER
 10
21.4770428819
 20
28.7327258065
 11
21.6744989615
 21
28.7327258065
  0
LINE
  5
283
100
AcDbEntity
  8
00_COMPONENTS_2
100
AcDbLine
 62
7
  6
BYLAYER
 10
21.6931407705
 20
28.7327258065
 11
21.9874450047
 21
28.7327258065
  0
LINE
  5
284
100
AcDbEntity
  8
00_COMPONENTS_2
100
AcDbLine
 62
7
  6
BYLAYER
 10
22.0133446078
 20
28.7327258065
 11
22.4022571638
 21
28.7327258065
  0
LINE
  5
285
100
AcDbEntity
  8
00_COMPONENTS_2
100
AcDbLine
 62
7
  6
BYLAYER
 10
22.4352174493
 20
28.7327258065
 11
22.9157784677
 21
28.7327258065
  0
LINE
  5
286
100
AcDbEntity
  8
00_COMPONENTS_2
100
AcDbLine
 62
7
  6
BYLAYER
 10
22.9555485879
 20
28.7327258065
 11
23.5241007092
 21
28.7327258065
  0
LINE
  5
287
100
AcDbEntity
  8
00_COMPONENTS_2
100
AcDbLine
 62
7
  6
BYLAYER
 10
23.5703779895
 20
28.7327258065
 11
24.2225941887
 21
28.7327258065
  0
LINE
  5
288
100
AcDbEntity
  8
00_COMPONENTS_2
100
AcDbLine
 62
7
  6
BYLAYER
 10
24.2750264311
 20
28.7327258065
 11
25.0059429491
 21
28.7327258065
  0
LINE
  5
289
100
AcDbEntity
  8
00_COMPONENTS_2
100
AcDbLine
 62
7
  6
BYLAYER
 10
25.0641311125
 20
28.7327258065
 11
25.8681852334
 21
28.7327258065
  0
LINE
  5
28A
100
AcDbEntity
  8
00_COMPONENTS_2
100
AcDbLine
 62
7
  6
BYLAYER
 10
25.9316864708
 20
28.7327258065
 11
26.802758857
 21
28.7327258065
  0
LINE
  5
28B
100
AcDbEntity
  8
00_COMPONENTS_2
100
AcDbLine
 62
7
  6
BYLAYER
 10
26.8710898856
 20
28.7327258065
 11
27.8025511505
 21
28.7327258065
  0
LINE
  5
28C
100
AcDbEntity
  8
00_COMPONENTS_2
100
AcDbLine
 62
7
  6
BYLAYER
 10
27.8751919299
 20
28.7327258065
 11
28.8599530908
 21
28.7327258065
  0
LINE
  5
28D
100
AcDbEntity
  8
00_COMPONENTS_2
100
AcDbLine
 62
7
  6
BYLAYER
 10
28.9363507809
 20
28.7327258065
 11
29.9669172106
 21
28.7327258065
  0
LINE
  5
28E
100
AcDbEntity
  8
00_COMPONENTS_2
100
AcDbLine
 62
7
  6
BYLAYER
 10
30.0464903788
 20
28.7327258065
 11
31.1150188446
 21
28.7327258065
  0
LINE
  5
28F
100
AcDbEntity
  8
00_COMPONENTS_2
100
AcDbLine
 62
7
  6
BYLAYER
 10
31.197161891
 20
28.7327258065
 11
32.2955202461
 21
28.7327258065
  0
LINE
  5
290
100
AcDbEntity
  8
00_COMPONENTS_2
100
AcDbLine
 62
7
  6
BYLAYER
 10
32.3796080125
 20
28.7327258065
 11
33.4994370866
 21
28.7327258065
  0
LINE
  5
291
100
AcDbEntity
  8
00_COMPONENTS_2
100
AcDbLine
 62
7
  6
BYLAYER
 10
33.5848296144
 20
28.7327258065
 11
34.7176068321
 21
28.7327258065
  0
LINE
  5
292
100
AcDbEntity
  8
00_COMPONENTS_2
100
AcDbLine
 62
7
  6
BYLAYER
 10
34.8036542326
 20
28.7327258065
 11
35.9407584751
 21
28.7327258065
  0
LINE
  5
293
100
AcDbEntity
  8
00_COMPONENTS_2
100
AcDbLine
 62
7
  6
BYLAYER
 10
36.0268058756
 20
28.7327258065
 11
37.1595830933
 21
28.7327258065
  0
LINE
  5
294
100
AcDbEntity
  8
00_COMPONENTS_2
100
AcDbLine
 62
7
  6
BYLAYER
 10
37.2449756211
 20
28.7327258065
 11
38.3648046952
 21
28.7327258065
  0
LINE
  5
295
100
AcDbEntity
  8
00_COMPONENTS_2
100
AcDbLine
 62
7
  6
BYLAYER
 10
38.4488924616
 20
28.7327258065
 11
39.5472508167
 21
28.7327258065
  0
LINE
  5
296
100
AcDbEntity
  8
00_COMPONENTS_2
100
AcDbLine
 62
7
  6
BYLAYER
 10
39.6293938631
 20
28.7327258065
 11
40.697922329
 21
28.7327258065
  0
LINE
  5
297
100
AcDbEntity
  8
00_COMPONENTS_2
100
AcDbLine
 62
7
  6
BYLAYER
 10
40.7774954971
 20
28.7327258065
 11
41.8080619269
 21
28.7327258065
  0
LINE
  5
298
100
AcDbEntity
  8
00_COMPONENTS_2
100
AcDbLine
 62
7
  6
BYLAYER
 10
41.8844596169
 20
28.7327258065
 11
42.8692207778
 21
28.7327258065
  0
LINE
  5
299
100
AcDbEntity
  8
00_COMPONENTS_2
100
AcDbLine
 62
7
  6
BYLAYER
 10
42.9418615572
 20
28.7327258065
 11
43.8733228221
 21
28.7327258065
  0
LINE
  5
29A
100
AcDbEntity
  8
00_COMPONENTS_2
100
AcDbLine
 62
7
  6
BYLAYER
 10
43.9416538507
 20
28.7327258065
 11
44.812726237
 21
28.7327258065
  0
LINE
  5
29B
100
AcDbEntity
  8
00_COMPONENTS_2
100
AcDbLine
 62
7
  6
BYLAYER
 10
44.8762274744
 20
28.7327258065
 11
45.6802815952
 21
28.7327258065
  0
LINE
  5
29C
100
AcDbEntity
  8
00_COMPONENTS_2
100
AcDbLine
 62
7
  6
BYLAYER
 10
45.7384697586
 20
28.7327258065
 11
46.4693862767
 21
28.7327258065
  0
LINE
  5
29D
100
AcDbEntity
  8
00_COMPONENTS_2
100
AcDbLine
 62
7
  6
BYLAYER
 10
46.521818519
 20
28.7327258065
 11
47.1740347183
 21
28.7327258065
  0
LINE
  5
29E
100
AcDbEntity
  8
00_COMPONENTS_2
100
AcDbLine
 62
7
  6
BYLAYER
 10
47.2203119985
 20
28.7327258065
 11
47.7888641198
 21
28.7327258065
  0
LINE
  5
29F
100
AcDbEntity
  8
00_COMPONENTS_2
100
AcDbLine
 62
7
  6
BYLAYER
 10
47.82863424
 20
28.7327258065
 11
48.3091952585
 21
28.7327258065
  0
LINE
  5
2A0
100
AcDbEntity
  8
00_COMPONENTS_2
100
AcDbLine
 62
7
  6
BYLAYER
 10
48.3421555439
 20
28.7327258065
 11
48.7310680999
 21
28.7327258065
  0
LINE
  5
2A1
100
AcDbEntity
  8
00_COMPONENTS_2
100
AcDbLine
 62
7
  6
BYLAYER
 10
48.756967703
 20
28.7327258065
 11
49.0512719372
 21
28.7327258065
  0
LINE
  5
2A2
100
AcDbEntity
  8
00_COMPONENTS_2
100
AcDbLine
 62
7
  6
BYLAYER
 10
49.0699137462
 20
28.7327258065
 11
49.2673698258
 21
28.7327258065
  0
LINE
  5
2A3
100
AcDbEntity
  8
00_COMPONENTS_2
100
AcDbLine
 62
7
  6
BYLAYER
 10
49.2786119654
 20
28.7327258065
 11
49.3777171302
 21
28.7327258065
  0
LINE
  5
2A4
100
AcDbEntity
  8
00_COMPONENTS_2
100
AcDbLine
 62
7
  6
BYLAYER
 10
49.3814740408
 20
28.7327258065
 11
49.3930061688
 21
28.7327258065
  0
LINE
  5
2A5
100
AcDbEntity
  8
00_COMPONENTS_4
100
AcDbLine
 62
7
  6
BYLAYER
 10
19.6262150575
 20
29.4439258065
 11
51.1181976502
 21
29.4439258065
  0
LINE
  5
2A6
100
AcDbEntity
  8
00_COMPONENTS_4
100
AcDbLine
 62
7
  6
BYLAYER
 10
19.3722063499
 20
29.6979258065
 11
51.3722063579
 21
29.6979258065
  0
LINE
  5
2A7
100
AcDbEntity
  8
00_COMPONENTS_2
100
AcDbLine
 62
7
  6
BYLAYER
 10
48.0722063539
 20
9.0477258065
 11
48.3262063539
 21
8.7937258065
  0
LINE
  5
2A8
100
AcDbEntity
  8
00_COMPONENTS_2
100
AcDbLine
 62
7
  6
BYLAYER
 10
22.5914602437
 20
25.0619864229
 11
22.6007413944
 21
25.0388069992
  0
LINE
  5
2A9
100
AcDbEntity
  8
0
100
AcDbLine
 62
7
  6
BYLAYER
 10
14.9346063539
 20
95.8395258065
 11
14.9346063539
 21
80.8550743567
  0
LINE
  5
2AA
100
AcDbEntity
  8
0
100
AcDbLine
 62
7
  6
BYLAYER
 10
14.9346063539
 20
78.7504223467
 11
14.9346063539
 21
71.2015258065
  0
LINE
  5
2AB
100
AcDbEntity
  8
0
100
AcDbLine
 62
7
  6
BYLAYER
 10
15.0776063539
 20
61.3590258065
 11
15.0776063539
 21
63.7593258065
  0
LINE
  5
2AC
100
AcDbEntity
  8
00_COMPONENTS_4
100
AcDbLine
 62
7
  6
BYLAYER
 10
15.5284563539
 20
51.8975258065
 11
15.5284563539
 21
53.4215258065
  0
LINE
  5
2AD
100
AcDbEntity
  8
0
100
AcDbLine
 62
7
  6
BYLAYER
 10
15.5284563539
 20
59.7715258065
 11
15.5284563539
 21
61.3590258065
  0
LINE
  5
2AE
100
AcDbEntity
  8
00_COMPONENTS_4
100
AcDbLine
 62
7
  6
BYLAYER
 10
16.9572063539
 20
50.6275258065
 11
16.9572063539
 21
51.8975258065
  0
LINE
  5
2AF
100
AcDbEntity
  8
00_COMPONENTS_4
100
AcDbLine
 62
7
  6
BYLAYER
 10
17.9097063539
 20
44.3343921035
 11
17.9097063539
 21
50.6275258065
  0
LINE
  5
2B0
100
AcDbEntity
  8
00_COMPONENTS_2
100
AcDbLine
 62
7
  6
BYLAYER
 10
52.0409563539
 20
9.0477258065
 11
52.2949563539
 21
8.7937258065
  0
LINE
  5
2B1
100
AcDbEntity
  8
00_COMPONENTS_2
100
AcDbLine
 62
7
  6
BYLAYER
 10
23.0520236083
 20
25.0619864229
 11
23.0579976572
 21
25.0421370828
  0
LINE
  5
2B2
100
AcDbEntity
  8
00_COMPONENTS_2
100
AcDbLine
 62
7
  6
BYLAYER
 10
23.6063510026
 20
25.0619864229
 11
23.6097263902
 21
25.0461509239
  0
LINE
  5
2B3
100
AcDbEntity
  8
00_COMPONENTS_2
100
AcDbLine
 62
7
  6
BYLAYER
 10
23.4933951443
 20
25.3755509275
 11
23.4847403042
 21
25.4174218
  0
LINE
  5
2B4
100
AcDbEntity
  8
00_COMPONENTS_4
100
AcDbLine
 62
7
  6
BYLAYER
 10
19.3722063499
 20
29.6979258065
 11
19.3722063499
 21
43.0355202045
  0
LINE
  5
2B5
100
AcDbEntity
  8
0
100
AcDbLine
 62
7
  6
BYLAYER
 10
20.3862063539
 20
53.4215258065
 11
20.3862063539
 21
59.7715258065
  0
LINE
  5
2B6
100
AcDbEntity
  8
00_COMPONENTS_2
100
AcDbLine
 62
7
  6
BYLAYER
 10
21.3514063539
 20
29.4439258065
 11
21.3514063539
 21
28.7327258065
  0
LINE
  5
2B7
100
AcDbEntity
  8
00_COMPONENTS_2
100
AcDbLine
 62
7
  6
BYLAYER
 10
21.3627297482
 20
28.7327258065
 11
21.3627297482
 21
25.455920671
  0
LINE
  5
2B8
100
AcDbEntity
  8
00_COMPONENTS_2
100
AcDbLine
 62
7
  6
BYLAYER
 10
21.3666955775
 20
28.7327258065
 11
21.3666955775
 21
25.4561258064
  0
LINE
  5
2B9
100
AcDbEntity
  8
00_COMPONENTS_2
100
AcDbLine
 62
7
  6
BYLAYER
 10
21.457150546
 20
28.7327258065
 11
21.457150546
 21
25.3755509275
  0
LINE
  5
2BA
100
AcDbEntity
  8
00_COMPONENTS_2
100
AcDbLine
 62
7
  6
BYLAYER
 10
21.4637283803
 20
28.7327258065
 11
21.4637283803
 21
25.4540908394
  0
LINE
  5
2BB
100
AcDbEntity
  8
00_COMPONENTS_2
100
AcDbLine
 62
7
  6
BYLAYER
 10
21.4658007424
 20
25.4561258064
 11
21.4658007424
 21
28.7327258065
  0
LINE
  5
2BC
100
AcDbEntity
  8
00_COMPONENTS_2
100
AcDbLine
 62
7
  6
BYLAYER
 10
21.4770428819
 20
28.7327258065
 11
21.4770428819
 21
25.4561258064
  0
LINE
  5
2BD
100
AcDbEntity
  8
00_COMPONENTS_2
100
AcDbLine
 62
7
  6
BYLAYER
 10
21.583078443
 20
28.7327258065
 11
21.583078443
 21
25.3755509275
  0
LINE
  5
2BE
100
AcDbEntity
  8
0
100
AcDbLine
 62
7
  6
BYLAYER
 10
48.4004249008
 20
76.7115802686
 11
48.4795090918
 21
76.7367829228
  0
LINE
  5
2BF
100
AcDbEntity
  8
00_COMPONENTS_4
100
AcDbLine
 62
7
  6
BYLAYER
 10
18.9785063499
 20
43.7174286074
 11
17.9097063539
 21
44.3345005728
  0
LINE
  5
2C0
100
AcDbEntity
  8
00_COMPONENTS_2
100
AcDbLine
 62
7
  6
BYLAYER
 10
56.0097063539
 20
9.0477258065
 11
56.2637063539
 21
8.7937258065
  0
LINE
  5
2C1
100
AcDbEntity
  8
00_COMPONENTS_2
100
AcDbLine
 62
7
  6
BYLAYER
 10
24.2502236606
 20
25.0619864229
 11
24.2517286045
 21
25.0508283097
  0
LINE
  5
2C2
100
AcDbEntity
  8
00_COMPONENTS_2
100
AcDbLine
 62
7
  6
BYLAYER
 10
24.1744387471
 20
25.3755509275
 11
24.1705799163
 21
25.4049638873
  0
LINE
  5
2C3
100
AcDbEntity
  8
00_COMPONENTS_2
100
AcDbLine
 62
7
  6
BYLAYER
 10
24.9787413225
 20
25.0619864229
 11
24.9791182757
 21
25.0561211321
  0
LINE
  5
2C4
100
AcDbEntity
  8
00_COMPONENTS_2
100
AcDbLine
 62
7
  6
BYLAYER
 10
24.9407041227
 20
25.3755509276
 11
24.9397375761
 21
25.3909566821
  0
LINE
  5
2C5
100
AcDbEntity
  8
00_COMPONENTS_2
100
AcDbLine
 62
7
  6
BYLAYER
 10
21.6686458345
 20
28.7327258065
 11
21.6686458345
 21
25.4503775361
  0
LINE
  5
2C6
100
AcDbEntity
  8
00_COMPONENTS_2
100
AcDbLine
 62
7
  6
BYLAYER
 10
21.6744989615
 20
25.4561258064
 11
21.6744989615
 21
28.7327258065
  0
LINE
  5
2C7
100
AcDbEntity
  8
00_COMPONENTS_2
100
AcDbLine
 62
7
  6
BYLAYER
 10
21.6931407705
 20
28.7327258065
 11
21.6931407705
 21
25.4561258064
  0
LINE
  5
2C8
100
AcDbEntity
  8
00_COMPONENTS_2
100
AcDbLine
 62
7
  6
BYLAYER
 10
21.7914737312
 20
25.0619864229
 11
21.7914737312
 21
25.0755366325
  0
LINE
  5
2C9
100
AcDbEntity
  8
00_COMPONENTS_2
100
AcDbLine
 62
7
  6
BYLAYER
 10
21.8139499296
 20
28.7327258065
 11
21.8139499296
 21
25.3755509275
  0
LINE
  5
2CA
100
AcDbEntity
  8
00_COMPONENTS_2
100
AcDbLine
 62
7
  6
BYLAYER
 10
21.9405792684
 20
25.0619864229
 11
21.9405792684
 21
25.0922413722
  0
LINE
  5
2CB
100
AcDbEntity
  8
00_COMPONENTS_2
100
AcDbLine
 62
7
  6
BYLAYER
 10
21.9759225654
 20
28.7327258065
 11
21.9759225654
 21
25.4561258064
  0
LINE
  5
2CC
100
AcDbEntity
  8
00_COMPONENTS_2
100
AcDbLine
 62
7
  6
BYLAYER
 10
21.9874450047
 20
25.4561258064
 11
21.9874450047
 21
28.7327258065
  0
LINE
  5
2CD
100
AcDbEntity
  8
00_COMPONENTS_2
100
AcDbLine
 62
7
  6
BYLAYER
 10
22.0133446078
 20
28.7327258065
 11
22.0133446078
 21
25.4561258064
  0
LINE
  5
2CE
100
AcDbEntity
  8
00_COMPONENTS_2
100
AcDbLine
 62
7
  6
BYLAYER
 10
22.1480079343
 20
28.7327258065
 11
22.1480079343
 21
25.3755509275
  0
LINE
  5
2CF
100
AcDbEntity
  8
00_COMPONENTS_2
100
AcDbLine
 62
7
  6
BYLAYER
 10
22.1919075979
 20
25.0619864229
 11
22.1919075979
 21
25.1137165717
  0
LINE
  5
2D0
100
AcDbEntity
  8
00_COMPONENTS_2
100
AcDbLine
 62
7
  6
BYLAYER
 10
22.3832200115
 20
28.7327258065
 11
22.3832200115
 21
25.4561258064
  0
LINE
  5
2D1
100
AcDbEntity
  8
00_COMPONENTS_2
100
AcDbLine
 62
7
  6
BYLAYER
 10
22.4022571638
 20
25.4561258064
 11
22.4022571638
 21
28.7327258065
  0
LINE
  5
2D2
100
AcDbEntity
  8
00_COMPONENTS_2
100
AcDbLine
 62
7
  6
BYLAYER
 10
22.4352174493
 20
28.7327258065
 11
22.4352174493
 21
25.4561258064
  0
LINE
  5
2D3
100
AcDbEntity
  8
00_COMPONENTS_2
100
AcDbLine
 62
7
  6
BYLAYER
 10
22.5435459594
 20
25.0619864229
 11
22.5435459594
 21
25.1428626581
  0
LINE
  5
2D4
100
AcDbEntity
  8
00_COMPONENTS_2
100
AcDbLine
 62
7
  6
BYLAYER
 10
22.5827100739
 20
28.7327258065
 11
22.5827100739
 21
25.3755509275
  0
LINE
  5
2D5
100
AcDbEntity
  8
00_COMPONENTS_2
100
AcDbLine
 62
7
  6
BYLAYER
 10
22.8874383932
 20
28.7327258065
 11
22.8874383932
 21
25.4561258064
  0
LINE
  5
2D6
100
AcDbEntity
  8
00_COMPONENTS_2
100
AcDbLine
 62
7
  6
BYLAYER
 10
22.9157784677
 20
25.4561258064
 11
22.9157784677
 21
28.7327258065
  0
LINE
  5
2D7
100
AcDbEntity
  8
00_COMPONENTS_2
100
AcDbLine
 62
7
  6
BYLAYER
 10
22.9555485879
 20
28.7327258065
 11
22.9555485879
 21
25.4561258064
  0
LINE
  5
2D8
100
AcDbEntity
  8
00_COMPONENTS_2
100
AcDbLine
 62
7
  6
BYLAYER
 10
22.9928181726
 20
25.0619864229
 11
22.9928181726
 21
25.1856154823
  0
LINE
  5
2D9
100
AcDbEntity
  8
00_COMPONENTS_2
100
AcDbLine
 62
7
  6
BYLAYER
 10
23.1147480027
 20
28.7327258065
 11
23.1147480027
 21
25.3755509275
  0
LINE
  5
2DA
100
AcDbEntity
  8
00_COMPONENTS_2
100
AcDbLine
 62
7
  6
BYLAYER
 10
23.4847403042
 20
28.7327258065
 11
23.4847403042
 21
25.4174250406
  0
LINE
  5
2DB
100
AcDbEntity
  8
00_COMPONENTS_2
100
AcDbLine
 62
7
  6
BYLAYER
 10
23.5241007092
 20
25.4561258064
 11
23.5241007092
 21
28.7327258065
  0
LINE
  5
2DC
100
AcDbEntity
  8
00_COMPONENTS_2
100
AcDbLine
 62
7
  6
BYLAYER
 10
23.5363050048
 20
25.0619864229
 11
23.5363050048
 21
25.2556913084
  0
LINE
  5
2DD
100
AcDbEntity
  8
00_COMPONENTS_2
100
AcDbLine
 62
7
  6
BYLAYER
 10
23.5703779895
 20
28.7327258065
 11
23.5703779895
 21
25.4561258064
  0
LINE
  5
2DE
100
AcDbEntity
  8
00_COMPONENTS_2
100
AcDbLine
 62
7
  6
BYLAYER
 10
23.7400725908
 20
28.7327258065
 11
23.7400725908
 21
25.3755509275
  0
LINE
  5
2DF
100
AcDbEntity
  8
00_COMPONENTS_2
100
AcDbLine
 62
7
  6
BYLAYER
 10
24.169870193
 20
25.0619864229
 11
24.169870193
 21
25.3755509275
  0
LINE
  5
2E0
100
AcDbEntity
  8
00_COMPONENTS_2
100
AcDbLine
 62
7
  6
BYLAYER
 10
24.1705799163
 20
28.7327258065
 11
24.1705799163
 21
25.4049604642
  0
LINE
  5
2E1
100
AcDbEntity
  8
00_COMPONENTS_2
100
AcDbLine
 62
7
  6
BYLAYER
 10
24.2225941887
 20
25.4561258064
 11
24.2225941887
 21
28.7327258065
  0
LINE
  5
2E2
100
AcDbEntity
  8
00_COMPONENTS_2
100
AcDbLine
 62
7
  6
BYLAYER
 10
24.2750264311
 20
28.7327258065
 11
24.2750264311
 21
25.4561258064
  0
LINE
  5
2E3
100
AcDbEntity
  8
00_COMPONENTS_2
100
AcDbLine
 62
7
  6
BYLAYER
 10
24.4539247406
 20
28.7327258065
 11
24.4539247406
 21
25.3755509276
  0
LINE
  5
2E4
100
AcDbEntity
  8
00_COMPONENTS_2
100
AcDbLine
 62
7
  6
BYLAYER
 10
24.8886919236
 20
25.0619864229
 11
24.8886919236
 21
28.7327258065
  0
LINE
  5
2E5
100
AcDbEntity
  8
00_COMPONENTS_2
100
AcDbLine
 62
7
  6
BYLAYER
 10
24.939737576
 20
28.7327258065
 11
24.939737576
 21
25.3909684065
  0
LINE
  5
2E6
100
AcDbEntity
  8
00_COMPONENTS_2
100
AcDbLine
 62
7
  6
BYLAYER
 10
25.0059429491
 20
25.4561258064
 11
25.0059429491
 21
28.7327258065
  0
LINE
  5
2E7
100
AcDbEntity
  8
0
100
AcDbLine
 62
7
  6
BYLAYER
 10
51.3639094208
 20
89.7688726686
 11
46.8850086258
 21
85.2899718736
  0
LINE
  5
2E8
100
AcDbEntity
  8
0
100
AcDbLine
 62
7
  6
BYLAYER
 10
44.0000994015
 20
79.4954596661
 11
42.1142456161
 21
77.6096058807
  0
LINE
  5
2E9
100
AcDbEntity
  8
0
100
AcDbLine
 62
7
  6
BYLAYER
 10
42.2220086895
 20
77.5018428072
 11
44.1078624749
 21
79.3876965927
  0
LINE
  5
2EA
100
AcDbEntity
  8
0
100
AcDbLine
 62
7
  6
BYLAYER
 10
44.556875281
 20
78.9386837866
 11
42.6710214956
 21
77.0528300012
  0
LINE
  5
2EB
100
AcDbEntity
  8
00_COMPONENTS_2
100
AcDbLine
 62
7
  6
BYLAYER
 10
59.9784563539
 20
9.0477258065
 11
60.2324563539
 21
8.7937258065
  0
LINE
  5
2EC
100
AcDbEntity
  8
00_COMPONENTS_2
100
AcDbLine
 62
7
  6
BYLAYER
 10
25.0641311125
 20
28.7327258065
 11
25.0641311125
 21
25.4561258064
  0
LINE
  5
2ED
100
AcDbEntity
  8
00_COMPONENTS_2
100
AcDbLine
 62
7
  6
BYLAYER
 10
25.250871606
 20
28.7327258065
 11
25.250871606
 21
25.3755509276
  0
LINE
  5
2EE
100
AcDbEntity
  8
00_COMPONENTS_2
100
AcDbLine
 62
7
  6
BYLAYER
 10
25.687299529
 20
25.0619864229
 11
25.687299529
 21
28.7327258065
  0
LINE
  5
2EF
100
AcDbEntity
  8
00_COMPONENTS_2
100
AcDbLine
 62
7
  6
BYLAYER
 10
25.786359529
 20
25.0619864229
 11
25.786359529
 21
28.7327258065
  0
LINE
  5
2F0
100
AcDbEntity
  8
00_COMPONENTS_2
100
AcDbLine
 62
7
  6
BYLAYER
 10
25.8681852334
 20
25.4561258064
 11
25.8681852334
 21
28.7327258065
  0
LINE
  5
2F1
100
AcDbEntity
  8
00_COMPONENTS_2
100
AcDbLine
 62
7
  6
BYLAYER
 10
25.9316864708
 20
28.7327258065
 11
25.9316864708
 21
25.4561258064
  0
LINE
  5
2F2
100
AcDbEntity
  8
00_COMPONENTS_2
100
AcDbLine
 62
7
  6
BYLAYER
 10
26.1248479403
 20
28.7327258065
 11
26.1248479403
 21
25.3755509276
  0
LINE
  5
2F3
100
AcDbEntity
  8
00_COMPONENTS_2
100
AcDbLine
 62
7
  6
BYLAYER
 10
26.5596151233
 20
25.0619864229
 11
26.5596151233
 21
28.7327258065
  0
LINE
  5
2F4
100
AcDbEntity
  8
00_COMPONENTS_2
100
AcDbLine
 62
7
  6
BYLAYER
 10
26.666931818
 20
28.7327258065
 11
26.666931818
 21
25.0619864229
  0
LINE
  5
2F5
100
AcDbEntity
  8
00_COMPONENTS_2
100
AcDbLine
 62
7
  6
BYLAYER
 10
26.7049690178
 20
25.3755509276
 11
26.7049690178
 21
28.7327258065
  0
LINE
  5
2F6
100
AcDbEntity
  8
00_COMPONENTS_2
100
AcDbLine
 62
7
  6
BYLAYER
 10
26.802758857
 20
25.4561258064
 11
26.802758857
 21
28.7327258065
  0
LINE
  5
2F7
100
AcDbEntity
  8
00_COMPONENTS_2
100
AcDbLine
 62
7
  6
BYLAYER
 10
26.8710898856
 20
28.7327258065
 11
26.8710898856
 21
25.4561258064
  0
LINE
  5
2F8
100
AcDbEntity
  8
00_COMPONENTS_2
100
AcDbLine
 62
7
  6
BYLAYER
 10
27.0692022559
 20
28.7327258065
 11
27.0692022559
 21
25.3755509276
  0
LINE
  5
2F9
100
AcDbEntity
  8
00_COMPONENTS_2
100
AcDbLine
 62
7
  6
BYLAYER
 10
27.4989998581
 20
25.0619864229
 11
27.4989998581
 21
28.7327258065
  0
LINE
  5
2FA
100
AcDbEntity
  8
00_COMPONENTS_2
100
AcDbLine
 62
7
  6
BYLAYER
 10
27.6137565026
 20
28.7327258065
 11
27.6137565026
 21
25.0619864229
  0
LINE
  5
2FB
100
AcDbEntity
  8
00_COMPONENTS_2
100
AcDbLine
 62
7
  6
BYLAYER
 10
27.6895414161
 20
25.3755509276
 11
27.6895414161
 21
28.7327258065
  0
LINE
  5
2FC
100
AcDbEntity
  8
00_COMPONENTS_2
100
AcDbLine
 62
7
  6
BYLAYER
 10
27.8025511505
 20
25.4561258064
 11
27.8025511505
 21
28.7327258065
  0
LINE
  5
2FD
100
AcDbEntity
  8
00_COMPONENTS_2
100
AcDbLine
 62
7
  6
BYLAYER
 10
27.87519193
 20
28.7327258065
 11
27.87519193
 21
25.4561258064
  0
LINE
  5
2FE
100
AcDbEntity
  8
00_COMPONENTS_2
100
AcDbLine
 62
7
  6
BYLAYER
 10
28.0767474461
 20
28.7327258065
 11
28.0767474461
 21
25.3755509276
  0
LINE
  5
2FF
100
AcDbEntity
  8
00_COMPONENTS_4
100
AcDbLine
 62
7
  6
BYLAYER
 10
28.1390020209
 20
50.6275258065
 11
28.1390020209
 21
45.1651770122
  0
LINE
  5
300
100
AcDbEntity
  8
0
100
AcDbLine
 62
7
  6
BYLAYER
 10
45.0867103921
 20
78.4088486755
 11
50.5287456015
 21
83.8508838848
  0
LINE
  5
301
100
AcDbEntity
  8
0
100
AcDbLine
 62
7
  6
BYLAYER
 10
45.4728614053
 20
78.7411181519
 11
45.2932562829
 21
78.5615130295
  0
LINE
  5
302
100
AcDbEntity
  8
0
100
AcDbLine
 62
7
  6
BYLAYER
 10
44.7544409156
 20
78.0226976622
 11
43.2277973751
 21
76.4960541217
  0
LINE
  5
303
100
AcDbEntity
  8
0
100
AcDbLine
 62
7
  6
BYLAYER
 10
47.4788655769
 20
80.6505056492
 11
48.1254440176
 21
81.2970840899
  0
LINE
  5
304
100
AcDbEntity
  8
0
100
AcDbLine
 62
7
  6
BYLAYER
 10
48.7476144122
 20
80.6749136953
 11
48.1010359715
 21
80.0283352545
  0
LINE
  5
305
100
AcDbEntity
  8
00_COMPONENTS_4
100
AcDbLine
 62
7
  6
BYLAYER
 10
51.3722063579
 20
43.0355202045
 11
19.3722063499
 21
43.0355202045
  0
LINE
  5
306
100
AcDbEntity
  8
00_COMPONENTS_2
100
AcDbLine
 62
7
  6
BYLAYER
 10
49.3814740408
 20
25.4561258064
 11
49.3816829596
 21
25.4559306343
  0
LINE
  5
307
100
AcDbEntity
  8
00_COMPONENTS_2
100
AcDbLine
 62
7
  6
BYLAYER
 10
49.0699137462
 20
25.4561258064
 11
49.0757668732
 21
25.4503815192
  0
LINE
  5
308
100
AcDbEntity
  8
00_COMPONENTS_2
100
AcDbLine
 62
7
  6
BYLAYER
 10
49.2786119654
 20
25.4561258064
 11
49.2806843275
 21
25.4540905853
  0
LINE
  5
309
100
AcDbEntity
  8
00_COMPONENTS_2
100
AcDbLine
 62
7
  6
BYLAYER
 10
28.4983044483
 20
25.0619864229
 11
28.4983044483
 21
28.7327258065
  0
LINE
  5
30A
100
AcDbEntity
  8
00_COMPONENTS_2
100
AcDbLine
 62
7
  6
BYLAYER
 10
28.6196276752
 20
28.7327258065
 11
28.6196276752
 21
25.0619864229
  0
LINE
  5
30B
100
AcDbEntity
  8
00_COMPONENTS_2
100
AcDbLine
 62
7
  6
BYLAYER
 10
28.7325835335
 20
25.3755509276
 11
28.7325835335
 21
28.7327258065
  0
LINE
  5
30C
100
AcDbEntity
  8
00_COMPONENTS_2
100
AcDbLine
 62
7
  6
BYLAYER
 10
28.8599530908
 20
25.4561258065
 11
28.8599530908
 21
28.7327258065
  0
LINE
  5
30D
100
AcDbEntity
  8
00_COMPONENTS_2
100
AcDbLine
 62
7
  6
BYLAYER
 10
28.9363507809
 20
28.7327258065
 11
28.9363507809
 21
25.4561258065
  0
LINE
  5
30E
100
AcDbEntity
  8
00_COMPONENTS_2
100
AcDbLine
 62
7
  6
BYLAYER
 10
29.1398154837
 20
28.7327258065
 11
29.1398154837
 21
25.3755509276
  0
LINE
  5
30F
100
AcDbEntity
  8
0
100
AcDbLine
 62
7
  6
BYLAYER
 10
29.5087661316
 20
68.7207924731
 11
29.5087661316
 21
63.7593258065
  0
LINE
  5
310
100
AcDbEntity
  8
00_COMPONENTS_2
100
AcDbLine
 62
7
  6
BYLAYER
 10
29.5499235825
 20
25.0619864229
 11
29.5499235825
 21
28.7327258065
  0
LINE
  5
311
100
AcDbEntity
  8
00_COMPONENTS_2
100
AcDbLine
 62
7
  6
BYLAYER
 10
29.6768900489
 20
28.7327258065
 11
29.6768900489
 21
25.0619864229
  0
LINE
  5
312
100
AcDbEntity
  8
00_COMPONENTS_4
100
AcDbLine
 62
7
  6
BYLAYER
 10
29.8159563539
 20
53.4215258065
 11
29.8159563539
 21
51.8975258065
  0
LINE
  5
313
100
AcDbEntity
  8
00_COMPONENTS_2
100
AcDbLine
 62
7
  6
BYLAYER
 10
29.8261571897
 20
25.3755509276
 11
29.8261571897
 21
28.7327258065
  0
LINE
  5
314
100
AcDbEntity
  8
00_COMPONENTS_2
100
AcDbLine
 62
7
  6
BYLAYER
 10
29.9669172106
 20
25.4561258065
 11
29.9669172106
 21
28.7327258065
  0
LINE
  5
315
100
AcDbEntity
  8
00_COMPONENTS_2
100
AcDbLine
 62
7
  6
BYLAYER
 10
30.0464903788
 20
28.7327258065
 11
30.0464903788
 21
25.4561258065
  0
LINE
  5
316
100
AcDbEntity
  8
00_COMPONENTS_2
100
AcDbLine
 62
7
  6
BYLAYER
 10
30.2503157791
 20
28.7327258065
 11
30.2503157791
 21
25.3755509276
  0
LINE
  5
317
100
AcDbEntity
  8
00_COMPONENTS_2
100
AcDbLine
 62
7
  6
BYLAYER
 10
30.6458538042
 20
25.0619864229
 11
30.6458538042
 21
28.7327258065
  0
LINE
  5
318
100
AcDbEntity
  8
00_COMPONENTS_2
100
AcDbLine
 62
7
  6
BYLAYER
 10
30.7774972186
 20
28.7327258065
 11
30.7774972186
 21
25.0619864229
  0
LINE
  5
319
100
AcDbEntity
  8
00_COMPONENTS_2
100
AcDbLine
 62
7
  6
BYLAYER
 10
30.9619396288
 20
25.3755509276
 11
30.9619396288
 21
28.7327258065
  0
LINE
  5
31A
100
AcDbEntity
  8
00_COMPONENTS_2
100
AcDbLine
 62
7
  6
BYLAYER
 10
31.1150188446
 20
25.4561258065
 11
31.1150188446
 21
28.7327258065
  0
LINE
  5
31B
100
AcDbEntity
  8
00_COMPONENTS_2
100
AcDbLine
 62
7
  6
BYLAYER
 10
31.197161891
 20
28.7327258065
 11
31.197161891
 21
25.4561258065
  0
LINE
  5
31C
100
AcDbEntity
  8
00_COMPONENTS_2
100
AcDbLine
 62
7
  6
BYLAYER
 10
31.3997967544
 20
28.7327258065
 11
31.3997967544
 21
25.3755509276
  0
LINE
  5
31D
100
AcDbEntity
  8
00_COMPONENTS_2
100
AcDbLine
 62
7
  6
BYLAYER
 10
31.7777544227
 20
25.0619864229
 11
31.7777544227
 21
28.7327258065
  0
LINE
  5
31E
100
AcDbEntity
  8
0
100
AcDbLine
 62
7
  6
BYLAYER
 10
31.8891063539
 20
95.8395258065
 11
31.8891063539
 21
97.6429258065
  0
LINE
  5
31F
100
AcDbEntity
  8
0
100
AcDbLine
 62
7
  6
BYLAYER
 10
45.7063480645
 20
74.0175034323
 11
47.2329916051
 21
75.5441469728
  0
LINE
  5
320
100
AcDbEntity
  8
0
100
AcDbLine
 62
7
  6
BYLAYER
 10
47.7718069723
 20
76.0829623401
 11
47.9514120947
 21
76.2625674625
  0
LINE
  5
321
100
AcDbEntity
  8
0
100
AcDbLine
 62
7
  6
BYLAYER
 10
47.6191426183
 20
75.8764164493
 11
53.0611778276
 21
81.3184516587
  0
LINE
  5
322
100
AcDbEntity
  8
0
100
AcDbLine
 62
7
  6
BYLAYER
 10
46.263123944
 20
73.4607275528
 11
48.1489777294
 21
75.3465813382
  0
LINE
  5
323
100
AcDbEntity
  8
0
100
AcDbLine
 62
7
  6
BYLAYER
 10
48.5979905355
 20
74.8975685321
 11
46.71213675
 21
73.0117147467
  0
LINE
  5
324
100
AcDbEntity
  8
0
100
AcDbLine
 62
7
  6
BYLAYER
 10
46.8198998235
 20
72.9039516732
 11
48.7057536089
 21
74.7898054587
  0
LINE
  5
325
100
AcDbEntity
  8
00_COMPONENTS_4
100
AcDbLine
 62
7
  6
BYLAYER
 10
18.9785063499
 20
43.7174286074
 11
51.7659063579
 21
43.7174286074
  0
LINE
  5
326
100
AcDbEntity
  8
00_COMPONENTS_2
100
AcDbLine
 62
7
  6
BYLAYER
 10
31.9130728992
 20
28.7327258065
 11
31.9130728992
 21
25.0619864229
  0
LINE
  5
327
100
AcDbEntity
  8
00_COMPONENTS_2
100
AcDbLine
 62
7
  6
BYLAYER
 10
32.1312868607
 20
25.3755509276
 11
32.1312868607
 21
28.7327258065
  0
LINE
  5
328
100
AcDbEntity
  8
00_COMPONENTS_2
100
AcDbLine
 62
7
  6
BYLAYER
 10
32.2955202461
 20
25.4561258065
 11
32.2955202461
 21
28.7327258065
  0
LINE
  5
329
100
AcDbEntity
  8
00_COMPONENTS_4
100
AcDbLine
 62
7
  6
BYLAYER
 10
32.3031126766
 20
51.8975258065
 11
32.3031126766
 21
50.6275258065
  0
LINE
  5
32A
100
AcDbEntity
  8
00_COMPONENTS_2
100
AcDbLine
 62
7
  6
BYLAYER
 10
32.3796080125
 20
28.7327258065
 11
32.3796080125
 21
25.4561258065
  0
LINE
  5
32B
100
AcDbEntity
  8
00_COMPONENTS_2
100
AcDbLine
 62
7
  6
BYLAYER
 10
32.5795101654
 20
28.7327258065
 11
32.5795101654
 21
25.3755509276
  0
LINE
  5
32C
100
AcDbEntity
  8
00_COMPONENTS_2
100
AcDbLine
 62
7
  6
BYLAYER
 10
32.9370109907
 20
25.0619864229
 11
32.9370109907
 21
28.7327258065
  0
LINE
  5
32D
100
AcDbEntity
  8
00_COMPONENTS_2
100
AcDbLine
 62
7
  6
BYLAYER
 10
33.074974674
 20
28.7327258065
 11
33.074974674
 21
25.0619864229
  0
LINE
  5
32E
100
AcDbEntity
  8
00_COMPONENTS_2
100
AcDbLine
 62
7
  6
BYLAYER
 10
33.3252994468
 20
25.3755509276
 11
33.3252994468
 21
28.7327258065
  0
LINE
  5
32F
100
AcDbEntity
  8
00_COMPONENTS_2
100
AcDbLine
 62
7
  6
BYLAYER
 10
33.4994370866
 20
25.4561258065
 11
33.4994370866
 21
28.7327258065
  0
LINE
  5
330
100
AcDbEntity
  8
00_COMPONENTS_2
100
AcDbLine
 62
7
  6
BYLAYER
 10
33.5848296144
 20
28.7327258065
 11
33.5848296144
 21
25.4561258065
  0
LINE
  5
331
100
AcDbEntity
  8
00_COMPONENTS_2
100
AcDbLine
 62
7
  6
BYLAYER
 10
33.7804776807
 20
28.7327258065
 11
33.7804776807
 21
25.3755509276
  0
LINE
  5
332
100
AcDbEntity
  8
00_COMPONENTS_2
100
AcDbLine
 62
7
  6
BYLAYER
 10
34.1148008659
 20
25.0619864229
 11
34.1148008659
 21
28.7327258065
  0
LINE
  5
333
100
AcDbEntity
  8
00_COMPONENTS_2
100
AcDbLine
 62
7
  6
BYLAYER
 10
34.2543597691
 20
28.7327258065
 11
34.2543597691
 21
25.0619864229
  0
LINE
  5
334
100
AcDbEntity
  8
00_COMPONENTS_2
100
AcDbLine
 62
7
  6
BYLAYER
 10
34.5348902305
 20
25.3755509276
 11
34.5348902305
 21
28.7327258065
  0
LINE
  5
335
100
AcDbEntity
  8
00_COMPONENTS_2
100
AcDbLine
 62
7
  6
BYLAYER
 10
34.7176068321
 20
25.4561258065
 11
34.7176068321
 21
28.7327258065
  0
LINE
  5
336
100
AcDbEntity
  8
00_COMPONENTS_2
100
AcDbLine
 62
7
  6
BYLAYER
 10
34.8036542326
 20
28.7327258065
 11
34.8036542326
 21
25.4561258065
  0
LINE
  5
337
100
AcDbEntity
  8
00_COMPONENTS_2
100
AcDbLine
 62
7
  6
BYLAYER
 10
34.9935592123
 20
28.7327258065
 11
34.9935592123
 21
25.3755509276
  0
LINE
  5
338
100
AcDbEntity
  8
00_COMPONENTS_2
100
AcDbLine
 62
7
  6
BYLAYER
 10
35.3021603561
 20
28.7327258065
 11
35.3021602758
 21
25.0619862937
  0
LINE
  5
339
100
AcDbEntity
  8
0
100
AcDbLine
 62
7
  6
BYLAYER
 10
55.6744323589
 20
79.1042483517
 11
47.897530558
 21
71.3273465508
  0
LINE
  5
33A
100
AcDbEntity
  8
0
100
AcDbLine
 62
7
  6
BYLAYER
 10
24.3333384963
 20
79.190130958
 11
24.3081358421
 21
79.269215149
  0
LINE
  5
33B
100
AcDbEntity
  8
00_COMPONENTS_4
100
AcDbLine
 62
7
  6
BYLAYER
 10
35.3722063539
 20
9.9773672611
 11
35.3722063539
 21
-19.9960741935
  0
LINE
  5
33C
100
AcDbEntity
  8
00_COMPONENTS_2
100
AcDbLine
 62
7
  6
BYLAYER
 10
35.4422523516
 20
28.7327258065
 11
35.4422522592
 21
25.0619862884
  0
LINE
  5
33D
100
AcDbEntity
  8
00_COMPONENTS_2
100
AcDbLine
 62
7
  6
BYLAYER
 10
35.7508534955
 20
25.3755509276
 11
35.7508534955
 21
28.7327258065
  0
LINE
  5
33E
100
AcDbEntity
  8
00_COMPONENTS_2
100
AcDbLine
 62
7
  6
BYLAYER
 10
35.9407584752
 20
25.4561258065
 11
35.9407584752
 21
28.7327258065
  0
LINE
  5
33F
100
AcDbEntity
  8
00_COMPONENTS_2
100
AcDbLine
 62
7
  6
BYLAYER
 10
36.0268058756
 20
28.7327258065
 11
36.0268058756
 21
25.4561258065
  0
LINE
  5
340
100
AcDbEntity
  8
00_COMPONENTS_2
100
AcDbLine
 62
7
  6
BYLAYER
 10
36.2095224772
 20
28.7327258065
 11
36.2095224772
 21
25.3755509276
  0
LINE
  5
341
100
AcDbEntity
  8
00_COMPONENTS_2
100
AcDbLine
 62
7
  6
BYLAYER
 10
36.4900529386
 20
28.7327258065
 11
36.4900528748
 21
25.0619862491
  0
LINE
  5
342
100
AcDbEntity
  8
00_COMPONENTS_2
100
AcDbLine
 62
7
  6
BYLAYER
 10
36.6296118418
 20
28.7327258065
 11
36.6296117365
 21
25.0619862439
  0
LINE
  5
343
100
AcDbEntity
  8
00_COMPONENTS_2
100
AcDbLine
 62
7
  6
BYLAYER
 10
36.963935027
 20
25.3755509276
 11
36.963935027
 21
28.7327258065
  0
LINE
  5
344
100
AcDbEntity
  8
00_COMPONENTS_2
100
AcDbLine
 62
7
  6
BYLAYER
 10
37.1595830933
 20
25.4561258065
 11
37.1595830933
 21
28.7327258065
  0
LINE
  5
345
100
AcDbEntity
  8
00_COMPONENTS_2
100
AcDbLine
 62
7
  6
BYLAYER
 10
37.2449756211
 20
28.7327258065
 11
37.2449756211
 21
25.4561258065
  0
LINE
  5
346
100
AcDbEntity
  8
00_COMPONENTS_2
100
AcDbLine
 62
7
  6
BYLAYER
 10
37.4191132609
 20
28.7327258065
 11
37.4191132609
 21
25.3755509276
  0
LINE
  5
347
100
AcDbEntity
  8
00_COMPONENTS_2
100
AcDbLine
 62
7
  6
BYLAYER
 10
37.6694380337
 20
28.7327258065
 11
37.6694379852
 21
25.061986206
  0
LINE
  5
348
100
AcDbEntity
  8
00_COMPONENTS_2
100
AcDbLine
 62
7
  6
BYLAYER
 10
37.807401717
 20
28.7327258065
 11
37.8074015998
 21
25.061986201
  0
LINE
  5
349
100
AcDbEntity
  8
00_COMPONENTS_2
100
AcDbLine
 62
7
  6
BYLAYER
 10
38.1649025423
 20
25.3755509276
 11
38.1649025423
 21
28.7327258065
  0
LINE
  5
34A
100
AcDbEntity
  8
00_COMPONENTS_2
100
AcDbLine
 62
7
  6
BYLAYER
 10
38.3648046952
 20
25.4561258065
 11
38.3648046952
 21
28.7327258065
  0
LINE
  5
34B
100
AcDbEntity
  8
0
100
AcDbLine
 62
7
  6
BYLAYER
 10
38.3661063539
 20
95.8395258065
 11
38.3661063539
 21
97.6429258065
  0
LINE
  5
34C
100
AcDbEntity
  8
00_COMPONENTS_4
100
AcDbLine
 62
7
  6
BYLAYER
 10
38.4413000312
 20
50.6275258065
 11
38.4413000312
 21
51.8975258065
  0
LINE
  5
34D
100
AcDbEntity
  8
00_COMPONENTS_2
100
AcDbLine
 62
7
  6
BYLAYER
 10
38.4488924616
 20
28.7327258065
 11
38.4488924616
 21
25.4561258065
  0
LINE
  5
34E
100
AcDbEntity
  8
00_COMPONENTS_2
100
AcDbLine
 62
7
  6
BYLAYER
 10
38.613125847
 20
28.7327258065
 11
38.613125847
 21
25.3755509276
  0
LINE
  5
34F
100
AcDbEntity
  8
0
100
AcDbLine
 62
7
  6
BYLAYER
 10
45.9470768657
 20
79.269215149
 11
45.9218742114
 21
79.190130958
  0
LINE
  5
350
100
AcDbEntity
  8
00_COMPONENTS_4
100
AcDbLine
 62
7
  6
BYLAYER
 10
16.9572063539
 20
50.6275258065
 11
54.0412021697
 21
50.6275258065
  0
LINE
  5
351
100
AcDbEntity
  8
00_COMPONENTS_4
100
AcDbLine
 62
7
  6
BYLAYER
 10
15.5286020495
 20
51.8975258065
 11
55.2158106582
 21
51.8975258065
  0
LINE
  5
352
100
AcDbEntity
  8
00_COMPONENTS_4
100
AcDbLine
 62
7
  6
BYLAYER
 10
15.5286020495
 20
53.4215258065
 11
55.2158106582
 21
53.4215258065
  0
LINE
  5
353
100
AcDbEntity
  8
00_COMPONENTS_2
100
AcDbLine
 62
7
  6
BYLAYER
 10
38.8313398085
 20
28.7327258065
 11
38.8313397739
 21
25.0619861647
  0
LINE
  5
354
100
AcDbEntity
  8
00_COMPONENTS_2
100
AcDbLine
 62
7
  6
BYLAYER
 10
38.966658285
 20
28.7327258065
 11
38.9666581576
 21
25.06198616
  0
LINE
  5
355
100
AcDbEntity
  8
00_COMPONENTS_2
100
AcDbLine
 62
7
  6
BYLAYER
 10
39.3446159533
 20
25.3755509276
 11
39.3446159533
 21
28.7327258065
  0
LINE
  5
356
100
AcDbEntity
  8
00_COMPONENTS_2
100
AcDbLine
 62
7
  6
BYLAYER
 10
39.5472508167
 20
25.4561258065
 11
39.5472508167
 21
28.7327258065
  0
LINE
  5
357
100
AcDbEntity
  8
00_COMPONENTS_2
100
AcDbLine
 62
7
  6
BYLAYER
 10
39.6293938631
 20
28.7327258065
 11
39.6293938631
 21
25.4561258065
  0
LINE
  5
358
100
AcDbEntity
  8
00_COMPONENTS_2
100
AcDbLine
 62
7
  6
BYLAYER
 10
39.7824730789
 20
28.7327258065
 11
39.7824730789
 21
25.3755509276
  0
LINE
  5
359
100
AcDbEntity
  8
00_COMPONENTS_2
100
AcDbLine
 62
7
  6
BYLAYER
 10
39.8807063539
 20
9.0224518618
 11
39.8807063539
 21
24.4325971841
  0
LINE
  5
35A
100
AcDbEntity
  8
00_COMPONENTS_2
100
AcDbLine
 62
7
  6
BYLAYER
 10
39.9669154891
 20
28.7327258065
 11
39.9669154664
 21
25.0619861257
  0
LINE
  5
35B
100
AcDbEntity
  8
00_COMPONENTS_2
100
AcDbLine
 62
7
  6
BYLAYER
 10
40.0985589035
 20
28.7327258065
 11
40.0985587675
 21
25.0619861212
  0
LINE
  5
35C
100
AcDbEntity
  8
00_COMPONENTS_2
100
AcDbLine
 62
7
  6
BYLAYER
 10
40.1347063539
 20
24.6687258065
 11
40.1347063539
 21
9.0477258065
  0
LINE
  5
35D
100
AcDbEntity
  8
00_COMPONENTS_2
100
AcDbLine
 62
7
  6
BYLAYER
 10
40.3887063539
 20
9.0224518618
 11
40.3887063539
 21
24.4325971841
  0
LINE
  5
35E
100
AcDbEntity
  8
00_COMPONENTS_2
100
AcDbLine
 62
7
  6
BYLAYER
 10
40.4940969286
 20
25.3755509276
 11
40.4940969286
 21
28.7327258065
  0
LINE
  5
35F
100
AcDbEntity
  8
00_COMPONENTS_2
100
AcDbLine
 62
7
  6
BYLAYER
 10
40.697922329
 20
25.4561258065
 11
40.697922329
 21
28.7327258065
  0
LINE
  5
360
100
AcDbEntity
  8
00_COMPONENTS_2
100
AcDbLine
 62
7
  6
BYLAYER
 10
40.7774954971
 20
28.7327258065
 11
40.7774954971
 21
25.4561258065
  0
LINE
  5
361
100
AcDbEntity
  8
00_COMPONENTS_2
100
AcDbLine
 62
7
  6
BYLAYER
 10
40.918255518
 20
28.7327258065
 11
40.918255518
 21
25.3755509276
  0
LINE
  5
362
100
AcDbEntity
  8
00_COMPONENTS_4
100
AcDbLine
 62
7
  6
BYLAYER
 10
40.9284563539
 20
51.8975258065
 11
40.9284563539
 21
53.4215258065
  0
LINE
  5
363
100
AcDbEntity
  8
00_COMPONENTS_2
100
AcDbLine
 62
7
  6
BYLAYER
 10
41.0675226458
 20
25.061986089
 11
41.0675226588
 21
28.7327258065
  0
LINE
  5
364
100
AcDbEntity
  8
00_COMPONENTS_2
100
AcDbLine
 62
7
  6
BYLAYER
 10
41.1944891252
 20
28.7327258065
 11
41.1944889828
 21
25.0619860849
  0
LINE
  5
365
100
AcDbEntity
  8
0
100
AcDbLine
 62
7
  6
BYLAYER
 10
41.2356465761
 20
63.7593258065
 11
41.2356465761
 21
68.7207924731
  0
LINE
  5
366
100
AcDbEntity
  8
00_COMPONENTS_2
100
AcDbLine
 62
7
  6
BYLAYER
 10
41.604597224
 20
25.3755509276
 11
41.604597224
 21
28.7327258065
  0
LINE
  5
367
100
AcDbEntity
  8
00_COMPONENTS_2
100
AcDbLine
 62
7
  6
BYLAYER
 10
41.8080619269
 20
25.4561258064
 11
41.8080619269
 21
28.7327258065
  0
LINE
  5
368
100
AcDbEntity
  8
00_COMPONENTS_2
100
AcDbLine
 62
7
  6
BYLAYER
 10
41.8844596169
 20
28.7327258065
 11
41.8844596169
 21
25.4561258064
  0
LINE
  5
369
100
AcDbEntity
  8
00_COMPONENTS_2
100
AcDbLine
 62
7
  6
BYLAYER
 10
42.0118291742
 20
28.7327258065
 11
42.0118291742
 21
25.3755509276
  0
LINE
  5
36A
100
AcDbEntity
  8
00_COMPONENTS_2
100
AcDbLine
 62
7
  6
BYLAYER
 10
42.1247850267
 20
25.0619860552
 11
42.1247850325
 21
28.7327258065
  0
LINE
  5
36B
100
AcDbEntity
  8
0
100
AcDbLine
 62
7
  6
BYLAYER
 10
22.3576821497
 20
71.3273465508
 11
14.5807803489
 21
79.1042483517
  0
LINE
  5
36C
100
AcDbEntity
  8
0
100
AcDbLine
 62
7
  6
BYLAYER
 10
21.5494590988
 20
74.7898054587
 11
23.4353128842
 21
72.9039516732
  0
LINE
  5
36D
100
AcDbEntity
  8
0
100
AcDbLine
 62
7
  6
BYLAYER
 10
23.5430759577
 20
73.0117147467
 11
21.6572221723
 21
74.8975685321
  0
LINE
  5
36E
100
AcDbEntity
  8
00_COMPONENTS_2
100
AcDbLine
 62
7
  6
BYLAYER
 10
44.1301776434
 20
24.6687258065
 11
44.1320789539
 21
24.6191851365
  0
LINE
  5
36F
100
AcDbEntity
  8
00_COMPONENTS_2
100
AcDbLine
 62
7
  6
BYLAYER
 10
45.2052015088
 20
24.6687258065
 11
45.2096236697
 21
24.4995012235
  0
LINE
  5
370
100
AcDbEntity
  8
00_COMPONENTS_2
100
AcDbLine
 62
7
  6
BYLAYER
 10
45.2358721019
 20
24.4965868092
 11
45.2316236597
 21
24.6687258065
  0
LINE
  5
371
100
AcDbEntity
  8
00_COMPONENTS_2
100
AcDbLine
 62
7
  6
BYLAYER
 10
42.2461082595
 20
28.7327258065
 11
42.246108113
 21
25.0619860514
  0
LINE
  5
372
100
AcDbEntity
  8
00_COMPONENTS_4
100
AcDbLine
 62
7
  6
BYLAYER
 10
42.6054106868
 20
50.6275258065
 11
42.6054106868
 21
45.1651770122
  0
LINE
  5
373
100
AcDbEntity
  8
00_COMPONENTS_2
100
AcDbLine
 62
7
  6
BYLAYER
 10
42.6676652616
 20
25.3755509276
 11
42.6676652616
 21
28.7327258065
  0
LINE
  5
374
100
AcDbEntity
  8
00_COMPONENTS_2
100
AcDbLine
 62
7
  6
BYLAYER
 10
42.8692207778
 20
25.4561258064
 11
42.8692207778
 21
28.7327258065
  0
LINE
  5
375
100
AcDbEntity
  8
00_COMPONENTS_2
100
AcDbLine
 62
7
  6
BYLAYER
 10
42.9418615572
 20
28.7327258065
 11
42.9418615572
 21
25.4561258064
  0
LINE
  5
376
100
AcDbEntity
  8
00_COMPONENTS_2
100
AcDbLine
 62
7
  6
BYLAYER
 10
43.0548712916
 20
28.7327258065
 11
43.0548712916
 21
25.3755509276
  0
LINE
  5
377
100
AcDbEntity
  8
00_COMPONENTS_2
100
AcDbLine
 62
7
  6
BYLAYER
 10
43.130656204
 20
25.0619860243
 11
43.1306562051
 21
28.7327258065
  0
LINE
  5
378
100
AcDbEntity
  8
00_COMPONENTS_2
100
AcDbLine
 62
7
  6
BYLAYER
 10
43.2454128496
 20
28.7327258065
 11
43.2454127015
 21
25.0619860209
  0
LINE
  5
379
100
AcDbEntity
  8
00_COMPONENTS_2
100
AcDbLine
 62
7
  6
BYLAYER
 10
43.6752104518
 20
25.3755509276
 11
43.6752104518
 21
28.7327258065
  0
LINE
  5
37A
100
AcDbEntity
  8
00_COMPONENTS_2
100
AcDbLine
 62
7
  6
BYLAYER
 10
43.7813104057
 20
9.0224518618
 11
43.7813104057
 21
24.4399997511
  0
LINE
  5
37B
100
AcDbEntity
  8
00_COMPONENTS_2
100
AcDbLine
 62
7
  6
BYLAYER
 10
43.8733228221
 20
25.4561258064
 11
43.8733228221
 21
28.7327258065
  0
LINE
  5
37C
100
AcDbEntity
  8
00_COMPONENTS_2
100
AcDbLine
 62
7
  6
BYLAYER
 10
43.9416538507
 20
28.7327258065
 11
43.9416538507
 21
25.4561258064
  0
LINE
  5
37D
100
AcDbEntity
  8
00_COMPONENTS_2
100
AcDbLine
 62
7
  6
BYLAYER
 10
44.0353104057
 20
24.6687258065
 11
44.0353104057
 21
9.0477258065
  0
LINE
  5
37E
100
AcDbEntity
  8
00_COMPONENTS_2
100
AcDbLine
 62
7
  6
BYLAYER
 10
44.0394436899
 20
28.7327258065
 11
44.0394436899
 21
25.3755509276
  0
LINE
  5
37F
100
AcDbEntity
  8
00_COMPONENTS_2
100
AcDbLine
 62
7
  6
BYLAYER
 10
44.0774808905
 20
25.0619859967
 11
44.0774808897
 21
28.7327258065
  0
LINE
  5
380
100
AcDbEntity
  8
00_COMPONENTS_2
100
AcDbLine
 62
7
  6
BYLAYER
 10
44.1847975844
 20
28.7327258065
 11
44.1847974371
 21
25.0619859937
  0
LINE
  5
381
100
AcDbEntity
  8
00_COMPONENTS_2
100
AcDbLine
 62
7
  6
BYLAYER
 10
44.2893104057
 20
9.0224518618
 11
44.2893104057
 21
23.7488816914
  0
LINE
  5
382
100
AcDbEntity
  8
00_COMPONENTS_2
100
AcDbLine
 62
7
  6
BYLAYER
 10
44.6195647674
 20
25.3755509276
 11
44.6195647674
 21
28.7327258065
  0
LINE
  5
383
100
AcDbEntity
  8
00_COMPONENTS_2
100
AcDbLine
 62
7
  6
BYLAYER
 10
44.812726237
 20
25.4561258064
 11
44.812726237
 21
28.7327258065
  0
LINE
  5
384
100
AcDbEntity
  8
00_COMPONENTS_2
100
AcDbLine
 62
7
  6
BYLAYER
 10
44.8762274744
 20
28.7327258065
 11
44.8762274744
 21
25.4561258064
  0
LINE
  5
385
100
AcDbEntity
  8
00_COMPONENTS_2
100
AcDbLine
 62
7
  6
BYLAYER
 10
44.9580531787
 20
25.0619859725
 11
44.9580531787
 21
28.7327258065
  0
LINE
  5
386
100
AcDbEntity
  8
00_COMPONENTS_2
100
AcDbLine
 62
7
  6
BYLAYER
 10
45.0571131787
 20
28.7327258065
 11
45.0571130348
 21
25.0619859699
  0
LINE
  5
387
100
AcDbEntity
  8
00_COMPONENTS_2
100
AcDbLine
 62
7
  6
BYLAYER
 10
45.4935411017
 20
25.3755509276
 11
45.4935411017
 21
28.7327258065
  0
LINE
  5
388
100
AcDbEntity
  8
0
100
AcDbLine
 62
7
  6
BYLAYER
 10
15.5286265148
 20
59.7715258065
 11
55.2157861929
 21
59.7715258065
  0
LINE
  5
389
100
AcDbEntity
  8
0
100
AcDbLine
 62
7
  6
BYLAYER
 10
22.1062349783
 20
75.3465813382
 11
23.9920887637
 21
73.4607275527
  0
LINE
  5
38A
100
AcDbEntity
  8
0
100
AcDbLine
 62
7
  6
BYLAYER
 10
22.6360700895
 20
75.8764164493
 11
17.1940348801
 21
81.3184516587
  0
LINE
  5
38B
100
AcDbEntity
  8
0
100
AcDbLine
 62
7
  6
BYLAYER
 10
22.303800613
 20
76.2625674625
 11
22.4834057354
 21
76.0829623401
  0
LINE
  5
38C
100
AcDbEntity
  8
0
100
AcDbLine
 62
7
  6
BYLAYER
 10
23.0222211027
 20
75.5441469728
 11
24.5488646432
 21
74.0175034323
  0
LINE
  5
38D
100
AcDbEntity
  8
0
100
AcDbLine
 62
7
  6
BYLAYER
 10
20.3944131157
 20
78.268571634
 11
19.747834675
 21
78.9151500748
  0
LINE
  5
38E
100
AcDbEntity
  8
0
100
AcDbLine
 62
7
  6
BYLAYER
 10
20.3700050697
 20
79.5373204694
 11
21.0165835104
 21
78.8907420287
  0
LINE
  5
38F
100
AcDbEntity
  8
00_COMPONENTS_2
100
AcDbLine
 62
7
  6
BYLAYER
 10
45.6802815952
 20
25.4561258064
 11
45.6802815952
 21
28.7327258065
  0
LINE
  5
390
100
AcDbEntity
  8
00_COMPONENTS_2
100
AcDbLine
 62
7
  6
BYLAYER
 10
45.7384697586
 20
28.7327258065
 11
45.7384697586
 21
25.4561258064
  0
LINE
  5
391
100
AcDbEntity
  8
00_COMPONENTS_2
100
AcDbLine
 62
7
  6
BYLAYER
 10
45.8046751317
 20
25.3909684065
 11
45.8046751317
 21
28.7327258065
  0
LINE
  5
392
100
AcDbEntity
  8
00_COMPONENTS_2
100
AcDbLine
 62
7
  6
BYLAYER
 10
45.8557207842
 20
28.7327258065
 11
45.8557206461
 21
25.0619859498
  0
LINE
  5
393
100
AcDbEntity
  8
00_COMPONENTS_2
100
AcDbLine
 62
7
  6
BYLAYER
 10
46.2904879672
 20
25.3755509275
 11
46.2904879672
 21
28.7327258065
  0
LINE
  5
394
100
AcDbEntity
  8
00_COMPONENTS_2
100
AcDbLine
 62
7
  6
BYLAYER
 10
46.3414261044
 20
22.5361001788
 11
46.3414261044
 21
22.5230860792
  0
LINE
  5
395
100
AcDbEntity
  8
00_COMPONENTS_2
100
AcDbLine
 62
7
  6
BYLAYER
 10
46.4693862767
 20
25.4561258064
 11
46.4693862767
 21
28.7327258065
  0
LINE
  5
396
100
AcDbEntity
  8
00_COMPONENTS_2
100
AcDbLine
 62
7
  6
BYLAYER
 10
46.521818519
 20
28.7327258065
 11
46.521818519
 21
25.4561258064
  0
LINE
  5
397
100
AcDbEntity
  8
00_COMPONENTS_2
100
AcDbLine
 62
7
  6
BYLAYER
 10
46.5738327914
 20
25.4049604642
 11
46.5738327914
 21
28.7327258065
  0
LINE
  5
398
100
AcDbEntity
  8
00_COMPONENTS_2
100
AcDbLine
 62
7
  6
BYLAYER
 10
46.5745423957
 20
25.3755509274
 11
46.5745423846
 21
25.0619859335
  0
LINE
  5
399
100
AcDbEntity
  8
00_COMPONENTS_2
100
AcDbLine
 62
7
  6
BYLAYER
 10
47.0043401169
 20
25.3755509275
 11
47.0043401169
 21
28.7327258065
  0
LINE
  5
39A
100
AcDbEntity
  8
00_COMPONENTS_2
100
AcDbLine
 62
7
  6
BYLAYER
 10
47.1740347183
 20
25.4561258064
 11
47.1740347183
 21
28.7327258065
  0
LINE
  5
39B
100
AcDbEntity
  8
00_COMPONENTS_2
100
AcDbLine
 62
7
  6
BYLAYER
 10
47.2081075892
 20
25.2556903195
 11
47.2081075828
 21
25.0619859211
  0
LINE
  5
39C
100
AcDbEntity
  8
00_COMPONENTS_2
100
AcDbLine
 62
7
  6
BYLAYER
 10
47.2203119986
 20
28.7327258065
 11
47.2203119986
 21
25.4561258064
  0
LINE
  5
39D
100
AcDbEntity
  8
00_COMPONENTS_2
100
AcDbLine
 62
7
  6
BYLAYER
 10
47.2596724035
 20
25.4174250406
 11
47.2596724035
 21
28.7327258065
  0
LINE
  5
39E
100
AcDbEntity
  8
00_COMPONENTS_2
100
AcDbLine
 62
7
  6
BYLAYER
 10
47.629664705
 20
25.3755509275
 11
47.629664705
 21
28.7327258065
  0
LINE
  5
39F
100
AcDbEntity
  8
00_COMPONENTS_2
100
AcDbLine
 62
7
  6
BYLAYER
 10
47.7515944303
 20
25.1856156891
 11
47.7515944267
 21
25.0619859128
  0
LINE
  5
3A0
100
AcDbEntity
  8
00_COMPONENTS_2
100
AcDbLine
 62
7
  6
BYLAYER
 10
47.7888641198
 20
25.4561258064
 11
47.7888641198
 21
28.7327258065
  0
LINE
  5
3A1
100
AcDbEntity
  8
00_COMPONENTS_2
100
AcDbLine
 62
7
  6
BYLAYER
 10
47.8182063539
 20
9.0224518618
 11
47.8182063539
 21
22.1656891607
  0
LINE
  5
3A2
100
AcDbEntity
  8
00_COMPONENTS_2
100
AcDbLine
 62
7
  6
BYLAYER
 10
47.82863424
 20
28.7327258065
 11
47.82863424
 21
25.4561258064
  0
LINE
  5
3A3
100
AcDbEntity
  8
00_COMPONENTS_2
100
AcDbLine
 62
7
  6
BYLAYER
 10
47.8569743146
 20
25.4561258064
 11
47.8569743146
 21
28.7327258065
  0
LINE
  5
3A4
100
AcDbEntity
  8
00_COMPONENTS_2
100
AcDbLine
 62
7
  6
BYLAYER
 10
48.0722063539
 20
22.1426070606
 11
48.0722063539
 21
9.0477258065
  0
LINE
  5
3A5
100
AcDbEntity
  8
00_COMPONENTS_2
100
AcDbLine
 62
7
  6
BYLAYER
 10
48.1617026338
 20
25.3755509275
 11
48.1617026338
 21
28.7327258065
  0
LINE
  5
3A6
100
AcDbEntity
  8
00_COMPONENTS_2
100
AcDbLine
 62
7
  6
BYLAYER
 10
48.200866655
 20
25.1428660115
 11
48.2008666529
 21
25.0619859085
  0
LINE
  5
3A7
100
AcDbEntity
  8
00_COMPONENTS_2
100
AcDbLine
 62
7
  6
BYLAYER
 10
48.3091952585
 20
25.4561258064
 11
48.3091952585
 21
28.7327258065
  0
LINE
  5
3A8
100
AcDbEntity
  8
00_COMPONENTS_2
100
AcDbLine
 62
7
  6
BYLAYER
 10
48.3262063539
 20
9.0224518618
 11
48.3262063539
 21
22.1195249605
  0
LINE
  5
3A9
100
AcDbEntity
  8
00_COMPONENTS_2
100
AcDbLine
 62
7
  6
BYLAYER
 10
48.3421555439
 20
28.7327258065
 11
48.3421555439
 21
25.4561258064
  0
LINE
  5
3AA
100
AcDbEntity
  8
00_COMPONENTS_2
100
AcDbLine
 62
7
  6
BYLAYER
 10
48.3611926963
 20
25.4561258064
 11
48.3611926963
 21
28.7327258065
  0
LINE
  5
3AB
100
AcDbEntity
  8
00_COMPONENTS_2
100
AcDbLine
 62
7
  6
BYLAYER
 10
48.5525050294
 20
25.1137185455
 11
48.5525050282
 21
25.0619859084
  0
LINE
  5
3AC
100
AcDbEntity
  8
00_COMPONENTS_2
100
AcDbLine
 62
7
  6
BYLAYER
 10
48.5964047735
 20
25.3755509275
 11
48.5964047735
 21
28.7327258065
  0
LINE
  5
3AD
100
AcDbEntity
  8
00_COMPONENTS_2
100
AcDbLine
 62
7
  6
BYLAYER
 10
48.7310680999
 20
25.4561258064
 11
48.7310680999
 21
28.7327258065
  0
LINE
  5
3AE
100
AcDbEntity
  8
00_COMPONENTS_2
100
AcDbLine
 62
7
  6
BYLAYER
 10
48.756967703
 20
28.7327258065
 11
48.756967703
 21
25.4561258064
  0
LINE
  5
3AF
100
AcDbEntity
  8
00_COMPONENTS_2
100
AcDbLine
 62
7
  6
BYLAYER
 10
48.7684901423
 20
25.4561258064
 11
48.7684901423
 21
28.7327258065
  0
LINE
  5
3B0
100
AcDbEntity
  8
00_COMPONENTS_2
100
AcDbLine
 62
7
  6
BYLAYER
 10
48.8038333725
 20
25.0922423359
 11
48.803833372
 21
25.0619859124
  0
LINE
  5
3B1
100
AcDbEntity
  8
00_COMPONENTS_2
100
AcDbLine
 62
7
  6
BYLAYER
 10
48.9304627781
 20
25.3755509275
 11
48.9304627781
 21
28.7327258065
  0
LINE
  5
3B2
100
AcDbEntity
  8
00_COMPONENTS_2
100
AcDbLine
 62
7
  6
BYLAYER
 10
48.9529389235
 20
25.0755368177
 11
48.9529389233
 21
25.0619859204
  0
LINE
  5
3B3
100
AcDbEntity
  8
00_COMPONENTS_2
100
AcDbLine
 62
7
  6
BYLAYER
 10
45.8046751316
 20
25.3909564504
 11
45.803708585
 21
25.3755509275
  0
LINE
  5
3B4
100
AcDbEntity
  8
00_COMPONENTS_2
100
AcDbLine
 62
7
  6
BYLAYER
 10
45.7652944321
 20
25.056123962
 11
45.7656713835
 21
25.0619859643
  0
LINE
  5
3B5
100
AcDbEntity
  8
00_COMPONENTS_2
100
AcDbLine
 62
7
  6
BYLAYER
 10
21.4637283803
 20
25.4540905732
 11
21.4658007424
 21
25.4561258064
  0
LINE
  5
3B6
100
AcDbEntity
  8
00_COMPONENTS_2
100
AcDbLine
 62
7
  6
BYLAYER
 10
21.6686458345
 20
25.4503818969
 11
21.6744989615
 21
25.4561258064
  0
LINE
  5
3B7
100
AcDbEntity
  8
00_COMPONENTS_2
100
AcDbLine
 62
7
  6
BYLAYER
 10
21.3627297482
 20
25.4559306575
 11
21.3629386669
 21
25.4561258064
  0
LINE
  5
3B8
100
AcDbEntity
  8
0
100
AcDbLine
 62
7
  6
BYLAYER
 10
15.0777811341
 20
61.3590258065
 11
55.6666315736
 21
61.3590258065
  0
LINE
  5
3B9
100
AcDbEntity
  8
0
100
AcDbLine
 62
7
  6
BYLAYER
 10
12.6138063539
 20
63.7593258065
 11
56.8098063539
 21
63.7593258065
  0
LINE
  5
3BA
100
AcDbEntity
  8
0
100
AcDbLine
 62
7
  6
BYLAYER
 10
27.0274153327
 20
76.4960541217
 11
25.5007717921
 21
78.0226976622
  0
LINE
  5
3BB
100
AcDbEntity
  8
0
100
AcDbLine
 62
7
  6
BYLAYER
 10
24.9619564248
 20
78.5615130295
 11
24.7823513024
 21
78.7411181519
  0
LINE
  5
3BC
100
AcDbEntity
  8
0
100
AcDbLine
 62
7
  6
BYLAYER
 10
25.1685023156
 20
78.4088486755
 11
19.7264671062
 21
83.8508838848
  0
LINE
  5
3BD
100
AcDbEntity
  8
0
100
AcDbLine
 62
7
  6
BYLAYER
 10
27.5841912122
 20
77.0528300012
 11
25.6983374267
 21
78.9386837866
  0
LINE
  5
3BE
100
AcDbEntity
  8
0
100
AcDbLine
 62
7
  6
BYLAYER
 10
26.1473502328
 20
79.3876965927
 11
28.0332040182
 21
77.5018428072
  0
LINE
  5
3BF
100
AcDbEntity
  8
0
100
AcDbLine
 62
7
  6
BYLAYER
 10
28.1409670917
 20
77.6096058807
 11
26.2551133062
 21
79.4954596661
  0
LINE
  5
3C0
100
AcDbEntity
  8
00_COMPONENTS_2
100
AcDbLine
 62
7
  6
BYLAYER
 10
49.0512719372
 20
25.4561258064
 11
49.0512719372
 21
28.7327258065
  0
LINE
  5
3C1
100
AcDbEntity
  8
00_COMPONENTS_2
100
AcDbLine
 62
7
  6
BYLAYER
 10
49.0699137462
 20
28.7327258065
 11
49.0699137462
 21
25.4561258064
  0
LINE
  5
3C2
100
AcDbEntity
  8
00_COMPONENTS_2
100
AcDbLine
 62
7
  6
BYLAYER
 10
49.0757668732
 20
25.4503775361
 11
49.0757668732
 21
28.7327258065
  0
LINE
  5
3C3
100
AcDbEntity
  8
00_COMPONENTS_2
100
AcDbLine
 62
7
  6
BYLAYER
 10
49.1613342647
 20
25.3755509275
 11
49.1613342647
 21
28.7327258065
  0
LINE
  5
3C4
100
AcDbEntity
  8
00_COMPONENTS_2
100
AcDbLine
 62
7
  6
BYLAYER
 10
49.2673698258
 20
25.4561258064
 11
49.2673698258
 21
28.7327258065
  0
LINE
  5
3C5
100
AcDbEntity
  8
00_COMPONENTS_2
100
AcDbLine
 62
7
  6
BYLAYER
 10
49.2786119654
 20
28.7327258065
 11
49.2786119654
 21
25.4561258064
  0
LINE
  5
3C6
100
AcDbEntity
  8
00_COMPONENTS_2
100
AcDbLine
 62
7
  6
BYLAYER
 10
49.2806843275
 20
25.4540908394
 11
49.2806843275
 21
28.7327258065
  0
LINE
  5
3C7
100
AcDbEntity
  8
00_COMPONENTS_2
100
AcDbLine
 62
7
  6
BYLAYER
 10
49.2872621617
 20
25.3755509275
 11
49.2872621617
 21
28.7327258065
  0
LINE
  5
3C8
100
AcDbEntity
  8
00_COMPONENTS_2
100
AcDbLine
 62
7
  6
BYLAYER
 10
49.3777171302
 20
25.4561258064
 11
49.3777171302
 21
28.7327258065
  0
LINE
  5
3C9
100
AcDbEntity
  8
00_COMPONENTS_2
100
AcDbLine
 62
7
  6
BYLAYER
 10
49.3814740408
 20
28.7327258065
 11
49.3814740408
 21
25.4561258064
  0
LINE
  5
3CA
100
AcDbEntity
  8
00_COMPONENTS_2
100
AcDbLine
 62
7
  6
BYLAYER
 10
49.3930063539
 20
29.4439258065
 11
49.3930063539
 21
28.7327258065
  0
LINE
  5
3CB
100
AcDbEntity
  8
0
100
AcDbLine
 62
7
  6
BYLAYER
 10
50.3582063539
 20
53.4215258065
 11
50.3582063539
 21
59.7715258065
  0
LINE
  5
3CC
100
AcDbEntity
  8
00_COMPONENTS_4
100
AcDbLine
 62
7
  6
BYLAYER
 10
51.3722063579
 20
29.6979258065
 11
51.3722063579
 21
43.0355202045
  0
LINE
  5
3CD
100
AcDbEntity
  8
00_COMPONENTS_2
100
AcDbLine
 62
7
  6
BYLAYER
 10
51.7869563539
 20
9.0224518618
 11
51.7869563539
 21
21.8050313471
  0
LINE
  5
3CE
100
AcDbEntity
  8
00_COMPONENTS_2
100
AcDbLine
 62
7
  6
BYLAYER
 10
52.0409563539
 20
21.7819492471
 11
52.0409563539
 21
9.0477258065
  0
LINE
  5
3CF
100
AcDbEntity
  8
00_COMPONENTS_2
100
AcDbLine
 62
7
  6
BYLAYER
 10
52.2949563539
 20
9.0224518618
 11
52.2949563539
 21
21.758867147
  0
LINE
  5
3D0
100
AcDbEntity
  8
00_COMPONENTS_2
100
AcDbLine
 62
7
  6
BYLAYER
 10
46.5738327914
 20
25.4049639824
 11
46.5699739607
 21
25.3755509275
  0
LINE
  5
3D1
100
AcDbEntity
  8
00_COMPONENTS_2
100
AcDbLine
 62
7
  6
BYLAYER
 10
46.4926841032
 20
25.050829805
 11
46.4941890425
 21
25.061985952
  0
LINE
  5
3D2
100
AcDbEntity
  8
0
100
AcDbLine
 62
7
  6
BYLAYER
 10
23.370204082
 20
85.2899718736
 11
18.891303287
 21
89.7688726686
  0
LINE
  5
3D3
100
AcDbEntity
  8
00_COMPONENTS_4
100
AcDbLine
 62
7
  6
BYLAYER
 10
52.8347063539
 20
50.6275258065
 11
52.8347063539
 21
44.3343921035
  0
LINE
  5
3D4
100
AcDbEntity
  8
00_COMPONENTS_4
100
AcDbLine
 62
7
  6
BYLAYER
 10
54.0412063539
 20
50.6275258065
 11
54.0412063539
 21
51.8975258065
  0
LINE
  5
3D5
100
AcDbEntity
  8
00_COMPONENTS_4
100
AcDbLine
 62
7
  6
BYLAYER
 10
55.2159563539
 20
51.8975258065
 11
55.2159563539
 21
53.4215258065
  0
LINE
  5
3D6
100
AcDbEntity
  8
0
100
AcDbLine
 62
7
  6
BYLAYER
 10
55.2159563539
 20
59.7715258065
 11
55.2159563539
 21
61.3590258065
  0
LINE
  5
3D7
100
AcDbEntity
  8
0
100
AcDbLine
 62
7
  6
BYLAYER
 10
55.3206063539
 20
71.2015258065
 11
55.3206063539
 21
78.7504223467
  0
LINE
  5
3D8
100
AcDbEntity
  8
0
100
AcDbLine
 62
7
  6
BYLAYER
 10
55.3206063539
 20
80.8550743567
 11
55.3206063539
 21
95.8395258065
  0
LINE
  5
3D9
100
AcDbEntity
  8
0
100
AcDbLine
 62
7
  6
BYLAYER
 10
55.6668063539
 20
61.3590258065
 11
55.6668063539
 21
63.7593258065
  0
LINE
  5
3DA
100
AcDbEntity
  8
0
100
AcDbLine
 62
7
  6
BYLAYER
 10
55.6744323589
 20
80.5012483517
 11
55.6744323589
 21
79.1042483517
  0
LINE
  5
3DB
100
AcDbEntity
  8
00_COMPONENTS_2
100
AcDbLine
 62
7
  6
BYLAYER
 10
55.7557063539
 20
9.0224518618
 11
55.7557063539
 21
21.4443735336
  0
LINE
  5
3DC
100
AcDbEntity
  8
00_COMPONENTS_2
100
AcDbLine
 62
7
  6
BYLAYER
 10
47.2596724035
 20
25.4174219784
 11
47.2510175634
 21
25.3755509275
  0
LINE
  5
3DD
100
AcDbEntity
  8
00_COMPONENTS_2
100
AcDbLine
 62
7
  6
BYLAYER
 10
47.1346863175
 20
25.0461491469
 11
47.1380616965
 21
25.0619859435
  0
LINE
  5
3DE
100
AcDbEntity
  8
00_COMPONENTS_2
100
AcDbLine
 62
7
  6
BYLAYER
 10
47.6864150505
 20
25.04213539
 11
47.6923890858
 21
25.0619859388
  0
LINE
  5
3DF
100
AcDbEntity
  8
00_COMPONENTS_4
100
AcDbLine
 62
7
  6
BYLAYER
 10
51.7659063579
 20
43.7174286074
 11
52.8347063539
 21
44.3345005728
  0
LINE
  5
3E0
100
AcDbEntity
  8
0
100
AcDbLine
 62
7
  6
BYLAYER
 10
13.9346063539
 20
68.7207924731
 11
29.5087661316
 21
68.7207924731
  0
LINE
  5
3E1
100
AcDbEntity
  8
0
100
AcDbLine
 62
7
  6
BYLAYER
 10
41.2356465761
 20
68.7207924731
 11
56.8098063539
 21
68.7207924731
  0
LINE
  5
3E2
100
AcDbEntity
  8
0
100
AcDbLine
 62
7
  6
BYLAYER
 10
21.7757036159
 20
76.7367829228
 11
21.8547878069
 21
76.7115802686
  0
LINE
  5
3E3
100
AcDbEntity
  8
00_COMPONENTS_2
100
AcDbLine
 62
7
  6
BYLAYER
 10
56.0097063539
 20
21.4212914335
 11
56.0097063539
 21
9.0477258065
  0
LINE
  5
3E4
100
AcDbEntity
  8
00_COMPONENTS_2
100
AcDbLine
 62
7
  6
BYLAYER
 10
56.2637063539
 20
9.0224518618
 11
56.2637063539
 21
21.3982093335
  0
LINE
  5
3E5
100
AcDbEntity
  8
0
100
AcDbLine
 62
7
  6
BYLAYER
 10
56.8098063539
 20
71.2015258065
 11
56.8098063539
 21
63.7593258065
  0
LINE
  5
3E6
100
AcDbEntity
  8
00_COMPONENTS_2
100
AcDbLine
 62
7
  6
BYLAYER
 10
48.1436713134
 20
25.0388079872
 11
48.1529524445
 21
25.0619859379
  0
LINE
  5
3E7
100
AcDbEntity
  8
0
100
AcDbLine
 62
7
  6
BYLAYER
 10
56.8098063539
 20
71.2015258065
 11
12.6138063539
 21
71.2015258065
  0
LINE
  5
3E8
100
AcDbEntity
  8
0
100
AcDbLine
 62
7
  6
BYLAYER
 10
47.897530558
 20
71.3273465508
 11
22.3576821497
 21
71.3273465508
  0
LINE
  5
3E9
100
AcDbEntity
  8
0
100
AcDbLine
 62
7
  6
BYLAYER
 10
42.1142456161
 20
77.6096058807
 11
46.8198998235
 21
72.9039516732
  0
LINE
  5
3EA
100
AcDbEntity
  8
00_COMPONENTS_2
100
AcDbLine
 62
7
  6
BYLAYER
 10
59.7244563539
 20
9.0224518618
 11
59.7244563539
 21
21.0837157201
  0
LINE
  5
3EB
100
AcDbEntity
  8
00_COMPONENTS_2
100
AcDbLine
 62
7
  6
BYLAYER
 10
59.9784563539
 20
21.06063362
 11
59.9784563539
 21
9.0477258065
  0
LINE
  5
3EC
100
AcDbEntity
  8
00_COMPONENTS_2
100
AcDbLine
 62
7
  6
BYLAYER
 10
60.2324563539
 20
9.0224518618
 11
60.2324563539
 21
21.0375515199
  0
LINE
  5
3ED
100
AcDbEntity
  8
0
100
AcDbLine
 62
7
  6
BYLAYER
 10
47.7897674846
 20
74.9873710933
 11
44.1976650361
 21
78.5794735418
  0
LINE
  5
3EE
100
AcDbEntity
  8
0
100
AcDbLine
 62
7
  6
BYLAYER
 10
48.7057536089
 20
74.7898054587
 11
47.6191426183
 21
75.8764164493
  0
LINE
  5
3EF
100
AcDbEntity
  8
0
100
AcDbLine
 62
7
  6
BYLAYER
 10
45.0867103921
 20
78.4088486755
 11
44.0000994015
 21
79.4954596661
  0
LINE
  5
3F0
100
AcDbEntity
  8
0
100
AcDbLine
 62
7
  6
BYLAYER
 10
45.2663155145
 20
78.5884537979
 11
47.7987477407
 21
76.0560215717
  0
LINE
  5
3F1
100
AcDbEntity
  8
0
100
AcDbLine
 62
7
  6
BYLAYER
 10
47.9783528631
 20
76.2356266942
 11
45.445920637
 21
78.7680589203
  0
LINE
  5
3F2
100
AcDbEntity
  8
0
100
AcDbLine
 62
7
  6
BYLAYER
 10
45.894933443
 20
79.2170717264
 11
48.4273656692
 21
76.6846395002
  0
LINE
  5
3F3
100
AcDbEntity
  8
00_COMPONENTS_2
100
AcDbLine
 62
7
  6
BYLAYER
 10
63.9472063539
 20
9.0477258065
 11
63.9472063539
 21
20.6999758065
  0
LINE
  5
3F4
100
AcDbEntity
  8
00_COMPONENTS_2
100
AcDbLine
 62
7
  6
BYLAYER
 10
49.2652946983
 20
25.3324908143
 11
49.307288082
 21
25.3755509275
  0
LINE
  5
3F5
100
AcDbEntity
  8
00_COMPONENTS_2
100
AcDbLine
 62
7
  6
BYLAYER
 10
48.9696729359
 20
25.032776727
 11
48.9986868919
 21
25.0619859721
  0
LINE
  5
3F6
100
AcDbEntity
  8
00_COMPONENTS_4
100
AcDbLine
 62
7
  6
BYLAYER
 10
51.1182063579
 20
29.4439258065
 11
51.3722063579
 21
29.6979258065
  0
LINE
  5
3F7
100
AcDbEntity
  8
00_COMPONENTS_2
100
AcDbLine
 62
7
  6
BYLAYER
 10
48.6056063539
 20
24.6687258065
 11
48.9696729359
 21
25.0327923884
  0
LINE
  5
3F8
100
AcDbEntity
  8
00_COMPONENTS_2
100
AcDbLine
 62
7
  6
BYLAYER
 10
49.2872621617
 20
25.3755509275
 11
49.2524099432
 21
25.3425523614
  0
LINE
  5
3F9
100
AcDbEntity
  8
0
100
AcDbLine
 62
7
  6
BYLAYER
 10
46.9725641776
 20
80.2947024609
 11
49.5049964037
 21
77.7622702347
  0
LINE
  5
3FA
100
AcDbEntity
  8
0
100
AcDbLine
 62
7
  6
BYLAYER
 10
48.1010359715
 20
80.0283352545
 11
47.4788655769
 21
80.6505056492
  0
LINE
  5
3FB
100
AcDbEntity
  8
0
100
AcDbLine
 62
7
  6
BYLAYER
 10
50.5826271382
 20
78.8399009693
 11
48.0501949121
 21
81.3723331954
  0
LINE
  5
3FC
100
AcDbEntity
  8
00_COMPONENTS_2
100
AcDbLine
 62
7
  6
BYLAYER
 10
49.1613342647
 20
25.3755509275
 11
49.0875023799
 21
25.3102458654
  0
LINE
  5
3FD
100
AcDbEntity
  8
0
100
AcDbLine
 62
7
  6
BYLAYER
 10
54.3725822533
 20
77.8023982461
 11
51.9588533342
 21
80.2161271652
  0
LINE
  5
3FE
100
AcDbEntity
  8
0
100
AcDbLine
 62
7
  6
BYLAYER
 10
49.426421108
 20
82.7485593913
 11
46.8850086258
 21
85.2899718736
  0
LINE
  5
3FF
100
AcDbEntity
  8
0
100
AcDbLine
 62
7
  6
BYLAYER
 10
53.0611778276
 20
81.3184516587
 11
50.5287456015
 21
83.8508838848
  0
LINE
  5
400
100
AcDbEntity
  8
00_COMPONENTS_2
100
AcDbLine
 62
7
  6
BYLAYER
 10
39.8807063539
 20
8.7937258065
 11
40.1347063539
 21
9.0477258065
  0
LINE
  5
401
100
AcDbEntity
  8
0
100
AcDbLine
 62
7
  6
BYLAYER
 10
48.8853587313
 20
87.2903219792
 11
55.6744323589
 21
80.5012483517
  0
LINE
  5
402
100
AcDbEntity
  8
0
100
AcDbLine
 62
7
  6
BYLAYER
 10
49.3635593152
 20
87.768522563
 11
41.2925560717
 21
95.8395258064
  0
LINE
  5
403
100
AcDbEntity
  8
00_COMPONENTS_2
100
AcDbLine
 62
7
  6
BYLAYER
 10
43.7813104057
 20
8.7937258065
 11
44.0353104057
 21
9.0477258065
  0
LINE
  5
404
100
AcDbEntity
  8
0
100
AcDbLine
 62
7
  6
BYLAYER
 10
45.2932562829
 20
95.8395258065
 11
51.3639094208
 21
89.7688726686
  0
LINE
  5
405
100
AcDbEntity
  8
00_COMPONENTS_2
100
AcDbLine
 62
7
  6
BYLAYER
 10
47.8182063539
 20
8.7937258065
 11
48.0722063539
 21
9.0477258065
  0
LINE
  5
406
100
AcDbEntity
  8
00_COMPONENTS_2
100
AcDbLine
 62
7
  6
BYLAYER
 10
51.7869563539
 20
8.7937258065
 11
52.0409563539
 21
9.0477258065
  0
LINE
  5
407
100
AcDbEntity
  8
00_COMPONENTS_2
100
AcDbLine
 62
7
  6
BYLAYER
 10
55.7557063539
 20
8.7937258065
 11
56.0097063539
 21
9.0477258065
  0
LINE
  5
408
100
AcDbEntity
  8
0
100
AcDbLine
 62
7
  6
BYLAYER
 10
14.9346063539
 20
95.8395258065
 11
55.3206063539
 21
95.8395258065
  0
LINE
  5
409
100
AcDbEntity
  8
0
100
AcDbLine
 62
7
  6
BYLAYER
 10
38.3661063539
 20
97.6429258065
 11
31.8891063539
 21
97.6429258065
  0
LINE
  5
40A
100
AcDbEntity
  8
00_COMPONENTS_2
100
AcDbLine
 62
7
  6
BYLAYER
 10
59.7244563539
 20
8.7937258065
 11
59.9784563539
 21
9.0477258065
  0
ARC
  5
40B
100
AcDbEntity
  8
00_COMPONENTS_2
100
AcDbCircle
 62
7
  6
BYLAYER
 10
25.7970666868
 20
29.6231833661
 40
6.0869923697
100
AcDbArc
 50
223.8712610554
 51
224.2524604656
  0
ARC
  5
40C
100
AcDbEntity
  8
00_COMPONENTS_2
100
AcDbCircle
 62
7
  6
BYLAYER
 10
18.6847839102
 20
22.4555518588
 40
4.0264638735
100
AcDbArc
 50
46.4856423495
 51
47.2074737372
  0
ARC
  5
40D
100
AcDbEntity
  8
00_COMPONENTS_2
100
AcDbCircle
 62
7
  6
BYLAYER
 10
22.5456945789
 20
25.8743146978
 40
1.1084792796
100
AcDbArc
 50
227.1242772802
 51
227.6566545732
  0
ARC
  5
40E
100
AcDbEntity
  8
00_COMPONENTS_2
100
AcDbCircle
 62
7
  6
BYLAYER
 10
-76.5778316327
 20
40.0620336598
 40
123.2596209677
100
AcDbArc
 50
353.0100789729
 51
353.1569044848
  0
ARC
  5
40F
100
AcDbEntity
  8
00_COMPONENTS_2
100
AcDbCircle
 62
7
  6
BYLAYER
 10
-95.1482917693
 20
39.9979714917
 40
122.7274718537
100
AcDbArc
 50
353.0097510875
 51
353.15721302
  0
ARC
  5
410
100
AcDbEntity
  8
00_COMPONENTS_2
100
AcDbCircle
 62
7
  6
BYLAYER
 10
-17.5418626212
 20
40.7046773339
 40
65.9189631766
100
AcDbArc
 50
346.2726525623
 51
346.553046021
  0
ARC
  5
411
100
AcDbEntity
  8
00_COMPONENTS_2
100
AcDbCircle
 62
7
  6
BYLAYER
 10
-36.1455377027
 20
40.6378106944
 40
65.6342433437
100
AcDbArc
 50
346.2720258488
 51
346.5536352347
  0
ARC
  5
412
100
AcDbEntity
  8
00_COMPONENTS_2
100
AcDbCircle
 62
7
  6
BYLAYER
 10
14.2452176663
 20
68.4073018957
 40
53.180723095
100
AcDbArc
 50
305.4070104268
 51
305.9859898807
  0
ARC
  5
413
100
AcDbEntity
  8
00_COMPONENTS_2
100
AcDbCircle
 62
7
  6
BYLAYER
 10
15.0805305498
 20
68.1909088919
 40
52.9831701544
100
AcDbArc
 50
305.5102373674
 51
306.0899180587
  0
ARC
  5
414
100
AcDbEntity
  8
00_COMPONENTS_2
100
AcDbCircle
 62
7
  6
BYLAYER
 10
13.4096146135
 20
68.1909057557
 40
52.9831633415
100
AcDbArc
 50
305.510232963
 51
306.0899137091
  0
ARC
  5
415
100
AcDbEntity
  8
00_COMPONENTS_2
100
AcDbCircle
 62
7
  6
BYLAYER
 10
15.9073337084
 20
67.548301512
 40
52.3981364117
100
AcDbArc
 50
305.8222707077
 51
306.4040249286
  0
ARC
  5
416
100
AcDbEntity
  8
00_COMPONENTS_2
100
AcDbCircle
 62
7
  6
BYLAYER
 10
12.5782184663
 20
67.5482953542
 40
52.398122896
100
AcDbArc
 50
305.8222619007
 51
306.4040162313
  0
ARC
  5
417
100
AcDbEntity
  8
00_COMPONENTS_2
100
AcDbCircle
 62
7
  6
BYLAYER
 10
16.7135872044
 20
66.4990043948
 40
51.4484428637
100
AcDbArc
 50
306.3502652387
 51
306.9353693074
  0
ARC
  5
418
100
AcDbEntity
  8
00_COMPONENTS_2
100
AcDbCircle
 62
7
  6
BYLAYER
 10
11.7516091367
 20
66.4989954431
 40
51.4484228635
100
AcDbArc
 50
306.3502520369
 51
306.9353562701
  0
ARC
  5
419
100
AcDbEntity
  8
00_COMPONENTS_2
100
AcDbCircle
 62
7
  6
BYLAYER
 10
17.483012816
 20
65.0748987903
 40
50.1719067773
100
AcDbArc
 50
307.1064243524
 51
307.6959763705
  0
ARC
  5
41A
100
AcDbEntity
  8
00_COMPONENTS_2
100
AcDbCircle
 62
7
  6
BYLAYER
 10
10.9259354436
 20
65.0748873684
 40
50.1718805954
100
AcDbArc
 50
307.106406774
 51
307.6959590112
  0
ARC
  5
41B
100
AcDbEntity
  8
00_COMPONENTS_2
100
AcDbCircle
 62
7
  6
BYLAYER
 10
1.2928626701
 20
41.7539813079
 40
48.7893941643
100
AcDbArc
 50
339.9937015535
 51
340.3851007948
  0
ARC
  5
41C
100
AcDbEntity
  8
00_COMPONENTS_2
100
AcDbCircle
 62
7
  6
BYLAYER
 10
18.1942664871
 20
63.3192538398
 40
48.621133297
100
AcDbArc
 50
308.1084112321
 51
308.7032189139
  0
ARC
  5
41D
100
AcDbEntity
  8
00_COMPONENTS_2
100
AcDbCircle
 62
7
  6
BYLAYER
 10
10.0919929866
 20
63.3192403461
 40
48.6211012914
100
AcDbArc
 50
308.1083893176
 51
308.7031972727
  0
ARC
  5
41E
100
AcDbEntity
  8
00_COMPONENTS_2
100
AcDbCircle
 62
7
  6
BYLAYER
 10
-17.0273111991
 20
41.6825858311
 40
48.5786717942
100
AcDbArc
 50
339.9928265789
 51
340.3859230585
  0
ARC
  5
41F
100
AcDbEntity
  8
00_COMPONENTS_2
100
AcDbCircle
 62
7
  6
BYLAYER
 10
18.7390317829
 20
61.3824301827
 40
46.9895505324
100
AcDbArc
 50
309.380707129
 51
309.9795178061
  0
ARC
  5
420
100
AcDbEntity
  8
00_COMPONENTS_2
100
AcDbCircle
 62
7
  6
BYLAYER
 10
9.1579435405
 20
61.3767278917
 40
46.9821235595
100
AcDbArc
 50
309.3806338664
 51
309.9795390519
  0
ARC
  5
421
100
AcDbEntity
  8
00_COMPONENTS_2
100
AcDbCircle
 62
7
  6
BYLAYER
 10
8.2466942228
 20
59.1252743326
 40
45.1014746873
100
AcDbArc
 50
310.9520069089
 51
311.5561123734
  0
ARC
  5
422
100
AcDbEntity
  8
00_COMPONENTS_2
100
AcDbCircle
 62
7
  6
BYLAYER
 10
19.4490352029
 20
58.8898221295
 40
44.7886891825
100
AcDbArc
 50
310.9504803853
 51
311.4327104663
  0
ARC
  5
423
100
AcDbEntity
  8
00_COMPONENTS_2
100
AcDbCircle
 62
7
  6
BYLAYER
 10
7.246014803
 20
56.7258462721
 40
43.197173526
100
AcDbArc
 50
312.8608651638
 51
313.4688280477
  0
ARC
  5
424
100
AcDbEntity
  8
00_COMPONENTS_2
100
AcDbCircle
 62
7
  6
BYLAYER
 10
19.7489177297
 20
56.5338832421
 40
42.934312326
100
AcDbArc
 50
312.8594593289
 51
313.4070945335
  0
ARC
  5
425
100
AcDbEntity
  8
00_COMPONENTS_2
100
AcDbCircle
 62
7
  6
BYLAYER
 10
10.0400016619
 20
43.178060224
 40
41.7839015185
100
AcDbArc
 50
334.3059259245
 51
334.7821323147
  0
ARC
  5
426
100
AcDbEntity
  8
00_COMPONENTS_2
100
AcDbCircle
 62
7
  6
BYLAYER
 10
-7.8126216588
 20
43.1005520964
 40
41.6035255675
100
AcDbArc
 50
334.3048618825
 51
334.7831322722
  0
ARC
  5
427
100
AcDbEntity
  8
00_COMPONENTS_2
100
AcDbCircle
 62
7
  6
BYLAYER
 10
6.0970311845
 20
54.2513434826
 40
41.3903439625
100
AcDbArc
 50
315.1525648888
 51
315.76158362
  0
ARC
  5
428
100
AcDbEntity
  8
00_COMPONENTS_2
100
AcDbCircle
 62
7
  6
BYLAYER
 10
19.9362944491
 20
53.9723266648
 40
40.9930537185
100
AcDbArc
 50
315.1502757951
 51
315.681130655
  0
ARC
  5
429
100
AcDbEntity
  8
00_COMPONENTS_2
100
AcDbCircle
 62
7
  6
BYLAYER
 10
19.5759356826
 20
51.6154320511
 40
39.5901072554
100
AcDbArc
 50
317.8781811
 51
318.4870862606
  0
ARC
  5
42A
100
AcDbEntity
  8
00_COMPONENTS_2
100
AcDbCircle
 62
7
  6
BYLAYER
 10
5.0162488674
 20
51.5021307562
 40
39.420151718
100
AcDbArc
 50
317.8768310667
 51
318.4883608562
  0
ARC
  5
42B
100
AcDbEntity
  8
00_COMPONENTS_2
100
AcDbCircle
 62
7
  6
BYLAYER
 10
14.7285229048
 20
44.9336370436
 40
38.8854086719
100
AcDbArc
 50
329.2674682551
 51
329.8034949982
  0
ARC
  5
42C
100
AcDbEntity
  8
00_COMPONENTS_2
100
AcDbCircle
 62
7
  6
BYLAYER
 10
-2.5023582124
 20
44.8486252309
 40
38.7176943119
100
AcDbArc
 50
329.2662718664
 51
329.8046198615
  0
ARC
  5
42D
100
AcDbEntity
  8
00_COMPONENTS_2
100
AcDbCircle
 62
7
  6
BYLAYER
 10
18.8431818729
 20
49.217417922
 40
38.4664585975
100
AcDbArc
 50
321.1001587552
 51
321.6977934963
  0
ARC
  5
42E
100
AcDbEntity
  8
00_COMPONENTS_2
100
AcDbCircle
 62
7
  6
BYLAYER
 10
3.2679621044
 20
49.1142185211
 40
38.30101653
100
AcDbArc
 50
321.0988300534
 51
321.6990456558
  0
ARC
  5
42F
100
AcDbEntity
  8
00_COMPONENTS_2
100
AcDbCircle
 62
7
  6
BYLAYER
 10
17.3734782389
 20
46.9673587206
 40
38.0751543412
100
AcDbArc
 50
324.8780008925
 51
325.4528720416
  0
ARC
  5
430
100
AcDbEntity
  8
00_COMPONENTS_2
100
AcDbCircle
 62
7
  6
BYLAYER
 10
0.9049456582
 20
46.8736908651
 40
37.9111382798
100
AcDbArc
 50
324.876719952
 51
325.4540775208
  0
ARC
  5
431
100
AcDbEntity
  8
00_COMPONENTS_4
100
AcDbCircle
 62
7
  6
BYLAYER
 10
18.5848063499
 20
43.0355202045
 40
0.7874
100
AcDbArc
 50
0.0
 51
60.0
  0
ARC
  5
432
100
AcDbEntity
  8
00_COMPONENTS_2
100
AcDbCircle
 62
7
  6
BYLAYER
 10
45.4156963453
 20
29.1699245178
 40
5.4352329469
100
AcDbArc
 50
315.7246835255
 51
316.1515830519
  0
ARC
  5
433
100
AcDbEntity
  8
00_COMPONENTS_2
100
AcDbCircle
 62
7
  6
BYLAYER
 10
52.3570080411
 20
22.1383588664
 40
4.461250072
100
AcDbArc
 50
132.8276865741
 51
133.4791817569
  0
ARC
  5
434
100
AcDbEntity
  8
00_COMPONENTS_2
100
AcDbCircle
 62
7
  6
BYLAYER
 10
47.5732722864
 20
24.6845946025
 40
2.4878834604
100
AcDbArc
 50
240.3211350307
 51
248.4469427942
  0
ARC
  5
435
100
AcDbEntity
  8
00_COMPONENTS_2
100
AcDbCircle
 62
7
  6
BYLAYER
 10
47.5960107991
 20
24.6696656609
 40
2.4750928109
100
AcDbArc
 50
239.5435101734
 51
247.9269791525
  0
ARC
  5
436
100
AcDbEntity
  8
00_COMPONENTS_2
100
AcDbCircle
 62
7
  6
BYLAYER
 10
47.5582273562
 20
24.6438171692
 40
2.4444305295
100
AcDbArc
 50
248.4238046496
 51
264.768580258
  0
ARC
  5
437
100
AcDbEntity
  8
00_COMPONENTS_2
100
AcDbCircle
 62
7
  6
BYLAYER
 10
47.5816995186
 20
24.6321073043
 40
2.4349094107
100
AcDbArc
 50
247.9069394122
 51
264.1962436451
  0
ARC
  5
438
100
AcDbEntity
  8
00_COMPONENTS_2
100
AcDbCircle
 62
7
  6
BYLAYER
 10
37.3910173005
 20
11.0797258065
 40
2.286
100
AcDbArc
 50
214.9384416795
 51
270.0
  0
ARC
  5
439
100
AcDbEntity
  8
00_COMPONENTS_2
100
AcDbCircle
 62
7
  6
BYLAYER
 10
63.6932063539
 20
9.0477258065
 40
0.254
100
AcDbArc
 50
270.0
 51
360.0
  0
ARC
  5
43A
100
AcDbEntity
  8
00_COMPONENTS_2
100
AcDbCircle
 62
7
  6
BYLAYER
 10
166.4196379262
 20
40.0618715001
 40
123.2582652534
100
AcDbArc
 50
186.8430952225
 51
186.9899223285
  0
ARC
  5
43B
100
AcDbEntity
  8
00_COMPONENTS_2
100
AcDbCircle
 62
7
  6
BYLAYER
 10
146.793964815
 20
39.9979714802
 40
122.7274717582
100
AcDbArc
 50
186.8427869799
 51
186.9902489126
  0
ARC
  5
43C
100
AcDbEntity
  8
00_COMPONENTS_2
100
AcDbCircle
 62
7
  6
BYLAYER
 10
107.1653050237
 20
40.7043405997
 40
65.9175204792
100
AcDbArc
 50
193.4469528689
 51
193.7273523871
  0
ARC
  5
43D
100
AcDbEntity
  8
00_COMPONENTS_2
100
AcDbCircle
 62
7
  6
BYLAYER
 10
88.0095177148
 20
40.6378106581
 40
65.6342431883
100
AcDbArc
 50
193.4463647652
 51
193.7279741518
  0
ARC
  5
43E
100
AcDbEntity
  8
00_COMPONENTS_2
100
AcDbCircle
 62
7
  6
BYLAYER
 10
56.4991589774
 20
68.4073001787
 40
53.1807005149
100
AcDbArc
 50
234.014040472
 51
234.5930197611
  0
ARC
  5
43F
100
AcDbEntity
  8
00_COMPONENTS_2
100
AcDbCircle
 62
7
  6
BYLAYER
 10
57.3347658537
 20
68.1909056348
 40
52.9831442524
100
AcDbArc
 50
233.9101143879
 51
234.4897949421
  0
ARC
  5
440
100
AcDbEntity
  8
00_COMPONENTS_2
100
AcDbCircle
 62
7
  6
BYLAYER
 10
55.6638426542
 20
68.1909056347
 40
52.9831442525
100
AcDbArc
 50
233.9101143876
 51
234.4897949418
  0
ARC
  5
441
100
AcDbEntity
  8
00_COMPONENTS_2
100
AcDbCircle
 62
7
  6
BYLAYER
 10
54.8370364849
 20
67.5482968255
 40
52.3981074086
100
AcDbArc
 50
233.5960094463
 51
234.1777635589
  0
ARC
  5
442
100
AcDbEntity
  8
00_COMPONENTS_2
100
AcDbCircle
 62
7
  6
BYLAYER
 10
58.1661661493
 20
67.5482968248
 40
52.3981074076
100
AcDbArc
 50
233.5960094464
 51
234.1777635591
  0
ARC
  5
443
100
AcDbEntity
  8
00_COMPONENTS_2
100
AcDbCircle
 62
7
  6
BYLAYER
 10
58.9927798849
 20
66.4989984408
 40
51.4484110263
100
AcDbArc
 50
233.0646668204
 51
233.6497708104
  0
ARC
  5
444
100
AcDbEntity
  8
00_COMPONENTS_2
100
AcDbCircle
 62
7
  6
BYLAYER
 10
54.030780441
 20
66.4989984407
 40
51.4484110259
100
AcDbArc
 50
233.0646668208
 51
233.6497708108
  0
ARC
  5
445
100
AcDbEntity
  8
00_COMPONENTS_2
100
AcDbCircle
 62
7
  6
BYLAYER
 10
53.261352759
 20
65.0748917718
 40
50.1718724035
100
AcDbArc
 50
232.3040613184
 51
232.8936132883
  0
ARC
  5
446
100
AcDbEntity
  8
00_COMPONENTS_2
100
AcDbCircle
 62
7
  6
BYLAYER
 10
59.8184581683
 20
65.074891771
 40
50.1718724025
100
AcDbArc
 50
232.3040613184
 51
232.8936132883
  0
ARC
  5
447
100
AcDbEntity
  8
00_COMPONENTS_2
100
AcDbCircle
 62
7
  6
BYLAYER
 10
87.9684878145
 20
41.7534459972
 40
48.7878050366
100
AcDbArc
 50
199.6148969036
 51
200.0063087378
  0
ARC
  5
448
100
AcDbEntity
  8
00_COMPONENTS_2
100
AcDbCircle
 62
7
  6
BYLAYER
 10
60.6524053351
 20
63.3192459886
 40
48.6210966994
100
AcDbArc
 50
231.2968201147
 51
231.8916277796
  0
ARC
  5
449
100
AcDbEntity
  8
00_COMPONENTS_2
100
AcDbCircle
 62
7
  6
BYLAYER
 10
52.5500974898
 20
63.3192459887
 40
48.6210966992
100
AcDbArc
 50
231.2968201153
 51
231.8916277801
  0
ARC
  5
44A
100
AcDbEntity
  8
00_COMPONENTS_2
100
AcDbCircle
 62
7
  6
BYLAYER
 10
69.2532899177
 20
41.6825858459
 40
48.5786718375
100
AcDbArc
 50
199.6140769418
 51
200.007173421
  0
ARC
  5
44B
100
AcDbEntity
  8
00_COMPONENTS_2
100
AcDbCircle
 62
7
  6
BYLAYER
 10
61.7132431064
 20
61.5295542706
 40
47.1806844743
100
AcDbArc
 50
230.0217354789
 51
230.6181198134
  0
ARC
  5
44C
100
AcDbEntity
  8
00_COMPONENTS_2
100
AcDbCircle
 62
7
  6
BYLAYER
 10
52.1273961564
 20
61.5295541202
 40
47.1806842786
100
AcDbArc
 50
230.021735478
 51
230.618119815
  0
ARC
  5
44D
100
AcDbEntity
  8
00_COMPONENTS_2
100
AcDbCircle
 62
7
  6
BYLAYER
 10
62.6240048671
 20
59.2692688828
 40
45.292999224
100
AcDbArc
 50
228.4451758254
 51
229.0467264688
  0
ARC
  5
44E
100
AcDbEntity
  8
00_COMPONENTS_2
100
AcDbCircle
 62
7
  6
BYLAYER
 10
51.3157096744
 20
58.9128196647
 40
44.8193841718
100
AcDbArc
 50
228.567259821
 51
229.0491564839
  0
ARC
  5
44F
100
AcDbEntity
  8
00_COMPONENTS_2
100
AcDbCircle
 62
7
  6
BYLAYER
 10
63.6244948811
 20
56.860299353
 40
43.3815023492
100
AcDbArc
 50
226.5324710264
 51
227.1378503773
  0
ARC
  5
450
100
AcDbEntity
  8
00_COMPONENTS_2
100
AcDbCircle
 62
7
  6
BYLAYER
 10
51.1228555244
 20
56.6697889638
 40
43.1205651559
100
AcDbArc
 50
226.5940566831
 51
227.1393243867
  0
ARC
  5
451
100
AcDbEntity
  8
00_COMPONENTS_2
100
AcDbCircle
 62
7
  6
BYLAYER
 10
78.7182870784
 20
43.1772929013
 40
41.7821062569
100
AcDbArc
 50
205.2178640005
 51
205.694090611
  0
ARC
  5
452
100
AcDbEntity
  8
00_COMPONENTS_2
100
AcDbCircle
 62
7
  6
BYLAYER
 10
60.5415351595
 20
43.1005520221
 40
41.6035253942
100
AcDbArc
 50
205.2168677272
 51
205.6951381189
  0
ARC
  5
453
100
AcDbEntity
  8
00_COMPONENTS_2
100
AcDbCircle
 62
7
  6
BYLAYER
 10
64.4793811245
 20
54.0859867785
 40
41.15462089
100
AcDbArc
 50
224.2366567552
 51
224.8491636481
  0
ARC
  5
454
100
AcDbEntity
  8
00_COMPONENTS_2
100
AcDbCircle
 62
7
  6
BYLAYER
 10
50.6464610037
 20
53.812912663
 40
40.7660184067
100
AcDbArc
 50
224.3173075744
 51
224.8511161076
  0
ARC
  5
455
100
AcDbEntity
  8
00_COMPONENTS_2
100
AcDbCircle
 62
7
  6
BYLAYER
 10
65.8524726554
 20
51.6133229371
 40
39.5869318752
100
AcDbArc
 50
221.5129050271
 51
222.1218585367
  0
ARC
  5
456
100
AcDbEntity
  8
00_COMPONENTS_2
100
AcDbCircle
 62
7
  6
BYLAYER
 10
51.041794292
 20
51.5021306112
 40
39.4201514999
100
AcDbArc
 50
221.5116391428
 51
222.1231689356
  0
ARC
  5
457
100
AcDbEntity
  8
00_COMPONENTS_2
100
AcDbCircle
 62
7
  6
BYLAYER
 10
73.389565868
 20
44.9325976754
 40
38.8833481485
100
AcDbArc
 50
210.1964999001
 51
210.7325547273
  0
ARC
  5
458
100
AcDbEntity
  8
00_COMPONENTS_2
100
AcDbCircle
 62
7
  6
BYLAYER
 10
55.871315547
 20
44.848625156
 40
38.7176941638
100
AcDbArc
 50
210.1953801378
 51
210.7337281349
  0
ARC
  5
459
100
AcDbEntity
  8
00_COMPONENTS_2
100
AcDbCircle
 62
7
  6
BYLAYER
 10
67.6036024253
 20
49.2157050118
 40
38.4637014974
100
AcDbArc
 50
218.3021988464
 51
218.8998759785
  0
ARC
  5
45A
100
AcDbEntity
  8
00_COMPONENTS_2
100
AcDbCircle
 62
7
  6
BYLAYER
 10
51.7719183456
 20
49.1142183527
 40
38.3010162592
100
AcDbArc
 50
218.3009543433
 51
218.9011699499
  0
ARC
  5
45B
100
AcDbEntity
  8
00_COMPONENTS_2
100
AcDbCircle
 62
7
  6
BYLAYER
 10
69.972148023
 20
46.9660039507
 40
38.072771551
100
AcDbArc
 50
214.5471215125
 51
215.1220282492
  0
ARC
  5
45C
100
AcDbEntity
  8
00_COMPONENTS_2
100
AcDbCircle
 62
7
  6
BYLAYER
 10
53.2362931559
 20
46.8736907546
 40
37.9111380858
100
AcDbArc
 50
214.5459224783
 51
215.1232800501
  0
ARC
  5
45D
100
AcDbEntity
  8
00_COMPONENTS_4
100
AcDbCircle
 62
7
  6
BYLAYER
 10
52.1596063579
 20
43.0355202045
 40
0.7874
100
AcDbArc
 50
120.0
 51
180.0
  0
SPLINE
  5
45E
100
AcDbEntity
  8
00_COMPONENTS_2
100
AcDbSpline
 62
7
  6
BYLAYER
 70
0
 71
3
 72
15
 73
11
 74
0
 42
0.0000001
 43
0.0000001
 44
0.0000000001
 40
0.0
 40
0.0
 40
0.0
 40
0.0
 40
0.0094446164
 40
0.0268257063
 40
0.0858443048
 40
0.1758786576
 40
0.2946053249
 40
0.4392194897
 40
0.6068413246
 40
1.0
 40
1.0
 40
1.0
 40
1.0
 10
49.3816820364
 20
25.4559197737
 30
0.0
 10
49.3816814886
 20
25.4557021196
 30
0.0
 10
49.3813888139
 20
25.4551221468
 30
0.0
 10
49.3803507947
 20
25.4534716297
 30
0.0
 10
49.377919284
 20
25.4504603662
 30
0.0
 10
49.3739257813
 20
25.4457785678
 30
0.0
 10
49.3684796706
 20
25.4397132428
 30
0.0
 10
49.3617596061
 20
25.4324037846
 30
0.0
 10
49.3506477313
 20
25.4205365774
 30
0.0
 10
49.3417260824
 20
25.4111871283
 30
0.0
 10
49.3354509286
 20
25.4046514608
 30
0.0
  0
SPLINE
  5
45F
100
AcDbEntity
  8
00_COMPONENTS_2
100
AcDbSpline
 62
7
  6
BYLAYER
 70
0
 71
3
 72
13
 73
9
 74
0
 42
0.0000001
 43
0.0000001
 44
0.0000000001
 40
0.0
 40
0.0
 40
0.0
 40
0.0
 40
0.0362207827
 40
0.1030762245
 40
0.1987451309
 40
0.3201581006
 40
0.62729015
 40
1.0
 40
1.0
 40
1.0
 40
1.0
 10
48.9175552169
 20
25.0331737838
 30
0.0
 10
48.9175555722
 20
25.0336216672
 30
0.0
 10
48.9181787417
 20
25.0348118279
 30
0.0
 10
48.9194603765
 20
25.0368574525
 30
0.0
 10
48.9215741436
 20
25.0396900293
 30
0.0
 10
48.9256000589
 20
25.0447566733
 30
0.0
 10
48.932045476
 20
25.0522943932
 30
0.0
 10
48.9376377558
 20
25.0585678321
 30
0.0
 10
48.9407291151
 20
25.061985958
 30
0.0
  0
SPLINE
  5
460
100
AcDbEntity
  8
00_COMPONENTS_2
100
AcDbSpline
 62
7
  6
BYLAYER
 70
0
 71
3
 72
14
 73
10
 74
0
 42
0.0000001
 43
0.0000001
 44
0.0000000001
 40
0.0
 40
0.0
 40
0.0
 40
0.0
 40
0.0433692892
 40
0.1145408624
 40
0.2122364542
 40
0.3337368192
 40
0.4759964381
 40
0.6361742241
 40
1.0
 40
1.0
 40
1.0
 40
1.0
 10
49.2806843452
 20
25.4540908565
 30
0.0
 10
49.2806848865
 20
25.452659886
 30
0.0
 10
49.2792434757
 20
25.4490148397
 30
0.0
 10
49.2758439291
 20
25.4429654986
 30
0.0
 10
49.2704319103
 20
25.435012749
 30
0.0
 10
49.2633031383
 20
25.4254644669
 30
0.0
 10
49.2545982461
 20
25.414507914
 30
0.0
 10
49.2405679069
 20
25.3975850476
 30
0.0
 10
49.2292169878
 20
25.3845390743
 30
0.0
 10
49.221259616
 20
25.3755509275
 30
0.0
  0
SPLINE
  5
461
100
AcDbEntity
  8
00_COMPONENTS_2
100
AcDbSpline
 62
7
  6
BYLAYER
 70
0
 71
3
 72
11
 73
7
 74
0
 42
0.0000001
 43
0.0000001
 44
0.0000000001
 40
0.0
 40
0.0
 40
0.0
 40
0.0
 40
0.131234136
 40
0.3522762167
 40
0.6476243281
 40
1.0
 40
1.0
 40
1.0
 40
1.0
 10
48.7615920946
 20
25.0343083807
 30
0.0
 10
48.7615903758
 20
25.0357598898
 30
0.0
 10
48.7633328717
 20
25.0394518414
 30
0.0
 10
48.7669748766
 20
25.0455013813
 30
0.0
 10
48.7726472258
 20
25.0533246823
 30
0.0
 10
48.7770590136
 20
25.0589529763
 30
0.0
 10
48.7795066871
 20
25.0619859475
 30
0.0
  0
SPLINE
  5
462
100
AcDbEntity
  8
00_COMPONENTS_2
100
AcDbSpline
 62
7
  6
BYLAYER
 70
0
 71
3
 72
12
 73
8
 74
0
 42
0.0000001
 43
0.0000001
 44
0.0000000001
 40
0.0
 40
0.0
 40
0.0
 40
0.0
 40
0.0600602998
 40
0.1413112664
 40
0.3641210272
 40
0.6553848153
 40
1.0
 40
1.0
 40
1.0
 40
1.0
 10
49.0757664984
 20
25.4503771971
 30
0.0
 10
49.0757667779
 20
25.4486049699
 30
0.0
 10
49.0748821142
 20
25.4444625582
 30
0.0
 10
49.0708939645
 20
25.4344831563
 30
0.0
 10
49.0619653338
 20
25.4192606969
 30
0.0
 10
49.0475590067
 20
25.3984303958
 30
0.0
 10
49.036135035
 20
25.3835301649
 30
0.0
 10
49.0298314924
 20
25.3755509275
 30
0.0
  0
SPLINE
  5
463
100
AcDbEntity
  8
00_COMPONENTS_2
100
AcDbSpline
 62
7
  6
BYLAYER
 70
0
 71
3
 72
10
 73
6
 74
0
 42
0.0000001
 43
0.0000001
 44
0.0000000001
 40
0.0
 40
0.0
 40
0.0
 40
0.0
 40
0.1583874983
 40
0.3841382259
 40
1.0
 40
1.0
 40
1.0
 40
1.0
 10
48.5029761592
 20
25.0361928909
 30
0.0
 10
48.5029771298
 20
25.037736902
 30
0.0
 10
48.5040301625
 20
25.0414235456
 30
0.0
 10
48.5082098309
 20
25.0502031649
 30
0.0
 10
48.5127922369
 20
25.0570756738
 30
0.0
 10
48.5162466075
 20
25.0619859408
 30
0.0
  0
SPLINE
  5
464
100
AcDbEntity
  8
00_COMPONENTS_2
100
AcDbSpline
 62
7
  6
BYLAYER
 70
0
 71
3
 72
11
 73
7
 74
0
 42
0.0000001
 43
0.0000001
 44
0.0000000001
 40
0.0
 40
0.0
 40
0.0
 40
0.0
 40
0.1657570939
 40
0.3930165368
 40
0.6742723501
 40
1.0
 40
1.0
 40
1.0
 40
1.0
 10
48.7684896226
 20
25.4448070915
 30
0.0
 10
48.7684889629
 20
25.4405052457
 30
0.0
 10
48.7658949024
 20
25.4304203861
 30
0.0
 10
48.7587219604
 20
25.4144859925
 30
0.0
 10
48.7479240055
 20
25.3956673121
 30
0.0
 10
48.7392552162
 20
25.3825132208
 30
0.0
 10
48.7344605949
 20
25.3755509275
 30
0.0
  0
SPLINE
  5
465
100
AcDbEntity
  8
00_COMPONENTS_2
100
AcDbSpline
 62
7
  6
BYLAYER
 70
0
 71
3
 72
10
 73
6
 74
0
 42
0.0000001
 43
0.0000001
 44
0.0000000001
 40
0.0
 40
0.0
 40
0.0
 40
0.0
 40
0.188028039
 40
0.4200626538
 40
1.0
 40
1.0
 40
1.0
 40
1.0
 10
48.3611927124
 20
25.4374210664
 30
0.0
 10
48.3611930195
 20
25.4332325288
 30
0.0
 10
48.3596392372
 20
25.4238969899
 30
0.0
 10
48.3524254403
 20
25.4027914651
 30
0.0
 10
48.3438937931
 20
25.3867159824
 30
0.0
 10
48.3373948742
 20
25.3755509275
 30
0.0
  0
SPLINE
  5
466
100
AcDbEntity
  8
00_COMPONENTS_2
100
AcDbSpline
 62
7
  6
BYLAYER
 70
0
 71
3
 72
9
 73
5
 74
0
 42
0.0000001
 43
0.0000001
 44
0.0000000001
 40
0.0
 40
0.0
 40
0.0
 40
0.0
 40
0.4431104616
 40
1.0
 40
1.0
 40
1.0
 40
1.0
 10
47.8569739847
 20
25.4282712295
 30
0.0
 10
47.8569740208
 20
25.4201197224
 30
0.0
 10
47.8530372959
 20
25.401829398
 30
0.0
 10
47.8460220007
 20
25.3848187183
 30
0.0
 10
47.8416562402
 20
25.3755509275
 30
0.0
  0
LINE
  5
467
100
AcDbEntity
  8
00_COMPONENTS_2
100
AcDbLine
 62
7
  6
BYLAYER
 10
21.7747397719
 20
25.0327621258
 11
21.7679688086
 21
25.0396109698
  0
SPLINE
  5
468
100
AcDbEntity
  8
00_COMPONENTS_2
100
AcDbSpline
 62
7
  6
BYLAYER
 70
0
 71
3
 72
15
 73
11
 74
0
 42
0.0000001
 43
0.0000001
 44
0.0000000001
 40
0.0
 40
0.0
 40
0.0
 40
0.0
 40
0.3931592309
 40
0.5607810297
 40
0.7053951383
 40
0.8241217858
 40
0.9141560053
 40
0.9731743351
 40
0.9905553999
 40
1.0
 40
1.0
 40
1.0
 40
1.0
 10
21.4089610464
 20
25.404652224
 30
0.0
 10
21.4026859813
 20
25.4111878025
 30
0.0
 10
21.3937644631
 20
25.42053712
 30
0.0
 10
21.3826527552
 20
25.4324041579
 30
0.0
 10
21.3759327983
 20
25.4397135055
 30
0.0
 10
21.3704867786
 20
25.4457787384
 30
0.0
 10
21.3664933449
 20
25.4504604594
 30
0.0
 10
21.364061883
 20
25.4534716735
 30
0.0
 10
21.3630238847
 20
25.4551221602
 30
0.0
 10
21.3627312169
 20
25.4557021245
 30
0.0
 10
21.3627306702
 20
25.4559197749
 30
0.0
  0
SPLINE
  5
469
100
AcDbEntity
  8
00_COMPONENTS_2
100
AcDbSpline
 62
7
  6
BYLAYER
 70
0
 71
3
 72
14
 73
10
 74
0
 42
0.0000001
 43
0.0000001
 44
0.0000000001
 40
0.0
 40
0.0
 40
0.0
 40
0.0
 40
0.3638256921
 40
0.5240036085
 40
0.6662632471
 40
0.787763585
 40
0.8854592054
 40
0.9566308451
 40
1.0
 40
1.0
 40
1.0
 40
1.0
 10
21.5231530917
 20
25.3755509275
 30
0.0
 10
21.5151957217
 20
25.3845390723
 30
0.0
 10
21.5038448014
 20
25.3975850468
 30
0.0
 10
21.4898144606
 20
25.4145079154
 30
0.0
 10
21.4811095662
 20
25.4254644715
 30
0.0
 10
21.4739807911
 20
25.4350127534
 30
0.0
 10
21.4685687792
 20
25.4429655083
 30
0.0
 10
21.4651692211
 20
25.4490148455
 30
0.0
 10
21.4637278253
 20
25.4526598912
 30
0.0
 10
21.4637283617
 20
25.4540908572
 30
0.0
  0
SPLINE
  5
46A
100
AcDbEntity
  8
00_COMPONENTS_2
100
AcDbSpline
 62
7
  6
BYLAYER
 70
0
 71
3
 72
12
 73
8
 74
0
 42
0.0000001
 43
0.0000001
 44
0.0000000001
 40
0.0
 40
0.0
 40
0.0
 40
0.0
 40
0.3446149955
 40
0.635878917
 40
0.8586886226
 40
0.9399396397
 40
1.0
 40
1.0
 40
1.0
 40
1.0
 10
21.7145812153
 20
25.3755509275
 30
0.0
 10
21.708277676
 20
25.3835301608
 30
0.0
 10
21.6968537034
 20
25.3984303903
 30
0.0
 10
21.6824473821
 20
25.4192606903
 30
0.0
 10
21.6735187383
 20
25.4344831504
 30
0.0
 10
21.6695306021
 20
25.4444625576
 30
0.0
 10
21.668645926
 20
25.4486049709
 30
0.0
 10
21.6686462063
 20
25.4503771999
 30
0.0
  0
SPLINE
  5
46B
100
AcDbEntity
  8
00_COMPONENTS_2
100
AcDbSpline
 62
7
  6
BYLAYER
 70
0
 71
3
 72
11
 73
7
 74
0
 42
0.0000001
 43
0.0000001
 44
0.0000000001
 40
0.0
 40
0.0
 40
0.0
 40
0.0
 40
0.3257274698
 40
0.606983413
 40
0.8342428396
 40
1.0
 40
1.0
 40
1.0
 40
1.0
 10
22.0099521128
 20
25.3755509275
 30
0.0
 10
22.0051574945
 20
25.3825132165
 30
0.0
 10
21.996488705
 20
25.3956673052
 30
0.0
 10
21.9856907548
 20
25.4144859839
 30
0.0
 10
21.9785178031
 20
25.4304203782
 30
0.0
 10
21.9759237501
 20
25.44050524
 30
0.0
 10
21.97592309
 20
25.4448070872
 30
0.0
  0
SPLINE
  5
46C
100
AcDbEntity
  8
00_COMPONENTS_2
100
AcDbSpline
 62
7
  6
BYLAYER
 70
0
 71
3
 72
10
 73
6
 74
0
 42
0.0000001
 43
0.0000001
 44
0.0000000001
 40
0.0
 40
0.0
 40
0.0
 40
0.0
 40
0.579937294
 40
0.8119719988
 40
1.0
 40
1.0
 40
1.0
 40
1.0
 10
22.4070178335
 20
25.3755509275
 30
0.0
 10
22.4005189152
 20
25.3867159815
 30
0.0
 10
22.3919872697
 20
25.402791466
 30
0.0
 10
22.3847734694
 20
25.4238969896
 30
0.0
 10
22.3832196864
 20
25.43323253
 30
0.0
 10
22.3832199948
 20
25.4374210668
 30
0.0
  0
SPLINE
  5
46D
100
AcDbEntity
  8
00_COMPONENTS_2
100
AcDbSpline
 62
7
  6
BYLAYER
 70
0
 71
3
 72
9
 73
5
 74
0
 42
0.0000001
 43
0.0000001
 44
0.0000000001
 40
0.0
 40
0.0
 40
0.0
 40
0.0
 40
0.5568893803
 40
1.0
 40
1.0
 40
1.0
 40
1.0
 10
22.9027564675
 20
25.3755509275
 30
0.0
 10
22.8983907081
 20
25.384818716
 30
0.0
 10
22.8913754138
 20
25.4018293963
 30
0.0
 10
22.8874386859
 20
25.4201197206
 30
0.0
 10
22.8874387213
 20
25.4282712308
 30
0.0
  0
LINE
  5
46E
100
AcDbEntity
  8
00_COMPONENTS_2
100
AcDbLine
 62
7
  6
BYLAYER
 10
21.7679697863
 20
25.0396099838
 11
21.7747397719
 21
25.0327621258
  0
SPLINE
  5
46F
100
AcDbEntity
  8
00_COMPONENTS_2
100
AcDbSpline
 62
7
  6
BYLAYER
 70
0
 71
3
 72
13
 73
9
 74
0
 42
0.0000001
 43
0.0000001
 44
0.0000000001
 40
0.0
 40
0.0
 40
0.0
 40
0.0
 40
0.3727065578
 40
0.6798386107
 40
0.8012537868
 40
0.8969277383
 40
0.9637798967
 40
1.0
 40
1.0
 40
1.0
 40
1.0
 10
21.8036835531
 20
25.0619864229
 30
0.0
 10
21.8067748989
 20
25.0585683124
 30
0.0
 10
21.8123670053
 20
25.0522947185
 30
0.0
 10
21.81881237
 20
25.0447569296
 30
0.0
 10
21.8228384087
 20
25.0396902174
 30
0.0
 10
21.8249522427
 20
25.0368576406
 30
0.0
 10
21.8262339636
 20
25.0348119752
 30
0.0
 10
21.8268569131
 20
25.0336218244
 30
0.0
 10
21.8268573254
 20
25.0331739475
 30
0.0
  0
SPLINE
  5
470
100
AcDbEntity
  8
00_COMPONENTS_2
100
AcDbSpline
 62
7
  6
BYLAYER
 70
0
 71
3
 72
11
 73
7
 74
0
 42
0.0000001
 43
0.0000001
 44
0.0000000001
 40
0.0
 40
0.0
 40
0.0
 40
0.0
 40
0.3523748777
 40
0.6477239517
 40
0.8687690395
 40
1.0
 40
1.0
 40
1.0
 40
1.0
 10
21.9649059881
 20
25.0619864229
 30
0.0
 10
21.9673536793
 20
25.0589534304
 30
0.0
 10
21.9717653546
 20
25.0533249863
 30
0.0
 10
21.9774377499
 20
25.0455014726
 30
0.0
 10
21.9810796115
 20
25.0394519639
 30
0.0
 10
21.9828225799
 20
25.0357599379
 30
0.0
 10
21.9828205394
 20
25.0343084508
 30
0.0
  0
SPLINE
  5
471
100
AcDbEntity
  8
00_COMPONENTS_2
100
AcDbSpline
 62
7
  6
BYLAYER
 70
0
 71
3
 72
10
 73
6
 74
0
 42
0.0000001
 43
0.0000001
 44
0.0000000001
 40
0.0
 40
0.0
 40
0.0
 40
0.0
 40
0.6158599925
 40
0.8416086952
 40
1.0
 40
1.0
 40
1.0
 40
1.0
 10
22.2281660744
 20
25.0619864229
 30
0.0
 10
22.231620502
 20
25.0570760767
 30
0.0
 10
22.2362027936
 20
25.0502033233
 30
0.0
 10
22.2403824408
 20
25.0414235334
 30
0.0
 10
22.2414357063
 20
25.0377368475
 30
0.0
 10
22.2414366896
 20
25.0361927697
 30
0.0
  0
SPLINE
  5
472
100
AcDbEntity
  8
00_COMPONENTS_2
100
AcDbSpline
 62
7
  6
BYLAYER
 70
0
 71
3
 72
10
 73
6
 74
0
 42
0.0000001
 43
0.0000001
 44
0.0000000001
 40
0.0
 40
0.0
 40
0.0
 40
0.0
 40
0.2098419889
 40
0.4565205973
 40
1.0
 40
1.0
 40
1.0
 40
1.0
 10
25.0641311125
 20
25.4561258064
 30
0.0
 10
25.0785318228
 20
25.4561258064
 30
0.0
 10
25.1098170468
 20
25.4507000016
 30
0.0
 10
25.1741440051
 20
25.426337004
 30
0.0
 10
25.2206906182
 20
25.397463908
 30
0.0
 10
25.250871606
 20
25.3755509276
 30
0.0
  0
SPLINE
  5
473
100
AcDbEntity
  8
00_COMPONENTS_2
100
AcDbSpline
 62
7
  6
BYLAYER
 70
0
 71
3
 72
11
 73
7
 74
0
 42
0.0000001
 43
0.0000001
 44
0.0000000001
 40
0.0
 40
0.0
 40
0.0
 40
0.0
 40
0.2442915526
 40
0.4712315746
 40
0.7105577986
 40
1.0
 40
1.0
 40
1.0
 40
1.0
 10
25.786359529
 20
25.3755509276
 30
0.0
 10
25.786359529
 20
25.386125296
 30
0.0
 10
25.788689072
 20
25.4067396384
 30
0.0
 10
25.8037096736
 20
25.4347900319
 30
0.0
 10
25.8323372423
 20
25.4531908405
 30
0.0
 10
25.8556564805
 20
25.4561258064
 30
0.0
 10
25.8681852334
 20
25.4561258064
 30
0.0
  0
SPLINE
  5
474
100
AcDbEntity
  8
00_COMPONENTS_2
100
AcDbSpline
 62
7
  6
BYLAYER
 70
0
 71
3
 72
10
 73
6
 74
0
 42
0.0000001
 43
0.0000001
 44
0.0000000001
 40
0.0
 40
0.0
 40
0.0
 40
0.0
 40
0.2181445727
 40
0.4669263048
 40
1.0
 40
1.0
 40
1.0
 40
1.0
 10
25.9316864708
 20
25.4561258064
 30
0.0
 10
25.947100123
 20
25.4561258064
 30
0.0
 10
25.9800838599
 20
25.4509079148
 30
0.0
 10
26.0467146891
 20
25.4268200188
 30
0.0
 10
26.0944086684
 20
25.3977358562
 30
0.0
 10
26.1248479403
 20
25.3755509276
 30
0.0
  0
SPLINE
  5
475
100
AcDbEntity
  8
00_COMPONENTS_2
100
AcDbSpline
 62
7
  6
BYLAYER
 70
0
 71
3
 72
11
 73
7
 74
0
 42
0.0000001
 43
0.0000001
 44
0.0000000001
 40
0.0
 40
0.0
 40
0.0
 40
0.0
 40
0.2326342065
 40
0.4594432046
 40
0.7061455313
 40
1.0
 40
1.0
 40
1.0
 40
1.0
 10
26.7049690178
 20
25.3755509276
 30
0.0
 10
26.7062625199
 20
25.3863264698
 30
0.0
 10
26.7115605334
 20
25.4075174761
 30
0.0
 10
26.7312374146
 20
25.4351227724
 30
0.0
 10
26.7634916261
 20
25.4530081149
 30
0.0
 10
26.7890498953
 20
25.4561258064
 30
0.0
 10
26.802758857
 20
25.4561258064
 30
0.0
  0
SPLINE
  5
476
100
AcDbEntity
  8
00_COMPONENTS_2
100
AcDbSpline
 62
7
  6
BYLAYER
 70
0
 71
3
 72
10
 73
6
 74
0
 42
0.0000001
 43
0.0000001
 44
0.0000000001
 40
0.0
 40
0.0
 40
0.0
 40
0.0
 40
0.2257919352
 40
0.476481271
 40
1.0
 40
1.0
 40
1.0
 40
1.0
 10
26.8710898856
 20
25.4561258064
 30
0.0
 10
26.8874023787
 20
25.4561258064
 30
0.0
 10
26.9218457895
 20
25.4510891258
 30
0.0
 10
26.9902829576
 20
25.4272653738
 30
0.0
 10
27.0387594333
 20
25.3979949895
 30
0.0
 10
27.0692022559
 20
25.3755509276
 30
0.0
  0
SPLINE
  5
477
100
AcDbEntity
  8
00_COMPONENTS_2
100
AcDbSpline
 62
7
  6
BYLAYER
 70
0
 71
3
 72
11
 73
7
 74
0
 42
0.0000001
 43
0.0000001
 44
0.0000000001
 40
0.0
 40
0.0
 40
0.0
 40
0.0
 40
0.2250796044
 40
0.4530464072
 40
0.7050062065
 40
1.0
 40
1.0
 40
1.0
 40
1.0
 10
27.6895414161
 20
25.3755509276
 30
0.0
 10
27.6921662236
 20
25.3865256927
 30
0.0
 10
27.7004875898
 20
25.4081196954
 30
0.0
 10
27.7244101693
 20
25.4352668646
 30
0.0
 10
27.7600564569
 20
25.4528486023
 30
0.0
 10
27.787761743
 20
25.4561258064
 30
0.0
 10
27.8025511505
 20
25.4561258064
 30
0.0
  0
SPLINE
  5
478
100
AcDbEntity
  8
00_COMPONENTS_2
100
AcDbSpline
 62
7
  6
BYLAYER
 70
0
 71
3
 72
10
 73
6
 74
0
 42
0.0000001
 43
0.0000001
 44
0.0000000001
 40
0.0
 40
0.0
 40
0.0
 40
0.0
 40
0.2329127067
 40
0.4853378274
 40
1.0
 40
1.0
 40
1.0
 40
1.0
 10
27.87519193
 20
25.4561258064
 30
0.0
 10
27.8922818173
 20
25.4561258064
 30
0.0
 10
27.9279358598
 20
25.4512500092
 30
0.0
 10
27.997675743
 20
25.4276785567
 30
0.0
 10
28.0465610618
 20
25.3982409706
 30
0.0
 10
28.0767474461
 20
25.3755509276
 30
0.0
  0
SPLINE
  5
479
100
AcDbEntity
  8
00_COMPONENTS_2
100
AcDbSpline
 62
7
  6
BYLAYER
 70
0
 71
3
 72
11
 73
7
 74
0
 42
0.0000001
 43
0.0000001
 44
0.0000000001
 40
0.0
 40
0.0
 40
0.0
 40
0.0
 40
0.2207637577
 40
0.4505869244
 40
0.7061181238
 40
1.0
 40
1.0
 40
1.0
 40
1.0
 10
28.7325835335
 20
25.3755509276
 30
0.0
 10
28.7365590067
 20
25.386703129
 30
0.0
 10
28.7478487657
 20
25.4085408627
 30
0.0
 10
28.7756613423
 20
25.435296144
 30
0.0
 10
28.8144820866
 20
25.4527071392
 30
0.0
 10
28.844192161
 20
25.4561258065
 30
0.0
 10
28.8599530908
 20
25.4561258065
 30
0.0
  0
SPLINE
  5
47A
100
AcDbEntity
  8
00_COMPONENTS_2
100
AcDbSpline
 62
7
  6
BYLAYER
 70
0
 71
3
 72
9
 73
5
 74
0
 42
0.0000001
 43
0.0000001
 44
0.0000000001
 40
0.0
 40
0.0
 40
0.0
 40
0.0
 40
0.4924254951
 40
1.0
 40
1.0
 40
1.0
 40
1.0
 10
28.9363507809
 20
25.4561258065
 30
0.0
 10
28.9727221017
 20
25.4561258065
 30
0.0
 10
29.0464576198
 20
25.4370898329
 30
0.0
 10
29.1101488858
 20
25.3984727916
 30
0.0
 10
29.1398154837
 20
25.3755509276
 30
0.0
  0
SPLINE
  5
47B
100
AcDbEntity
  8
00_COMPONENTS_2
100
AcDbSpline
 62
7
  6
BYLAYER
 70
0
 71
3
 72
11
 73
7
 74
0
 42
0.0000001
 43
0.0000001
 44
0.0000000001
 40
0.0
 40
0.0
 40
0.0
 40
0.0
 40
0.218887623
 40
0.4509124375
 40
0.7087362252
 40
1.0
 40
1.0
 40
1.0
 40
1.0
 10
29.8261571897
 20
25.3755509276
 30
0.0
 10
29.8314784323
 20
25.3868470496
 30
0.0
 10
29.8456090367
 20
25.4088070809
 30
0.0
 10
29.8770032161
 20
25.4352576696
 30
0.0
 10
29.9187631915
 20
25.4525779364
 30
0.0
 10
29.9503017115
 20
25.4561258065
 30
0.0
 10
29.9669172106
 20
25.4561258065
 30
0.0
  0
SPLINE
  5
47C
100
AcDbEntity
  8
00_COMPONENTS_2
100
AcDbSpline
 62
7
  6
BYLAYER
 70
0
 71
3
 72
10
 73
6
 74
0
 42
0.0000001
 43
0.0000001
 44
0.0000000001
 40
0.0
 40
0.0
 40
0.0
 40
0.0
 40
0.2458947501
 40
0.6282861924
 40
1.0
 40
1.0
 40
1.0
 40
1.0
 10
30.0464903788
 20
25.4561258065
 30
0.0
 10
30.0647467089
 20
25.4561258065
 30
0.0
 10
30.1114600878
 20
25.4503615043
 30
0.0
 10
30.1816206679
 20
25.4237345317
 30
0.0
 10
30.2287772645
 20
25.3928056524
 30
0.0
 10
30.2503157791
 20
25.3755509276
 30
0.0
  0
SPLINE
  5
47D
100
AcDbEntity
  8
00_COMPONENTS_2
100
AcDbSpline
 62
7
  6
BYLAYER
 70
0
 71
3
 72
11
 73
7
 74
0
 42
0.0000001
 43
0.0000001
 44
0.0000000001
 40
0.0
 40
0.0
 40
0.0
 40
0.0
 40
0.2187992313
 40
0.4531750571
 40
0.7123453181
 40
1.0
 40
1.0
 40
1.0
 40
1.0
 10
30.9619396288
 20
25.3755509276
 30
0.0
 10
30.9685770316
 20
25.3869538959
 30
0.0
 10
30.9853793353
 20
25.4089532258
 30
0.0
 10
31.0200717548
 20
25.4351789983
 30
0.0
 10
31.0645070458
 20
25.4524568428
 30
0.0
 10
31.0976726749
 20
25.4561258065
 30
0.0
 10
31.1150188446
 20
25.4561258065
 30
0.0
  0
SPLINE
  5
47E
100
AcDbEntity
  8
00_COMPONENTS_2
100
AcDbSpline
 62
7
  6
BYLAYER
 70
0
 71
3
 72
9
 73
5
 74
0
 42
0.0000001
 43
0.0000001
 44
0.0000000001
 40
0.0
 40
0.0
 40
0.0
 40
0.0
 40
0.5075647723
 40
1.0
 40
1.0
 40
1.0
 40
1.0
 10
31.197161891
 20
25.4561258065
 30
0.0
 10
31.2345977013
 20
25.4561258065
 30
0.0
 10
31.3086101673
 20
25.4386234121
 30
0.0
 10
31.3719641282
 20
25.3988850546
 30
0.0
 10
31.3997967544
 20
25.3755509276
 30
0.0
  0
SPLINE
  5
47F
100
AcDbEntity
  8
00_COMPONENTS_2
100
AcDbSpline
 62
7
  6
BYLAYER
 70
0
 71
3
 72
9
 73
5
 74
0
 42
0.0000001
 43
0.0000001
 44
0.0000000001
 40
0.0
 40
0.0
 40
0.0
 40
0.0
 40
0.4911008107
 40
1.0
 40
1.0
 40
1.0
 40
1.0
 10
31.7777544227
 20
25.0619864229
 30
0.0
 10
31.7881392884
 20
25.0534637413
 30
0.0
 10
31.8117809976
 20
25.0389416999
 30
0.0
 10
31.8392748714
 20
25.0327512067
 30
0.0
 10
31.8531960357
 20
25.0327927949
 30
0.0
  0
SPLINE
  5
480
100
AcDbEntity
  8
00_COMPONENTS_2
100
AcDbSpline
 62
7
  6
BYLAYER
 70
0
 71
3
 72
9
 73
5
 74
0
 42
0.0000001
 43
0.0000001
 44
0.0000000001
 40
0.0
 40
0.0
 40
0.0
 40
0.0
 40
0.5382530298
 40
1.0
 40
1.0
 40
1.0
 40
1.0
 10
33.0110175547
 20
25.0327923894
 30
0.0
 10
33.0239584226
 20
25.0327905588
 30
0.0
 10
33.0484752979
 20
25.0378479175
 30
0.0
 10
33.0680027065
 20
25.0533472919
 30
0.0
 10
33.074974674
 20
25.0619864229
 30
0.0
  0
SPLINE
  5
481
100
AcDbEntity
  8
00_COMPONENTS_2
100
AcDbSpline
 62
7
  6
BYLAYER
 70
0
 71
3
 72
11
 73
7
 74
0
 42
0.0000001
 43
0.0000001
 44
0.0000000001
 40
0.0
 40
0.0
 40
0.0
 40
0.0
 40
0.2221525819
 40
0.4613283113
 40
0.7212940313
 40
1.0
 40
1.0
 40
1.0
 40
1.0
 10
33.3252994468
 20
25.3755509276
 30
0.0
 10
33.3343976914
 20
25.3870677934
 30
0.0
 10
33.3559549411
 20
25.4090059977
 30
0.0
 10
33.3964023375
 20
25.4349566262
 30
0.0
 10
33.4452819647
 20
25.4522285107
 30
0.0
 10
33.4810236803
 20
25.4561258065
 30
0.0
 10
33.4994370866
 20
25.4561258065
 30
0.0
  0
SPLINE
  5
482
100
AcDbEntity
  8
00_COMPONENTS_2
100
AcDbSpline
 62
7
  6
BYLAYER
 70
0
 71
3
 72
9
 73
5
 74
0
 42
0.0000001
 43
0.0000001
 44
0.0000000001
 40
0.0
 40
0.0
 40
0.0
 40
0.0
 40
0.5211477129
 40
1.0
 40
1.0
 40
1.0
 40
1.0
 10
33.5848296144
 20
25.4561258065
 30
0.0
 10
33.6222429453
 20
25.4561258065
 30
0.0
 10
33.6946537327
 20
25.4400276906
 30
0.0
 10
33.7555269596
 20
25.3991990757
 30
0.0
 10
33.7804776807
 20
25.3755509276
 30
0.0
  0
SPLINE
  5
483
100
AcDbEntity
  8
00_COMPONENTS_2
100
AcDbSpline
 62
7
  6
BYLAYER
 70
0
 71
3
 72
9
 73
5
 74
0
 42
0.0000001
 43
0.0000001
 44
0.0000000001
 40
0.0
 40
0.0
 40
0.0
 40
0.0
 40
0.4667755204
 40
1.0
 40
1.0
 40
1.0
 40
1.0
 10
34.5348902305
 20
25.3755509276
 30
0.0
 10
34.5559565195
 20
25.3993460828
 30
0.0
 10
34.6121860811
 20
25.4413574508
 30
0.0
 10
34.6813021823
 20
25.4561258065
 30
0.0
 10
34.7176068321
 20
25.4561258065
 30
0.0
  0
SPLINE
  5
484
100
AcDbEntity
  8
00_COMPONENTS_2
100
AcDbSpline
 62
7
  6
BYLAYER
 70
0
 71
3
 72
9
 73
5
 74
0
 42
0.0000001
 43
0.0000001
 44
0.0000000001
 40
0.0
 40
0.0
 40
0.0
 40
0.0
 40
0.527391241
 40
1.0
 40
1.0
 40
1.0
 40
1.0
 10
34.8036542326
 20
25.4561258065
 30
0.0
 10
34.8406474794
 20
25.4561258065
 30
0.0
 10
34.9116062251
 20
25.4406995454
 30
0.0
 10
34.9704301028
 20
25.3992997407
 30
0.0
 10
34.9935592123
 20
25.3755509276
 30
0.0
  0
SPLINE
  5
485
100
AcDbEntity
  8
00_COMPONENTS_2
100
AcDbSpline
 62
7
  6
BYLAYER
 70
0
 71
3
 72
9
 73
5
 74
0
 42
0.0000001
 43
0.0000001
 44
0.0000000001
 40
0.0
 40
0.0
 40
0.0
 40
0.0
 40
0.4726088869
 40
1.0
 40
1.0
 40
1.0
 40
1.0
 10
35.7508534955
 20
25.3755509276
 30
0.0
 10
35.7739826112
 20
25.3992997472
 30
0.0
 10
35.8328064909
 20
25.4406995523
 30
0.0
 10
35.9037652372
 20
25.4561258065
 30
0.0
 10
35.9407584752
 20
25.4561258065
 30
0.0
  0
SPLINE
  5
486
100
AcDbEntity
  8
00_COMPONENTS_2
100
AcDbSpline
 62
7
  6
BYLAYER
 70
0
 71
3
 72
9
 73
5
 74
0
 42
0.0000001
 43
0.0000001
 44
0.0000000001
 40
0.0
 40
0.0
 40
0.0
 40
0.0
 40
0.5332246062
 40
1.0
 40
1.0
 40
1.0
 40
1.0
 10
36.0268058757
 20
25.4561258065
 30
0.0
 10
36.0631105339
 20
25.4561258065
 30
0.0
 10
36.1322266346
 20
25.4413574438
 30
0.0
 10
36.188456194
 20
25.3993460762
 30
0.0
 10
36.2095224772
 20
25.3755509276
 30
0.0
  0
SPLINE
  5
487
100
AcDbEntity
  8
00_COMPONENTS_2
100
AcDbSpline
 62
7
  6
BYLAYER
 70
0
 71
3
 72
9
 73
5
 74
0
 42
0.0000001
 43
0.0000001
 44
0.0000000001
 40
0.0
 40
0.0
 40
0.0
 40
0.0
 40
0.4788524161
 40
1.0
 40
1.0
 40
1.0
 40
1.0
 10
36.963935027
 20
25.3755509276
 30
0.0
 10
36.988885755
 20
25.3991990821
 30
0.0
 10
37.0497589835
 20
25.4400276976
 30
0.0
 10
37.1221697716
 20
25.4561258065
 30
0.0
 10
37.1595830933
 20
25.4561258065
 30
0.0
  0
SPLINE
  5
488
100
AcDbEntity
  8
00_COMPONENTS_2
100
AcDbSpline
 62
7
  6
BYLAYER
 70
0
 71
3
 72
11
 73
7
 74
0
 42
0.0000001
 43
0.0000001
 44
0.0000000001
 40
0.0
 40
0.0
 40
0.0
 40
0.0
 40
0.2787063417
 40
0.5386718132
 40
0.7778474438
 40
1.0
 40
1.0
 40
1.0
 40
1.0
 10
37.2449756211
 20
25.4561258065
 30
0.0
 10
37.263389052
 20
25.4561258065
 30
0.0
 10
37.2991307758
 20
25.4522284997
 30
0.0
 10
37.3480103997
 20
25.4349566066
 30
0.0
 10
37.3884577755
 20
25.4090059922
 30
0.0
 10
37.4100150174
 20
25.387067792
 30
0.0
 10
37.4191132609
 20
25.3755509276
 30
0.0
  0
SPLINE
  5
489
100
AcDbEntity
  8
00_COMPONENTS_2
100
AcDbSpline
 62
7
  6
BYLAYER
 70
0
 71
3
 72
9
 73
5
 74
0
 42
0.0000001
 43
0.0000001
 44
0.0000000001
 40
0.0
 40
0.0
 40
0.0
 40
0.0
 40
0.4854633634
 40
1.0
 40
1.0
 40
1.0
 40
1.0
 10
38.1649025423
 20
25.3755509276
 30
0.0
 10
38.1914233717
 20
25.399057569
 30
0.0
 10
38.2538059559
 20
25.4393376977
 30
0.0
 10
38.3272434276
 20
25.4561258065
 30
0.0
 10
38.3648046952
 20
25.4561258065
 30
0.0
  0
SPLINE
  5
48A
100
AcDbEntity
  8
00_COMPONENTS_2
100
AcDbSpline
 62
7
  6
BYLAYER
 70
0
 71
3
 72
11
 73
7
 74
0
 42
0.0000001
 43
0.0000001
 44
0.0000000001
 40
0.0
 40
0.0
 40
0.0
 40
0.0
 40
0.2833965508
 40
0.5432193544
 40
0.7799943513
 40
1.0
 40
1.0
 40
1.0
 40
1.0
 10
38.4488924616
 20
25.4561258065
 30
0.0
 10
38.4668395548
 20
25.4561258065
 30
0.0
 10
38.5014114659
 20
25.4523410397
 30
0.0
 10
38.5482287835
 20
25.4350757076
 30
0.0
 10
38.5859413639
 20
25.4090111813
 30
0.0
 10
38.6052236044
 20
25.387025813
 30
0.0
 10
38.613125847
 20
25.3755509276
 30
0.0
  0
SPLINE
  5
48B
100
AcDbEntity
  8
00_COMPONENTS_2
100
AcDbSpline
 62
7
  6
BYLAYER
 70
0
 71
3
 72
9
 73
5
 74
0
 42
0.0000001
 43
0.0000001
 44
0.0000000001
 40
0.0
 40
0.0
 40
0.0
 40
0.0
 40
0.492435359
 40
1.0
 40
1.0
 40
1.0
 40
1.0
 10
39.3446159533
 20
25.3755509276
 30
0.0
 10
39.372448587
 20
25.3988850609
 30
0.0
 10
39.4358025492
 20
25.4386234192
 30
0.0
 10
39.509815016
 20
25.4561258065
 30
0.0
 10
39.5472508167
 20
25.4561258065
 30
0.0
  0
SPLINE
  5
48C
100
AcDbEntity
  8
00_COMPONENTS_2
100
AcDbSpline
 62
7
  6
BYLAYER
 70
0
 71
3
 72
11
 73
7
 74
0
 42
0.0000001
 43
0.0000001
 44
0.0000000001
 40
0.0
 40
0.0
 40
0.0
 40
0.0
 40
0.2876550564
 40
0.5468250641
 40
0.7812007933
 40
1.0
 40
1.0
 40
1.0
 40
1.0
 10
39.6293938631
 20
25.4561258065
 30
0.0
 10
39.6467400553
 20
25.4561258065
 30
0.0
 10
39.679905692
 20
25.4524568321
 30
0.0
 10
39.7243409783
 20
25.4351789782
 30
0.0
 10
39.75903338
 20
25.4089532201
 30
0.0
 10
39.7758356769
 20
25.3869538945
 30
0.0
 10
39.7824730789
 20
25.3755509276
 30
0.0
  0
SPLINE
  5
48D
100
AcDbEntity
  8
00_COMPONENTS_2
100
AcDbSpline
 62
7
  6
BYLAYER
 70
0
 71
3
 72
9
 73
5
 74
0
 42
0.0000001
 43
0.0000001
 44
0.0000000001
 40
0.0
 40
0.0
 40
0.0
 40
0.0
 40
0.2476462292
 40
1.0
 40
1.0
 40
1.0
 40
1.0
 10
40.4940969286
 20
25.3755509276
 30
0.0
 10
40.5083448612
 20
25.3869650924
 30
0.0
 10
40.5684448903
 20
25.4292354331
 30
0.0
 10
40.6424598341
 20
25.4561258065
 30
0.0
 10
40.697922329
 20
25.4561258065
 30
0.0
  0
SPLINE
  5
48E
100
AcDbEntity
  8
00_COMPONENTS_2
100
AcDbSpline
 62
7
  6
BYLAYER
 70
0
 71
3
 72
11
 73
7
 74
0
 42
0.0000001
 43
0.0000001
 44
0.0000000001
 40
0.0
 40
0.0
 40
0.0
 40
0.0
 40
0.2912641486
 40
0.5490876818
 40
0.7811124008
 40
1.0
 40
1.0
 40
1.0
 40
1.0
 10
40.7774954971
 20
25.4561258065
 30
0.0
 10
40.7941110174
 20
25.4561258065
 30
0.0
 10
40.8256495446
 20
25.4525779259
 30
0.0
 10
40.8674095146
 20
25.4352576493
 30
0.0
 10
40.8988036778
 20
25.4088070753
 30
0.0
 10
40.9129342761
 20
25.3868470483
 30
0.0
 10
40.918255518
 20
25.3755509276
 30
0.0
  0
SPLINE
  5
48F
100
AcDbEntity
  8
00_COMPONENTS_2
100
AcDbSpline
 62
7
  6
BYLAYER
 70
0
 71
3
 72
9
 73
5
 74
0
 42
0.0000001
 43
0.0000001
 44
0.0000000001
 40
0.0
 40
0.0
 40
0.0
 40
0.0
 40
0.5075746382
 40
1.0
 40
1.0
 40
1.0
 40
1.0
 10
41.604597224
 20
25.3755509276
 30
0.0
 10
41.6342638298
 20
25.3984727976
 30
0.0
 10
41.6979550967
 20
25.4370898401
 30
0.0
 10
41.7716906157
 20
25.4561258064
 30
0.0
 10
41.8080619269
 20
25.4561258064
 30
0.0
  0
SPLINE
  5
490
100
AcDbEntity
  8
00_COMPONENTS_2
100
AcDbSpline
 62
7
  6
BYLAYER
 70
0
 71
3
 72
11
 73
7
 74
0
 42
0.0000001
 43
0.0000001
 44
0.0000000001
 40
0.0
 40
0.0
 40
0.0
 40
0.0
 40
0.2938822474
 40
0.5494131926
 40
0.7792362652
 40
1.0
 40
1.0
 40
1.0
 40
1.0
 10
41.8844596169
 20
25.4561258064
 30
0.0
 10
41.9002205665
 20
25.4561258064
 30
0.0
 10
41.9299306477
 20
25.4527071289
 30
0.0
 10
41.9687513857
 20
25.4352961235
 30
0.0
 10
41.996563948
 20
25.408540857
 30
0.0
 10
42.0078537014
 20
25.3867031278
 30
0.0
 10
42.0118291742
 20
25.3755509276
 30
0.0
  0
SPLINE
  5
491
100
AcDbEntity
  8
00_COMPONENTS_2
100
AcDbSpline
 62
7
  6
BYLAYER
 70
0
 71
3
 72
10
 73
6
 74
0
 42
0.0000001
 43
0.0000001
 44
0.0000000001
 40
0.0
 40
0.0
 40
0.0
 40
0.0
 40
0.5146623063
 40
0.7670876408
 40
1.0
 40
1.0
 40
1.0
 40
1.0
 10
42.6676652616
 20
25.3755509276
 30
0.0
 10
42.6978516539
 20
25.3982409766
 30
0.0
 10
42.7467369956
 20
25.4276785744
 30
0.0
 10
42.8164768825
 20
25.4512500219
 30
0.0
 10
42.8521309158
 20
25.4561258064
 30
0.0
 10
42.8692207778
 20
25.4561258064
 30
0.0
  0
SPLINE
  5
492
100
AcDbEntity
  8
00_COMPONENTS_2
100
AcDbSpline
 62
7
  6
BYLAYER
 70
0
 71
3
 72
11
 73
7
 74
0
 42
0.0000001
 43
0.0000001
 44
0.0000000001
 40
0.0
 40
0.0
 40
0.0
 40
0.0
 40
0.2949941598
 40
0.5469537072
 40
0.7749204173
 40
1.0
 40
1.0
 40
1.0
 40
1.0
 10
42.9418615572
 20
25.4561258064
 30
0.0
 10
42.9566509829
 20
25.4561258064
 30
0.0
 10
42.9843562755
 20
25.4528485922
 30
0.0
 10
43.0200025556
 20
25.4352668441
 30
0.0
 10
43.043925123
 20
25.4081196898
 30
0.0
 10
43.0522464844
 20
25.3865256915
 30
0.0
 10
43.0548712916
 20
25.3755509276
 30
0.0
  0
SPLINE
  5
493
100
AcDbEntity
  8
00_COMPONENTS_2
100
AcDbSpline
 62
7
  6
BYLAYER
 70
0
 71
3
 72
10
 73
6
 74
0
 42
0.0000001
 43
0.0000001
 44
0.0000000001
 40
0.0
 40
0.0
 40
0.0
 40
0.0
 40
0.5235188636
 40
0.7742084075
 40
1.0
 40
1.0
 40
1.0
 40
1.0
 10
43.6752104518
 20
25.3755509276
 30
0.0
 10
43.7056532823
 20
25.3979949953
 30
0.0
 10
43.7541297802
 20
25.427265391
 30
0.0
 10
43.8225669519
 20
25.4510891387
 30
0.0
 10
43.8570103537
 20
25.4561258064
 30
0.0
 10
43.8733228221
 20
25.4561258064
 30
0.0
  0
SPLINE
  5
494
100
AcDbEntity
  8
00_COMPONENTS_2
100
AcDbSpline
 62
7
  6
BYLAYER
 70
0
 71
3
 72
11
 73
7
 74
0
 42
0.0000001
 43
0.0000001
 44
0.0000000001
 40
0.0
 40
0.0
 40
0.0
 40
0.0
 40
0.2938548269
 40
0.5405569069
 40
0.767365814
 40
1.0
 40
1.0
 40
1.0
 40
1.0
 10
43.9416538507
 20
25.4561258064
 30
0.0
 10
43.955362829
 20
25.4561258064
 30
0.0
 10
43.9809211042
 20
25.4530081048
 30
0.0
 10
44.0131753069
 20
25.4351227518
 30
0.0
 10
44.0328521784
 20
25.4075174705
 30
0.0
 10
44.038150188
 20
25.3863264687
 30
0.0
 10
44.0394436899
 20
25.3755509276
 30
0.0
  0
SPLINE
  5
495
100
AcDbEntity
  8
00_COMPONENTS_2
100
AcDbSpline
 62
7
  6
BYLAYER
 70
0
 71
3
 72
10
 73
6
 74
0
 42
0.0000001
 43
0.0000001
 44
0.0000000001
 40
0.0
 40
0.0
 40
0.0
 40
0.0
 40
0.5330738309
 40
0.7818557648
 40
1.0
 40
1.0
 40
1.0
 40
1.0
 10
44.6195647674
 20
25.3755509276
 30
0.0
 10
44.6500040472
 20
25.3977358619
 30
0.0
 10
44.6976980477
 20
25.4268200354
 30
0.0
 10
44.7643288803
 20
25.4509079279
 30
0.0
 10
44.7973126085
 20
25.4561258064
 30
0.0
 10
44.812726237
 20
25.4561258064
 30
0.0
  0
SPLINE
  5
496
100
AcDbEntity
  8
00_COMPONENTS_2
100
AcDbSpline
 62
7
  6
BYLAYER
 70
0
 71
3
 72
11
 73
7
 74
0
 42
0.0000001
 43
0.0000001
 44
0.0000000001
 40
0.0
 40
0.0
 40
0.0
 40
0.0
 40
0.2894425469
 40
0.5287685339
 40
0.7557084665
 40
1.0
 40
1.0
 40
1.0
 40
1.0
 10
44.8762274744
 20
25.4561258064
 30
0.0
 10
44.888756242
 20
25.4561258064
 30
0.0
 10
44.9120754861
 20
25.4531908304
 30
0.0
 10
44.9407030441
 20
25.4347900116
 30
0.0
 10
44.9557236389
 20
25.4067396329
 30
0.0
 10
44.9580531787
 20
25.386125295
 30
0.0
 10
44.9580531787
 20
25.3755509276
 30
0.0
  0
SPLINE
  5
497
100
AcDbEntity
  8
00_COMPONENTS_2
100
AcDbSpline
 62
7
  6
BYLAYER
 70
0
 71
3
 72
10
 73
6
 74
0
 42
0.0000001
 43
0.0000001
 44
0.0000000001
 40
0.0
 40
0.0
 40
0.0
 40
0.0
 40
0.5434795395
 40
0.7901583428
 40
1.0
 40
1.0
 40
1.0
 40
1.0
 10
45.4935411017
 20
25.3755509276
 30
0.0
 10
45.5237220973
 20
25.3974639136
 30
0.0
 10
45.5702687304
 20
25.4263370201
 30
0.0
 10
45.6345956919
 20
25.450700015
 30
0.0
 10
45.6658809077
 20
25.4561258064
 30
0.0
 10
45.6802815952
 20
25.4561258064
 30
0.0
  0
SPLINE
  5
498
100
AcDbEntity
  8
00_COMPONENTS_2
100
AcDbSpline
 62
7
  6
BYLAYER
 70
0
 71
3
 72
11
 73
7
 74
0
 42
0.0000001
 43
0.0000001
 44
0.0000000001
 40
0.0
 40
0.0
 40
0.0
 40
0.0
 40
0.2875715938
 40
0.5248478755
 40
0.7516765581
 40
1.0
 40
1.0
 40
1.0
 40
1.0
 10
45.7384697586
 20
25.4561258064
 30
0.0
 10
45.7485558919
 20
25.4561258064
 30
0.0
 10
45.767295659
 20
25.4538873031
 30
0.0
 10
45.7905460443
 20
25.4393153936
 30
0.0
 10
45.8028203634
 20
25.4165268694
 30
0.0
 10
45.8046751802
 20
25.3996779944
 30
0.0
 10
45.8046752012
 20
25.39096843
 30
0.0
  0
SPLINE
  5
499
100
AcDbEntity
  8
00_COMPONENTS_2
100
AcDbSpline
 62
7
  6
BYLAYER
 70
0
 71
3
 72
11
 73
7
 74
0
 42
0.0000001
 43
0.0000001
 44
0.0000000001
 40
0.0
 40
0.0
 40
0.0
 40
0.0
 40
0.2839711329
 40
0.5552001873
 40
0.7994006395
 40
1.0
 40
1.0
 40
1.0
 40
1.0
 10
46.2904879672
 20
25.3755509275
 30
0.0
 10
46.305682831
 20
25.3866253373
 30
0.0
 10
46.3361784608
 20
25.4072229473
 30
0.0
 10
46.382641027
 20
25.4328204554
 30
0.0
 10
46.4267486845
 20
25.4504516488
 30
0.0
 10
46.4561041903
 20
25.4561258064
 30
0.0
 10
46.4693862767
 20
25.4561258064
 30
0.0
  0
SPLINE
  5
49A
100
AcDbEntity
  8
00_COMPONENTS_2
100
AcDbSpline
 62
7
  6
BYLAYER
 70
0
 71
3
 72
11
 73
7
 74
0
 42
0.0000001
 43
0.0000001
 44
0.0000000001
 40
0.0
 40
0.0
 40
0.0
 40
0.0
 40
0.2856554169
 40
0.5209636125
 40
0.7476609822
 40
1.0
 40
1.0
 40
1.0
 40
1.0
 10
46.521818519
 20
25.4561258064
 30
0.0
 10
46.5296998259
 20
25.4561258064
 30
0.0
 10
46.5443201522
 20
25.4544603366
 30
0.0
 10
46.5626403532
 20
25.4432552488
 30
0.0
 10
46.5723931254
 20
25.4252912181
 30
0.0
 10
46.5738330667
 20
25.4119225984
 30
0.0
 10
46.5738328545
 20
25.4049604995
 30
0.0
  0
SPLINE
  5
49B
100
AcDbEntity
  8
00_COMPONENTS_2
100
AcDbSpline
 62
7
  6
BYLAYER
 70
0
 71
3
 72
11
 73
7
 74
0
 42
0.0000001
 43
0.0000001
 44
0.0000000001
 40
0.0
 40
0.0
 40
0.0
 40
0.0
 40
0.2927490443
 40
0.5678932545
 40
0.8095216138
 40
1.0
 40
1.0
 40
1.0
 40
1.0
 10
47.0043401169
 20
25.3755509275
 30
0.0
 10
47.0192682453
 20
25.3865567349
 30
0.0
 10
47.0489142353
 20
25.4069893185
 30
0.0
 10
47.0935068673
 20
25.4325500584
 30
0.0
 10
47.1347529226
 20
25.4501591149
 30
0.0
 10
47.1619672879
 20
25.4561258064
 30
0.0
 10
47.1740347182
 20
25.4561258064
 30
0.0
  0
SPLINE
  5
49C
100
AcDbEntity
  8
00_COMPONENTS_2
100
AcDbSpline
 62
7
  6
BYLAYER
 70
0
 71
3
 72
11
 73
7
 74
0
 42
0.0000001
 43
0.0000001
 44
0.0000000001
 40
0.0
 40
0.0
 40
0.0
 40
0.0
 40
0.2837394035
 40
0.5171961992
 40
0.7436798395
 40
1.0
 40
1.0
 40
1.0
 40
1.0
 10
47.2203119986
 20
25.4561258064
 30
0.0
 10
47.2262424614
 20
25.4561258064
 30
0.0
 10
47.2372289008
 20
25.454925714
 30
0.0
 10
47.2511219749
 20
25.4466254104
 30
0.0
 10
47.258593299
 20
25.4329952583
 30
0.0
 10
47.2596725333
 20
25.4227825985
 30
0.0
 10
47.2596726972
 20
25.4174252277
 30
0.0
  0
SPLINE
  5
49D
100
AcDbEntity
  8
00_COMPONENTS_2
100
AcDbSpline
 62
7
  6
BYLAYER
 70
0
 71
3
 72
12
 73
8
 74
0
 42
0.0000001
 43
0.0000001
 44
0.0000000001
 40
0.0
 40
0.0
 40
0.0
 40
0.0
 40
0.3024622202
 40
0.5818581966
 40
0.8204748465
 40
0.9184504796
 40
1.0
 40
1.0
 40
1.0
 40
1.0
 10
47.629664705
 20
25.3755509275
 30
0.0
 10
47.644210785
 20
25.3864847041
 30
0.0
 10
47.6727964549
 20
25.4067542582
 30
0.0
 10
47.7151256128
 20
25.432206478
 30
0.0
 10
47.7489156295
 20
25.4478760823
 30
0.0
 10
47.7731618028
 20
25.4547569423
 30
0.0
 10
47.7839578276
 20
25.4561258064
 30
0.0
 10
47.7888641198
 20
25.4561258064
 30
0.0
  0
SPLINE
  5
49E
100
AcDbEntity
  8
00_COMPONENTS_2
100
AcDbSpline
 62
7
  6
BYLAYER
 70
0
 71
3
 72
11
 73
7
 74
0
 42
0.0000001
 43
0.0000001
 44
0.0000000001
 40
0.0
 40
0.0
 40
0.0
 40
0.0
 40
0.281893533
 40
0.5136684611
 40
0.7398762031
 40
1.0
 40
1.0
 40
1.0
 40
1.0
 10
47.82863424
 20
25.4561258064
 30
0.0
 10
47.8328804405
 20
25.4561258064
 30
0.0
 10
47.8407377561
 20
25.4552974075
 30
0.0
 10
47.8507561024
 20
25.4494423401
 30
0.0
 10
47.8562021093
 20
25.4396077218
 30
0.0
 10
47.8569739674
 20
25.4321895096
 30
0.0
 10
47.8569739847
 20
25.4282712295
 30
0.0
  0
SPLINE
  5
49F
100
AcDbEntity
  8
00_COMPONENTS_2
100
AcDbSpline
 62
7
  6
BYLAYER
 70
0
 71
3
 72
12
 73
8
 74
0
 42
0.0000001
 43
0.0000001
 44
0.0000000001
 40
0.0
 40
0.0
 40
0.0
 40
0.0
 40
0.3136736668
 40
0.5980762802
 40
0.8334428371
 40
0.9261352449
 40
1.0
 40
1.0
 40
1.0
 40
1.0
 10
48.1617026338
 20
25.3755509275
 30
0.0
 10
48.1757558605
 20
25.3864091375
 30
0.0
 10
48.203055928
 20
25.4064924339
 30
0.0
 10
48.2428579118
 20
25.4318585381
 30
0.0
 10
48.2739144465
 20
25.4476620803
 30
0.0
 10
48.2955998634
 20
25.4546787599
 30
0.0
 10
48.3050132409
 20
25.4561258064
 30
0.0
 10
48.3091952585
 20
25.4561258064
 30
0.0
  0
SPLINE
  5
4A0
100
AcDbEntity
  8
00_COMPONENTS_2
100
AcDbSpline
 62
7
  6
BYLAYER
 70
0
 71
3
 72
11
 73
7
 74
0
 42
0.0000001
 43
0.0000001
 44
0.0000000001
 40
0.0
 40
0.0
 40
0.0
 40
0.0
 40
0.2801864992
 40
0.5104957253
 40
0.7363923815
 40
1.0
 40
1.0
 40
1.0
 40
1.0
 10
48.3421555439
 20
25.4561258064
 30
0.0
 10
48.3449926991
 20
25.4561258064
 30
0.0
 10
48.3502380252
 20
25.4555879087
 30
0.0
 10
48.3569736625
 20
25.4517284058
 30
0.0
 10
48.3606761078
 20
25.4451126424
 30
0.0
 10
48.3611925167
 20
25.4400903445
 30
0.0
 10
48.3611927124
 20
25.4374210664
 30
0.0
  0
SPLINE
  5
4A1
100
AcDbEntity
  8
00_COMPONENTS_2
100
AcDbSpline
 62
7
  6
BYLAYER
 70
0
 71
3
 72
12
 73
8
 74
0
 42
0.0000001
 43
0.0000001
 44
0.0000000001
 40
0.0
 40
0.0
 40
0.0
 40
0.0
 40
0.3265484998
 40
0.6167356387
 40
0.8484421515
 40
0.9350592736
 40
1.0
 40
1.0
 40
1.0
 40
1.0
 10
48.5964047735
 20
25.3755509275
 30
0.0
 10
48.6098599218
 20
25.3863299848
 30
0.0
 10
48.6356767545
 20
25.4062130596
 30
0.0
 10
48.6726609607
 20
25.4314694569
 30
0.0
 10
48.7007393037
 20
25.4473956209
 30
0.0
 10
48.7196772705
 20
25.4545662997
 30
0.0
 10
48.7276395135
 20
25.4561258064
 30
0.0
 10
48.7310680999
 20
25.4561258064
 30
0.0
  0
SPLINE
  5
4A2
100
AcDbEntity
  8
00_COMPONENTS_2
100
AcDbSpline
 62
7
  6
BYLAYER
 70
0
 71
3
 72
9
 73
5
 74
0
 42
0.0000001
 43
0.0000001
 44
0.0000000001
 40
0.0
 40
0.0
 40
0.0
 40
0.0
 40
0.5077779917
 40
1.0
 40
1.0
 40
1.0
 40
1.0
 10
48.756967703
 20
25.4561258064
 30
0.0
 10
48.7600207276
 20
25.4561258064
 30
0.0
 10
48.7669210402
 20
25.4546254832
 30
0.0
 10
48.7684900764
 20
25.4477665854
 30
0.0
 10
48.7684896226
 20
25.4448070915
 30
0.0
  0
SPLINE
  5
4A3
100
AcDbEntity
  8
00_COMPONENTS_2
100
AcDbSpline
 62
7
  6
BYLAYER
 70
0
 71
3
 72
13
 73
9
 74
0
 42
0.0000001
 43
0.0000001
 44
0.0000000001
 40
0.0
 40
0.0
 40
0.0
 40
0.0
 40
0.341411691
 40
0.6383167828
 40
0.7625571992
 40
0.8659968688
 40
0.9455762534
 40
1.0
 40
1.0
 40
1.0
 40
1.0
 10
48.9304627781
 20
25.3755509275
 30
0.0
 10
48.9432213118
 20
25.3862473398
 30
0.0
 10
48.9673770186
 20
25.4058842681
 30
0.0
 10
48.9972314594
 20
25.4281096677
 30
0.0
 10
49.0186375892
 20
25.44211604
 30
0.0
 10
49.0316581897
 20
25.4495970755
 30
0.0
 10
49.0421716959
 20
25.4543883064
 30
0.0
 10
49.0486179337
 20
25.4561258064
 30
0.0
 10
49.0512719372
 20
25.4561258064
 30
0.0
  0
SPLINE
  5
4A4
100
AcDbEntity
  8
00_COMPONENTS_2
100
AcDbSpline
 62
7
  6
BYLAYER
 70
0
 71
3
 72
14
 73
10
 74
0
 42
0.0000001
 43
0.0000001
 44
0.0000000001
 40
0.0
 40
0.0
 40
0.0
 40
0.0
 40
0.3586959494
 40
0.5194144389
 40
0.6635161302
 40
0.7872264282
 40
0.8865811389
 40
0.9580621773
 40
1.0
 40
1.0
 40
1.0
 40
1.0
 10
49.1613342647
 20
25.3755509275
 30
0.0
 10
49.1733054775
 20
25.3861615688
 30
0.0
 10
49.190788574
 20
25.4013650248
 30
0.0
 10
49.2135710891
 20
25.4202456865
 30
0.0
 10
49.2285358246
 20
25.4321465142
 30
0.0
 10
49.2416280816
 20
25.4419517641
 30
0.0
 10
49.2525005542
 20
25.4494302528
 30
0.0
 10
49.2606518306
 20
25.454082519
 30
0.0
 10
49.2654995276
 20
25.4561258064
 30
0.0
 10
49.2673698258
 20
25.4561258064
 30
0.0
  0
SPLINE
  5
4A5
100
AcDbEntity
  8
00_COMPONENTS_2
100
AcDbSpline
 62
7
  6
BYLAYER
 70
0
 71
3
 72
15
 73
11
 74
0
 42
0.0000001
 43
0.0000001
 44
0.0000000001
 40
0.0
 40
0.0
 40
0.0
 40
0.0
 40
0.3921062849
 40
0.5593888236
 40
0.703746964
 40
0.8223148094
 40
0.912414155
 40
0.9718958752
 40
0.9897975112
 40
1.0
 40
1.0
 40
1.0
 40
1.0
 10
49.324269072
 20
25.4102461734
 30
0.0
 10
49.3310394327
 20
25.4165092576
 30
0.0
 10
49.3407360522
 20
25.4254033106
 30
0.0
 10
49.3530672278
 20
25.4364484364
 30
0.0
 10
49.3606761128
 20
25.4431165384
 30
0.0
 10
49.3670029395
 20
25.4485048805
 30
0.0
 10
49.3719055875
 20
25.4524509854
 30
0.0
 10
49.3750799915
 20
25.4548330575
 30
0.0
 10
49.3768456741
 20
25.4558520586
 30
0.0
 10
49.3774771501
 20
25.4561258064
 30
0.0
 10
49.3777171302
 20
25.4561258064
 30
0.0
  0
SPLINE
  5
4A6
100
AcDbEntity
  8
00_COMPONENTS_2
100
AcDbSpline
 62
7
  6
BYLAYER
 70
0
 71
3
 72
13
 73
9
 74
0
 42
0.0000001
 43
0.0000001
 44
0.0000000001
 40
0.0
 40
0.0
 40
0.0
 40
0.0
 40
0.4033545905
 40
0.578373892
 40
0.7294240147
 40
0.8514055911
 40
0.9390590246
 40
1.0
 40
1.0
 40
1.0
 40
1.0
 10
48.9529389499
 20
25.0619859424
 30
0.0
 10
48.9484117729
 20
25.0577856502
 30
0.0
 10
48.9419128269
 20
25.0518218337
 30
0.0
 10
48.9334649996
 20
25.0443895665
 30
0.0
 10
48.9284105621
 20
25.0400395095
 30
0.0
 10
48.9236581067
 20
25.0363035588
 30
0.0
 10
48.9213913287
 20
25.0344864755
 30
0.0
 10
48.9175544768
 20
25.0322407443
 30
0.0
 10
48.9175552169
 20
25.0331737838
 30
0.0
  0
SPLINE
  5
4A7
100
AcDbEntity
  8
00_COMPONENTS_2
100
AcDbSpline
 62
7
  6
BYLAYER
 70
0
 71
3
 72
17
 73
13
 74
0
 42
0.0000001
 43
0.0000001
 44
0.0000000001
 40
0.0
 40
0.0
 40
0.0
 40
0.0
 40
0.009411314
 40
0.0201640018
 40
0.0387912897
 40
0.0665298122
 40
0.1034864479
 40
0.1495168583
 40
0.2671352337
 40
0.4152403891
 40
0.5895013408
 40
1.0
 40
1.0
 40
1.0
 40
1.0
 10
21.8268573254
 20
25.0331739475
 30
0.0
 10
21.8268574295
 20
25.0330609554
 30
0.0
 10
21.8267659212
 20
25.0327775182
 30
0.0
 10
21.8262255025
 20
25.0327896354
 30
0.0
 10
21.8256099582
 20
25.0330349372
 30
0.0
 10
21.8247126296
 20
25.0335062201
 30
0.0
 10
21.8235958268
 20
25.0342202844
 30
0.0
 10
21.8216217132
 20
25.0356046261
 30
0.0
 10
21.8186651927
 20
25.0379002814
 30
0.0
 10
21.8145898759
 20
25.041262447
 30
0.0
 10
21.8079203428
 20
25.0470018234
 30
0.0
 10
21.8026972928
 20
25.051694406
 30
0.0
 10
21.7990541211
 20
25.0550135687
 30
0.0
  0
SPLINE
  5
4A8
100
AcDbEntity
  8
00_COMPONENTS_2
100
AcDbSpline
 62
7
  6
BYLAYER
 70
0
 71
3
 72
17
 73
13
 74
0
 42
0.0000001
 43
0.0000001
 44
0.0000000001
 40
0.0
 40
0.0
 40
0.0
 40
0.0
 40
0.2066767596
 40
0.3988901759
 40
0.5719465565
 40
0.7203830109
 40
0.8384697694
 40
0.9209445088
 40
0.9483750581
 40
0.9676120867
 40
0.9825223108
 40
1.0
 40
1.0
 40
1.0
 40
1.0
 10
48.8038334057
 20
25.0619859384
 30
0.0
 10
48.8010832136
 20
25.0595997514
 30
0.0
 10
48.7957415112
 20
25.0550332683
 30
0.0
 10
48.7879586821
 20
25.0486312751
 30
0.0
 10
48.7808264903
 20
25.0430617072
 30
0.0
 10
48.7745506937
 20
25.0385095405
 30
0.0
 10
48.7693782819
 20
25.0352055283
 30
0.0
 10
48.7657715663
 20
25.033345055
 30
0.0
 10
48.7635728151
 20
25.0327724147
 30
0.0
 10
48.7624424338
 20
25.0327731533
 30
0.0
 10
48.7616689757
 20
25.0333905268
 30
0.0
 10
48.7615924592
 20
25.034000472
 30
0.0
 10
48.7615920946
 20
25.0343083807
 30
0.0
  0
SPLINE
  5
4A9
100
AcDbEntity
  8
00_COMPONENTS_2
100
AcDbSpline
 62
7
  6
BYLAYER
 70
0
 71
3
 72
15
 73
11
 74
0
 42
0.0000001
 43
0.0000001
 44
0.0000000001
 40
0.0
 40
0.0
 40
0.0
 40
0.0
 40
0.2034667888
 40
0.3933245567
 40
0.5643498166
 40
0.7105368117
 40
0.8256323174
 40
0.9053565823
 40
0.953917153
 40
1.0
 40
1.0
 40
1.0
 40
1.0
 10
48.5525050691
 20
25.0619859382
 30
0.0
 10
48.5493378408
 20
25.0593866486
 30
0.0
 10
48.5431579472
 20
25.0544306484
 30
0.0
 10
48.5340918722
 20
25.047576215
 30
0.0
 10
48.5257018765
 20
25.0417446075
 30
0.0
 10
48.5183122268
 20
25.0371504317
 30
0.0
 10
48.5120909932
 20
25.0341267346
 30
0.0
 10
48.5075242814
 20
25.032536487
 30
0.0
 10
48.5035429223
 20
25.0330528898
 30
0.0
 10
48.5029755758
 20
25.0352649068
 30
0.0
 10
48.5029761592
 20
25.0361928909
 30
0.0
  0
SPLINE
  5
4AA
100
AcDbEntity
  8
00_COMPONENTS_2
100
AcDbSpline
 62
7
  6
BYLAYER
 70
0
 71
3
 72
15
 73
11
 74
0
 42
0.0000001
 43
0.0000001
 44
0.0000000001
 40
0.0
 40
0.0
 40
0.0
 40
0.0
 40
0.0401950922
 40
0.0842153398
 40
0.1585562265
 40
0.267764339
 40
0.4104186655
 40
0.5827424868
 40
0.7805946469
 40
1.0
 40
1.0
 40
1.0
 40
1.0
 10
21.9828205394
 20
25.0343084508
 30
0.0
 10
21.9828199322
 20
25.0338765251
 30
0.0
 10
21.9825107175
 20
25.0328220672
 30
0.0
 10
21.980552865
 20
25.0327207972
 30
0.0
 10
21.9783167701
 20
25.0335583359
 30
0.0
 10
21.9751549803
 20
25.0351524775
 30
0.0
 10
21.9713047557
 20
25.0375780961
 30
0.0
 10
21.9667748154
 20
25.0407248368
 30
0.0
 10
21.9617040458
 20
25.0445225678
 30
0.0
 10
21.9581811238
 20
25.0472972459
 30
0.0
 10
21.9563425222
 20
25.0487731075
 30
0.0
  0
LINE
  5
4AB
100
AcDbEntity
  8
00_COMPONENTS_2
100
AcDbLine
 62
7
  6
BYLAYER
 10
21.9563425222
 20
25.0487731075
 11
21.9405792684
 21
25.0619864229
  0
SPLINE
  5
4AC
100
AcDbEntity
  8
00_COMPONENTS_2
100
AcDbSpline
 62
7
  6
BYLAYER
 70
0
 71
3
 72
16
 73
12
 74
0
 42
0.0000001
 43
0.0000001
 44
0.0000000001
 40
0.0
 40
0.0
 40
0.0
 40
0.0
 40
0.1983069759
 40
0.3841853862
 40
0.5519628438
 40
0.6951894997
 40
0.8073680402
 40
0.8508257031
 40
0.8862573028
 40
0.9407392082
 40
1.0
 40
1.0
 40
1.0
 40
1.0
 10
48.2008667006
 20
25.0619859418
 30
0.0
 10
48.1972719146
 20
25.0591668889
 30
0.0
 10
48.1902236777
 20
25.0538103629
 30
0.0
 10
48.1798029369
 20
25.0465192322
 30
0.0
 10
48.1700866301
 20
25.0404475826
 30
0.0
 10
48.1614391881
 20
25.0359377027
 30
0.0
 10
48.1549621389
 20
25.033469175
 30
0.0
 10
48.1505977674
 20
25.032752542
 30
0.0
 10
48.147519415
 20
25.0327766511
 30
0.0
 10
48.1441179383
 20
25.0345554069
 30
0.0
 10
48.1436728906
 20
25.0374439952
 30
0.0
 10
48.1436719511
 20
25.0388091624
 30
0.0
  0
SPLINE
  5
4AD
100
AcDbEntity
  8
00_COMPONENTS_2
100
AcDbSpline
 62
7
  6
BYLAYER
 70
0
 71
3
 72
15
 73
11
 74
0
 42
0.0000001
 43
0.0000001
 44
0.0000000001
 40
0.0
 40
0.0
 40
0.0
 40
0.0
 40
0.373898068
 40
0.5382543672
 40
0.6786034869
 40
0.7885331113
 40
0.8674470308
 40
0.8993261628
 40
0.9301098603
 40
1.0
 40
1.0
 40
1.0
 40
1.0
 10
47.7515944809
 20
25.0619859492
 30
0.0
 10
47.7437714657
 20
25.0560690496
 30
0.0
 10
47.7321894139
 20
25.0479262731
 30
0.0
 10
47.7166625094
 20
25.0391960292
 30
0.0
 10
47.7066632358
 20
25.0348137991
 30
0.0
 10
47.698306732
 20
25.0325806772
 30
0.0
 10
47.6922723444
 20
25.0328028271
 30
0.0
 10
47.688994535
 20
25.0347202058
 30
0.0
 10
47.6868212464
 20
25.0375317784
 30
0.0
 10
47.686414537
 20
25.0403041749
 30
0.0
 10
47.6864146227
 20
25.0421376336
 30
0.0
  0
SPLINE
  5
4AE
100
AcDbEntity
  8
00_COMPONENTS_2
100
AcDbSpline
 62
7
  6
BYLAYER
 70
0
 71
3
 72
13
 73
9
 74
0
 42
0.0000001
 43
0.0000001
 44
0.0000000001
 40
0.0
 40
0.0
 40
0.0
 40
0.0
 40
0.0665102653
 40
0.1232977502
 40
0.1946975522
 40
0.2951811753
 40
0.5917619166
 40
1.0
 40
1.0
 40
1.0
 40
1.0
 10
22.2414366896
 20
25.0361927697
 30
0.0
 10
22.2414371151
 20
25.0355245845
 30
0.0
 10
22.2412822651
 20
25.0342100031
 30
0.0
 10
22.2396839136
 20
25.0328154253
 30
0.0
 10
22.2372875735
 20
25.03271074
 30
0.0
 10
22.2327104432
 20
25.0338049944
 30
0.0
 10
22.2254117656
 20
25.0375008448
 30
0.0
 10
22.2194563071
 20
25.0413009562
 30
0.0
 10
22.2160683902
 20
25.0436123843
 30
0.0
  0
SPLINE
  5
4AF
100
AcDbEntity
  8
00_COMPONENTS_2
100
AcDbSpline
 62
7
  6
BYLAYER
 70
0
 71
3
 72
9
 73
5
 74
0
 42
0.0000001
 43
0.0000001
 44
0.0000000001
 40
0.0
 40
0.0
 40
0.0
 40
0.0
 40
0.2290689754
 40
1.0
 40
1.0
 40
1.0
 40
1.0
 10
22.2160683902
 20
25.0436123843
 30
0.0
 10
22.2141534642
 20
25.044918855
 30
0.0
 10
22.2058918151
 20
25.050765769
 30
0.0
 10
22.1979383958
 20
25.0570370502
 30
0.0
 10
22.1919075979
 20
25.0619864229
 30
0.0
  0
SPLINE
  5
4B0
100
AcDbEntity
  8
00_COMPONENTS_2
100
AcDbSpline
 62
7
  6
BYLAYER
 70
0
 71
3
 72
14
 73
10
 74
0
 42
0.0000001
 43
0.0000001
 44
0.0000000001
 40
0.0
 40
0.0
 40
0.0
 40
0.0
 40
0.3640578182
 40
0.5253868288
 40
0.6633725038
 40
0.7719286709
 40
0.8526849395
 40
0.9216370895
 40
1.0
 40
1.0
 40
1.0
 40
1.0
 10
47.2081076428
 20
25.0619859604
 30
0.0
 10
47.1994145434
 20
25.0555895447
 30
0.0
 10
47.1864336615
 20
25.0468732544
 30
0.0
 10
47.1688667012
 20
25.0379820665
 30
0.0
 10
47.1574460642
 20
25.0338439202
 30
0.0
 10
47.1478156126
 20
25.0322786002
 30
0.0
 10
47.1399169551
 20
25.0338211699
 30
0.0
 10
47.135213525
 20
25.0393172898
 30
0.0
 10
47.1346861752
 20
25.0438309414
 30
0.0
 10
47.1346863191
 20
25.0461540715
 30
0.0
  0
SPLINE
  5
4B1
100
AcDbEntity
  8
00_COMPONENTS_2
100
AcDbSpline
 62
7
  6
BYLAYER
 70
0
 71
3
 72
9
 73
5
 74
0
 42
0.0000001
 43
0.0000001
 44
0.0000000001
 40
0.0
 40
0.0
 40
0.0
 40
0.0
 40
0.4922222394
 40
1.0
 40
1.0
 40
1.0
 40
1.0
 10
21.97592309
 20
25.4448070872
 30
0.0
 10
21.9759226358
 20
25.4477665829
 30
0.0
 10
21.9774916659
 20
25.4546254847
 30
0.0
 10
21.9843919811
 20
25.4561258064
 30
0.0
 10
21.9874450047
 20
25.4561258064
 30
0.0
  0
SPLINE
  5
4B2
100
AcDbEntity
  8
00_COMPONENTS_2
100
AcDbSpline
 62
7
  6
BYLAYER
 70
0
 71
3
 72
14
 73
10
 74
0
 42
0.0000001
 43
0.0000001
 44
0.0000000001
 40
0.0
 40
0.0
 40
0.0
 40
0.0
 40
0.1818724031
 40
0.355688465
 40
0.5147284181
 40
0.6511610865
 40
0.8390175077
 40
0.9148180507
 40
1.0
 40
1.0
 40
1.0
 40
1.0
 10
46.5745424497
 20
25.0619859752
 30
0.0
 10
46.5696495111
 20
25.0584547609
 30
0.0
 10
46.5598674477
 20
25.0518229739
 30
0.0
 10
46.5451023391
 20
25.0432735082
 30
0.0
 10
46.530765719
 20
25.0368248842
 30
0.0
 10
46.515759602
 20
25.0322774671
 30
0.0
 10
46.5003401354
 20
25.0324887393
 30
0.0
 10
46.4932813573
 20
25.0425524171
 30
0.0
 10
46.4926841218
 20
25.04799948
 30
0.0
 10
46.4926839976
 20
25.0508256158
 30
0.0
  0
SPLINE
  5
4B3
100
AcDbEntity
  8
00_COMPONENTS_2
100
AcDbSpline
 62
7
  6
BYLAYER
 70
0
 71
3
 72
12
 73
8
 74
0
 42
0.0000001
 43
0.0000001
 44
0.0000000001
 40
0.0
 40
0.0
 40
0.0
 40
0.0
 40
0.162396682
 40
0.3332620818
 40
0.4571065363
 40
0.6105729451
 40
1.0
 40
1.0
 40
1.0
 40
1.0
 10
22.6007407638
 20
25.0388091636
 30
0.0
 10
22.6007397354
 20
25.0371924045
 30
0.0
 10
22.5998062563
 20
25.0333664243
 30
0.0
 10
22.5946110121
 20
25.0325245138
 30
0.0
 10
22.5903079313
 20
25.0333535992
 30
0.0
 10
22.5839510265
 20
25.035438162
 30
0.0
 10
22.5791328617
 20
25.0379139315
 30
0.0
 10
22.575747563
 20
25.0398035828
 30
0.0
  0
SPLINE
  5
4B4
100
AcDbEntity
  8
00_COMPONENTS_2
100
AcDbSpline
 62
7
  6
BYLAYER
 70
0
 71
3
 72
9
 73
5
 74
0
 42
0.0000001
 43
0.0000001
 44
0.0000000001
 40
0.0
 40
0.0
 40
0.0
 40
0.0
 40
0.2230877506
 40
1.0
 40
1.0
 40
1.0
 40
1.0
 10
22.575747563
 20
25.0398035828
 30
0.0
 10
22.5732070457
 20
25.0412216827
 30
0.0
 10
22.5620375928
 20
25.0479686071
 30
0.0
 10
22.5515191522
 20
25.0557337953
 30
0.0
 10
22.5435459594
 20
25.0619864229
 30
0.0
  0
SPLINE
  5
4B5
100
AcDbEntity
  8
00_COMPONENTS_2
100
AcDbSpline
 62
7
  6
BYLAYER
 70
0
 71
3
 72
11
 73
7
 74
0
 42
0.0000001
 43
0.0000001
 44
0.0000000001
 40
0.0
 40
0.0
 40
0.0
 40
0.0
 40
0.2636079822
 40
0.4895046772
 40
0.7198135638
 40
1.0
 40
1.0
 40
1.0
 40
1.0
 10
22.3832199948
 20
25.4374210668
 30
0.0
 10
22.3832201912
 20
25.4400903487
 30
0.0
 10
22.3837366122
 20
25.4451126481
 30
0.0
 10
22.3874390485
 20
25.4517284169
 30
0.0
 10
22.3941746878
 20
25.4555879128
 30
0.0
 10
22.3994200093
 20
25.4561258064
 30
0.0
 10
22.4022571638
 20
25.4561258064
 30
0.0
  0
SPLINE
  5
4B6
100
AcDbEntity
  8
00_COMPONENTS_2
100
AcDbSpline
 62
7
  6
BYLAYER
 70
0
 71
3
 72
15
 73
11
 74
0
 42
0.0000001
 43
0.0000001
 44
0.0000000001
 40
0.0
 40
0.0
 40
0.0
 40
0.0
 40
0.1756033139
 40
0.3448238808
 40
0.5006934472
 40
0.6349845817
 40
0.7426144811
 40
0.8290435353
 40
0.9102433453
 40
1.0
 40
1.0
 40
1.0
 40
1.0
 10
45.8557207151
 20
25.0619859936
 30
0.0
 10
45.8504095718
 20
25.0581967762
 30
0.0
 10
45.8397196265
 20
25.0511093456
 30
0.0
 10
45.8233724452
 20
25.0421752273
 30
0.0
 10
45.8075144511
 20
25.0357166886
 30
0.0
 10
45.7930128896
 20
25.0324469377
 30
0.0
 10
45.7805844492
 20
25.0328525584
 30
0.0
 10
45.7710635004
 20
25.0377425864
 30
0.0
 10
45.7660135748
 20
25.0463456972
 30
0.0
 10
45.7652942103
 20
25.0527817937
 30
0.0
 10
45.7652943205
 20
25.0561165758
 30
0.0
  0
SPLINE
  5
4B7
100
AcDbEntity
  8
00_COMPONENTS_2
100
AcDbSpline
 62
7
  6
BYLAYER
 70
0
 71
3
 72
13
 73
9
 74
0
 42
0.0000001
 43
0.0000001
 44
0.0000000001
 40
0.0
 40
0.0
 40
0.0
 40
0.0
 40
0.1795675374
 40
0.2626280392
 40
0.3592418789
 40
0.4796624874
 40
0.6275120718
 40
1.0
 40
1.0
 40
1.0
 40
1.0
 10
23.0579980429
 20
25.0421376422
 30
0.0
 10
23.0579981482
 20
25.0398703707
 30
0.0
 10
23.0572914877
 20
25.0362060476
 30
0.0
 10
23.0534946059
 20
25.033408394
 30
0.0
 10
23.0497062333
 20
25.0326314737
 30
0.0
 10
23.0450784553
 20
25.0329638733
 30
0.0
 10
23.0372059988
 20
25.0349345933
 30
0.0
 10
23.031178484
 20
25.0376666043
 30
0.0
 10
23.0269888624
 20
25.0398035639
 30
0.0
  0
SPLINE
  5
4B8
100
AcDbEntity
  8
00_COMPONENTS_2
100
AcDbSpline
 62
7
  6
BYLAYER
 70
0
 71
3
 72
9
 73
5
 74
0
 42
0.0000001
 43
0.0000001
 44
0.0000000001
 40
0.0
 40
0.0
 40
0.0
 40
0.0
 40
0.2275224644
 40
1.0
 40
1.0
 40
1.0
 40
1.0
 10
23.0269888624
 20
25.0398035639
 30
0.0
 10
23.0242343984
 20
25.0412085066
 30
0.0
 10
23.0123547103
 20
25.0478267076
 30
0.0
 10
23.0011911021
 20
25.0556535959
 30
0.0
 10
22.9928181726
 20
25.0619864229
 30
0.0
  0
SPLINE
  5
4B9
100
AcDbEntity
  8
00_COMPONENTS_2
100
AcDbSpline
 62
7
  6
BYLAYER
 70
0
 71
3
 72
15
 73
11
 74
0
 42
0.0000001
 43
0.0000001
 44
0.0000000001
 40
0.0
 40
0.0
 40
0.0
 40
0.0
 40
0.1702794662
 40
0.3358843267
 40
0.4895838332
 40
0.6227320315
 40
0.7308220658
 40
0.8205357905
 40
0.9065956064
 40
1.0
 40
1.0
 40
1.0
 40
1.0
 10
45.0571131068
 20
25.0619860153
 30
0.0
 10
45.0514024085
 20
25.057927241
 30
0.0
 10
45.0398075621
 20
25.0503687428
 30
0.0
 10
45.0218945379
 20
25.041068388
 30
0.0
 10
45.0043214329
 20
25.0346952789
 30
0.0
 10
44.9881545116
 20
25.0320787006
 30
0.0
 10
44.9743299072
 20
25.0338477111
 30
0.0
 10
44.9641553198
 20
25.0405270396
 30
0.0
 10
44.9588712305
 20
25.0506859514
 30
0.0
 10
44.9580531794
 20
25.0581428718
 30
0.0
 10
44.9580531787
 20
25.0619859801
 30
0.0
  0
SPLINE
  5
4BA
100
AcDbEntity
  8
00_COMPONENTS_2
100
AcDbSpline
 62
7
  6
BYLAYER
 70
0
 71
3
 72
11
 73
7
 74
0
 42
0.0000001
 43
0.0000001
 44
0.0000000001
 40
0.0
 40
0.0
 40
0.0
 40
0.0
 40
0.2601239223
 40
0.4863319961
 40
0.7181066701
 40
1.0
 40
1.0
 40
1.0
 40
1.0
 10
22.8874387213
 20
25.4282712308
 30
0.0
 10
22.8874387383
 20
25.4321895127
 30
0.0
 10
22.8882106037
 20
25.4396077307
 30
0.0
 10
22.8936566118
 20
25.4494423534
 30
0.0
 10
22.9036749625
 20
25.45529741
 30
0.0
 10
22.9115322702
 20
25.4561258064
 30
0.0
 10
22.9157784677
 20
25.4561258064
 30
0.0
  0
SPLINE
  5
4BB
100
AcDbEntity
  8
00_COMPONENTS_2
100
AcDbSpline
 62
7
  6
BYLAYER
 70
0
 71
3
 72
13
 73
9
 74
0
 42
0.0000001
 43
0.0000001
 44
0.0000000001
 40
0.0
 40
0.0
 40
0.0
 40
0.0
 40
0.1916714744
 40
0.2795343859
 40
0.3775116843
 40
0.4961712314
 40
0.6402829538
 40
1.0
 40
1.0
 40
1.0
 40
1.0
 10
23.6097263643
 20
25.0461540503
 30
0.0
 10
23.6097265298
 20
25.0431676401
 30
0.0
 10
23.6089016383
 20
25.0384694148
 30
0.0
 10
23.6044545917
 20
25.0343308563
 30
0.0
 10
23.599847826
 20
25.0328004052
 30
0.0
 10
23.59417604
 20
25.0326844159
 30
0.0
 10
23.584593245
 20
25.0344198018
 30
0.0
 10
23.5772513362
 20
25.0374076271
 30
0.0
 10
23.5721845817
 20
25.0398036139
 30
0.0
  0
SPLINE
  5
4BC
100
AcDbEntity
  8
00_COMPONENTS_2
100
AcDbSpline
 62
7
  6
BYLAYER
 70
0
 71
3
 72
9
 73
5
 74
0
 42
0.0000001
 43
0.0000001
 44
0.0000000001
 40
0.0
 40
0.0
 40
0.0
 40
0.0
 40
0.2316092794
 40
1.0
 40
1.0
 40
1.0
 40
1.0
 10
23.5721845817
 20
25.0398036139
 30
0.0
 10
23.5692377962
 20
25.0411971014
 30
0.0
 10
23.5567446384
 20
25.0476989078
 30
0.0
 10
23.5450154241
 20
25.0555772603
 30
0.0
 10
23.5363050048
 20
25.0619864229
 30
0.0
  0
SPLINE
  5
4BD
100
AcDbEntity
  8
00_COMPONENTS_2
100
AcDbSpline
 62
7
  6
BYLAYER
 70
0
 71
3
 72
14
 73
10
 74
0
 42
0.0000001
 43
0.0000001
 44
0.0000000001
 40
0.0
 40
0.0
 40
0.0
 40
0.0
 40
0.3231793236
 40
0.4752123879
 40
0.6106106184
 40
0.7242293355
 40
0.8198384392
 40
0.9084666539
 40
1.0
 40
1.0
 40
1.0
 40
1.0
 10
44.1847975108
 20
25.0619860403
 30
0.0
 10
44.1734563593
 20
25.0538947352
 30
0.0
 10
44.1556623929
 20
25.0433023997
 30
0.0
 10
44.1307074786
 20
25.0346273186
 30
0.0
 10
44.1134683259
 20
25.0320675679
 30
0.0
 10
44.0984548207
 20
25.0339116567
 30
0.0
 10
44.086904904
 20
25.0403910308
 30
0.0
 10
44.0798745023
 20
25.0503963571
 30
0.0
 10
44.0779611624
 20
25.0580695068
 30
0.0
 10
44.0774808901
 20
25.0619859995
 30
0.0
  0
SPLINE
  5
4BE
100
AcDbEntity
  8
00_COMPONENTS_2
100
AcDbSpline
 62
7
  6
BYLAYER
 70
0
 71
3
 72
11
 73
7
 74
0
 42
0.0000001
 43
0.0000001
 44
0.0000000001
 40
0.0
 40
0.0
 40
0.0
 40
0.0
 40
0.2563202413
 40
0.4828041974
 40
0.7162608776
 40
1.0
 40
1.0
 40
1.0
 40
1.0
 10
23.4847400113
 20
25.4174252271
 30
0.0
 10
23.4847401742
 20
25.4227825994
 30
0.0
 10
23.4858194036
 20
25.4329952702
 30
0.0
 10
23.4932907519
 20
25.4466254164
 30
0.0
 10
23.5071838203
 20
25.4549257184
 30
0.0
 10
23.5181702524
 20
25.4561258064
 30
0.0
 10
23.5241007092
 20
25.4561258064
 30
0.0
  0
SPLINE
  5
4BF
100
AcDbEntity
  8
00_COMPONENTS_2
100
AcDbSpline
 62
7
  6
BYLAYER
 70
0
 71
3
 72
14
 73
10
 74
0
 42
0.0000001
 43
0.0000001
 44
0.0000000001
 40
0.0
 40
0.0
 40
0.0
 40
0.0
 40
0.3108887085
 40
0.4607493352
 40
0.5975377387
 40
0.7156736885
 40
0.8167098975
 40
0.9086805098
 40
1.0
 40
1.0
 40
1.0
 40
1.0
 10
43.2454127756
 20
25.0619860684
 30
0.0
 10
43.2340753451
 20
25.0538038928
 30
0.0
 10
43.2160106261
 20
25.043149202
 30
0.0
 10
43.1904377035
 20
25.0345684452
 30
0.0
 10
43.1722616206
 20
25.0320595602
 30
0.0
 10
43.1561265028
 20
25.0339679557
 30
0.0
 10
43.143288927
 20
25.04032894
 30
0.0
 10
43.1346641072
 20
25.050170424
 30
0.0
 10
43.1316309463
 20
25.0579964581
 30
0.0
 10
43.1306562046
 20
25.0619860222
 30
0.0
  0
SPLINE
  5
4C0
100
AcDbEntity
  8
00_COMPONENTS_2
100
AcDbSpline
 62
7
  6
BYLAYER
 70
0
 71
3
 72
14
 73
10
 74
0
 42
0.0000001
 43
0.0000001
 44
0.0000000001
 40
0.0
 40
0.0
 40
0.0
 40
0.0
 40
0.29889
 40
0.4462773979
 40
0.5838386185
 40
0.7057183143
 40
0.8117496244
 40
0.9075495395
 40
1.0
 40
1.0
 40
1.0
 40
1.0
 10
42.2461081862
 20
25.0619860993
 30
0.0
 10
42.2348711492
 20
25.053717849
 30
0.0
 10
42.2166763999
 20
25.0430073546
 30
0.0
 10
42.1906711752
 20
25.0345155741
 30
0.0
 10
42.1716944281
 20
25.0320540301
 30
0.0
 10
42.1545303274
 20
25.0340178541
 30
0.0
 10
42.1404843424
 20
25.040311814
 30
0.0
 10
42.1303970559
 20
25.0500115367
 30
0.0
 10
42.126261612
 20
25.0579312642
 30
0.0
 10
42.1247850296
 20
25.0619860481
 30
0.0
  0
SPLINE
  5
4C1
100
AcDbEntity
  8
00_COMPONENTS_2
100
AcDbSpline
 62
7
  6
BYLAYER
 70
0
 71
3
 72
13
 73
9
 74
0
 42
0.0000001
 43
0.0000001
 44
0.0000000001
 40
0.0
 40
0.0
 40
0.0
 40
0.0
 40
0.1998290337
 40
0.2918216307
 40
0.3914834623
 40
0.5093222925
 40
0.6507275472
 40
1.0
 40
1.0
 40
1.0
 40
1.0
 10
24.2517287221
 20
25.0508256646
 30
0.0
 10
24.2517285275
 20
25.0470636807
 30
0.0
 10
24.2507602703
 20
25.0412291527
 30
0.0
 10
24.2456465321
 20
25.0356463196
 30
0.0
 10
24.2402033467
 20
25.033212366
 30
0.0
 10
24.2334027964
 20
25.0325229405
 30
0.0
 10
24.2219721695
 20
25.0339012189
 30
0.0
 10
24.2131957064
 20
25.0371357348
 30
0.0
 10
24.2071858213
 20
25.0398035555
 30
0.0
  0
SPLINE
  5
4C2
100
AcDbEntity
  8
00_COMPONENTS_2
100
AcDbSpline
 62
7
  6
BYLAYER
 70
0
 71
3
 72
9
 73
5
 74
0
 42
0.0000001
 43
0.0000001
 44
0.0000000001
 40
0.0
 40
0.0
 40
0.0
 40
0.0
 40
0.2353848395
 40
1.0
 40
1.0
 40
1.0
 40
1.0
 10
24.2071858213
 20
25.0398035555
 30
0.0
 10
24.2040693405
 20
25.0411869782
 30
0.0
 10
24.1910601871
 20
25.0475832493
 30
0.0
 10
24.1788515674
 20
25.0555045972
 30
0.0
 10
24.169870193
 20
25.0619864229
 30
0.0
  0
SPLINE
  5
4C3
100
AcDbEntity
  8
00_COMPONENTS_2
100
AcDbSpline
 62
7
  6
BYLAYER
 70
0
 71
3
 72
14
 73
10
 74
0
 42
0.0000001
 43
0.0000001
 44
0.0000000001
 40
0.0
 40
0.0
 40
0.0
 40
0.0
 40
0.2872717206
 40
0.4319800973
 40
0.5698363767
 40
0.6948419366
 40
0.805475039
 40
0.9053840326
 40
1.0
 40
1.0
 40
1.0
 40
1.0
 10
41.194489054
 20
25.0619861328
 30
0.0
 10
41.1834501824
 20
25.0536369414
 30
0.0
 10
41.1652672771
 20
25.0428750091
 30
0.0
 10
41.1390172217
 20
25.0344674146
 30
0.0
 10
41.1193804363
 20
25.0320501205
 30
0.0
 10
41.1012967109
 20
25.034063267
 30
0.0
 10
41.086127399
 20
25.0403211075
 30
0.0
 10
41.0746916444
 20
25.0499103023
 30
0.0
 10
41.0694993735
 20
25.0578783642
 30
0.0
 10
41.0675226523
 20
25.061986077
 30
0.0
  0
SPLINE
  5
4C4
100
AcDbEntity
  8
00_COMPONENTS_2
100
AcDbSpline
 62
7
  6
BYLAYER
 70
0
 71
3
 72
11
 73
7
 74
0
 42
0.0000001
 43
0.0000001
 44
0.0000000001
 40
0.0
 40
0.0
 40
0.0
 40
0.0
 40
0.2523391871
 40
0.4790366711
 40
0.7143449309
 40
1.0
 40
1.0
 40
1.0
 40
1.0
 10
24.1705798538
 20
25.4049604993
 30
0.0
 10
24.1705796429
 20
25.4119226027
 30
0.0
 10
24.1720195783
 20
25.4252912328
 30
0.0
 10
24.1817723759
 20
25.4432552614
 30
0.0
 10
24.2000925726
 20
25.4544603428
 30
0.0
 10
24.2147128915
 20
25.4561258064
 30
0.0
 10
24.2225941887
 20
25.4561258064
 30
0.0
  0
SPLINE
  5
4C5
100
AcDbEntity
  8
00_COMPONENTS_2
100
AcDbSpline
 62
7
  6
BYLAYER
 70
0
 71
3
 72
11
 73
7
 74
0
 42
0.0000001
 43
0.0000001
 44
0.0000000001
 40
0.0
 40
0.0
 40
0.0
 40
0.0
 40
0.2774623885
 40
0.557240794
 40
0.7989907507
 40
1.0
 40
1.0
 40
1.0
 40
1.0
 10
40.0985588355
 20
25.0619861686
 30
0.0
 10
40.0878163305
 20
25.0535618385
 30
0.0
 10
40.0639821906
 20
25.0392836417
 30
0.0
 10
40.0249010944
 20
25.0299210222
 30
0.0
 10
39.9884662498
 20
25.0374223973
 30
0.0
 10
39.9719702457
 20
25.0534853175
 30
0.0
 10
39.9669154777
 20
25.0619861087
 30
0.0
  0
SPLINE
  5
4C6
100
AcDbEntity
  8
00_COMPONENTS_2
100
AcDbSpline
 62
7
  6
BYLAYER
 70
0
 71
3
 72
11
 73
7
 74
0
 42
0.0000001
 43
0.0000001
 44
0.0000000001
 40
0.0
 40
0.0
 40
0.0
 40
0.0
 40
0.2665053364
 40
0.5428141704
 40
0.7908956072
 40
1.0
 40
1.0
 40
1.0
 40
1.0
 10
38.9666582213
 20
25.0619862065
 30
0.0
 10
38.9563100546
 20
25.0534936532
 30
0.0
 10
38.9326958941
 20
25.0390222859
 30
0.0
 10
38.8930569507
 20
25.0299074344
 30
0.0
 10
38.8555267171
 20
25.0376275805
 30
0.0
 10
38.8373833376
 20
25.0533954482
 30
0.0
 10
38.8313397912
 20
25.0619861429
 30
0.0
  0
SPLINE
  5
4C7
100
AcDbEntity
  8
00_COMPONENTS_2
100
AcDbSpline
 62
7
  6
BYLAYER
 70
0
 71
3
 72
11
 73
7
 74
0
 42
0.0000001
 43
0.0000001
 44
0.0000000001
 40
0.0
 40
0.0
 40
0.0
 40
0.0
 40
0.2559805603
 40
0.5284761781
 40
0.7822931498
 40
1.0
 40
1.0
 40
1.0
 40
1.0
 10
37.8074016584
 20
25.0619862462
 30
0.0
 10
37.797544893
 20
25.0534340949
 30
0.0
 10
37.7743451603
 20
25.038773093
 30
0.0
 10
37.7344278722
 20
25.0298960579
 30
0.0
 10
37.6959728102
 20
25.0378452538
 30
0.0
 10
37.6764081302
 20
25.0533493276
 30
0.0
 10
37.6694380094
 20
25.0619861793
 30
0.0
  0
SPLINE
  5
4C8
100
AcDbEntity
  8
00_COMPONENTS_2
100
AcDbSpline
 62
7
  6
BYLAYER
 70
0
 71
3
 72
13
 73
9
 74
0
 42
0.0000001
 43
0.0000001
 44
0.0000000001
 40
0.0
 40
0.0
 40
0.0
 40
0.0
 40
0.2051987847
 40
0.3006018907
 40
0.4021389234
 40
0.5198212839
 40
0.6593225756
 40
1.0
 40
1.0
 40
1.0
 40
1.0
 10
24.97911841
 20
25.0561167801
 30
0.0
 10
24.9791185663
 20
25.0515343766
 30
0.0
 10
24.9779800342
 20
25.0444833228
 30
0.0
 10
24.9721901417
 20
25.0373533329
 30
0.0
 10
24.9658948232
 20
25.0338895948
 30
0.0
 10
24.9578966132
 20
25.0324960461
 30
0.0
 10
24.9444947086
 20
25.0333807433
 30
0.0
 10
24.9341704691
 20
25.0368498536
 30
0.0
 10
24.9271594173
 20
25.0398035841
 30
0.0
  0
SPLINE
  5
4C9
100
AcDbEntity
  8
00_COMPONENTS_2
100
AcDbSpline
 62
7
  6
BYLAYER
 70
0
 71
3
 72
9
 73
5
 74
0
 42
0.0000001
 43
0.0000001
 44
0.0000000001
 40
0.0
 40
0.0
 40
0.0
 40
0.0
 40
0.2388875693
 40
1.0
 40
1.0
 40
1.0
 40
1.0
 10
24.9271594173
 20
25.0398035841
 30
0.0
 10
24.9238969046
 20
25.0411780687
 30
0.0
 10
24.9104704281
 20
25.047478168
 30
0.0
 10
24.8978739938
 20
25.0554355014
 30
0.0
 10
24.8886919236
 20
25.0619864229
 30
0.0
  0
SPLINE
  5
4CA
100
AcDbEntity
  8
00_COMPONENTS_2
100
AcDbSpline
 62
7
  6
BYLAYER
 70
0
 71
3
 72
11
 73
7
 74
0
 42
0.0000001
 43
0.0000001
 44
0.0000000001
 40
0.0
 40
0.0
 40
0.0
 40
0.0
 40
0.2458567374
 40
0.5142158093
 40
0.7732762138
 40
1.0
 40
1.0
 40
1.0
 40
1.0
 10
36.6296117891
 20
25.0619862874
 30
0.0
 10
36.6203418235
 20
25.0533856704
 30
0.0
 10
36.5977526306
 20
25.0385326795
 30
0.0
 10
36.5578273646
 20
25.0298887825
 30
0.0
 10
36.5186495208
 20
25.0380695431
 30
0.0
 10
36.497874842
 20
25.0533374705
 30
0.0
 10
36.4900529067
 20
25.0619862178
 30
0.0
  0
SPLINE
  5
4CB
100
AcDbEntity
  8
00_COMPONENTS_2
100
AcDbSpline
 62
7
  6
BYLAYER
 70
0
 71
3
 72
11
 73
7
 74
0
 42
0.0000001
 43
0.0000001
 44
0.0000000001
 40
0.0
 40
0.0
 40
0.0
 40
0.0
 40
0.2483235862
 40
0.4751522878
 40
0.7124287646
 40
1.0
 40
1.0
 40
1.0
 40
1.0
 10
24.9397375056
 20
25.3909684304
 30
0.0
 10
24.9397375265
 20
25.3996779999
 30
0.0
 10
24.9415923486
 20
25.4165268808
 30
0.0
 10
24.9538666784
 20
25.4393154137
 30
0.0
 10
24.9771170681
 20
25.4538873112
 30
0.0
 10
24.9958568283
 20
25.4561258064
 30
0.0
 10
25.0059429491
 20
25.4561258064
 30
0.0
  0
SPLINE
  5
4CC
100
AcDbEntity
  8
00_COMPONENTS_2
100
AcDbSpline
 62
7
  6
BYLAYER
 70
0
 71
3
 72
15
 73
11
 74
0
 42
0.0000001
 43
0.0000001
 44
0.0000000001
 40
0.0
 40
0.0
 40
0.0
 40
0.0
 40
0.0102024831
 40
0.0281041658
 40
0.0875860499
 40
0.1776857304
 40
0.2962535455
 40
0.4406116562
 40
0.6078941877
 40
1.0
 40
1.0
 40
1.0
 40
1.0
 10
21.3666955775
 20
25.4561258064
 30
0.0
 10
21.366935561
 20
25.4561258064
 30
0.0
 10
21.3675670462
 20
25.4558520512
 30
0.0
 10
21.3693327563
 20
25.4548330306
 30
0.0
 10
21.3725072146
 20
25.452450913
 30
0.0
 10
21.3774099378
 20
25.4485047391
 30
0.0
 10
21.3837368586
 20
25.443116312
 30
0.0
 10
21.3913458481
 20
25.4364481097
 30
0.0
 10
21.4036771885
 20
25.4254028272
 30
0.0
 10
21.4133739368
 20
25.4165086498
 30
0.0
 10
21.4201443851
 20
25.4102454803
 30
0.0
  0
SPLINE
  5
4CD
100
AcDbEntity
  8
00_COMPONENTS_2
100
AcDbSpline
 62
7
  6
BYLAYER
 70
0
 71
3
 72
14
 73
10
 74
0
 42
0.0000001
 43
0.0000001
 44
0.0000000001
 40
0.0
 40
0.0
 40
0.0
 40
0.0
 40
0.0419378996
 40
0.1134191287
 40
0.2127737735
 40
0.3364840207
 40
0.480585734
 40
0.6413040822
 40
1.0
 40
1.0
 40
1.0
 40
1.0
 10
21.4770428819
 20
25.4561258064
 30
0.0
 10
21.4789131836
 20
25.4561258064
 30
0.0
 10
21.4837608909
 20
25.4540825103
 30
0.0
 10
21.4919121735
 20
25.4494302385
 30
0.0
 10
21.5027846499
 20
25.4419517492
 30
0.0
 10
21.5158769011
 20
25.4321464987
 30
0.0
 10
21.5308416312
 20
25.4202456766
 30
0.0
 10
21.5536241407
 20
25.4013650187
 30
0.0
 10
21.5711072313
 20
25.3861615679
 30
0.0
 10
21.583078443
 20
25.3755509275
 30
0.0
  0
SPLINE
  5
4CE
100
AcDbEntity
  8
00_COMPONENTS_2
100
AcDbSpline
 62
7
  6
BYLAYER
 70
0
 71
3
 72
13
 73
9
 74
0
 42
0.0000001
 43
0.0000001
 44
0.0000000001
 40
0.0
 40
0.0
 40
0.0
 40
0.0
 40
0.0544238312
 40
0.1340034113
 40
0.2374430115
 40
0.3616833651
 40
0.65858834
 40
1.0
 40
1.0
 40
1.0
 40
1.0
 10
21.6931407705
 20
25.4561258064
 30
0.0
 10
21.6957947782
 20
25.4561258064
 30
0.0
 10
21.7022410287
 20
25.4543882987
 30
0.0
 10
21.7127545422
 20
25.4495970606
 30
0.0
 10
21.7257751467
 20
25.4421160256
 30
0.0
 10
21.7471812621
 20
25.4281096536
 30
0.0
 10
21.777035697
 20
25.405884264
 30
0.0
 10
21.8011913971
 20
25.3862473388
 30
0.0
 10
21.8139499296
 20
25.3755509275
 30
0.0
  0
SPLINE
  5
4CF
100
AcDbEntity
  8
00_COMPONENTS_2
100
AcDbSpline
 62
7
  6
BYLAYER
 70
0
 71
3
 72
12
 73
8
 74
0
 42
0.0000001
 43
0.0000001
 44
0.0000000001
 40
0.0
 40
0.0
 40
0.0
 40
0.0
 40
0.0649408179
 40
0.1515581402
 40
0.3832645065
 40
0.6734515307
 40
1.0
 40
1.0
 40
1.0
 40
1.0
 10
22.0133446078
 20
25.4561258064
 30
0.0
 10
22.0167731991
 20
25.4561258064
 30
0.0
 10
22.0247354568
 20
25.4545662925
 30
0.0
 10
22.0436734285
 20
25.4473956062
 30
0.0
 10
22.0717517676
 20
25.4314694428
 30
0.0
 10
22.1087359611
 20
25.4062130543
 30
0.0
 10
22.1345527872
 20
25.3863299838
 30
0.0
 10
22.1480079343
 20
25.3755509275
 30
0.0
  0
SPLINE
  5
4D0
100
AcDbEntity
  8
00_COMPONENTS_2
100
AcDbSpline
 62
7
  6
BYLAYER
 70
0
 71
3
 72
15
 73
11
 74
0
 42
0.0000001
 43
0.0000001
 44
0.0000000001
 40
0.0
 40
0.0
 40
0.0
 40
0.0
 40
0.0934040665
 40
0.179463119
 40
0.2691742392
 40
0.3772686965
 40
0.5104099724
 40
0.6641106167
 40
0.8297167129
 40
1.0
 40
1.0
 40
1.0
 40
1.0
 10
25.786359529
 20
25.0619864229
 30
0.0
 10
25.786359529
 20
25.0581433053
 30
0.0
 10
25.7855416177
 20
25.050686364
 30
0.0
 10
25.7802576528
 20
25.0405275314
 30
0.0
 10
25.7700833113
 20
25.0338476548
 30
0.0
 10
25.7562587167
 20
25.0320787258
 30
0.0
 10
25.7400918139
 20
25.0346952476
 30
0.0
 10
25.7225186656
 20
25.0410680606
 30
0.0
 10
25.7046052985
 20
25.0503686075
 30
0.0
 10
25.6930103877
 20
25.0579275316
 30
0.0
 10
25.687299529
 20
25.0619864229
 30
0.0
  0
SPLINE
  5
4D1
100
AcDbEntity
  8
00_COMPONENTS_2
100
AcDbSpline
 62
7
  6
BYLAYER
 70
0
 71
3
 72
14
 73
10
 74
0
 42
0.0000001
 43
0.0000001
 44
0.0000000001
 40
0.0
 40
0.0
 40
0.0
 40
0.0
 40
0.0915327787
 40
0.1801600588
 40
0.2757663881
 40
0.3893898704
 40
0.5247811842
 40
0.6768156973
 40
1.0
 40
1.0
 40
1.0
 40
1.0
 10
26.666931818
 20
25.0619864229
 30
0.0
 10
26.6664515464
 20
25.0580699342
 30
0.0
 10
26.6645384155
 20
25.0503967541
 30
0.0
 10
26.6575081448
 20
25.0403915111
 30
0.0
 10
26.6459584239
 20
25.0339116028
 30
0.0
 10
26.6309449503
 20
25.0320675889
 30
0.0
 10
26.6137057974
 20
25.0346273019
 30
0.0
 10
26.5887505843
 20
25.0433019855
 30
0.0
 10
26.5709565049
 20
25.053894947
 30
0.0
 10
26.5596151233
 20
25.0619864229
 30
0.0
  0
SPLINE
  5
4D2
100
AcDbEntity
  8
00_COMPONENTS_2
100
AcDbSpline
 62
7
  6
BYLAYER
 70
0
 71
3
 72
12
 73
8
 74
0
 42
0.0000001
 43
0.0000001
 44
0.0000000001
 40
0.0
 40
0.0
 40
0.0
 40
0.0
 40
0.0738648526
 40
0.1665574649
 40
0.401923863
 40
0.6863263633
 40
1.0
 40
1.0
 40
1.0
 40
1.0
 10
22.4352174493
 20
25.4561258064
 30
0.0
 10
22.4393994723
 20
25.4561258064
 30
0.0
 10
22.4488128665
 20
25.4546787531
 30
0.0
 10
22.4704982889
 20
25.4476620653
 30
0.0
 10
22.5015548187
 20
25.4318585233
 30
0.0
 10
22.5413567882
 20
25.4064924287
 30
0.0
 10
22.5686568487
 20
25.3864091364
 30
0.0
 10
22.5827100739
 20
25.3755509275
 30
0.0
  0
SPLINE
  5
4D3
100
AcDbEntity
  8
00_COMPONENTS_2
100
AcDbSpline
 62
7
  6
BYLAYER
 70
0
 71
3
 72
11
 73
7
 74
0
 42
0.0000001
 43
0.0000001
 44
0.0000000001
 40
0.0
 40
0.0
 40
0.0
 40
0.0
 40
0.2361074307
 40
0.499999376
 40
0.7638882207
 40
1.0
 40
1.0
 40
1.0
 40
1.0
 10
35.4422523054
 20
25.0619863297
 30
0.0
 10
35.4336619443
 20
25.053351936
 30
0.0
 10
35.4118805812
 20
25.0382986836
 30
0.0
 10
35.3722065835
 20
25.0298863045
 30
0.0
 10
35.332532395
 20
25.0382985572
 30
0.0
 10
35.3107508246
 20
25.0533516945
 30
0.0
 10
35.302160316
 20
25.0619862579
 30
0.0
  0
SPLINE
  5
4D4
100
AcDbEntity
  8
00_COMPONENTS_2
100
AcDbSpline
 62
7
  6
BYLAYER
 70
0
 71
3
 72
11
 73
7
 74
0
 42
0.0000001
 43
0.0000001
 44
0.0000000001
 40
0.0
 40
0.0
 40
0.0
 40
0.0
 40
0.2267195969
 40
0.4857833109
 40
0.7541387249
 40
1.0
 40
1.0
 40
1.0
 40
1.0
 10
34.2543597691
 20
25.0619864229
 30
0.0
 10
34.2465379627
 20
25.0533378276
 30
0.0
 10
34.2257635284
 20
25.0380696457
 30
0.0
 10
34.1865858114
 20
25.0298888073
 30
0.0
 10
34.1466602418
 20
25.0385324742
 30
0.0
 10
34.1240710101
 20
25.0533856292
 30
0.0
 10
34.1148008659
 20
25.0619864229
 30
0.0
  0
SPLINE
  5
4D5
100
AcDbEntity
  8
00_COMPONENTS_2
100
AcDbSpline
 62
7
  6
BYLAYER
 70
0
 71
3
 72
14
 73
10
 74
0
 42
0.0000001
 43
0.0000001
 44
0.0000000001
 40
0.0
 40
0.0
 40
0.0
 40
0.0
 40
0.0913186171
 40
0.1832881476
 40
0.2843214988
 40
0.4024625
 40
0.5392440196
 40
0.6891063452
 40
1.0
 40
1.0
 40
1.0
 40
1.0
 10
27.6137565026
 20
25.0619864229
 30
0.0
 10
27.6127817655
 20
25.0579968789
 30
0.0
 10
27.6097488697
 20
25.0501707951
 30
0.0
 10
27.601124186
 20
25.0403294097
 30
0.0
 10
27.5882867679
 20
25.0339679056
 30
0.0
 10
27.572151697
 20
25.032059578
 30
0.0
 10
27.5539755926
 20
25.0345684359
 30
0.0
 10
27.5284023789
 20
25.0431487808
 30
0.0
 10
27.510337517
 20
25.0538040751
 30
0.0
 10
27.4989998581
 20
25.0619864229
 30
0.0
  0
SPLINE
  5
4D6
100
AcDbEntity
  8
00_COMPONENTS_2
100
AcDbSpline
 62
7
  6
BYLAYER
 70
0
 71
3
 72
11
 73
7
 74
0
 42
0.0000001
 43
0.0000001
 44
0.0000000001
 40
0.0
 40
0.0
 40
0.0
 40
0.0
 40
0.2200056739
 40
0.4567807686
 40
0.7166038234
 40
1.0
 40
1.0
 40
1.0
 40
1.0
 10
32.1312868607
 20
25.3755509276
 30
0.0
 10
32.1391891043
 20
25.3870258143
 30
0.0
 10
32.158471352
 20
25.4090111869
 30
0.0
 10
32.1961839518
 20
25.4350757275
 30
0.0
 10
32.2430012734
 20
25.4523410505
 30
0.0
 10
32.2775731765
 20
25.4561258065
 30
0.0
 10
32.2955202461
 20
25.4561258065
 30
0.0
  0
SPLINE
  5
4D7
100
AcDbEntity
  8
00_COMPONENTS_2
100
AcDbSpline
 62
7
  6
BYLAYER
 70
0
 71
3
 72
9
 73
5
 74
0
 42
0.0000001
 43
0.0000001
 44
0.0000000001
 40
0.0
 40
0.0
 40
0.0
 40
0.0
 40
0.5145367667
 40
1.0
 40
1.0
 40
1.0
 40
1.0
 10
32.3796080125
 20
25.4561258065
 30
0.0
 10
32.4171692895
 20
25.4561258065
 30
0.0
 10
32.4906067605
 20
25.4393376906
 30
0.0
 10
32.5529893433
 20
25.3990575626
 30
0.0
 10
32.5795101654
 20
25.3755509276
 30
0.0
  0
SPLINE
  5
4D8
100
AcDbEntity
  8
00_COMPONENTS_2
100
AcDbSpline
 62
7
  6
BYLAYER
 70
0
 71
3
 72
9
 73
5
 74
0
 42
0.0000001
 43
0.0000001
 44
0.0000000001
 40
0.0
 40
0.0
 40
0.0
 40
0.0
 40
0.4844235112
 40
1.0
 40
1.0
 40
1.0
 40
1.0
 10
32.9370109907
 20
25.0619864229
 30
0.0
 10
32.9468671445
 20
25.0534347918
 30
0.0
 10
32.9700134233
 20
25.0387686079
 30
0.0
 10
32.997129473
 20
25.032794354
 30
0.0
 10
33.0110175547
 20
25.0327923894
 30
0.0
  0
SPLINE
  5
4D9
100
AcDbEntity
  8
00_COMPONENTS_2
100
AcDbSpline
 62
7
  6
BYLAYER
 70
0
 71
3
 72
9
 73
5
 74
0
 42
0.0000001
 43
0.0000001
 44
0.0000000001
 40
0.0
 40
0.0
 40
0.0
 40
0.0
 40
0.5424381853
 40
1.0
 40
1.0
 40
1.0
 40
1.0
 10
31.8531960357
 20
25.0327927949
 30
0.0
 10
31.8656048908
 20
25.0328297571
 30
0.0
 10
31.8890421893
 20
25.0377170349
 30
0.0
 10
31.9070502254
 20
25.0534254061
 30
0.0
 10
31.9130728992
 20
25.0619864229
 30
0.0
  0
SPLINE
  5
4DA
100
AcDbEntity
  8
00_COMPONENTS_2
100
AcDbSpline
 62
7
  6
BYLAYER
 70
0
 71
3
 72
14
 73
10
 74
0
 42
0.0000001
 43
0.0000001
 44
0.0000000001
 40
0.0
 40
0.0
 40
0.0
 40
0.0
 40
0.0924492562
 40
0.1882479692
 40
0.2942763889
 40
0.4161613863
 40
0.5537157737
 40
0.7011050893
 40
1.0
 40
1.0
 40
1.0
 40
1.0
 10
28.6196276752
 20
25.0619864229
 30
0.0
 10
28.6181511055
 20
25.0579316761
 30
0.0
 10
28.6140159673
 20
25.0500118778
 30
0.0
 10
28.6039288266
 20
25.0403122757
 30
0.0
 10
28.5898829702
 20
25.0340178084
 30
0.0
 10
28.5727189266
 20
25.0320540448
 30
0.0
 10
28.5537421392
 20
25.0345155712
 30
0.0
 10
28.5277366307
 20
25.0430069275
 30
0.0
 10
28.5095417104
 20
25.0537179988
 30
0.0
 10
28.4983044483
 20
25.0619864229
 30
0.0
  0
SPLINE
  5
4DB
100
AcDbEntity
  8
00_COMPONENTS_2
100
AcDbSpline
 62
7
  6
BYLAYER
 70
0
 71
3
 72
12
 73
8
 74
0
 42
0.0000001
 43
0.0000001
 44
0.0000000001
 40
0.0
 40
0.0
 40
0.0
 40
0.0
 40
0.0815496233
 40
0.1795254645
 40
0.4181419448
 40
0.6975378096
 40
1.0
 40
1.0
 40
1.0
 40
1.0
 10
22.9555485879
 20
25.4561258064
 30
0.0
 10
22.9604548863
 20
25.4561258064
 30
0.0
 10
22.9712509295
 20
25.4547569358
 30
0.0
 10
22.9954971089
 20
25.4478760672
 30
0.0
 10
23.0292871199
 20
25.4322064627
 30
0.0
 10
23.0716162619
 20
25.4067542529
 30
0.0
 10
23.1002019242
 20
25.386484703
 30
0.0
 10
23.1147480027
 20
25.3755509275
 30
0.0
  0
SPLINE
  5
4DC
100
AcDbEntity
  8
00_COMPONENTS_2
100
AcDbSpline
 62
7
  6
BYLAYER
 70
0
 71
3
 72
14
 73
10
 74
0
 42
0.0000001
 43
0.0000001
 44
0.0000000001
 40
0.0
 40
0.0
 40
0.0
 40
0.0
 40
0.0946144344
 40
0.1945221303
 40
0.3051523481
 40
0.4301634265
 40
0.5680129367
 40
0.7127234179
 40
1.0
 40
1.0
 40
1.0
 40
1.0
 10
29.6768900489
 20
25.0619864229
 30
0.0
 10
29.6749133518
 20
25.0578787632
 30
0.0
 10
29.6697214123
 20
25.0499106132
 30
0.0
 10
29.6582858191
 20
25.0403215622
 30
0.0
 10
29.6431166113
 20
25.0340632258
 30
0.0
 10
29.62503295
 20
25.0320501322
 30
0.0
 10
29.6053961078
 20
25.0344674172
 30
0.0
 10
29.579145776
 20
25.0428745776
 30
0.0
 10
29.5609626741
 20
25.0536370563
 30
0.0
 10
29.5499235825
 20
25.0619864229
 30
0.0
  0
SPLINE
  5
4DD
100
AcDbEntity
  8
00_COMPONENTS_2
100
AcDbSpline
 62
7
  6
BYLAYER
 70
0
 71
3
 72
11
 73
7
 74
0
 42
0.0000001
 43
0.0000001
 44
0.0000000001
 40
0.0
 40
0.0
 40
0.0
 40
0.0
 40
0.1904787043
 40
0.4321068847
 40
0.7072509849
 40
1.0
 40
1.0
 40
1.0
 40
1.0
 10
23.5703779895
 20
25.4561258064
 30
0.0
 10
23.5824454399
 20
25.4561258064
 30
0.0
 10
23.6096598125
 20
25.4501591009
 30
0.0
 10
23.6509058674
 20
25.4325500432
 30
0.0
 10
23.695498482
 20
25.406989313
 30
0.0
 10
23.725144464
 20
25.3865567337
 30
0.0
 10
23.7400725908
 20
25.3755509275
 30
0.0
  0
SPLINE
  5
4DE
100
AcDbEntity
  8
00_COMPONENTS_2
100
AcDbSpline
 62
7
  6
BYLAYER
 70
0
 71
3
 72
12
 73
8
 74
0
 42
0.0000001
 43
0.0000001
 44
0.0000000001
 40
0.0
 40
0.0
 40
0.0
 40
0.0
 40
0.0978871187
 40
0.2024034716
 40
0.4437332375
 40
0.7230180517
 40
1.0
 40
1.0
 40
1.0
 40
1.0
 10
30.7774972186
 20
25.0619864229
 30
0.0
 10
30.7750313357
 20
25.0578394596
 30
0.0
 10
30.7688414193
 20
25.0498575636
 30
0.0
 10
30.7511480589
 20
25.0365525165
 30
0.0
 10
30.7194881539
 20
25.029867182
 30
0.0
 10
30.6804378239
 20
25.0392996002
 30
0.0
 10
30.6565965219
 20
25.0535619166
 30
0.0
 10
30.6458538042
 20
25.0619864229
 30
0.0
  0
SPLINE
  5
4DF
100
AcDbEntity
  8
00_COMPONENTS_2
100
AcDbSpline
 62
7
  6
BYLAYER
 70
0
 71
3
 72
11
 73
7
 74
0
 42
0.0000001
 43
0.0000001
 44
0.0000000001
 40
0.0
 40
0.0
 40
0.0
 40
0.0
 40
0.2005996856
 40
0.4447999506
 40
0.7160288961
 40
1.0
 40
1.0
 40
1.0
 40
1.0
 10
24.2750264311
 20
25.4561258064
 30
0.0
 10
24.2883085389
 20
25.4561258064
 30
0.0
 10
24.3176640526
 20
25.4504516351
 30
0.0
 10
24.3617717095
 20
25.4328204397
 30
0.0
 10
24.4082342569
 20
25.4072229418
 30
0.0
 10
24.4387298783
 20
25.3866253361
 30
0.0
 10
24.4539247406
 20
25.3755509276
 30
0.0
  0
SPLINE
  5
4E0
100
AcDbEntity
  8
00_COMPONENTS_2
100
AcDbSpline
 62
7
  6
BYLAYER
 70
0
 71
3
 72
14
 73
10
 74
0
 42
0.0000001
 43
0.0000001
 44
0.0000000001
 40
0.0
 40
0.0
 40
0.0
 40
0.0
 40
0.2504235718
 40
0.3755906037
 40
0.5003160042
 40
0.6248007773
 40
0.7494317047
 40
0.8745798254
 40
1.0
 40
1.0
 40
1.0
 40
1.0
 10
45.2096233969
 20
24.4995024696
 30
0.0
 10
45.2148080572
 20
24.3008631288
 30
0.0
 10
45.2564858813
 20
24.0022085409
 30
0.0
 10
45.3806160593
 20
23.6243681837
 30
0.0
 10
45.5082689902
 20
23.3551660308
 30
0.0
 10
45.6698531859
 20
23.1053611537
 30
0.0
 10
45.8642103506
 20
22.8795458031
 30
0.0
 10
46.0885368235
 20
22.6824284877
 30
0.0
 10
46.254964101
 20
22.5723640986
 30
0.0
 10
46.3414261044
 20
22.5230860792
 30
0.0
  0
SPLINE
  5
4E1
100
AcDbEntity
  8
00_COMPONENTS_2
100
AcDbSpline
 62
7
  6
BYLAYER
 70
0
 71
3
 72
13
 73
9
 74
0
 42
0.0000001
 43
0.0000001
 44
0.0000000001
 40
0.0
 40
0.0
 40
0.0
 40
0.0
 40
0.1254497999
 40
0.2506495782
 40
0.3753669059
 40
0.4999524989
 40
0.7495104694
 40
1.0
 40
1.0
 40
1.0
 40
1.0
 10
46.3414261044
 20
22.5361001788
 30
0.0
 10
46.256769142
 20
22.5858854939
 30
0.0
 10
46.0939456124
 20
22.6966200857
 30
0.0
 10
45.874728285
 20
22.8936254898
 30
0.0
 10
45.68488909
 20
23.1182892451
 30
0.0
 10
45.4744687861
 20
23.4484990765
 30
0.0
 10
45.2943387847
 20
23.9088423122
 30
0.0
 10
45.2407024026
 20
24.3005458805
 30
0.0
 10
45.2358712931
 20
24.496587111
 30
0.0
  0
SPLINE
  5
4E2
100
AcDbEntity
  8
00_COMPONENTS_2
100
AcDbSpline
 62
7
  6
BYLAYER
 70
0
 71
3
 72
12
 73
8
 74
0
 42
0.0000001
 43
0.0000001
 44
0.0000000001
 40
0.0
 40
0.0
 40
0.0
 40
0.0
 40
0.2494068017
 40
0.3744888085
 40
0.4996548002
 40
0.7497306046
 40
1.0
 40
1.0
 40
1.0
 40
1.0
 10
44.2893104057
 20
23.7488816914
 30
0.0
 10
44.3989190162
 20
23.5428671999
 30
0.0
 10
44.6092637017
 20
23.2557375297
 30
0.0
 10
44.9520200132
 20
22.9367875262
 30
0.0
 10
45.3313619167
 20
22.660643635
 30
0.0
 10
45.8627908065
 20
22.4025548744
 30
0.0
 10
46.3253442167
 20
22.3013524561
 30
0.0
 10
46.5585484838
 20
22.2801599927
 30
0.0
  0
SPLINE
  5
4E3
100
AcDbEntity
  8
00_COMPONENTS_2
100
AcDbSpline
 62
7
  6
BYLAYER
 70
0
 71
3
 72
15
 73
11
 74
0
 42
0.0000001
 43
0.0000001
 44
0.0000000001
 40
0.0
 40
0.0
 40
0.0
 40
0.0
 40
0.0935315585
 40
0.1788792297
 40
0.2672738243
 40
0.3733206857
 40
0.5042932856
 40
0.6573532513
 40
0.8249683424
 40
1.0
 40
1.0
 40
1.0
 40
1.0
 10
26.866353803
 20
24.6686461236
 30
0.0
 10
26.8575564622
 20
24.6686461236
 30
0.0
 10
26.8405495021
 20
24.6669386878
 30
0.0
 10
26.8174540982
 20
24.6550076208
 30
0.0
 10
26.8022070825
 20
24.6322671056
 30
0.0
 10
26.7976098726
 20
24.6013207668
 30
0.0
 10
26.8024219426
 20
24.5646805803
 30
0.0
 10
26.8154725655
 20
24.5240839286
 30
0.0
 10
26.8351928137
 20
24.4817440751
 30
0.0
 10
26.8514894251
 20
24.45388897
 30
0.0
 10
26.860328037
 20
24.4399997511
 30
0.0
  0
SPLINE
  5
4E4
100
AcDbEntity
  8
00_COMPONENTS_2
100
AcDbSpline
 62
7
  6
BYLAYER
 70
0
 71
3
 72
11
 73
7
 74
0
 42
0.0000001
 43
0.0000001
 44
0.0000000001
 40
0.0
 40
0.0
 40
0.0
 40
0.0
 40
0.2443726766
 40
0.4914718101
 40
0.7432989809
 40
1.0
 40
1.0
 40
1.0
 40
1.0
 10
38.2660054345
 20
8.7937258065
 30
0.0
 10
38.1828395951
 20
8.7937258301
 30
0.0
 10
38.0154152672
 20
8.8038848401
 30
0.0
 10
37.7659465582
 20
8.8488692241
 30
0.0
 10
37.5189745597
 20
8.9221459055
 30
0.0
 10
37.3582323038
 20
8.986900329
 30
0.0
 10
37.2784318365
 20
9.0224518618
 30
0.0
  0
SPLINE
  5
4E5
100
AcDbEntity
  8
00_COMPONENTS_2
100
AcDbSpline
 62
7
  6
BYLAYER
 70
0
 71
3
 72
9
 73
5
 74
0
 42
0.0000001
 43
0.0000001
 44
0.0000000001
 40
0.0
 40
0.0
 40
0.0
 40
0.0
 40
0.2475282814
 40
1.0
 40
1.0
 40
1.0
 40
1.0
 10
44.2893104057
 20
23.7489126931
 30
0.0
 10
44.2660343203
 20
23.8182170597
 30
0.0
 10
44.1825514738
 20
24.1016638871
 30
0.0
 10
44.1405257529
 20
24.3970996952
 30
0.0
 10
44.1320789539
 20
24.6191851365
 30
0.0
  0
SPLINE
  5
4E6
100
AcDbEntity
  8
00_COMPONENTS_2
100
AcDbSpline
 62
7
  6
BYLAYER
 70
0
 71
3
 72
14
 73
10
 74
0
 42
0.0000001
 43
0.0000001
 44
0.0000000001
 40
0.0
 40
0.0
 40
0.0
 40
0.0
 40
0.0707885283
 40
0.151581889
 40
0.24863312
 40
0.3647376359
 40
0.5004641309
 40
0.6541688453
 40
1.0
 40
1.0
 40
1.0
 40
1.0
 10
40.283496109
 20
24.6687258065
 30
0.0
 10
40.2898391204
 20
24.6687258065
 30
0.0
 10
40.3035172249
 20
24.6655541376
 30
0.0
 10
40.3220986757
 20
24.6526175291
 30
0.0
 10
40.339116214
 20
24.632234221
 30
0.0
 10
40.3544026129
 20
24.6048171665
 30
0.0
 10
40.367535017
 20
24.5708335037
 30
0.0
 10
40.3820924915
 20
24.5157236278
 30
0.0
 10
40.387265713
 20
24.4709612411
 30
0.0
 10
40.3885526939
 20
24.4399997511
 30
0.0
  0
SPLINE
  5
4E7
100
AcDbEntity
  8
00_COMPONENTS_2
100
AcDbSpline
 62
7
  6
BYLAYER
 70
0
 71
3
 72
11
 73
7
 74
0
 42
0.0000001
 43
0.0000001
 44
0.0000000001
 40
0.0
 40
0.0
 40
0.0
 40
0.0
 40
0.2502250449
 40
0.5003685477
 40
0.7503122004
 40
1.0
 40
1.0
 40
1.0
 40
1.0
 10
37.2784318365
 20
9.0224518618
 30
0.0
 10
37.1792840107
 20
9.0666227458
 30
0.0
 10
36.9865522231
 20
9.1680837071
 30
0.0
 10
36.7211177128
 20
9.3582267599
 30
0.0
 10
36.4857431507
 20
9.5842832021
 30
0.0
 10
36.3527629675
 20
9.7566510036
 30
0.0
 10
36.2933610823
 20
9.8472172136
 30
0.0
  0
SPLINE
  5
4E8
100
AcDbEntity
  8
00_COMPONENTS_2
100
AcDbSpline
 62
7
  6
BYLAYER
 70
0
 71
3
 72
14
 73
10
 74
0
 42
0.0000001
 43
0.0000001
 44
0.0000000001
 40
0.0
 40
0.0
 40
0.0
 40
0.0
 40
0.0707721061
 40
0.1515437764
 40
0.2485949058
 40
0.3647102936
 40
0.5004472691
 40
0.6541594497
 40
1.0
 40
1.0
 40
1.0
 40
1.0
 10
39.9859165987
 20
24.6687258065
 30
0.0
 10
39.9795752239
 20
24.6687258065
 30
0.0
 10
39.9659005291
 20
24.6655545989
 30
0.0
 10
39.9473260803
 20
24.6526149759
 30
0.0
 10
39.9303103583
 20
24.6322332317
 30
0.0
 10
39.9150193486
 20
24.6048175116
 30
0.0
 10
39.9018817569
 20
24.5708340416
 30
0.0
 10
39.8873191911
 20
24.5157243584
 30
0.0
 10
39.8821469962
 20
24.4709612761
 30
0.0
 10
39.8808600138
 20
24.4399997511
 30
0.0
  0
SPLINE
  5
4E9
100
AcDbEntity
  8
00_COMPONENTS_2
100
AcDbSpline
 62
7
  6
BYLAYER
 70
0
 71
3
 72
11
 73
7
 74
0
 42
0.0000001
 43
0.0000001
 44
0.0000000001
 40
0.0
 40
0.0
 40
0.0
 40
0.0
 40
0.1323348084
 40
0.3450682006
 40
0.635480658
 40
1.0
 40
1.0
 40
1.0
 40
1.0
 10
35.5170269767
 20
9.7705418859
 30
0.0
 10
35.5511584333
 20
9.7749325111
 30
0.0
 10
35.6403429391
 20
9.7849188657
 30
0.0
 10
35.8048504122
 20
9.8005925675
 30
0.0
 10
36.0294883931
 20
9.821727101
 30
0.0
 10
36.1989990058
 20
9.8382140466
 30
0.0
 10
36.2933610682
 20
9.8472172352
 30
0.0
  0
SPLINE
  5
4EA
100
AcDbEntity
  8
0
100
AcDbSpline
 62
7
  6
BYLAYER
 70
0
 71
3
 72
16
 73
12
 74
0
 42
0.0000001
 43
0.0000001
 44
0.0000000001
 40
0.0
 40
0.0
 40
0.0
 40
0.0
 40
0.0377315747
 40
0.076545541
 40
0.1607379501
 40
0.2583990549
 40
0.3725840581
 40
0.50436252
 40
0.6536050631
 40
0.819419931
 40
1.0
 40
1.0
 40
1.0
 40
1.0
 10
49.6590260757
 20
84.9927417301
 30
0.0
 10
49.6431262355
 20
84.97684189
 30
0.0
 10
49.6137519755
 20
84.94156465
 30
0.0
 10
49.5660214079
 20
84.8580267993
 30
0.0
 10
49.530465595
 20
84.7292876342
 30
0.0
 10
49.5265817446
 20
84.551746439
 30
0.0
 10
49.5582011474
 20
84.3486278498
 30
0.0
 10
49.624596952
 20
84.1221459868
 30
0.0
 10
49.7248801991
 20
83.8750811254
 30
0.0
 10
49.857661124
 20
83.6109602022
 30
0.0
 10
49.9624702739
 20
83.4329405763
 30
0.0
 10
50.0196100498
 20
83.3417483332
 30
0.0
  0
SPLINE
  5
4EB
100
AcDbEntity
  8
0
100
AcDbSpline
 62
7
  6
BYLAYER
 70
0
 71
3
 72
16
 73
12
 74
0
 42
0.0000001
 43
0.0000001
 44
0.0000000001
 40
0.0
 40
0.0
 40
0.0
 40
0.0
 40
0.180580069
 40
0.3463949369
 40
0.49563748
 40
0.6274159419
 40
0.7416009451
 40
0.8392620499
 40
0.923454459
 40
0.9622684253
 40
1.0
 40
1.0
 40
1.0
 40
1.0
 10
52.552042276
 20
80.809316107
 30
0.0
 10
52.6432345191
 20
80.7521763311
 30
0.0
 10
52.8212541451
 20
80.6473671812
 30
0.0
 10
53.0853750682
 20
80.5145862563
 30
0.0
 10
53.3324399296
 20
80.4143030092
 30
0.0
 10
53.5589217926
 20
80.3479072046
 30
0.0
 10
53.7620403819
 20
80.3162878018
 30
0.0
 10
53.939581577
 20
80.3201716522
 30
0.0
 10
54.0683207421
 20
80.3557274651
 30
0.0
 10
54.1518585928
 20
80.4034580327
 30
0.0
 10
54.1871358328
 20
80.4328322927
 30
0.0
 10
54.2030356729
 20
80.4487321329
 30
0.0
  0
SPLINE
  5
4EC
100
AcDbEntity
  8
0
100
AcDbSpline
 62
7
  6
BYLAYER
 70
0
 71
3
 72
16
 73
12
 74
0
 42
0.0000001
 43
0.0000001
 44
0.0000000001
 40
0.0
 40
0.0
 40
0.0
 40
0.0
 40
0.0377315747
 40
0.076545541
 40
0.1607379501
 40
0.2583990549
 40
0.3725840581
 40
0.50436252
 40
0.6536050631
 40
0.819419931
 40
1.0
 40
1.0
 40
1.0
 40
1.0
 10
16.0521770348
 20
80.4487321329
 30
0.0
 10
16.068076875
 20
80.4328322927
 30
0.0
 10
16.1033541149
 20
80.4034580327
 30
0.0
 10
16.1868919656
 20
80.3557274651
 30
0.0
 10
16.3156311307
 20
80.3201716522
 30
0.0
 10
16.4931723259
 20
80.3162878018
 30
0.0
 10
16.6962909152
 20
80.3479072045
 30
0.0
 10
16.9227727781
 20
80.4143030092
 30
0.0
 10
17.1698376395
 20
80.5145862563
 30
0.0
 10
17.4339585627
 20
80.6473671812
 30
0.0
 10
17.6119781887
 20
80.7521763311
 30
0.0
 10
17.7031704317
 20
80.809316107
 30
0.0
  0
SPLINE
  5
4ED
100
AcDbEntity
  8
0
100
AcDbSpline
 62
7
  6
BYLAYER
 70
0
 71
3
 72
16
 73
12
 74
0
 42
0.0000001
 43
0.0000001
 44
0.0000000001
 40
0.0
 40
0.0
 40
0.0
 40
0.0
 40
0.180580069
 40
0.3463949369
 40
0.49563748
 40
0.6274159419
 40
0.7416009451
 40
0.8392620499
 40
0.923454459
 40
0.9622684253
 40
1.0
 40
1.0
 40
1.0
 40
1.0
 10
20.2356026579
 20
83.3417483332
 30
0.0
 10
20.2927424338
 20
83.4329405763
 30
0.0
 10
20.3975515837
 20
83.6109602022
 30
0.0
 10
20.5303325086
 20
83.8750811254
 30
0.0
 10
20.6306157557
 20
84.1221459868
 30
0.0
 10
20.6970115604
 20
84.3486278498
 30
0.0
 10
20.7286309631
 20
84.551746439
 30
0.0
 10
20.7247471127
 20
84.7292876342
 30
0.0
 10
20.6891912998
 20
84.8580267993
 30
0.0
 10
20.6414607322
 20
84.94156465
 30
0.0
 10
20.6120864722
 20
84.97684189
 30
0.0
 10
20.5961866321
 20
84.9927417301
 30
0.0
  0
SPLINE
  5
4EE
100
AcDbEntity
  8
0
100
AcDbSpline
 62
7
  6
BYLAYER
 70
0
 71
3
 72
19
 73
15
 74
0
 42
0.0000001
 43
0.0000001
 44
0.0000000001
 40
0.0
 40
0.0
 40
0.0
 40
0.0
 40
0.0320476796
 40
0.0658302027
 40
0.1027348017
 40
0.1437750394
 40
0.1896027789
 40
0.2405657112
 40
0.2967736591
 40
0.3581886717
 40
0.4957991506
 40
0.651033999
 40
0.8204974375
 40
1.0
 40
1.0
 40
1.0
 40
1.0
 10
54.2030356729
 20
80.4487321329
 30
0.0
 10
54.2254009744
 20
80.4710974343
 30
0.0
 10
54.2655443476
 20
80.5231941719
 30
0.0
 10
54.3067815811
 20
80.6167089515
 30
0.0
 10
54.3297520127
 20
80.7252236935
 30
0.0
 10
54.3347772441
 20
80.8477242022
 30
0.0
 10
54.3221483407
 20
80.9834924431
 30
0.0
 10
54.2920716137
 20
81.131704732
 30
0.0
 10
54.2448292872
 20
81.2914260258
 30
0.0
 10
54.1558559042
 20
81.5272822899
 30
0.0
 10
54.0017758836
 20
81.8419860186
 30
0.0
 10
53.7642957075
 20
82.2321254013
 30
0.0
 10
53.4740664589
 20
82.6368397884
 30
0.0
 10
53.2553475805
 20
82.9032207027
 30
0.0
 10
53.1389258363
 20
83.0367548742
 30
0.0
  0
SPLINE
  5
4EF
100
AcDbEntity
  8
0
100
AcDbSpline
 62
7
  6
BYLAYER
 70
0
 71
3
 72
19
 73
15
 74
0
 42
0.0000001
 43
0.0000001
 44
0.0000000001
 40
0.0
 40
0.0
 40
0.0
 40
0.0
 40
0.1795025625
 40
0.348966001
 40
0.5042008494
 40
0.6418113283
 40
0.7032263409
 40
0.7594342888
 40
0.8103972211
 40
0.8562249606
 40
0.8972651983
 40
0.9341697973
 40
0.9679523204
 40
1.0
 40
1.0
 40
1.0
 40
1.0
 10
17.1162868714
 20
83.0367548742
 30
0.0
 10
16.9998651272
 20
82.9032207027
 30
0.0
 10
16.7811462488
 20
82.6368397884
 30
0.0
 10
16.4909170002
 20
82.2321254013
 30
0.0
 10
16.2534368242
 20
81.8419860186
 30
0.0
 10
16.0993568035
 20
81.5272822899
 30
0.0
 10
16.0103834205
 20
81.2914260258
 30
0.0
 10
15.9631410941
 20
81.131704732
 30
0.0
 10
15.933064367
 20
80.9834924431
 30
0.0
 10
15.9204354636
 20
80.8477242022
 30
0.0
 10
15.925460695
 20
80.7252236935
 30
0.0
 10
15.9484311267
 20
80.6167089515
 30
0.0
 10
15.9896683601
 20
80.5231941719
 30
0.0
 10
16.0298117333
 20
80.4710974343
 30
0.0
 10
16.0521770348
 20
80.4487321329
 30
0.0
  0
SPLINE
  5
4F0
100
AcDbEntity
  8
0
100
AcDbSpline
 62
7
  6
BYLAYER
 70
0
 71
3
 72
19
 73
15
 74
0
 42
0.0000001
 43
0.0000001
 44
0.0000000001
 40
0.0
 40
0.0
 40
0.0
 40
0.0
 40
0.1795025625
 40
0.348966001
 40
0.5042008494
 40
0.6418113283
 40
0.7032263409
 40
0.7594342888
 40
0.8103972211
 40
0.8562249606
 40
0.8972651983
 40
0.9341697973
 40
0.9679523204
 40
1.0
 40
1.0
 40
1.0
 40
1.0
 10
52.247048817
 20
83.9286318935
 30
0.0
 10
52.1135146455
 20
84.0450536377
 30
0.0
 10
51.8471337312
 20
84.2637725161
 30
0.0
 10
51.4424193441
 20
84.5540017647
 30
0.0
 10
51.0522799614
 20
84.7914819408
 30
0.0
 10
50.7375762327
 20
84.9455619614
 30
0.0
 10
50.5017199686
 20
85.0345353444
 30
0.0
 10
50.3419986748
 20
85.0817776708
 30
0.0
 10
50.1937863859
 20
85.1118543979
 30
0.0
 10
50.058018145
 20
85.1244833013
 30
0.0
 10
49.9355176363
 20
85.1194580699
 30
0.0
 10
49.8270028943
 20
85.0964876382
 30
0.0
 10
49.7334881147
 20
85.0552504048
 30
0.0
 10
49.6813913772
 20
85.0151070316
 30
0.0
 10
49.6590260757
 20
84.9927417301
 30
0.0
  0
SPLINE
  5
4F1
100
AcDbEntity
  8
0
100
AcDbSpline
 62
7
  6
BYLAYER
 70
0
 71
3
 72
19
 73
15
 74
0
 42
0.0000001
 43
0.0000001
 44
0.0000000001
 40
0.0
 40
0.0
 40
0.0
 40
0.0
 40
0.0320476796
 40
0.0658302027
 40
0.1027348017
 40
0.1437750394
 40
0.1896027789
 40
0.2405657112
 40
0.2967736591
 40
0.3581886717
 40
0.4957991506
 40
0.651033999
 40
0.8204974375
 40
1.0
 40
1.0
 40
1.0
 40
1.0
 10
20.5961866321
 20
84.9927417301
 30
0.0
 10
20.5738213306
 20
85.0151070316
 30
0.0
 10
20.521724593
 20
85.0552504048
 30
0.0
 10
20.4282098134
 20
85.0964876382
 30
0.0
 10
20.3196950714
 20
85.1194580699
 30
0.0
 10
20.1971945627
 20
85.1244833013
 30
0.0
 10
20.0614263218
 20
85.1118543979
 30
0.0
 10
19.913214033
 20
85.0817776708
 30
0.0
 10
19.7534927391
 20
85.0345353444
 30
0.0
 10
19.5176364751
 20
84.9455619614
 30
0.0
 10
19.2029327463
 20
84.7914819408
 30
0.0
 10
18.8127933636
 20
84.5540017647
 30
0.0
 10
18.4080789765
 20
84.2637725161
 30
0.0
 10
18.1416980622
 20
84.0450536377
 30
0.0
 10
18.0081638907
 20
83.9286318935
 30
0.0
  0
SPLINE
  5
4F2
100
AcDbEntity
  8
00_COMPONENTS_4
100
AcDbSpline
 62
7
  6
BYLAYER
 70
0
 71
3
 72
15
 73
11
 74
0
 42
0.0000001
 43
0.0000001
 44
0.0000000001
 40
0.0
 40
0.0
 40
0.0
 40
0.0
 40
0.1262633288
 40
0.251511948
 40
0.3759715474
 40
0.5
 40
0.6240284526
 40
0.748488052
 40
0.8737366712
 40
1.0
 40
1.0
 40
1.0
 40
1.0
 10
17.9097063539
 20
45.1651770122
 30
0.0
 10
18.3275519933
 20
45.0346170831
 30
0.0
 10
19.1679446389
 20
44.7992983511
 30
0.0
 10
20.445558846
 20
44.5349930673
 30
0.0
 10
21.7324227433
 20
44.371448039
 30
0.0
 10
23.0243541874
 20
44.3160776448
 30
0.0
 10
24.3162856315
 20
44.371448039
 30
0.0
 10
25.6031495288
 20
44.5349930673
 30
0.0
 10
26.8807637359
 20
44.7992983511
 30
0.0
 10
27.7211563815
 20
45.0346170831
 30
0.0
 10
28.1390020209
 20
45.1651770122
 30
0.0
  0
SPLINE
  5
4F3
100
AcDbEntity
  8
00_COMPONENTS_4
100
AcDbSpline
 62
7
  6
BYLAYER
 70
0
 71
3
 72
11
 73
7
 74
0
 42
0.0000001
 43
0.0000001
 44
0.0000000001
 40
0.0
 40
0.0
 40
0.0
 40
0.0
 40
0.2500016435
 40
0.5000014209
 40
0.750000971
 40
1.0
 40
1.0
 40
1.0
 40
1.0
 10
28.1390020209
 20
45.1651770122
 30
0.0
 10
28.7325621465
 20
45.0340344238
 30
0.0
 10
29.9257283089
 20
44.7981266244
 30
0.0
 10
31.7309877996
 20
44.5341350415
 30
0.0
 10
33.5482983051
 20
44.3714342927
 30
0.0
 10
34.7643377228
 20
44.3345005728
 30
0.0
 10
35.3722063539
 20
44.3345005728
 30
0.0
  0
SPLINE
  5
4F4
100
AcDbEntity
  8
00_COMPONENTS_4
100
AcDbSpline
 62
7
  6
BYLAYER
 70
0
 71
3
 72
15
 73
11
 74
0
 42
0.0000001
 43
0.0000001
 44
0.0000000001
 40
0.0
 40
0.0
 40
0.0
 40
0.0
 40
0.1262633288
 40
0.251511948
 40
0.3759715474
 40
0.5
 40
0.6240284526
 40
0.748488052
 40
0.8737366712
 40
1.0
 40
1.0
 40
1.0
 40
1.0
 10
42.6054106868
 20
45.1651770122
 30
0.0
 10
43.0232563263
 20
45.0346170831
 30
0.0
 10
43.8636489718
 20
44.7992983511
 30
0.0
 10
45.1412631789
 20
44.5349930673
 30
0.0
 10
46.4281270762
 20
44.371448039
 30
0.0
 10
47.7200585203
 20
44.3160776448
 30
0.0
 10
49.0119899644
 20
44.371448039
 30
0.0
 10
50.2988538618
 20
44.5349930673
 30
0.0
 10
51.5764680689
 20
44.7992983511
 30
0.0
 10
52.4168607144
 20
45.0346170831
 30
0.0
 10
52.8347063539
 20
45.1651770122
 30
0.0
  0
SPLINE
  5
4F5
100
AcDbEntity
  8
00_COMPONENTS_4
100
AcDbSpline
 62
7
  6
BYLAYER
 70
0
 71
3
 72
11
 73
7
 74
0
 42
0.0000001
 43
0.0000001
 44
0.0000000001
 40
0.0
 40
0.0
 40
0.0
 40
0.0
 40
0.2499990294
 40
0.499998599
 40
0.7499983587
 40
1.0
 40
1.0
 40
1.0
 40
1.0
 10
35.3722063539
 20
44.3345005728
 30
0.0
 10
35.9800749866
 20
44.3345005728
 30
0.0
 10
37.1961144971
 20
44.3714331701
 30
0.0
 10
39.0134249317
 20
44.5341352492
 30
0.0
 10
40.818684309
 20
44.7981273261
 30
0.0
 10
42.0118505656
 20
45.0340344247
 30
0.0
 10
42.6054106868
 20
45.1651770122
 30
0.0
  0
ELLIPSE
  5
4F6
100
AcDbEntity
  8
00_COMPONENTS_2
100
AcDbEllipse
 62
7
  6
BYLAYER
 10
40.029496109
 20
24.4147258065
 30
0.0
 11
0.358354125
 21
0.0353113455
 31
0.0
 40
0.7019132665
 41
-0.0690548552
 42
-0.0398041395
  0
ELLIPSE
  5
4F7
100
AcDbEntity
  8
00_COMPONENTS_2
100
AcDbEllipse
 62
7
  6
BYLAYER
 10
56.0097063539
 20
9.0477258065
 30
0.0
 11
0.1883289435
 21
0.1883289435
 31
0.0
 40
0.9049875621
 41
2.4060288164
 42
3.1415926536
  0
ELLIPSE
  5
4F8
100
AcDbEntity
  8
00_COMPONENTS_2
100
AcDbEllipse
 62
7
  6
BYLAYER
 10
40.1347063539
 20
9.0477258065
 30
0.0
 11
0.1883289435
 21
0.1883289435
 31
0.0
 40
0.9049875621
 41
2.4060288164
 42
3.1415926536
  0
ELLIPSE
  5
4F9
100
AcDbEntity
  8
00_COMPONENTS_2
100
AcDbEllipse
 62
7
  6
BYLAYER
 10
40.1347063539
 20
9.0477258065
 30
0.0
 11
0.1883289435
 21
-0.1883289435
 31
0.0
 40
0.9049875621
 41
-0.0
 42
0.7355638372
  0
ELLIPSE
  5
4FA
100
AcDbEntity
  8
00_COMPONENTS_2
100
AcDbEllipse
 62
7
  6
BYLAYER
 10
52.0409563539
 20
9.0477258065
 30
0.0
 11
0.1883289435
 21
-0.1883289435
 31
0.0
 40
0.9049875621
 41
-0.0
 42
0.7355638372
  0
ELLIPSE
  5
4FB
100
AcDbEntity
  8
00_COMPONENTS_2
100
AcDbEllipse
 62
7
  6
BYLAYER
 10
78.5221261134
 20
-30.8937741935
 30
0.0
 11
-84.3078755843
 21
119.2040579043
 31
0.0
 40
0.0816447928
 41
1.0312638119
 42
1.1649160726
  0
ELLIPSE
  5
4FC
100
AcDbEntity
  8
00_COMPONENTS_2
100
AcDbEllipse
 62
7
  6
BYLAYER
 10
40.2399165987
 20
24.4147258065
 30
0.0
 11
0.358354125
 21
-0.0353113455
 31
0.0
 40
0.7019132665
 41
-3.1017885141
 42
-3.0725377984
  0
ELLIPSE
  5
4FD
100
AcDbEntity
  8
00_COMPONENTS_2
100
AcDbEllipse
 62
7
  6
BYLAYER
 10
52.0409563539
 20
9.0477258065
 30
0.0
 11
0.1883289435
 21
0.1883289435
 31
0.0
 40
0.9049875621
 41
2.4060288164
 42
3.1415926536
  0
ELLIPSE
  5
4FE
100
AcDbEntity
  8
00_COMPONENTS_2
100
AcDbEllipse
 62
7
  6
BYLAYER
 10
44.0353104057
 20
9.0477258065
 30
0.0
 11
0.1883289435
 21
0.1883289435
 31
0.0
 40
0.9049875621
 41
2.4060288165
 42
3.1415926536
  0
ELLIPSE
  5
4FF
100
AcDbEntity
  8
00_COMPONENTS_2
100
AcDbEllipse
 62
7
  6
BYLAYER
 10
43.5273104057
 20
24.4147258065
 30
0.0
 11
0.1883289435
 21
0.1883289435
 31
0.0
 40
0.9049875621
 41
-0.7355638372
 42
0.7355638372
  0
ELLIPSE
  5
500
100
AcDbEntity
  8
00_COMPONENTS_2
100
AcDbEllipse
 62
7
  6
BYLAYER
 10
44.0353104057
 20
9.0477258065
 30
0.0
 11
0.1883289435
 21
-0.1883289435
 31
0.0
 40
0.9049875621
 41
-0.0
 42
0.7355638372
  0
ELLIPSE
  5
501
100
AcDbEntity
  8
00_COMPONENTS_2
100
AcDbEllipse
 62
7
  6
BYLAYER
 10
59.9784563539
 20
9.0477258065
 30
0.0
 11
0.1883289435
 21
-0.1883289435
 31
0.0
 40
0.9049875621
 41
-0.0
 42
0.7355638371
  0
ELLIPSE
  5
502
100
AcDbEntity
  8
00_COMPONENTS_2
100
AcDbEllipse
 62
7
  6
BYLAYER
 10
59.9784563539
 20
9.0477258065
 30
0.0
 11
0.1883289435
 21
0.1883289435
 31
0.0
 40
0.9049875621
 41
2.4060288165
 42
3.1415926536
  0
ELLIPSE
  5
503
100
AcDbEntity
  8
00_COMPONENTS_2
100
AcDbEllipse
 62
7
  6
BYLAYER
 10
56.0097063539
 20
9.0477258065
 30
0.0
 11
0.1883289435
 21
-0.1883289435
 31
0.0
 40
0.9049875621
 41
-0.0
 42
0.7355638371
  0
ELLIPSE
  5
504
100
AcDbEntity
  8
00_COMPONENTS_2
100
AcDbEllipse
 62
7
  6
BYLAYER
 10
48.0722063539
 20
9.0477258065
 30
0.0
 11
0.1883289435
 21
-0.1883289435
 31
0.0
 40
0.9049875621
 41
-0.0
 42
0.7355638371
  0
ELLIPSE
  5
505
100
AcDbEntity
  8
00_COMPONENTS_2
100
AcDbEllipse
 62
7
  6
BYLAYER
 10
48.0722063539
 20
9.0477258065
 30
0.0
 11
0.1883289435
 21
0.1883289435
 31
0.0
 40
0.9049875621
 41
2.4060288165
 42
3.1415926536
  0
ENDSEC
  0
SECTION
  2
OBJECTS
  0
DICTIONARY
  5
C
100
AcDbDictionary
280
0
281
1
  3
ACAD_GROUP
350
D
  3
ACAD_MLINESTYLE
350
17
  3
ACAD_LAYOUT
350
1A
  3
ACAD_PLOTSETTINGS
350
19
  3
ACAD_PLOTSTYLENAME
350
E
  0
DICTIONARY
  5
D
102
{ACAD_REACTORS
330
C
102
}
100
AcDbDictionary
280
0
281
1
  0
ACDBDICTIONARYWDFLT
  5
E
102
{ACAD_REACTORS
330
C
102
}
100
AcDbDictionary
281
1
  3
Normal
350
F
100
AcDbDictionaryWithDefault
340
F
  0
DICTIONARY
  5
17
102
{ACAD_REACTORS
330
C
102
}
100
AcDbDictionary
280
0
281
1
  3
Standard
350
18
  0
DICTIONARY
  5
19
102
{ACAD_REACTORS
330
C
102
}
100
AcDbDictionary
281
1
  0
DICTIONARY
  5
1A
102
{ACAD_REACTORS
330
C
102
}
100
AcDbDictionary
281
1
  3
Model
350
506
  3
Layout1
350
507
  0
ACDBPLACEHOLDER
  5
F
102
{ACAD_REACTORS
330
E
102
}
  0
MLINESTYLE
  5
18
102
{ACAD_REACTORS
330
17
102
}
100
AcDbMlineStyle
  2
STANDARD
 70
0
  3

 62
256
 51
90.0
 52
90.0
 71
2
 49
0.5
 62
256
  6
BYLAYER
 49
-0.5
 62
256
  6
BYLAYER
  0
LAYOUT
  5
506
102
{ACAD_REACTORS
330
1A
102
}
100
AcDbPlotSettings
  1

  2
none_device
  4

  6

 40
0.0
 41
0.0
 42
0.0
 43
0.0
 44
210.0
 45
297.0
 46
0.0
 47
0.0
 48
0.0
 49
0.0
140
0.0
141
0.0
142
1.0
143
1.0
 70
1024
 72
1
 73
0
 74
0
  7

 75
0
147
1.0
148
0.0
149
0.0
100
AcDbLayout
  1
Model
 70
0
 71
0
 10
0.0
 20
0.0
 11
210.0
 21
297.0
 12
0.0
 22
0.0
 32
0.0
 14
0.0
 24
0.0
 34
0.0
 15
0.0
 25
0.0
 35
0.0
146
0.0
 13
0.0
 23
0.0
 33
0.0
 16
1.0
 26
0.0
 36
0.0
 17
0.0
 27
1.0
 37
0.0
 76
0
330
224
345
0
346
0
  0
LAYOUT
  5
507
102
{ACAD_REACTORS
330
1A
102
}
100
AcDbPlotSettings
  1

  2
none_device
  4

  6

 40
0.0
 41
0.0
 42
0.0
 43
0.0
 44
210.0
 45
297.0
 46
0.0
 47
0.0
 48
0.0
 49
0.0
140
0.0
141
0.0
142
1.0
143
1.0
 70
0
 72
1
 73
0
 74
0
  7

 75
0
147
1.0
148
0.0
149
0.0
100
AcDbLayout
  1
Layout1
 70
0
 71
1
 10
0.0
 20
0.0
 11
210.0
 21
297.0
 12
0.0
 22
0.0
 32
0.0
 14
0.0
 24
0.0
 34
0.0
 15
0.0
 25
0.0
 35
0.0
146
0.0
 13
0.0
 23
0.0
 33
0.0
 16
1.0
 26
0.0
 36
0.0
 17
0.0
 27
1.0
 37
0.0
 76
0
330
225
345
0
346
0
  0
ENDSEC
  0
EOF
