999
DXF file: C:\Users\sesa63760\Dev\_Creo\CAD\MCADUE0002395_3D-CAD\drw0001_5.dxf
999
Pro/ENGINEER 2019471 by Parametric Technology Corporation
  0
SECTION
  2
HEADER
  9
$ACADVER
  1
AC1024
  9
$DWGCODEPAGE
  3
ANSI_1252
  9
$EXTMAX
 10
590.4766027623
 20
835.1026239067
 30
0.0
  9
$EXTMIN
 10
0.0
 20
0.0
 30
0.0
  9
$LIMMIN
 10
0.0
 20
0.0
  9
$LIMMAX
 10
590.4766027623
 20
835.1026239067
  9
$VIEWCTR
 10
295.2383013812
 20
417.5513119534
  9
$VIEWSIZE
 40
835.1026239067
  9
$CLAYER
  8
0
  9
$LTSCALE
 40
54.436319188
  9
$CELTYPE
  6
BYLAYER
  9
$DIMSCALE
 40
1.0
  9
$DIMASZ
 40
7.0294833662
  9
$DIMEXO
 40
1.0
  9
$DIMDLI
 40
37.6105478026
  9
$DIMEXE
 40
1.0
  9
$DIMCEN
 40
8.9077613217
  9
$DIMLFAC
 40
1.0
  9
$DIMBLK
  1
_FILLED
  9
$DIMALT
 70
0
  9
$DIMALTF
 40
0.0393700787
  9
$DIMTXT
 40
9.8412767127
  9
$DIMTOL
 70
1
  9
$DIMLIM
 70
0
  9
$DIMTFAC
 40
1.0
  9
$DIMTP
 40
0.01
  9
$DIMTM
 40
0.01
  9
$DIMGAP
 40
0.625
  9
$DIMDSEP
 70
46
  9
$AUNITS
 70
0
  9
$PDMODE
 70
3
  9
$PDSIZE
 40
0.3125
  9
$HANDSEED
  5
3C5
  9
$TILEMODE
 70
1
  9
$MEASUREMENT
 70
1
  9
$INSUNITS
 70
4
  0
ENDSEC
  0
SECTION
  2
CLASSES
  0
CLASS
  1
ACDBDICTIONARYWDFLT
  2
AcDbDictionaryWithDefault
  3
AutoCAD 2000
 90
0
 91
1
280
0
281
0
  0
CLASS
  1
ACDBPLACEHOLDER
  2
AcDbPlaceHolder
  3
AutoCAD 2000
 90
0
 91
1
280
0
281
0
  0
CLASS
  1
LAYOUT
  2
AcDbLayout
  3
AutoCAD 2000
 90
0
 91
0
280
0
281
0
  0
ENDSEC
  0
SECTION
  2
TABLES
  0
TABLE
  2
VPORT
  5
8
100
AcDbSymbolTable
 70
2
  0
VPORT
  5
1F4
100
AcDbSymbolTableRecord
100
AcDbViewportTableRecord
  2
*ACTIVE
 70
0
 10
0.0
 20
0.0
 11
1.0
 21
1.0
 12
295.2383013812
 22
417.5513119534
 13
0.0
 23
0.0
 14
1.0
 24
1.0
 15
0.0
 25
0.0
 16
0.0
 26
0.0
 36
1.0
 17
0.0
 27
0.0
 37
0.0
 40
835.1026239067
 41
0.7070707071
 42
50.0
 43
0.0
 44
0.0
 50
0.0
 51
0.0
 71
0
 72
100
 73
1
 74
1
 75
0
 76
0
 77
0
 78
0
  0
ENDTAB
  0
TABLE
  2
LTYPE
  5
5
100
AcDbSymbolTable
 70
6
  0
LTYPE
  5
14
100
AcDbSymbolTableRecord
100
AcDbLinetypeTableRecord
  2
BYBLOCK
 70
0
  3

 72
65
 73
0
 40
0.0
  0
LTYPE
  5
15
100
AcDbSymbolTableRecord
100
AcDbLinetypeTableRecord
  2
BYLAYER
 70
0
  3

 72
65
 73
0
 40
0.0
  0
LTYPE
  5
16
100
AcDbSymbolTableRecord
100
AcDbLinetypeTableRecord
  2
CONTINUOUS
 70
64
  3
Solid line
 72
65
 73
0
 40
0.0
  0
LTYPE
  5
1F5
100
AcDbSymbolTableRecord
100
AcDbLinetypeTableRecord
  2
CENTER
 70
64
  3
____ _ ____ _ ____ _ ____ _ ____ _ ____ _ ____
 72
65
 73
4
 40
0.6
 49
0.375
 74
0
 49
-0.075
 74
0
 49
0.075
 74
0
 49
-0.075
 74
0
  0
LTYPE
  5
1F6
100
AcDbSymbolTableRecord
100
AcDbLinetypeTableRecord
  2
HIDDEN
 70
64
  3
- - - - - - - - - - - - - - - - - - - -
 72
65
 73
2
 40
0.2
 49
0.1
 74
0
 49
-0.1
 74
0
  0
LTYPE
  5
1F7
100
AcDbSymbolTableRecord
100
AcDbLinetypeTableRecord
  2
PHANTOM
 70
64
  3
_____ _ _ _____ _ _ _____ _ _ _____
 72
65
 73
6
 40
0.8
 49
0.45
 74
0
 49
-0.05
 74
0
 49
0.1
 74
0
 49
-0.05
 74
0
 49
0.1
 74
0
 49
-0.05
 74
0
  0
LTYPE
  5
1F8
100
AcDbSymbolTableRecord
100
AcDbLinetypeTableRecord
  2
DOT
 70
64
  3
. . . . . . . . . . . . . . . . . . . .
 72
65
 73
2
 40
0.2
 49
0.1
 74
0
 49
-0.1
 74
0
  0
LTYPE
  5
1F9
100
AcDbSymbolTableRecord
100
AcDbLinetypeTableRecord
  2
DASHED
 70
64
  3
- - - - - - - - - - - - - - - - - - - -
 72
65
 73
2
 40
0.2
 49
0.1
 74
0
 49
-0.1
 74
0
  0
ENDTAB
  0
TABLE
  2
LAYER
  5
2
100
AcDbSymbolTable
 70
36
  0
LAYER
  5
10
100
AcDbSymbolTableRecord
100
AcDbLayerTableRecord
  2
0
 70
0
 62
7
  6
CONTINUOUS
370
-3
390
F
  0
LAYER
  5
1FA
100
AcDbSymbolTableRecord
100
AcDbLayerTableRecord
  2
DEFAULT_1
 70
0
 62
7
  6
CENTER
370
-3
390
F
  0
LAYER
  5
1FB
100
AcDbSymbolTableRecord
100
AcDbLayerTableRecord
  2
DEFAULT_2
 70
0
 62
8
  6
HIDDEN
370
-3
390
F
  0
LAYER
  5
1FC
100
AcDbSymbolTableRecord
100
AcDbLayerTableRecord
  2
DEFAULT_3
 70
0
 62
7
  6
PHANTOM
370
-3
390
F
  0
LAYER
  5
1FD
100
AcDbSymbolTableRecord
100
AcDbLayerTableRecord
  2
00_COMPONENTS
 70
0
 62
7
  6
CONTINUOUS
370
-3
390
F
  0
LAYER
  5
1FE
100
AcDbSymbolTableRecord
100
AcDbLayerTableRecord
  2
01_1_DEFAULT_DATUMS
 70
0
 62
7
  6
CONTINUOUS
370
-3
390
F
  0
LAYER
  5
1FF
100
AcDbSymbolTableRecord
100
AcDbLayerTableRecord
  2
01_PLANES
 70
0
 62
7
  6
CONTINUOUS
370
-3
390
F
  0
LAYER
  5
200
100
AcDbSymbolTableRecord
100
AcDbLayerTableRecord
  2
02_COORD_SYS
 70
0
 62
7
  6
CONTINUOUS
370
-3
390
F
  0
LAYER
  5
201
100
AcDbSymbolTableRecord
100
AcDbLayerTableRecord
  2
03_AXES
 70
0
 62
7
  6
CONTINUOUS
370
-3
390
F
  0
LAYER
  5
202
100
AcDbSymbolTableRecord
100
AcDbLayerTableRecord
  2
04_POINTS
 70
0
 62
7
  6
CONTINUOUS
370
-3
390
F
  0
LAYER
  5
203
100
AcDbSymbolTableRecord
100
AcDbLayerTableRecord
  2
05_CURVES
 70
0
 62
7
  6
CONTINUOUS
370
-3
390
F
  0
LAYER
  5
204
100
AcDbSymbolTableRecord
100
AcDbLayerTableRecord
  2
06_SURFS
 70
0
 62
7
  6
CONTINUOUS
370
-3
390
F
  0
LAYER
  5
205
100
AcDbSymbolTableRecord
100
AcDbLayerTableRecord
  2
07_COSMETICS
 70
0
 62
7
  6
CONTINUOUS
370
-3
390
F
  0
LAYER
  5
206
100
AcDbSymbolTableRecord
100
AcDbLayerTableRecord
  2
10_NOTES
 70
0
 62
7
  6
CONTINUOUS
370
-3
390
F
  0
LAYER
  5
207
100
AcDbSymbolTableRecord
100
AcDbLayerTableRecord
  2
11_NOTES_PUB
 70
0
 62
7
  6
CONTINUOUS
370
-3
390
F
  0
LAYER
  5
208
100
AcDbSymbolTableRecord
100
AcDbLayerTableRecord
  2
13_REF_GTOL
 70
0
 62
7
  6
CONTINUOUS
370
-3
390
F
  0
LAYER
  5
209
100
AcDbSymbolTableRecord
100
AcDbLayerTableRecord
  2
16_MISC
 70
0
 62
7
  6
CONTINUOUS
370
-3
390
F
  0
LAYER
  5
20A
100
AcDbSymbolTableRecord
100
AcDbLayerTableRecord
  2
17_NO_PRINT
 70
0
 62
7
  6
CONTINUOUS
370
-3
390
F
  0
LAYER
  5
20B
100
AcDbSymbolTableRecord
100
AcDbLayerTableRecord
  2
18_DATUM_CAMS_JOINTS
 70
0
 62
7
  6
CONTINUOUS
370
-3
390
F
  0
LAYER
  5
20C
100
AcDbSymbolTableRecord
100
AcDbLayerTableRecord
  2
19_DATUM_FUNCTIONAL
 70
0
 62
7
  6
CONTINUOUS
370
-3
390
F
  0
LAYER
  5
20D
100
AcDbSymbolTableRecord
100
AcDbLayerTableRecord
  2
20_DATUM_KINEMATIC_SCHEME
 70
0
 62
7
  6
CONTINUOUS
370
-3
390
F
  0
ENDTAB
  0
TABLE
  2
STYLE
  5
3
100
AcDbSymbolTable
 70
1
  0
STYLE
  5
11
100
AcDbSymbolTableRecord
100
AcDbTextStyleTableRecord
  2
STANDARD
 70
0
 40
0.0
 41
0.8
 50
0.0
 71
0
 42
0.2
  3
txt
  4

  0
STYLE
  5
20E
100
AcDbSymbolTableRecord
100
AcDbTextStyleTableRecord
  2
TEXTSTYLE_1
 70
0
 40
0.0
 41
0.8
 50
0.0
 71
0
 42
0.2
  3
gdt
  4

  0
ENDTAB
  0
TABLE
  2
VIEW
  5
6
100
AcDbSymbolTable
 70
0
  0
ENDTAB
  0
TABLE
  2
UCS
  5
7
100
AcDbSymbolTable
 70
0
  0
ENDTAB
  0
TABLE
  2
APPID
  5
9
100
AcDbSymbolTable
 70
1
  0
APPID
  5
20F
100
AcDbSymbolTableRecord
100
AcDbRegAppTableRecord
  2
ACAD
 70
0
  0
ENDTAB
  0
TABLE
  2
BLOCK_RECORD
  5
1
100
AcDbSymbolTable
 70
0
  0
BLOCK_RECORD
  5
210
100
AcDbSymbolTableRecord
100
AcDbBlockTableRecord
  2
*Model_Space
  0
BLOCK_RECORD
  5
211
100
AcDbSymbolTableRecord
100
AcDbBlockTableRecord
  2
*Paper_Space
  0
BLOCK_RECORD
  5
212
100
AcDbSymbolTableRecord
100
AcDbBlockTableRecord
  2
_FILLED
  0
ENDTAB
  0
TABLE
  2
DIMSTYLE
  5
A
100
AcDbSymbolTable
 70
1
100
AcDbDimStyleTable
 71
0
  0
DIMSTYLE
105
213
100
AcDbSymbolTableRecord
100
AcDbDimStyleTableRecord
  2
STANDARD
 70
0
  3

  4

 40
1.0
 41
7.0294833662
 42
1.0
 43
0.38
 44
1.0
 45
0.0
 46
0.0
 47
0.01
 48
0.01
140
9.8412767127
141
0.09
142
0.0
143
25.4
144
1.0
145
0.0
146
1.0
147
0.625
 71
1
 72
0
 73
0
 74
0
 75
0
 76
0
 77
1
 78
8
 79
2
170
0
171
1
172
0
173
0
174
0
175
0
176
0
177
0
178
0
270
2
179
2
271
2
272
2
273
2
274
2
275
0
280
0
281
0
282
0
283
1
284
8
285
0
286
0
287
3
288
0
340
11
278
46
341
212
342
212
343
212
344
212
  0
ENDTAB
  0
ENDSEC
  0
SECTION
  2
BLOCKS
  0
BLOCK
  5
20
100
AcDbEntity
  8
0
100
AcDbBlockBegin
  2
*Model_Space
 70
0
 10
0.0
 20
0.0
 30
0.0
  3
*Model_Space
  1

  0
ENDBLK
  5
21
100
AcDbEntity
  8
0
100
AcDbBlockEnd
  0
BLOCK
  5
1C
100
AcDbEntity
  8
0
100
AcDbBlockBegin
  2
*Paper_Space
 70
0
 10
0.0
 20
0.0
 30
0.0
  3
*Paper_Space
  1

  0
ENDBLK
  5
1D
100
AcDbEntity
  8
0
100
AcDbBlockEnd
  0
BLOCK
  5
214
100
AcDbEntity
  8
0
100
AcDbBlockBegin
  2
_FILLED
 70
64
 10
0.0
 20
0.0
  3
_FILLED
  1

  0
SOLID
  5
215
100
AcDbEntity
  8
0
  6
BYBLOCK
 62
0
100
AcDbTrace
 10
0.0
 20
0.0
 11
-1.0
 21
0.25
 12
-1.0
 22
-0.25
 13
-1.0
 23
-0.25
  0
ENDBLK
  5
216
100
AcDbEntity
  8
0
  6
BYBLOCK
 62
0
100
AcDbBlockEnd
  0
ENDSEC
  0
SECTION
  2
ENTITIES
  0
LINE
  5
217
100
AcDbEntity
  8
0
100
AcDbLine
 62
7
  6
CONTINUOUS
 10
120.9475945704
 20
68.6703274873
 11
120.9440839693
 21
68.6710215039
  0
LINE
  5
218
100
AcDbEntity
  8
0
100
AcDbLine
 62
7
  6
CONTINUOUS
 10
120.9478264331
 20
68.6695404235
 11
120.9443106355
 21
68.6702505194
  0
LINE
  5
219
100
AcDbEntity
  8
0
100
AcDbLine
 62
7
  6
CONTINUOUS
 10
119.159309302
 20
69.0186937027
 11
119.1903504463
 21
69.0105010081
  0
LINE
  5
21A
100
AcDbEntity
  8
0
100
AcDbLine
 62
7
  6
CONTINUOUS
 10
499.7758432238
 20
72.1734693878
 11
502.233299357
 21
72.492559933
  0
LINE
  5
21B
100
AcDbEntity
  8
0
100
AcDbLine
 62
7
  6
CONTINUOUS
 10
331.3109348371
 20
69.0074285283
 11
331.3407428679
 21
69.0105010212
  0
LINE
  5
21C
100
AcDbEntity
  8
0
100
AcDbLine
 62
7
  6
CONTINUOUS
 10
329.4268148201
 20
68.644703905
 11
329.4755669766
 21
68.6489902926
  0
LINE
  5
21D
100
AcDbEntity
  8
0
100
AcDbLine
 62
7
  6
CONTINUOUS
 10
329.4372855375
 20
68.6455986316
 11
329.4181386882
 21
68.6439732451
  0
LINE
  5
21E
100
AcDbEntity
  8
0
100
AcDbLine
 62
7
  6
CONTINUOUS
 10
331.2813885837
 20
69.0065832146
 11
331.3109348371
 21
69.0074285283
  0
LINE
  5
21F
100
AcDbEntity
  8
0
100
AcDbLine
 62
7
  6
CONTINUOUS
 10
331.371792268
 20
69.018695303
 11
331.3157413048
 21
69.01708868
  0
LINE
  5
220
100
AcDbEntity
  8
0
100
AcDbLine
 62
7
  6
CONTINUOUS
 10
287.7813885838
 20
69.0065832146
 11
287.8109348371
 21
69.0074285283
  0
LINE
  5
221
100
AcDbEntity
  8
0
100
AcDbLine
 62
7
  6
CONTINUOUS
 10
287.8717938461
 20
69.01869481
 11
287.8157413048
 21
69.01708868
  0
LINE
  5
222
100
AcDbEntity
  8
0
100
AcDbLine
 62
7
  6
CONTINUOUS
 10
328.2505466128
 20
69.0057010331
 11
328.5891651491
 21
69.0071588788
  0
LINE
  5
223
100
AcDbEntity
  8
0
100
AcDbLine
 62
7
  6
CONTINUOUS
 10
284.7505466128
 20
69.0057007036
 11
285.2655466128
 21
69.0073521231
  0
LINE
  5
224
100
AcDbEntity
  8
0
100
AcDbLine
 62
7
  6
CONTINUOUS
 10
164.7505466128
 20
69.0057010331
 11
165.2612295865
 21
69.0073474672
  0
LINE
  5
225
100
AcDbEntity
  8
0
100
AcDbLine
 62
7
  6
CONTINUOUS
 10
121.2505466128
 20
69.0057010331
 11
121.7612295927
 21
69.0073474672
  0
LINE
  5
226
100
AcDbEntity
  8
0
100
AcDbLine
 62
7
  6
CONTINUOUS
 10
467.7655466128
 20
68.9734693878
 11
454.7655466128
 21
68.9734693878
  0
LINE
  5
227
100
AcDbEntity
  8
0
100
AcDbLine
 62
7
  6
CONTINUOUS
 10
473.0655466128
 20
69.1734693878
 11
102.4655466128
 21
69.1734693878
  0
LINE
  5
228
100
AcDbEntity
  8
0
100
AcDbLine
 62
7
  6
CONTINUOUS
 10
121.5877810296
 20
69.0071573618
 11
121.941843172
 21
69.0071588227
  0
LINE
  5
229
100
AcDbEntity
  8
0
100
AcDbLine
 62
7
  6
CONTINUOUS
 10
165.0877810296
 20
69.0071573618
 11
165.441843172
 21
69.0071588227
  0
LINE
  5
22A
100
AcDbEntity
  8
0
100
AcDbLine
 62
7
  6
CONTINUOUS
 10
285.0877810296
 20
69.0071573618
 11
285.441843172
 21
69.0071588227
  0
LINE
  5
22B
100
AcDbEntity
  8
0
100
AcDbLine
 62
7
  6
CONTINUOUS
 10
328.5877810296
 20
69.0071573618
 11
328.941843172
 21
69.0071588227
  0
LINE
  5
22C
100
AcDbEntity
  8
0
100
AcDbLine
 62
7
  6
CONTINUOUS
 10
121.9405066591
 20
69.0071634419
 11
122.2805466128
 21
69.0057010292
  0
LINE
  5
22D
100
AcDbEntity
  8
0
100
AcDbLine
 62
7
  6
CONTINUOUS
 10
165.4405066591
 20
69.0071634419
 11
165.7805466128
 21
69.0057010292
  0
LINE
  5
22E
100
AcDbEntity
  8
0
100
AcDbLine
 62
7
  6
CONTINUOUS
 10
285.440506659
 20
69.0071634419
 11
285.7805466128
 21
69.0057010292
  0
LINE
  5
22F
100
AcDbEntity
  8
0
100
AcDbLine
 62
7
  6
CONTINUOUS
 10
328.940506659
 20
69.0071634419
 11
329.2805466128
 21
69.0057010292
  0
LINE
  5
230
100
AcDbEntity
  8
0
100
AcDbLine
 62
7
  6
CONTINUOUS
 10
119.2201584431
 20
69.0074285253
 11
119.2531338019
 21
69.0064850839
  0
LINE
  5
231
100
AcDbEntity
  8
0
100
AcDbLine
 62
7
  6
CONTINUOUS
 10
119.2153519937
 20
69.0170886549
 11
119.1592993804
 21
69.0186948097
  0
LINE
  5
232
100
AcDbEntity
  8
0
100
AcDbLine
 62
7
  6
CONTINUOUS
 10
119.2153519937
 20
69.0170886549
 11
119.1593052505
 21
69.0186937919
  0
LINE
  5
233
100
AcDbEntity
  8
0
100
AcDbLine
 62
7
  6
CONTINUOUS
 10
162.7201584431
 20
69.0074285253
 11
162.7531338019
 21
69.0064850839
  0
LINE
  5
234
100
AcDbEntity
  8
0
100
AcDbLine
 62
7
  6
CONTINUOUS
 10
162.7153519937
 20
69.0170886549
 11
162.6592993804
 21
69.0186948097
  0
LINE
  5
235
100
AcDbEntity
  8
0
100
AcDbLine
 62
7
  6
CONTINUOUS
 10
162.7153519937
 20
69.0170886549
 11
162.6593052505
 21
69.0186937919
  0
LINE
  5
236
100
AcDbEntity
  8
0
100
AcDbLine
 62
7
  6
CONTINUOUS
 10
282.7201584431
 20
69.0074285253
 11
282.7531338019
 21
69.0064850839
  0
LINE
  5
237
100
AcDbEntity
  8
0
100
AcDbLine
 62
7
  6
CONTINUOUS
 10
282.7153519937
 20
69.0170886549
 11
282.6592993804
 21
69.0186948097
  0
LINE
  5
238
100
AcDbEntity
  8
0
100
AcDbLine
 62
7
  6
CONTINUOUS
 10
326.2201584431
 20
69.0074285253
 11
326.2531338019
 21
69.0064850839
  0
LINE
  5
239
100
AcDbEntity
  8
0
100
AcDbLine
 62
7
  6
CONTINUOUS
 10
326.2153519937
 20
69.0170886549
 11
326.1593052505
 21
69.0186937919
  0
LINE
  5
23A
100
AcDbEntity
  8
0
100
AcDbLine
 62
7
  6
CONTINUOUS
 10
121.1042788585
 20
68.6447038662
 11
121.1129545373
 21
68.6439732451
  0
LINE
  5
23B
100
AcDbEntity
  8
0
100
AcDbLine
 62
7
  6
CONTINUOUS
 10
164.6042788585
 20
68.6447038662
 11
164.6129545373
 21
68.6439732451
  0
LINE
  5
23C
100
AcDbEntity
  8
0
100
AcDbLine
 62
7
  6
CONTINUOUS
 10
284.6042788585
 20
68.6447038662
 11
284.6129545373
 21
68.6439732451
  0
LINE
  5
23D
100
AcDbEntity
  8
0
100
AcDbLine
 62
7
  6
CONTINUOUS
 10
119.1903504215
 20
69.0105010125
 11
119.2201584431
 21
69.0074285253
  0
LINE
  5
23E
100
AcDbEntity
  8
0
100
AcDbLine
 62
7
  6
CONTINUOUS
 10
162.6903504086
 20
69.0105010148
 11
162.7201584431
 21
69.0074285253
  0
LINE
  5
23F
100
AcDbEntity
  8
0
100
AcDbLine
 62
7
  6
CONTINUOUS
 10
282.6903504677
 20
69.0105010042
 11
282.7201584431
 21
69.0074285253
  0
LINE
  5
240
100
AcDbEntity
  8
0
100
AcDbLine
 62
7
  6
CONTINUOUS
 10
164.4475945704
 20
68.6703274873
 11
164.4440839693
 21
68.6710215039
  0
LINE
  5
241
100
AcDbEntity
  8
0
100
AcDbLine
 62
7
  6
CONTINUOUS
 10
164.4478264331
 20
68.6695404235
 11
164.4443106355
 21
68.6702505194
  0
LINE
  5
242
100
AcDbEntity
  8
0
100
AcDbLine
 62
7
  6
CONTINUOUS
 10
162.659309302
 20
69.0186937027
 11
162.6903504086
 21
69.0105010148
  0
LINE
  5
243
100
AcDbEntity
  8
0
100
AcDbLine
 62
7
  6
CONTINUOUS
 10
331.3407428005
 20
69.0105010091
 11
331.3717839537
 21
69.0186937055
  0
LINE
  5
244
100
AcDbEntity
  8
0
100
AcDbLine
 62
7
  6
CONTINUOUS
 10
329.5864501465
 20
68.675081002
 11
329.5813317728
 21
68.6740280288
  0
LINE
  5
245
100
AcDbEntity
  8
0
100
AcDbLine
 62
7
  6
CONTINUOUS
 10
286.0864501465
 20
68.675081002
 11
286.0813317728
 21
68.6740280288
  0
LINE
  5
246
100
AcDbEntity
  8
0
100
AcDbLine
 62
7
  6
CONTINUOUS
 10
329.5824338277
 20
68.6693725482
 11
329.58678259
 21
68.6702505194
  0
LINE
  5
247
100
AcDbEntity
  8
0
100
AcDbLine
 62
7
  6
CONTINUOUS
 10
286.0824338277
 20
68.6693725482
 11
286.08678259
 21
68.6702505194
  0
LINE
  5
248
100
AcDbEntity
  8
0
100
AcDbLine
 62
7
  6
CONTINUOUS
 10
329.5868422772
 20
68.6764300893
 11
329.5817370314
 21
68.6754181394
  0
LINE
  5
249
100
AcDbEntity
  8
0
100
AcDbLine
 62
7
  6
CONTINUOUS
 10
286.0868422772
 20
68.6764300893
 11
286.0817370314
 21
68.6754181394
  0
LINE
  5
24A
100
AcDbEntity
  8
0
100
AcDbLine
 62
7
  6
CONTINUOUS
 10
329.5826668115
 20
68.6701630388
 11
329.5870092562
 21
68.6710215039
  0
LINE
  5
24B
100
AcDbEntity
  8
0
100
AcDbLine
 62
7
  6
CONTINUOUS
 10
286.0826668115
 20
68.6701630388
 11
286.0870092562
 21
68.6710215039
  0
LWPOLYLINE
  5
24C
100
AcDbEntity
  8
0
100
AcDbPolyline
 62
7
  6
CONTINUOUS
 90
3
 70
0
 10
287.8109348371
 20
69.0074285283
 10
287.8407428292
 20
69.0105010143
 10
287.8717839537
 20
69.0186937055
  0
LWPOLYLINE
  5
24D
100
AcDbEntity
  8
0
100
AcDbPolyline
 62
7
  6
CONTINUOUS
 90
3
 70
0
 10
167.8109348371
 20
69.0074285283
 10
167.8407426314
 20
69.0105009787
 10
167.8717839537
 20
69.0186937055
  0
LWPOLYLINE
  5
24E
100
AcDbEntity
  8
0
100
AcDbPolyline
 62
7
  6
CONTINUOUS
 90
3
 70
0
 10
124.3109348371
 20
69.0074285283
 10
124.3407426745
 20
69.0105009865
 10
124.3717839537
 20
69.0186937055
  0
LINE
  5
24F
100
AcDbEntity
  8
0
100
AcDbLine
 62
7
  6
CONTINUOUS
 10
285.9268148201
 20
68.644703905
 11
285.9755669766
 21
68.6489902926
  0
LINE
  5
250
100
AcDbEntity
  8
0
100
AcDbLine
 62
7
  6
CONTINUOUS
 10
165.9268148201
 20
68.644703905
 11
165.9755669766
 21
68.6489902926
  0
LINE
  5
251
100
AcDbEntity
  8
0
100
AcDbLine
 62
7
  6
CONTINUOUS
 10
122.4268148201
 20
68.644703905
 11
122.4755669766
 21
68.6489902926
  0
LINE
  5
252
100
AcDbEntity
  8
0
100
AcDbLine
 62
7
  6
CONTINUOUS
 10
285.9372855375
 20
68.6455986316
 11
285.9181386882
 21
68.6439732451
  0
LINE
  5
253
100
AcDbEntity
  8
0
100
AcDbLine
 62
7
  6
CONTINUOUS
 10
165.9372855375
 20
68.6455986316
 11
165.9181386882
 21
68.6439732451
  0
LINE
  5
254
100
AcDbEntity
  8
0
100
AcDbLine
 62
7
  6
CONTINUOUS
 10
122.4372855375
 20
68.6455986316
 11
122.4181386882
 21
68.6439732451
  0
LINE
  5
255
100
AcDbEntity
  8
0
100
AcDbLine
 62
7
  6
CONTINUOUS
 10
167.7813885837
 20
69.0065832146
 11
167.8109348371
 21
69.0074285283
  0
LINE
  5
256
100
AcDbEntity
  8
0
100
AcDbLine
 62
7
  6
CONTINUOUS
 10
167.8717938461
 20
69.01869481
 11
167.8157413048
 21
69.01708868
  0
LINE
  5
257
100
AcDbEntity
  8
0
100
AcDbLine
 62
7
  6
CONTINUOUS
 10
124.2813885837
 20
69.0065832146
 11
124.3109348371
 21
69.0074285283
  0
LINE
  5
258
100
AcDbEntity
  8
0
100
AcDbLine
 62
7
  6
CONTINUOUS
 10
124.3717938461
 20
69.01869481
 11
124.3157413048
 21
69.01708868
  0
LINE
  5
259
100
AcDbEntity
  8
0
100
AcDbLine
 62
7
  6
CONTINUOUS
 10
124.371792268
 20
69.018695303
 11
124.3157413048
 21
69.01708868
  0
LINE
  5
25A
100
AcDbEntity
  8
0
100
AcDbLine
 62
7
  6
CONTINUOUS
 10
473.0655466128
 20
70.6734693878
 11
102.4655466128
 21
70.6734693878
  0
LINE
  5
25B
100
AcDbEntity
  8
0
100
AcDbLine
 62
7
  6
CONTINUOUS
 10
484.3758432242
 20
70.6734693878
 11
499.7758432242
 21
70.6734693878
  0
LINE
  5
25C
100
AcDbEntity
  8
0
100
AcDbLine
 62
7
  6
CONTINUOUS
 10
484.3758432242
 20
72.1734693878
 11
499.7758432242
 21
72.1734693878
  0
LINE
  5
25D
100
AcDbEntity
  8
0
100
AcDbLine
 62
7
  6
CONTINUOUS
 10
99.0655466128
 20
84.6734693878
 11
99.2655466128
 21
84.6734693878
  0
LINE
  5
25E
100
AcDbEntity
  8
0
100
AcDbLine
 62
7
  6
CONTINUOUS
 10
328.1042788585
 20
68.6447038662
 11
328.1129545373
 21
68.6439732451
  0
LINE
  5
25F
100
AcDbEntity
  8
0
100
AcDbLine
 62
7
  6
CONTINUOUS
 10
326.1903506335
 20
69.0105009745
 11
326.2201584431
 21
69.0074285253
  0
LINE
  5
260
100
AcDbEntity
  8
0
100
AcDbLine
 62
7
  6
CONTINUOUS
 10
284.4475945704
 20
68.6703274873
 11
284.4440839693
 21
68.6710215039
  0
LINE
  5
261
100
AcDbEntity
  8
0
100
AcDbLine
 62
7
  6
CONTINUOUS
 10
327.9475945704
 20
68.6703274873
 11
327.9440839693
 21
68.6710215039
  0
LINE
  5
262
100
AcDbEntity
  8
0
100
AcDbLine
 62
7
  6
CONTINUOUS
 10
284.4478264331
 20
68.6695404235
 11
284.4443106355
 21
68.6702505194
  0
LINE
  5
263
100
AcDbEntity
  8
0
100
AcDbLine
 62
7
  6
CONTINUOUS
 10
327.9478264331
 20
68.6695404235
 11
327.9443106355
 21
68.6702505194
  0
LINE
  5
264
100
AcDbEntity
  8
0
100
AcDbLine
 62
7
  6
CONTINUOUS
 10
282.659309302
 20
69.0186937027
 11
282.6903505404
 21
69.0105009912
  0
LINE
  5
265
100
AcDbEntity
  8
0
100
AcDbLine
 62
7
  6
CONTINUOUS
 10
326.159309302
 20
69.0186937027
 11
326.1903506335
 21
69.0105009745
  0
LINE
  5
266
100
AcDbEntity
  8
0
100
AcDbLine
 62
7
  6
CONTINUOUS
 10
166.0864501465
 20
68.675081002
 11
166.0813317728
 21
68.6740280288
  0
LINE
  5
267
100
AcDbEntity
  8
0
100
AcDbLine
 62
7
  6
CONTINUOUS
 10
122.5864501465
 20
68.675081002
 11
122.5813317728
 21
68.6740280288
  0
LINE
  5
268
100
AcDbEntity
  8
0
100
AcDbLine
 62
7
  6
CONTINUOUS
 10
166.0824338277
 20
68.6693725482
 11
166.08678259
 21
68.6702505194
  0
LINE
  5
269
100
AcDbEntity
  8
0
100
AcDbLine
 62
7
  6
CONTINUOUS
 10
122.5824338277
 20
68.6693725482
 11
122.58678259
 21
68.6702505194
  0
LINE
  5
26A
100
AcDbEntity
  8
0
100
AcDbLine
 62
7
  6
CONTINUOUS
 10
166.0868422772
 20
68.6764300893
 11
166.0817370314
 21
68.6754181394
  0
LINE
  5
26B
100
AcDbEntity
  8
0
100
AcDbLine
 62
7
  6
CONTINUOUS
 10
122.5868422772
 20
68.6764300893
 11
122.5817370314
 21
68.6754181394
  0
LINE
  5
26C
100
AcDbEntity
  8
0
100
AcDbLine
 62
7
  6
CONTINUOUS
 10
166.0826668115
 20
68.6701630388
 11
166.0870092562
 21
68.6710215039
  0
LINE
  5
26D
100
AcDbEntity
  8
0
100
AcDbLine
 62
7
  6
CONTINUOUS
 10
122.5826668115
 20
68.6701630388
 11
122.5870092562
 21
68.6710215039
  0
LINE
  5
26E
100
AcDbEntity
  8
0
100
AcDbLine
 62
7
  6
CONTINUOUS
 10
99.0655466128
 20
97.6734693878
 11
99.2655466128
 21
97.6734693878
  0
LINE
  5
26F
100
AcDbEntity
  8
0
100
AcDbLine
 62
7
  6
CONTINUOUS
 10
482.7758432242
 20
87.9079959199
 11
478.6471646036
 21
88.7105297465
  0
LINE
  5
270
100
AcDbEntity
  8
0
100
AcDbLine
 62
7
  6
CONTINUOUS
 10
478.6471646036
 20
90.1829705217
 11
482.7758432242
 21
89.3804366951
  0
LINE
  5
271
100
AcDbEntity
  8
0
100
AcDbLine
 62
7
  6
CONTINUOUS
 10
122.5868599051
 20
68.6764335834
 11
122.5878260113
 21
68.6446994831
  0
LINE
  5
272
100
AcDbEntity
  8
0
100
AcDbLine
 62
7
  6
CONTINUOUS
 10
122.5878443157
 20
68.6439732451
 11
122.5878260113
 21
68.6446994831
  0
LINE
  5
273
100
AcDbEntity
  8
0
100
AcDbLine
 62
7
  6
CONTINUOUS
 10
99.0655466128
 20
84.6734693878
 11
99.0655466128
 21
97.6734693878
  0
LINE
  5
274
100
AcDbEntity
  8
0
100
AcDbLine
 62
7
  6
CONTINUOUS
 10
99.0655466128
 20
740.6734693878
 11
99.0655466128
 21
753.6734693878
  0
LINE
  5
275
100
AcDbEntity
  8
0
100
AcDbLine
 62
7
  6
CONTINUOUS
 10
99.2655466128
 20
765.9734693878
 11
99.2655466128
 21
72.3734693878
  0
LINE
  5
276
100
AcDbEntity
  8
0
100
AcDbLine
 62
7
  6
CONTINUOUS
 10
102.4655466128
 20
69.1734693878
 11
102.4655466128
 21
769.1734693878
  0
LINE
  5
277
100
AcDbEntity
  8
0
100
AcDbLine
 62
7
  6
CONTINUOUS
 10
121.2505466128
 20
68.6493684983
 11
121.2505466128
 21
69.0170904212
  0
LINE
  5
278
100
AcDbEntity
  8
0
100
AcDbLine
 62
7
  6
CONTINUOUS
 10
121.7655466094
 20
69.0073521988
 11
121.7655466086
 21
69.0186949357
  0
LINE
  5
279
100
AcDbEntity
  8
0
100
AcDbLine
 62
7
  6
CONTINUOUS
 10
122.2805466128
 20
68.6493684983
 11
122.2805466128
 21
69.0170904226
  0
LINE
  5
27A
100
AcDbEntity
  8
0
100
AcDbLine
 62
7
  6
CONTINUOUS
 10
120.9432489098
 20
68.6439732451
 11
120.9433763846
 21
68.6489902926
  0
LINE
  5
27B
100
AcDbEntity
  8
0
100
AcDbLine
 62
7
  6
CONTINUOUS
 10
120.9440473187
 20
68.6710287495
 11
120.9433763846
 21
68.6489902926
  0
LINE
  5
27C
100
AcDbEntity
  8
0
100
AcDbLine
 62
7
  6
CONTINUOUS
 10
501.5829558432
 20
765.938823266
 11
502.233299357
 21
766.3941986968
  0
LINE
  5
27D
100
AcDbEntity
  8
0
100
AcDbLine
 62
7
  6
CONTINUOUS
 10
501.5829558432
 20
72.4081155095
 11
502.233299357
 21
71.9527400787
  0
LINE
  5
27E
100
AcDbEntity
  8
0
100
AcDbLine
 62
7
  6
CONTINUOUS
 10
166.0868599051
 20
68.6764335834
 11
166.0878260113
 21
68.6446994831
  0
LINE
  5
27F
100
AcDbEntity
  8
0
100
AcDbLine
 62
7
  6
CONTINUOUS
 10
166.0878443157
 20
68.6439732451
 11
166.0878260113
 21
68.6446994831
  0
LINE
  5
280
100
AcDbEntity
  8
0
100
AcDbLine
 62
7
  6
CONTINUOUS
 10
164.7505466128
 20
68.6493684983
 11
164.7505466128
 21
69.0170904212
  0
LINE
  5
281
100
AcDbEntity
  8
0
100
AcDbLine
 62
7
  6
CONTINUOUS
 10
165.2655466094
 20
69.0073521988
 11
165.2655466086
 21
69.0186949357
  0
LINE
  5
282
100
AcDbEntity
  8
0
100
AcDbLine
 62
7
  6
CONTINUOUS
 10
165.7805466128
 20
68.6493684983
 11
165.7805466128
 21
69.0170904226
  0
LINE
  5
283
100
AcDbEntity
  8
0
100
AcDbLine
 62
7
  6
CONTINUOUS
 10
164.4432489098
 20
68.6439732451
 11
164.4433763846
 21
68.6489902926
  0
LINE
  5
284
100
AcDbEntity
  8
0
100
AcDbLine
 62
7
  6
CONTINUOUS
 10
164.4440473187
 20
68.6710287495
 11
164.4433763846
 21
68.6489902926
  0
LINE
  5
285
100
AcDbEntity
  8
0
100
AcDbLine
 62
7
  6
CONTINUOUS
 10
503.6144585081
 20
389.4027544788
 11
504.3569048003
 21
389.5738994123
  0
LINE
  5
286
100
AcDbEntity
  8
0
100
AcDbLine
 62
7
  6
CONTINUOUS
 10
286.0868599051
 20
68.6764335834
 11
286.0878260113
 21
68.6446994831
  0
LINE
  5
287
100
AcDbEntity
  8
0
100
AcDbLine
 62
7
  6
CONTINUOUS
 10
286.0878443157
 20
68.6439732451
 11
286.0878260113
 21
68.6446994831
  0
LINE
  5
288
100
AcDbEntity
  8
0
100
AcDbLine
 62
7
  6
CONTINUOUS
 10
503.6144585081
 20
389.4027544788
 11
502.7758432242
 21
389.3734693878
  0
LINE
  5
289
100
AcDbEntity
  8
0
100
AcDbLine
 62
7
  6
CONTINUOUS
 10
284.7505466128
 20
68.6493684983
 11
284.7505466128
 21
69.0170904212
  0
LINE
  5
28A
100
AcDbEntity
  8
0
100
AcDbLine
 62
7
  6
CONTINUOUS
 10
285.2655466094
 20
69.0073521988
 11
285.2655466086
 21
69.0186949357
  0
LINE
  5
28B
100
AcDbEntity
  8
0
100
AcDbLine
 62
7
  6
CONTINUOUS
 10
285.7805466128
 20
68.6493684983
 11
285.7805466128
 21
69.0170904226
  0
LINE
  5
28C
100
AcDbEntity
  8
0
100
AcDbLine
 62
7
  6
CONTINUOUS
 10
284.4432489098
 20
68.6439732451
 11
284.4433763846
 21
68.6489902926
  0
LINE
  5
28D
100
AcDbEntity
  8
0
100
AcDbLine
 62
7
  6
CONTINUOUS
 10
284.4440473187
 20
68.6710287495
 11
284.4433763846
 21
68.6489902926
  0
LINE
  5
28E
100
AcDbEntity
  8
0
100
AcDbLine
 62
7
  6
CONTINUOUS
 10
508.7656099263
 20
396.1594143692
 11
508.7561174196
 21
396.1594143692
  0
LINE
  5
28F
100
AcDbEntity
  8
0
100
AcDbLine
 62
7
  6
CONTINUOUS
 10
508.7561185495
 20
397.5880054318
 11
508.7656099263
 21
397.5880054318
  0
LINE
  5
290
100
AcDbEntity
  8
0
100
AcDbLine
 62
7
  6
CONTINUOUS
 10
329.5868599051
 20
68.6764335834
 11
329.5878260113
 21
68.6446994831
  0
LINE
  5
291
100
AcDbEntity
  8
0
100
AcDbLine
 62
7
  6
CONTINUOUS
 10
329.5878443157
 20
68.6439732451
 11
329.5878260113
 21
68.6446994831
  0
LINE
  5
292
100
AcDbEntity
  8
0
100
AcDbLine
 62
7
  6
CONTINUOUS
 10
328.2505466128
 20
68.6493684983
 11
328.2505466128
 21
69.0170904212
  0
LINE
  5
293
100
AcDbEntity
  8
0
100
AcDbLine
 62
7
  6
CONTINUOUS
 10
328.7655466094
 20
69.0073521988
 11
328.7655466086
 21
69.0186949357
  0
LINE
  5
294
100
AcDbEntity
  8
0
100
AcDbLine
 62
7
  6
CONTINUOUS
 10
329.2805466128
 20
68.6493684983
 11
329.2805466128
 21
69.0170904226
  0
LINE
  5
295
100
AcDbEntity
  8
0
100
AcDbLine
 62
7
  6
CONTINUOUS
 10
508.7656099263
 20
431.1589333438
 11
508.7561181437
 21
431.1589333438
  0
LINE
  5
296
100
AcDbEntity
  8
0
100
AcDbLine
 62
7
  6
CONTINUOUS
 10
508.75611784
 20
432.5875244063
 11
508.7656099263
 21
432.5875244063
  0
LINE
  5
297
100
AcDbEntity
  8
0
100
AcDbLine
 62
7
  6
CONTINUOUS
 10
502.7758432242
 20
439.3734693878
 11
503.6144585081
 21
439.3441842967
  0
LINE
  5
298
100
AcDbEntity
  8
0
100
AcDbLine
 62
7
  6
CONTINUOUS
 10
327.9432489098
 20
68.6439732451
 11
327.9433763846
 21
68.6489902926
  0
LINE
  5
299
100
AcDbEntity
  8
0
100
AcDbLine
 62
7
  6
CONTINUOUS
 10
327.9440473187
 20
68.6710287495
 11
327.9433763846
 21
68.6489902926
  0
LINE
  5
29A
100
AcDbEntity
  8
0
100
AcDbLine
 62
7
  6
CONTINUOUS
 10
503.6144585081
 20
439.3441842967
 11
504.3569048003
 21
439.1730393632
  0
LINE
  5
29B
100
AcDbEntity
  8
0
100
AcDbLine
 62
7
  6
CONTINUOUS
 10
122.4812301762
 20
68.6554959067
 11
122.4755669766
 21
68.6489902926
  0
LINE
  5
29C
100
AcDbEntity
  8
0
100
AcDbLine
 62
7
  6
CONTINUOUS
 10
165.9812301762
 20
68.6554959067
 11
165.9755669766
 21
68.6489902926
  0
LINE
  5
29D
100
AcDbEntity
  8
0
100
AcDbLine
 62
7
  6
CONTINUOUS
 10
454.7655466128
 20
68.9734693878
 11
454.7655466128
 21
69.1734693878
  0
LINE
  5
29E
100
AcDbEntity
  8
0
100
AcDbLine
 62
7
  6
CONTINUOUS
 10
467.7655466128
 20
68.9734693878
 11
467.7655466128
 21
69.1734693878
  0
LINE
  5
29F
100
AcDbEntity
  8
0
100
AcDbLine
 62
7
  6
CONTINUOUS
 10
473.0655466128
 20
769.1734693878
 11
473.0655466128
 21
69.1734693878
  0
LINE
  5
2A0
100
AcDbEntity
  8
0
100
AcDbLine
 62
7
  6
CONTINUOUS
 10
476.2655466127
 20
72.3734693878
 11
476.2655466127
 21
765.9734693878
  0
LINE
  5
2A1
100
AcDbEntity
  8
0
100
AcDbLine
 62
7
  6
CONTINUOUS
 10
478.6471646036
 20
90.1829705217
 11
478.6471646036
 21
748.1639682539
  0
LINE
  5
2A2
100
AcDbEntity
  8
0
100
AcDbLine
 62
7
  6
CONTINUOUS
 10
482.7758432242
 20
73.1659302544
 11
482.7758432242
 21
765.1810085211
  0
LINE
  5
2A3
100
AcDbEntity
  8
0
100
AcDbLine
 62
7
  6
CONTINUOUS
 10
484.3758432242
 20
70.6734693878
 11
484.3758432242
 21
767.6734693878
  0
LINE
  5
2A4
100
AcDbEntity
  8
0
100
AcDbLine
 62
7
  6
CONTINUOUS
 10
494.2120666904
 20
70.6734693878
 11
494.2120666904
 21
767.6734693878
  0
LINE
  5
2A5
100
AcDbEntity
  8
0
100
AcDbLine
 62
7
  6
CONTINUOUS
 10
495.4407947569
 20
72.1734693878
 11
495.4407947569
 21
70.6734693878
  0
LINE
  5
2A6
100
AcDbEntity
  8
0
100
AcDbLine
 62
7
  6
CONTINUOUS
 10
495.4407947569
 20
766.1734693878
 11
495.4407947569
 21
767.6734693878
  0
LWPOLYLINE
  5
2A7
100
AcDbEntity
  8
0
100
AcDbPolyline
 62
7
  6
CONTINUOUS
 90
3
 70
0
 10
508.434684727
 20
431.3344746558
 10
508.3898089749
 20
431.8052824041
 10
508.3758435353
 20
432.1250362877
  0
LWPOLYLINE
  5
2A8
100
AcDbEntity
  8
0
100
AcDbPolyline
 62
7
  6
CONTINUOUS
 90
3
 70
0
 10
508.7654032765
 20
431.1680226972
 10
508.6788415903
 20
432.1604255572
 10
508.5672622419
 20
432.9198906958
  0
LWPOLYLINE
  5
2A9
100
AcDbEntity
  8
0
100
AcDbPolyline
 62
7
  6
CONTINUOUS
 90
3
 70
0
 10
508.7653396211
 20
432.5977935468
 10
508.7326229308
 20
433.0205155319
 10
508.5818150961
 20
433.9744352254
  0
LWPOLYLINE
  5
2AA
100
AcDbEntity
  8
0
100
AcDbPolyline
 62
7
  6
CONTINUOUS
 90
4
 70
0
 10
508.5797852789
 20
429.114832194
 10
508.5368010974
 20
430.1201837699
 10
508.5025898039
 20
430.6088435372
 10
508.4346819604
 20
431.3345617464
  0
LINE
  5
2AB
100
AcDbEntity
  8
0
100
AcDbLine
 62
7
  6
CONTINUOUS
 10
508.765598804
 20
431.1568241427
 11
508.7654033878
 21
431.1680202578
  0
LINE
  5
2AC
100
AcDbEntity
  8
0
100
AcDbLine
 62
7
  6
CONTINUOUS
 10
508.3758432243
 20
396.6230736781
 11
508.3758435223
 21
396.6217793333
  0
LINE
  5
2AD
100
AcDbEntity
  8
0
100
AcDbLine
 62
7
  6
CONTINUOUS
 10
496.6695228233
 20
72.1734693878
 11
496.6695228233
 21
766.1734693878
  0
LINE
  5
2AE
100
AcDbEntity
  8
0
100
AcDbLine
 62
7
  6
CONTINUOUS
 10
499.7758432242
 20
767.6734693878
 11
499.7758432242
 21
766.1734693878
  0
LINE
  5
2AF
100
AcDbEntity
  8
0
100
AcDbLine
 62
7
  6
CONTINUOUS
 10
499.7758432242
 20
72.1734693878
 11
499.7758432242
 21
70.6734693878
  0
LINE
  5
2B0
100
AcDbEntity
  8
0
100
AcDbLine
 62
7
  6
CONTINUOUS
 10
502.233299357
 20
765.8543788426
 11
502.233299357
 21
72.492559933
  0
LINE
  5
2B1
100
AcDbEntity
  8
0
100
AcDbLine
 62
7
  6
CONTINUOUS
 10
502.7758432242
 20
73.6734693878
 11
502.7758432242
 21
764.6734693878
  0
LINE
  5
2B2
100
AcDbEntity
  8
0
100
AcDbLine
 62
7
  6
CONTINUOUS
 10
503.6144585081
 20
439.3441842967
 11
503.6144585081
 21
436.4753406559
  0
LINE
  5
2B3
100
AcDbEntity
  8
0
100
AcDbLine
 62
7
  6
CONTINUOUS
 10
503.6144585081
 20
392.2715979614
 11
503.6144585081
 21
389.4027544788
  0
LINE
  5
2B4
100
AcDbEntity
  8
0
100
AcDbLine
 62
7
  6
CONTINUOUS
 10
504.3569104161
 20
389.5739019082
 11
504.3569104161
 21
392.4231338308
  0
LINE
  5
2B5
100
AcDbEntity
  8
0
100
AcDbLine
 62
7
  6
CONTINUOUS
 10
504.3569104161
 20
436.3238005661
 11
504.3569104161
 21
439.1730368673
  0
LINE
  5
2B6
100
AcDbEntity
  8
0
100
AcDbLine
 62
7
  6
CONTINUOUS
 10
504.9154413891
 20
429.6038888356
 11
504.9154413891
 21
399.1430499399
  0
LINE
  5
2B7
100
AcDbEntity
  8
0
100
AcDbLine
 62
7
  6
CONTINUOUS
 10
508.7561174196
 20
396.1594829115
 11
508.7561174196
 21
397.4294984235
  0
LINE
  5
2B8
100
AcDbEntity
  8
0
100
AcDbLine
 62
7
  6
CONTINUOUS
 10
508.7561185495
 20
397.5879681366
 11
508.7561185495
 21
415.612481134
  0
LINE
  5
2B9
100
AcDbEntity
  8
0
100
AcDbLine
 62
7
  6
CONTINUOUS
 10
508.7561181437
 20
422.7344543105
 11
508.7561181437
 21
431.1589473024
  0
LINE
  5
2BA
100
AcDbEntity
  8
0
100
AcDbLine
 62
7
  6
CONTINUOUS
 10
508.75611784
 20
431.2744773448
 11
508.75611784
 21
432.5875215828
  0
LINE
  5
2BB
100
AcDbEntity
  8
0
100
AcDbLine
 62
7
  6
CONTINUOUS
 10
508.7656099263
 20
396.1594143692
 11
508.7656099263
 21
415.4856086255
  0
LINE
  5
2BC
100
AcDbEntity
  8
0
100
AcDbLine
 62
7
  6
CONTINUOUS
 10
508.7656099263
 20
422.86133015
 11
508.7656099263
 21
431.1589333438
  0
LINE
  5
2BD
100
AcDbEntity
  8
0
100
AcDbLine
 62
7
  6
CONTINUOUS
 10
508.7656099263
 20
431.1681011394
 11
508.7656099263
 21
432.5875244063
  0
LINE
  5
2BE
100
AcDbEntity
  8
0
100
AcDbLine
 62
7
  6
CONTINUOUS
 10
508.3758434924
 20
432.1250725719
 11
508.3758432243
 21
432.1238458065
  0
LINE
  5
2BF
100
AcDbEntity
  8
0
100
AcDbLine
 62
7
  6
CONTINUOUS
 10
508.3758432242
 20
394.6227301315
 11
508.3758433282
 21
394.6230804305
  0
LWPOLYLINE
  5
2C0
100
AcDbEntity
  8
0
100
AcDbPolyline
 62
7
  6
CONTINUOUS
 90
3
 70
0
 10
508.5797752752
 20
399.6321162263
 10
508.7430366643
 20
414.3669351655
 10
508.5797753566
 20
429.1148238549
  0
LWPOLYLINE
  5
2C1
100
AcDbEntity
  8
0
100
AcDbPolyline
 62
7
  6
CONTINUOUS
 90
3
 70
0
 10
508.3758408425
 20
396.6218337107
 10
508.3895731416
 20
396.9384661631
 10
508.4346856238
 20
397.4124669388
  0
LWPOLYLINE
  5
2C2
100
AcDbEntity
  8
0
100
AcDbPolyline
 62
7
  6
CONTINUOUS
 90
9
 70
0
 10
508.3758552033
 20
394.6234254303
 10
508.3781942289
 20
394.6736020162
 10
508.400983092
 20
394.8589413715
 10
508.453124863
 20
395.1722072485
 10
508.4902622411
 20
395.3818717581
 10
508.5794231928
 20
395.9009741214
 10
508.6731709123
 20
396.5415109296
 10
508.7475007669
 20
397.2801506046
 10
508.764493579
 20
397.5746779002
  0
LWPOLYLINE
  5
2C3
100
AcDbEntity
  8
0
100
AcDbPolyline
 62
7
  6
CONTINUOUS
 90
4
 70
0
 10
508.4346816223
 20
397.4123740638
 10
508.5019650817
 20
398.1302052643
 10
508.5362944575
 20
398.6184794297
 10
508.5797853352
 20
399.6321072392
  0
LWPOLYLINE
  5
2C4
100
AcDbEntity
  8
0
100
AcDbPolyline
 62
7
  6
CONTINUOUS
 90
4
 70
0
 10
508.4979194127
 20
394.4116123507
 10
508.5813368344
 20
394.7702482216
 10
508.7319928039
 20
395.7202747048
 10
508.7653224272
 20
396.1491861484
  0
LINE
  5
2C5
100
AcDbEntity
  8
0
100
AcDbLine
 62
7
  6
CONTINUOUS
 10
508.383886778
 20
393.9975771359
 11
508.4979194127
 21
394.4116123507
  0
LINE
  5
2C6
100
AcDbEntity
  8
0
100
AcDbLine
 62
7
  6
CONTINUOUS
 10
508.3861460278
 20
394.005765295
 11
508.3647978124
 21
393.9346002908
  0
LINE
  5
2C7
100
AcDbEntity
  8
0
100
AcDbLine
 62
7
  6
CONTINUOUS
 10
508.3672907119
 20
393.9422388098
 11
508.383886778
 21
393.9975771359
  0
LINE
  5
2C8
100
AcDbEntity
  8
0
100
AcDbLine
 62
7
  6
CONTINUOUS
 10
285.9812301762
 20
68.6554959067
 11
285.9755669766
 21
68.6489902926
  0
LINE
  5
2C9
100
AcDbEntity
  8
0
100
AcDbLine
 62
7
  6
CONTINUOUS
 10
508.3826105185
 20
434.7538370796
 11
508.3647647938
 21
434.8124336553
  0
LINE
  5
2CA
100
AcDbEntity
  8
0
100
AcDbLine
 62
7
  6
CONTINUOUS
 10
508.3704525715
 20
434.7937556981
 11
508.3831811211
 21
434.74883483
  0
LINE
  5
2CB
100
AcDbEntity
  8
0
100
AcDbLine
 62
7
  6
CONTINUOUS
 10
508.4981557785
 20
434.3344568975
 11
508.3826105185
 21
434.7538370796
  0
LINE
  5
2CC
100
AcDbEntity
  8
0
100
AcDbLine
 62
7
  6
CONTINUOUS
 10
508.5818150961
 20
433.9744352254
 11
508.4981557785
 21
434.3344568975
  0
LWPOLYLINE
  5
2CD
100
AcDbEntity
  8
0
100
AcDbPolyline
 62
7
  6
CONTINUOUS
 90
4
 70
0
 10
508.5672622419
 20
432.9198906958
 10
508.4152464046
 20
433.7969144763
 10
508.3849594558
 20
434.0058758537
 10
508.375852811
 20
434.1235870425
  0
LINE
  5
2CE
100
AcDbEntity
  8
0
100
AcDbLine
 62
7
  6
CONTINUOUS
 10
508.765399582
 20
431.1681035677
 11
508.7653223213
 21
431.1687295179
  0
LINE
  5
2CF
100
AcDbEntity
  8
0
100
AcDbLine
 62
7
  6
CONTINUOUS
 10
478.6471646036
 20
88.7105297465
 11
478.9333780966
 21
90.1829705216
  0
LINE
  5
2D0
100
AcDbEntity
  8
0
100
AcDbLine
 62
7
  6
CONTINUOUS
 10
478.6471646036
 20
749.6364090291
 11
478.9333780966
 21
748.1639682539
  0
LINE
  5
2D1
100
AcDbEntity
  8
0
100
AcDbLine
 62
7
  6
CONTINUOUS
 10
329.4812301762
 20
68.6554959067
 11
329.4755669766
 21
68.6489902926
  0
LINE
  5
2D2
100
AcDbEntity
  8
0
100
AcDbLine
 62
7
  6
CONTINUOUS
 10
482.7758432242
 20
748.966536174
 11
478.6471646036
 21
748.1639682539
  0
LINE
  5
2D3
100
AcDbEntity
  8
0
100
AcDbLine
 62
7
  6
CONTINUOUS
 10
482.7758432242
 20
750.4389428557
 11
478.6471646036
 21
749.6364090291
  0
LINE
  5
2D4
100
AcDbEntity
  8
0
100
AcDbLine
 62
7
  6
CONTINUOUS
 10
99.0655466128
 20
740.6734693878
 11
99.2655466128
 21
740.6734693878
  0
LINE
  5
2D5
100
AcDbEntity
  8
0
100
AcDbLine
 62
7
  6
CONTINUOUS
 10
99.0655466128
 20
753.6734693878
 11
99.2655466128
 21
753.6734693878
  0
LINE
  5
2D6
100
AcDbEntity
  8
0
100
AcDbLine
 62
7
  6
CONTINUOUS
 10
484.3758432242
 20
766.1734693878
 11
499.7758432242
 21
766.1734693878
  0
LINE
  5
2D7
100
AcDbEntity
  8
0
100
AcDbLine
 62
7
  6
CONTINUOUS
 10
473.0655466128
 20
767.6734693878
 11
102.4655466128
 21
767.6734693878
  0
LINE
  5
2D8
100
AcDbEntity
  8
0
100
AcDbLine
 62
7
  6
CONTINUOUS
 10
484.3758432242
 20
767.6734693878
 11
499.7758432242
 21
767.6734693878
  0
LINE
  5
2D9
100
AcDbEntity
  8
0
100
AcDbLine
 62
7
  6
CONTINUOUS
 10
473.0655466128
 20
769.1734693878
 11
102.4655466128
 21
769.1734693878
  0
LINE
  5
2DA
100
AcDbEntity
  8
0
100
AcDbLine
 62
7
  6
CONTINUOUS
 10
502.233299357
 20
765.8543788426
 11
499.7758432238
 21
766.1734693878
  0
ARC
  5
2DB
100
AcDbEntity
  8
0
100
AcDbCircle
 62
7
  6
CONTINUOUS
 10
121.7665381413
 20
-13.972501356
 40
82.9911956328
100
AcDbArc
 50
90.0006845353
 51
90.356234503
  0
ARC
  5
2DC
100
AcDbEntity
  8
0
100
AcDbCircle
 62
7
  6
CONTINUOUS
 10
121.7677050974
 20
-12.9619346209
 40
81.9806289201
100
AcDbArc
 50
89.6415757426
 51
90.0015085522
  0
ARC
  5
2DD
100
AcDbEntity
  8
0
100
AcDbCircle
 62
7
  6
CONTINUOUS
 10
119.6905466128
 20
91.1734693878
 40
21.625
100
AcDbArc
 50
162.5076754749
 51
197.4923245251
  0
ARC
  5
2DE
100
AcDbEntity
  8
0
100
AcDbCircle
 62
7
  6
CONTINUOUS
 10
121.7655466128
 20
76.4242506378
 40
7.8338714079
100
AcDbArc
 50
277.035724314
 51
288.9979915273
  0
ARC
  5
2DF
100
AcDbEntity
  8
0
100
AcDbCircle
 62
7
  6
CONTINUOUS
 10
121.7655466128
 20
76.4242506378
 40
7.8338714079
100
AcDbArc
 50
251.002009564
 51
262.964275686
  0
ARC
  5
2E0
100
AcDbEntity
  8
0
100
AcDbCircle
 62
7
  6
CONTINUOUS
 10
121.7659298671
 20
76.4495289417
 40
7.8328204701
100
AcDbArc
 50
264.7963650004
 51
265.1543585377
  0
ARC
  5
2E1
100
AcDbEntity
  8
0
100
AcDbCircle
 62
7
  6
CONTINUOUS
 10
122.0598020291
 20
74.1721641249
 40
5.613855571
100
AcDbArc
 50
254.0857724327
 51
258.5388606508
  0
ARC
  5
2E2
100
AcDbEntity
  8
0
100
AcDbCircle
 62
7
  6
CONTINUOUS
 10
121.523298452
 20
73.8281665451
 40
5.2616136644
100
AcDbArc
 50
279.8871743226
 51
281.6004333559
  0
ARC
  5
2E3
100
AcDbEntity
  8
0
100
AcDbCircle
 62
7
  6
CONTINUOUS
 10
121.9830236604
 20
73.8023433535
 40
5.2361530934
100
AcDbArc
 50
258.597397625
 51
259.7971693229
  0
ARC
  5
2E4
100
AcDbEntity
  8
0
100
AcDbCircle
 62
7
  6
CONTINUOUS
 10
121.5481926443
 20
73.801685697
 40
5.2354840352
100
AcDbArc
 50
280.2027798984
 51
281.3934058788
  0
ARC
  5
2E5
100
AcDbEntity
  8
0
100
AcDbCircle
 62
7
  6
CONTINUOUS
 10
121.0273447615
 20
72.582579679
 40
3.9395392191
100
AcDbArc
 50
272.5799537913
 51
273.2479371575
  0
ARC
  5
2E6
100
AcDbEntity
  8
0
100
AcDbCircle
 62
7
  6
CONTINUOUS
 10
122.503748464
 20
72.5825796788
 40
3.9395392188
100
AcDbArc
 50
266.7520628425
 51
267.4200462088
  0
ARC
  5
2E7
100
AcDbEntity
  8
0
100
AcDbCircle
 62
7
  6
CONTINUOUS
 10
121.0276772254
 20
72.5752262283
 40
3.9321782566
100
AcDbArc
 50
271.9111198324
 51
272.5799374354
  0
ARC
  5
2E8
100
AcDbEntity
  8
0
100
AcDbCircle
 62
7
  6
CONTINUOUS
 10
122.5034160002
 20
72.5752262282
 40
3.9321782565
100
AcDbArc
 50
267.4200625646
 51
268.0888801676
  0
ARC
  5
2E9
100
AcDbEntity
  8
0
100
AcDbCircle
 62
7
  6
CONTINUOUS
 10
121.0278961169
 20
72.568700113
 40
3.9256484716
100
AcDbArc
 50
271.2415451736
 51
271.9111033494
  0
ARC
  5
2EA
100
AcDbEntity
  8
0
100
AcDbCircle
 62
7
  6
CONTINUOUS
 10
122.5031971087
 20
72.5687001129
 40
3.9256484714
100
AcDbArc
 50
268.0888966505
 51
268.7584548264
  0
ARC
  5
2EB
100
AcDbEntity
  8
0
100
AcDbCircle
 62
7
  6
CONTINUOUS
 10
122.5031133136
 20
72.5487413123
 40
3.9056872636
100
AcDbArc
 50
271.2430871638
 51
271.9149246954
  0
ARC
  5
2EC
100
AcDbEntity
  8
0
100
AcDbCircle
 62
7
  6
CONTINUOUS
 10
121.027979912
 20
72.548741313
 40
3.9056872643
100
AcDbArc
 50
268.0850753044
 51
268.7569128362
  0
ARC
  5
2ED
100
AcDbEntity
  8
0
100
AcDbCircle
 62
7
  6
CONTINUOUS
 10
122.5031775358
 20
72.5467859401
 40
3.9037308374
100
AcDbArc
 50
271.9149416243
 51
272.5870044791
  0
ARC
  5
2EE
100
AcDbEntity
  8
0
100
AcDbCircle
 62
7
  6
CONTINUOUS
 10
121.0279156897
 20
72.54678594
 40
3.9037308373
100
AcDbArc
 50
267.4129955207
 51
268.0850583755
  0
ARC
  5
2EF
100
AcDbEntity
  8
0
100
AcDbCircle
 62
7
  6
CONTINUOUS
 10
122.5032270906
 20
72.5456635796
 40
3.902607384
100
AcDbArc
 50
272.5870214368
 51
273.2592123876
  0
ARC
  5
2F0
100
AcDbEntity
  8
0
100
AcDbCircle
 62
7
  6
CONTINUOUS
 10
121.027866135
 20
72.5456635797
 40
3.9026073841
100
AcDbArc
 50
266.7407876124
 51
267.412978563
  0
ARC
  5
2F1
100
AcDbEntity
  8
0
100
AcDbCircle
 62
7
  6
CONTINUOUS
 10
102.4655466128
 20
72.3734693878
 40
3.2
100
AcDbArc
 50
180.0
 51
270.0
  0
ARC
  5
2F2
100
AcDbEntity
  8
0
100
AcDbCircle
 62
7
  6
CONTINUOUS
 10
121.9702016441
 20
71.6378542382
 40
3.0562125658
100
AcDbArc
 50
281.6590954441
 51
284.1908795642
  0
ARC
  5
2F3
100
AcDbEntity
  8
0
100
AcDbCircle
 62
7
  6
CONTINUOUS
 10
165.2665381413
 20
-13.972501356
 40
82.9911956328
100
AcDbArc
 50
90.0006845353
 51
90.356234503
  0
ARC
  5
2F4
100
AcDbEntity
  8
0
100
AcDbCircle
 62
7
  6
CONTINUOUS
 10
165.2677050974
 20
-12.961934617
 40
81.9806289162
100
AcDbArc
 50
89.6415757426
 51
90.0015085522
  0
ARC
  5
2F5
100
AcDbEntity
  8
0
100
AcDbCircle
 62
7
  6
CONTINUOUS
 10
165.2655466128
 20
76.4242506378
 40
7.8338714079
100
AcDbArc
 50
277.035724314
 51
288.9979915273
  0
ARC
  5
2F6
100
AcDbEntity
  8
0
100
AcDbCircle
 62
7
  6
CONTINUOUS
 10
165.2655466128
 20
76.4242506378
 40
7.8338714079
100
AcDbArc
 50
251.002009564
 51
262.964275686
  0
ARC
  5
2F7
100
AcDbEntity
  8
0
100
AcDbCircle
 62
7
  6
CONTINUOUS
 10
165.2659298672
 20
76.4495289431
 40
7.8328204715
100
AcDbArc
 50
264.7963650004
 51
265.1543585376
  0
ARC
  5
2F8
100
AcDbEntity
  8
0
100
AcDbCircle
 62
7
  6
CONTINUOUS
 10
165.5598020291
 20
74.1721641249
 40
5.613855571
100
AcDbArc
 50
254.0857724327
 51
258.5388606508
  0
ARC
  5
2F9
100
AcDbEntity
  8
0
100
AcDbCircle
 62
7
  6
CONTINUOUS
 10
165.023298452
 20
73.8281665452
 40
5.2616136645
100
AcDbArc
 50
279.8871743227
 51
281.6004333559
  0
ARC
  5
2FA
100
AcDbEntity
  8
0
100
AcDbCircle
 62
7
  6
CONTINUOUS
 10
165.4830236604
 20
73.8023433534
 40
5.2361530933
100
AcDbArc
 50
258.597397625
 51
259.7971693229
  0
ARC
  5
2FB
100
AcDbEntity
  8
0
100
AcDbCircle
 62
7
  6
CONTINUOUS
 10
165.0481926442
 20
73.801685697
 40
5.2354840352
100
AcDbArc
 50
280.2027798985
 51
281.3934058788
  0
ARC
  5
2FC
100
AcDbEntity
  8
0
100
AcDbCircle
 62
7
  6
CONTINUOUS
 10
164.5273447615
 20
72.582579679
 40
3.9395392191
100
AcDbArc
 50
272.5799537913
 51
273.2479371575
  0
ARC
  5
2FD
100
AcDbEntity
  8
0
100
AcDbCircle
 62
7
  6
CONTINUOUS
 10
166.003748464
 20
72.582579679
 40
3.9395392191
100
AcDbArc
 50
266.7520628425
 51
267.4200462087
  0
ARC
  5
2FE
100
AcDbEntity
  8
0
100
AcDbCircle
 62
7
  6
CONTINUOUS
 10
164.5276772254
 20
72.5752262284
 40
3.9321782567
100
AcDbArc
 50
271.9111198324
 51
272.5799374354
  0
ARC
  5
2FF
100
AcDbEntity
  8
0
100
AcDbCircle
 62
7
  6
CONTINUOUS
 10
166.0034160002
 20
72.5752262283
 40
3.9321782566
100
AcDbArc
 50
267.4200625646
 51
268.0888801676
  0
ARC
  5
300
100
AcDbEntity
  8
0
100
AcDbCircle
 62
7
  6
CONTINUOUS
 10
164.5278961169
 20
72.5687001129
 40
3.9256484714
100
AcDbArc
 50
271.2415451736
 51
271.9111033495
  0
ARC
  5
301
100
AcDbEntity
  8
0
100
AcDbCircle
 62
7
  6
CONTINUOUS
 10
166.0031971087
 20
72.5687001129
 40
3.9256484714
100
AcDbArc
 50
268.0888966505
 51
268.7584548264
  0
ARC
  5
302
100
AcDbEntity
  8
0
100
AcDbCircle
 62
7
  6
CONTINUOUS
 10
166.0031133136
 20
72.5487413124
 40
3.9056872637
100
AcDbArc
 50
271.2430871638
 51
271.9149246954
  0
ARC
  5
303
100
AcDbEntity
  8
0
100
AcDbCircle
 62
7
  6
CONTINUOUS
 10
164.527979912
 20
72.5487413129
 40
3.9056872642
100
AcDbArc
 50
268.0850753044
 51
268.7569128362
  0
ARC
  5
304
100
AcDbEntity
  8
0
100
AcDbCircle
 62
7
  6
CONTINUOUS
 10
166.0031775358
 20
72.5467859401
 40
3.9037308374
100
AcDbArc
 50
271.9149416243
 51
272.5870044791
  0
ARC
  5
305
100
AcDbEntity
  8
0
100
AcDbCircle
 62
7
  6
CONTINUOUS
 10
164.5279156897
 20
72.54678594
 40
3.9037308373
100
AcDbArc
 50
267.4129955207
 51
268.0850583755
  0
ARC
  5
306
100
AcDbEntity
  8
0
100
AcDbCircle
 62
7
  6
CONTINUOUS
 10
166.0032270906
 20
72.5456635794
 40
3.9026073839
100
AcDbArc
 50
272.5870214368
 51
273.2592123877
  0
ARC
  5
307
100
AcDbEntity
  8
0
100
AcDbCircle
 62
7
  6
CONTINUOUS
 10
164.527866135
 20
72.5456635799
 40
3.9026073843
100
AcDbArc
 50
266.7407876124
 51
267.412978563
  0
ARC
  5
308
100
AcDbEntity
  8
0
100
AcDbCircle
 62
7
  6
CONTINUOUS
 10
165.4702016441
 20
71.6378542382
 40
3.0562125658
100
AcDbArc
 50
281.6590954441
 51
284.1908795641
  0
ARC
  5
309
100
AcDbEntity
  8
0
100
AcDbCircle
 62
7
  6
CONTINUOUS
 10
-82.5152835093
 20
414.6374130501
 40
591.2753873237
100
AcDbArc
 50
358.5451805088
 51
358.6757795803
  0
ARC
  5
30A
100
AcDbEntity
  8
0
100
AcDbCircle
 62
7
  6
CONTINUOUS
 10
-82.1975212833
 20
414.1169168061
 40
590.9575398784
100
AcDbArc
 50
1.3243780831
 51
1.4548851459
  0
ARC
  5
30B
100
AcDbEntity
  8
0
100
AcDbCircle
 62
7
  6
CONTINUOUS
 10
119.6905466128
 20
747.1734693878
 40
21.625
100
AcDbArc
 50
162.5076754749
 51
197.4923245251
  0
ARC
  5
30C
100
AcDbEntity
  8
0
100
AcDbCircle
 62
7
  6
CONTINUOUS
 10
102.4655466128
 20
765.9734693878
 40
3.2
100
AcDbArc
 50
90.0
 51
180.0
  0
ARC
  5
30D
100
AcDbEntity
  8
0
100
AcDbCircle
 62
7
  6
CONTINUOUS
 10
328.7665381413
 20
-13.972501356
 40
82.9911956328
100
AcDbArc
 50
90.0006845353
 51
90.356234503
  0
ARC
  5
30E
100
AcDbEntity
  8
0
100
AcDbCircle
 62
7
  6
CONTINUOUS
 10
285.2665381413
 20
-13.972501356
 40
82.9911956328
100
AcDbArc
 50
90.0006845353
 51
90.356234503
  0
ARC
  5
30F
100
AcDbEntity
  8
0
100
AcDbCircle
 62
7
  6
CONTINUOUS
 10
328.7677050973
 20
-12.9619346287
 40
81.980628928
100
AcDbArc
 50
89.6415757426
 51
90.0015085522
  0
ARC
  5
310
100
AcDbEntity
  8
0
100
AcDbCircle
 62
7
  6
CONTINUOUS
 10
285.2677050974
 20
-12.961934621
 40
81.9806289203
100
AcDbArc
 50
89.6415757426
 51
90.0015085522
  0
ARC
  5
311
100
AcDbEntity
  8
0
100
AcDbCircle
 62
7
  6
CONTINUOUS
 10
285.023298452
 20
73.828166545
 40
5.2616136643
100
AcDbArc
 50
279.8871743226
 51
281.6004333559
  0
ARC
  5
312
100
AcDbEntity
  8
0
100
AcDbCircle
 62
7
  6
CONTINUOUS
 10
285.4830236603
 20
73.802343353
 40
5.236153093
100
AcDbArc
 50
258.5973976249
 51
259.797169323
  0
ARC
  5
313
100
AcDbEntity
  8
0
100
AcDbCircle
 62
7
  6
CONTINUOUS
 10
285.0481926443
 20
73.8016856969
 40
5.2354840351
100
AcDbArc
 50
280.2027798985
 51
281.3934058788
  0
ARC
  5
314
100
AcDbEntity
  8
0
100
AcDbCircle
 62
7
  6
CONTINUOUS
 10
284.5273447615
 20
72.5825796789
 40
3.939539219
100
AcDbArc
 50
272.5799537913
 51
273.2479371575
  0
ARC
  5
315
100
AcDbEntity
  8
0
100
AcDbCircle
 62
7
  6
CONTINUOUS
 10
286.003748464
 20
72.582579679
 40
3.9395392191
100
AcDbArc
 50
266.7520628425
 51
267.4200462087
  0
ARC
  5
316
100
AcDbEntity
  8
0
100
AcDbCircle
 62
7
  6
CONTINUOUS
 10
284.5276772254
 20
72.5752262284
 40
3.9321782567
100
AcDbArc
 50
271.9111198324
 51
272.5799374354
  0
ARC
  5
317
100
AcDbEntity
  8
0
100
AcDbCircle
 62
7
  6
CONTINUOUS
 10
286.0034160002
 20
72.5752262284
 40
3.9321782567
100
AcDbArc
 50
267.4200625646
 51
268.0888801676
  0
ARC
  5
318
100
AcDbEntity
  8
0
100
AcDbCircle
 62
7
  6
CONTINUOUS
 10
284.5278961169
 20
72.568700113
 40
3.9256484716
100
AcDbArc
 50
271.2415451736
 51
271.9111033494
  0
ARC
  5
319
100
AcDbEntity
  8
0
100
AcDbCircle
 62
7
  6
CONTINUOUS
 10
286.0031971087
 20
72.5687001135
 40
3.9256484721
100
AcDbArc
 50
268.0888966506
 51
268.7584548264
  0
ARC
  5
31A
100
AcDbEntity
  8
0
100
AcDbCircle
 62
7
  6
CONTINUOUS
 10
286.0031133136
 20
72.5487413123
 40
3.9056872636
100
AcDbArc
 50
271.2430871637
 51
271.9149246954
  0
ARC
  5
31B
100
AcDbEntity
  8
0
100
AcDbCircle
 62
7
  6
CONTINUOUS
 10
284.527979912
 20
72.548741313
 40
3.9056872643
100
AcDbArc
 50
268.0850753044
 51
268.7569128362
  0
ARC
  5
31C
100
AcDbEntity
  8
0
100
AcDbCircle
 62
7
  6
CONTINUOUS
 10
286.0031775359
 20
72.5467859392
 40
3.9037308365
100
AcDbArc
 50
271.9149416242
 51
272.5870044791
  0
ARC
  5
31D
100
AcDbEntity
  8
0
100
AcDbCircle
 62
7
  6
CONTINUOUS
 10
284.5279156897
 20
72.54678594
 40
3.9037308372
100
AcDbArc
 50
267.4129955208
 51
268.0850583756
  0
ARC
  5
31E
100
AcDbEntity
  8
0
100
AcDbCircle
 62
7
  6
CONTINUOUS
 10
286.0032270906
 20
72.5456635802
 40
3.9026073846
100
AcDbArc
 50
272.5870214369
 51
273.2592123876
  0
ARC
  5
31F
100
AcDbEntity
  8
0
100
AcDbCircle
 62
7
  6
CONTINUOUS
 10
284.527866135
 20
72.5456635796
 40
3.902607384
100
AcDbArc
 50
266.7407876123
 51
267.4129785629
  0
ARC
  5
320
100
AcDbEntity
  8
0
100
AcDbCircle
 62
7
  6
CONTINUOUS
 10
285.4702016441
 20
71.6378542382
 40
3.0562125658
100
AcDbArc
 50
281.6590954441
 51
284.1908795642
  0
ARC
  5
321
100
AcDbEntity
  8
0
100
AcDbCircle
 62
7
  6
CONTINUOUS
 10
285.2655466128
 20
76.4242506378
 40
7.8338714079
100
AcDbArc
 50
277.035724314
 51
288.9979915273
  0
ARC
  5
322
100
AcDbEntity
  8
0
100
AcDbCircle
 62
7
  6
CONTINUOUS
 10
285.2655466128
 20
76.4242506378
 40
7.8338714079
100
AcDbArc
 50
251.002009564
 51
262.964275686
  0
ARC
  5
323
100
AcDbEntity
  8
0
100
AcDbCircle
 62
7
  6
CONTINUOUS
 10
285.2659298672
 20
76.4495289431
 40
7.8328204715
100
AcDbArc
 50
264.7963650005
 51
265.1543585377
  0
ARC
  5
324
100
AcDbEntity
  8
0
100
AcDbCircle
 62
7
  6
CONTINUOUS
 10
285.5598020291
 20
74.1721641249
 40
5.613855571
100
AcDbArc
 50
254.0857724327
 51
258.5388606508
  0
ARC
  5
325
100
AcDbEntity
  8
0
100
AcDbCircle
 62
7
  6
CONTINUOUS
 10
328.523298452
 20
73.8281665451
 40
5.2616136644
100
AcDbArc
 50
279.8871743227
 51
281.6004333559
  0
ARC
  5
326
100
AcDbEntity
  8
0
100
AcDbCircle
 62
7
  6
CONTINUOUS
 10
328.9830236604
 20
73.8023433532
 40
5.2361530931
100
AcDbArc
 50
258.5973976249
 51
259.7971693229
  0
ARC
  5
327
100
AcDbEntity
  8
0
100
AcDbCircle
 62
7
  6
CONTINUOUS
 10
328.5481926442
 20
73.8016856971
 40
5.2354840352
100
AcDbArc
 50
280.2027798985
 51
281.3934058788
  0
ARC
  5
328
100
AcDbEntity
  8
0
100
AcDbCircle
 62
7
  6
CONTINUOUS
 10
328.0273447615
 20
72.5825796789
 40
3.939539219
100
AcDbArc
 50
272.5799537913
 51
273.2479371575
  0
ARC
  5
329
100
AcDbEntity
  8
0
100
AcDbCircle
 62
7
  6
CONTINUOUS
 10
329.503748464
 20
72.5825796793
 40
3.9395392194
100
AcDbArc
 50
266.7520628425
 51
267.4200462087
  0
ARC
  5
32A
100
AcDbEntity
  8
0
100
AcDbCircle
 62
7
  6
CONTINUOUS
 10
328.0276772254
 20
72.5752262284
 40
3.9321782567
100
AcDbArc
 50
271.9111198324
 51
272.5799374354
  0
ARC
  5
32B
100
AcDbEntity
  8
0
100
AcDbCircle
 62
7
  6
CONTINUOUS
 10
329.5034160002
 20
72.5752262284
 40
3.9321782567
100
AcDbArc
 50
267.4200625646
 51
268.0888801676
  0
ARC
  5
32C
100
AcDbEntity
  8
0
100
AcDbCircle
 62
7
  6
CONTINUOUS
 10
328.0278961169
 20
72.5687001129
 40
3.9256484715
100
AcDbArc
 50
271.2415451736
 51
271.9111033495
  0
ARC
  5
32D
100
AcDbEntity
  8
0
100
AcDbCircle
 62
7
  6
CONTINUOUS
 10
329.5031971087
 20
72.5687001136
 40
3.9256484722
100
AcDbArc
 50
268.0888966506
 51
268.7584548264
  0
ARC
  5
32E
100
AcDbEntity
  8
0
100
AcDbCircle
 62
7
  6
CONTINUOUS
 10
329.5031133136
 20
72.5487413122
 40
3.9056872635
100
AcDbArc
 50
271.2430871637
 51
271.9149246954
  0
ARC
  5
32F
100
AcDbEntity
  8
0
100
AcDbCircle
 62
7
  6
CONTINUOUS
 10
328.027979912
 20
72.548741313
 40
3.9056872643
100
AcDbArc
 50
268.0850753044
 51
268.7569128362
  0
ARC
  5
330
100
AcDbEntity
  8
0
100
AcDbCircle
 62
7
  6
CONTINUOUS
 10
329.5031775358
 20
72.5467859395
 40
3.9037308368
100
AcDbArc
 50
271.9149416242
 51
272.5870044791
  0
ARC
  5
331
100
AcDbEntity
  8
0
100
AcDbCircle
 62
7
  6
CONTINUOUS
 10
328.0279156897
 20
72.5467859402
 40
3.9037308374
100
AcDbArc
 50
267.4129955208
 51
268.0850583756
  0
ARC
  5
332
100
AcDbEntity
  8
0
100
AcDbCircle
 62
7
  6
CONTINUOUS
 10
329.5032270906
 20
72.5456635798
 40
3.9026073842
100
AcDbArc
 50
272.5870214369
 51
273.2592123876
  0
ARC
  5
333
100
AcDbEntity
  8
0
100
AcDbCircle
 62
7
  6
CONTINUOUS
 10
328.027866135
 20
72.5456635799
 40
3.9026073843
100
AcDbArc
 50
266.7407876123
 51
267.4129785629
  0
ARC
  5
334
100
AcDbEntity
  8
0
100
AcDbCircle
 62
7
  6
CONTINUOUS
 10
328.9702016441
 20
71.6378542382
 40
3.0562125658
100
AcDbArc
 50
281.6590954441
 51
284.1908795641
  0
ARC
  5
335
100
AcDbEntity
  8
0
100
AcDbCircle
 62
7
  6
CONTINUOUS
 10
328.7655466128
 20
76.4242506378
 40
7.8338714079
100
AcDbArc
 50
277.035724314
 51
288.9979915273
  0
ARC
  5
336
100
AcDbEntity
  8
0
100
AcDbCircle
 62
7
  6
CONTINUOUS
 10
328.7655466128
 20
76.4242506378
 40
7.8338714079
100
AcDbArc
 50
251.002009564
 51
262.964275686
  0
ARC
  5
337
100
AcDbEntity
  8
0
100
AcDbCircle
 62
7
  6
CONTINUOUS
 10
328.7659298667
 20
76.4495289375
 40
7.8328204658
100
AcDbArc
 50
264.7963650004
 51
265.1543585378
  0
ARC
  5
338
100
AcDbEntity
  8
0
100
AcDbCircle
 62
7
  6
CONTINUOUS
 10
329.0598020291
 20
74.1721641249
 40
5.6138555709
100
AcDbArc
 50
254.0857724327
 51
258.5388606509
  0
ARC
  5
339
100
AcDbEntity
  8
0
100
AcDbCircle
 62
7
  6
CONTINUOUS
 10
423.0169735329
 20
146.597636357
 40
79.229897445
100
AcDbArc
 50
314.212369761
 51
314.4981415662
  0
ARC
  5
33A
100
AcDbEntity
  8
0
100
AcDbCircle
 62
7
  6
CONTINUOUS
 10
455.6637535803
 20
113.339568184
 40
32.6261428544
100
AcDbArc
 50
314.5403693775
 51
314.7849411569
  0
ARC
  5
33B
100
AcDbEntity
  8
0
100
AcDbCircle
 62
7
  6
CONTINUOUS
 10
461.2655466128
 20
89.5984693878
 40
21.625
100
AcDbArc
 50
252.5076754749
 51
287.4923245251
  0
ARC
  5
33C
100
AcDbEntity
  8
0
100
AcDbCircle
 62
7
  6
CONTINUOUS
 10
487.5308867145
 20
81.2371259854
 40
9.5870034439
100
AcDbArc
 50
245.8552866802
 51
247.3618883024
  0
ARC
  5
33D
100
AcDbEntity
  8
0
100
AcDbCircle
 62
7
  6
CONTINUOUS
 10
473.0655466128
 20
72.3734693878
 40
3.2
100
AcDbArc
 50
270.0
 51
360.0
  0
ARC
  5
33E
100
AcDbEntity
  8
0
100
AcDbCircle
 62
7
  6
CONTINUOUS
 10
499.7758432242
 20
73.6734693878
 40
3.0
100
AcDbArc
 50
270.0
 51
360.0
  0
ARC
  5
33F
100
AcDbEntity
  8
0
100
AcDbCircle
 62
7
  6
CONTINUOUS
 10
478.2655466128
 20
86.7472753796
 40
2.0
100
AcDbArc
 50
79.0
 51
180.0
  0
ARC
  5
340
100
AcDbEntity
  8
0
100
AcDbCircle
 62
7
  6
CONTINUOUS
 10
484.3758432242
 20
72.2734693878
 40
1.6
100
AcDbArc
 50
158.9564598546
 51
270.0
  0
ARC
  5
341
100
AcDbEntity
  8
0
100
AcDbCircle
 62
7
  6
CONTINUOUS
 10
422.9735038509
 20
691.7047704166
 40
79.2921284791
100
AcDbArc
 50
45.502222658
 51
45.7875548849
  0
ARC
  5
342
100
AcDbEntity
  8
0
100
AcDbCircle
 62
7
  6
CONTINUOUS
 10
455.6559123901
 20
724.9994478848
 40
32.6372897507
100
AcDbArc
 50
45.215086583
 51
45.4600978906
  0
ARC
  5
343
100
AcDbEntity
  8
0
100
AcDbCircle
 62
7
  6
CONTINUOUS
 10
489.0404245005
 20
429.6317761397
 40
19.8006365336
100
AcDbArc
 50
8.1777612077
 51
9.1480570862
  0
ARC
  5
344
100
AcDbEntity
  8
0
100
AcDbCircle
 62
7
  6
CONTINUOUS
 10
489.0660223561
 20
399.1147758194
 40
19.775286423
100
AcDbArc
 50
351.0655866689
 51
351.407870238
  0
ARC
  5
345
100
AcDbEntity
  8
0
100
AcDbCircle
 62
7
  6
CONTINUOUS
 10
492.5911449161
 20
430.1469604622
 40
16.2127400275
100
AcDbArc
 50
6.7994391043
 51
8.1605353121
  0
ARC
  5
346
100
AcDbEntity
  8
0
100
AcDbCircle
 62
7
  6
CONTINUOUS
 10
498.5312018286
 20
396.9363926083
 40
10.2815564747
100
AcDbArc
 50
343.3682514243
 51
343.5889095166
  0
ARC
  5
347
100
AcDbEntity
  8
0
100
AcDbCircle
 62
7
  6
CONTINUOUS
 10
498.6441293174
 20
431.8437797756
 40
10.1638449877
100
AcDbArc
 50
14.6359134998
 51
16.2961105266
  0
ARC
  5
348
100
AcDbEntity
  8
0
100
AcDbCircle
 62
7
  6
CONTINUOUS
 10
498.7059432794
 20
396.8861483805
 40
10.099738822
100
AcDbArc
 50
343.5822609944
 51
345.33878836
  0
ARC
  5
349
100
AcDbEntity
  8
0
100
AcDbCircle
 62
7
  6
CONTINUOUS
 10
498.9056801302
 20
431.9132569038
 40
9.893226113
100
AcDbArc
 50
13.3623330559
 51
14.6293397661
  0
ARC
  5
34A
100
AcDbEntity
  8
0
100
AcDbCircle
 62
7
  6
CONTINUOUS
 10
498.905888359
 20
396.8336414593
 40
9.8930144293
100
AcDbArc
 50
345.3398919292
 51
346.2972612269
  0
ARC
  5
34B
100
AcDbEntity
  8
0
100
AcDbCircle
 62
7
  6
CONTINUOUS
 10
499.0182145301
 20
396.806202221
 40
9.7773853759
100
AcDbArc
 50
346.2975537513
 51
346.8465755975
  0
ARC
  5
34C
100
AcDbEntity
  8
0
100
AcDbCircle
 62
7
  6
CONTINUOUS
 10
499.0913343199
 20
396.7890782619
 40
9.7022872243
100
AcDbArc
 50
346.8467858577
 51
347.2723944896
  0
ARC
  5
34D
100
AcDbEntity
  8
0
100
AcDbCircle
 62
7
  6
CONTINUOUS
 10
499.1596348315
 20
431.9739925911
 40
9.6321099524
100
AcDbArc
 50
11.3495097921
 51
13.3599512932
  0
ARC
  5
34E
100
AcDbEntity
  8
0
100
AcDbCircle
 62
7
  6
CONTINUOUS
 10
499.2190783977
 20
396.7605913063
 40
9.5714058782
100
AcDbArc
 50
347.2702568325
 51
348.2830861943
  0
ARC
  5
34F
100
AcDbEntity
  8
0
100
AcDbCircle
 62
7
  6
CONTINUOUS
 10
499.3067085644
 20
432.0407443858
 40
9.4726167446
100
AcDbArc
 50
16.2953278793
 51
16.770470714
  0
ARC
  5
350
100
AcDbEntity
  8
0
100
AcDbCircle
 62
7
  6
CONTINUOUS
 10
499.5420891982
 20
432.050608087
 40
9.2420570658
100
AcDbArc
 50
8.4780823473
 51
11.3504225281
  0
ARC
  5
351
100
AcDbEntity
  8
0
100
AcDbCircle
 62
7
  6
CONTINUOUS
 10
499.779287714
 20
396.6544599453
 40
9.0013223111
100
AcDbArc
 50
348.2204177915
 51
353.6931171858
  0
ARC
  5
352
100
AcDbEntity
  8
0
100
AcDbCircle
 62
7
  6
CONTINUOUS
 10
500.1692269625
 20
432.1431527922
 40
8.6081285392
100
AcDbArc
 50
3.0291755122
 51
8.4842470241
  0
ARC
  5
353
100
AcDbEntity
  8
0
100
AcDbCircle
 62
7
  6
CONTINUOUS
 10
500.4930344899
 20
396.5766119364
 40
8.2833434689
100
AcDbArc
 50
353.6859866113
 51
357.0402718092
  0
ARC
  5
354
100
AcDbEntity
  8
0
100
AcDbCircle
 62
7
  6
CONTINUOUS
 10
501.3350098908
 20
432.3734693878
 40
7.4408333333
100
AcDbArc
 50
19.1334460692
 51
66.0384220125
  0
ARC
  5
355
100
AcDbEntity
  8
0
100
AcDbCircle
 62
7
  6
CONTINUOUS
 10
501.3350098908
 20
396.3734693878
 40
7.4408333333
100
AcDbArc
 50
293.9615779875
 51
340.8667596539
  0
ARC
  5
356
100
AcDbEntity
  8
0
100
AcDbCircle
 62
7
  6
CONTINUOUS
 10
501.8422423717
 20
430.807321086
 40
6.9325069306
100
AcDbArc
 50
2.9883228715
 51
3.9853193044
  0
ARC
  5
357
100
AcDbEntity
  8
0
100
AcDbCircle
 62
7
  6
CONTINUOUS
 10
502.2097346739
 20
397.9147524935
 40
6.5642090564
100
AcDbArc
 50
356.7429793652
 51
356.9380018615
  0
ARC
  5
358
100
AcDbEntity
  8
0
100
AcDbCircle
 62
7
  6
CONTINUOUS
 10
509.5363117226
 20
394.5324250359
 40
1.1722126031
100
AcDbArc
 50
175.4080633224
 51
176.6269464106
  0
ARC
  5
359
100
AcDbEntity
  8
0
100
AcDbCircle
 62
7
  6
CONTINUOUS
 10
507.9067929578
 20
415.4851373538
 40
0.8588193318
100
AcDbArc
 50
0.0314521566
 51
8.5271966371
  0
ARC
  5
35A
100
AcDbEntity
  8
0
100
AcDbCircle
 62
7
  6
CONTINUOUS
 10
507.906793607
 20
422.8618013376
 40
0.8588186817
100
AcDbArc
 50
351.4726178974
 51
359.9685534998
  0
ARC
  5
35B
100
AcDbEntity
  8
0
100
AcDbCircle
 62
7
  6
CONTINUOUS
 10
508.5656099263
 20
397.5880054318
 40
0.2
100
AcDbArc
 50
356.1534866721
 51
360.0
  0
ARC
  5
35C
100
AcDbEntity
  8
0
100
AcDbCircle
 62
7
  6
CONTINUOUS
 10
508.5656099262
 20
396.1594143692
 40
0.2
100
AcDbArc
 50
357.0682264467
 51
359.9999999996
  0
ARC
  5
35D
100
AcDbEntity
  8
0
100
AcDbCircle
 62
7
  6
CONTINUOUS
 10
508.5656099263
 20
432.5875244063
 40
0.2
100
AcDbArc
 50
0.0
 51
2.9438009348
  0
ARC
  5
35E
100
AcDbEntity
  8
0
100
AcDbCircle
 62
7
  6
CONTINUOUS
 10
487.545536368
 20
757.0769697991
 40
9.6229660797
100
AcDbArc
 50
112.6295431766
 51
114.1191828801
  0
ARC
  5
35F
100
AcDbEntity
  8
0
100
AcDbCircle
 62
7
  6
CONTINUOUS
 10
473.0655466128
 20
765.9734693878
 40
3.2
100
AcDbArc
 50
0.0
 51
90.0
  0
ARC
  5
360
100
AcDbEntity
  8
0
100
AcDbCircle
 62
7
  6
CONTINUOUS
 10
499.7758432242
 20
764.6734693878
 40
3.0
100
AcDbArc
 50
0.0
 51
90.0
  0
ARC
  5
361
100
AcDbEntity
  8
0
100
AcDbCircle
 62
7
  6
CONTINUOUS
 10
478.2655466128
 20
751.599663396
 40
2.0
100
AcDbArc
 50
180.0
 51
281.0000000013
  0
ARC
  5
362
100
AcDbEntity
  8
0
100
AcDbCircle
 62
7
  6
CONTINUOUS
 10
484.3758432242
 20
766.0734693878
 40
1.6
100
AcDbArc
 50
90.0
 51
200.881887187
  0
SPLINE
  5
363
100
AcDbEntity
  8
0
100
AcDbSpline
 62
7
  6
CONTINUOUS
 70
0
 71
3
 72
9
 73
5
 74
0
 42
0.0000001
 43
0.0000001
 44
0.0000000001
 40
0.0
 40
0.0
 40
0.0
 40
0.0
 40
0.2550944233
 40
1.0
 40
1.0
 40
1.0
 40
1.0
 10
123.1553110937
 20
68.8234693878
 30
0.0
 10
123.1076057287
 20
68.8084914111
 30
0.0
 10
122.9199085853
 20
68.7519986621
 30
0.0
 10
122.7294507972
 20
68.7045721987
 30
0.0
 10
122.5864501465
 20
68.675081002
 30
0.0
  0
SPLINE
  5
364
100
AcDbEntity
  8
0
100
AcDbSpline
 62
7
  6
CONTINUOUS
 70
0
 71
3
 72
9
 73
5
 74
0
 42
0.0000001
 43
0.0000001
 44
0.0000000001
 40
0.0
 40
0.0
 40
0.0
 40
0.0
 40
0.2542301673
 40
1.0
 40
1.0
 40
1.0
 40
1.0
 10
122.7194415215
 20
68.6749038752
 30
0.0
 10
122.7572968059
 20
68.6844826945
 30
0.0
 10
122.9054424172
 20
68.725064404
 30
0.0
 10
123.0503807857
 20
68.7775295433
 30
0.0
 10
123.1553110937
 20
68.8234693878
 30
0.0
  0
SPLINE
  5
365
100
AcDbEntity
  8
0
100
AcDbSpline
 62
7
  6
CONTINUOUS
 70
0
 71
3
 72
9
 73
5
 74
0
 42
0.0000001
 43
0.0000001
 44
0.0000000001
 40
0.0
 40
0.0
 40
0.0
 40
0.0
 40
0.2461010597
 40
1.0
 40
1.0
 40
1.0
 40
1.0
 10
120.520493903
 20
68.7734693878
 30
0.0
 10
120.5543009559
 20
68.7605757559
 30
0.0
 10
120.6927101191
 20
68.7109331181
 30
0.0
 10
120.8350065674
 20
68.6722600985
 30
0.0
 10
120.9433763846
 20
68.6489902926
 30
0.0
  0
SPLINE
  5
366
100
AcDbEntity
  8
0
100
AcDbSpline
 62
7
  6
CONTINUOUS
 70
0
 71
3
 72
9
 73
5
 74
0
 42
0.0000001
 43
0.0000001
 44
0.0000000001
 40
0.0
 40
0.0
 40
0.0
 40
0.0
 40
0.2550944233
 40
1.0
 40
1.0
 40
1.0
 40
1.0
 10
330.1553110937
 20
68.8234693878
 30
0.0
 10
330.1076057287
 20
68.8084914111
 30
0.0
 10
329.9199085853
 20
68.7519986621
 30
0.0
 10
329.7294507972
 20
68.7045721987
 30
0.0
 10
329.5864501465
 20
68.675081002
 30
0.0
  0
SPLINE
  5
367
100
AcDbEntity
  8
0
100
AcDbSpline
 62
7
  6
CONTINUOUS
 70
0
 71
3
 72
9
 73
5
 74
0
 42
0.0000001
 43
0.0000001
 44
0.0000000001
 40
0.0
 40
0.0
 40
0.0
 40
0.0
 40
0.2542301673
 40
1.0
 40
1.0
 40
1.0
 40
1.0
 10
329.7194415215
 20
68.6749038752
 30
0.0
 10
329.7572968059
 20
68.6844826945
 30
0.0
 10
329.9054424172
 20
68.725064404
 30
0.0
 10
330.0503807857
 20
68.7775295433
 30
0.0
 10
330.1553110937
 20
68.8234693878
 30
0.0
  0
SPLINE
  5
368
100
AcDbEntity
  8
0
100
AcDbSpline
 62
7
  6
CONTINUOUS
 70
0
 71
3
 72
9
 73
5
 74
0
 42
0.0000001
 43
0.0000001
 44
0.0000000001
 40
0.0
 40
0.0
 40
0.0
 40
0.0
 40
0.2461010597
 40
1.0
 40
1.0
 40
1.0
 40
1.0
 10
327.520493903
 20
68.7734693878
 30
0.0
 10
327.5543009559
 20
68.7605757559
 30
0.0
 10
327.6927101191
 20
68.7109331181
 30
0.0
 10
327.8350065674
 20
68.6722600985
 30
0.0
 10
327.9433763846
 20
68.6489902926
 30
0.0
  0
SPLINE
  5
369
100
AcDbEntity
  8
0
100
AcDbSpline
 62
7
  6
CONTINUOUS
 70
0
 71
3
 72
9
 73
5
 74
0
 42
0.0000001
 43
0.0000001
 44
0.0000000001
 40
0.0
 40
0.0
 40
0.0
 40
0.0
 40
0.2550944233
 40
1.0
 40
1.0
 40
1.0
 40
1.0
 10
166.6553110937
 20
68.8234693878
 30
0.0
 10
166.6076057287
 20
68.8084914111
 30
0.0
 10
166.4199085853
 20
68.7519986621
 30
0.0
 10
166.2294507972
 20
68.7045721987
 30
0.0
 10
166.0864501465
 20
68.675081002
 30
0.0
  0
SPLINE
  5
36A
100
AcDbEntity
  8
0
100
AcDbSpline
 62
7
  6
CONTINUOUS
 70
0
 71
3
 72
9
 73
5
 74
0
 42
0.0000001
 43
0.0000001
 44
0.0000000001
 40
0.0
 40
0.0
 40
0.0
 40
0.0
 40
0.2542301673
 40
1.0
 40
1.0
 40
1.0
 40
1.0
 10
166.2194415215
 20
68.6749038752
 30
0.0
 10
166.2572968059
 20
68.6844826945
 30
0.0
 10
166.4054424172
 20
68.725064404
 30
0.0
 10
166.5503807857
 20
68.7775295433
 30
0.0
 10
166.6553110937
 20
68.8234693878
 30
0.0
  0
SPLINE
  5
36B
100
AcDbEntity
  8
0
100
AcDbSpline
 62
7
  6
CONTINUOUS
 70
0
 71
3
 72
9
 73
5
 74
0
 42
0.0000001
 43
0.0000001
 44
0.0000000001
 40
0.0
 40
0.0
 40
0.0
 40
0.0
 40
0.2461010597
 40
1.0
 40
1.0
 40
1.0
 40
1.0
 10
164.020493903
 20
68.7734693878
 30
0.0
 10
164.0543009559
 20
68.7605757559
 30
0.0
 10
164.1927101191
 20
68.7109331181
 30
0.0
 10
164.3350065674
 20
68.6722600985
 30
0.0
 10
164.4433763846
 20
68.6489902926
 30
0.0
  0
SPLINE
  5
36C
100
AcDbEntity
  8
0
100
AcDbSpline
 62
7
  6
CONTINUOUS
 70
0
 71
3
 72
9
 73
5
 74
0
 42
0.0000001
 43
0.0000001
 44
0.0000000001
 40
0.0
 40
0.0
 40
0.0
 40
0.0
 40
0.2550944233
 40
1.0
 40
1.0
 40
1.0
 40
1.0
 10
286.6553110937
 20
68.8234693878
 30
0.0
 10
286.6076057287
 20
68.8084914111
 30
0.0
 10
286.4199085853
 20
68.7519986621
 30
0.0
 10
286.2294507972
 20
68.7045721987
 30
0.0
 10
286.0864501465
 20
68.675081002
 30
0.0
  0
SPLINE
  5
36D
100
AcDbEntity
  8
0
100
AcDbSpline
 62
7
  6
CONTINUOUS
 70
0
 71
3
 72
9
 73
5
 74
0
 42
0.0000001
 43
0.0000001
 44
0.0000000001
 40
0.0
 40
0.0
 40
0.0
 40
0.0
 40
0.2542301673
 40
1.0
 40
1.0
 40
1.0
 40
1.0
 10
286.2194415215
 20
68.6749038752
 30
0.0
 10
286.2572968059
 20
68.6844826945
 30
0.0
 10
286.4054424172
 20
68.725064404
 30
0.0
 10
286.5503807857
 20
68.7775295433
 30
0.0
 10
286.6553110937
 20
68.8234693878
 30
0.0
  0
SPLINE
  5
36E
100
AcDbEntity
  8
0
100
AcDbSpline
 62
7
  6
CONTINUOUS
 70
0
 71
3
 72
9
 73
5
 74
0
 42
0.0000001
 43
0.0000001
 44
0.0000000001
 40
0.0
 40
0.0
 40
0.0
 40
0.0
 40
0.2461010597
 40
1.0
 40
1.0
 40
1.0
 40
1.0
 10
284.020493903
 20
68.7734693878
 30
0.0
 10
284.0543009559
 20
68.7605757559
 30
0.0
 10
284.1927101191
 20
68.7109331181
 30
0.0
 10
284.3350065674
 20
68.6722600985
 30
0.0
 10
284.4433763846
 20
68.6489902926
 30
0.0
  0
SPLINE
  5
36F
100
AcDbEntity
  8
0
100
AcDbSpline
 62
7
  6
CONTINUOUS
 70
0
 71
3
 72
8
 73
4
 74
0
 42
0.0000001
 43
0.0000001
 44
0.0000000001
 40
0.0
 40
0.0
 40
0.0
 40
0.0
 40
1.0
 40
1.0
 40
1.0
 40
1.0
 10
508.7653283204
 20
431.1686473721
 30
0.0
 10
508.765116398
 20
431.1661358993
 30
0.0
 10
508.7631098829
 20
431.1639412385
 30
0.0
 10
508.7611696567
 20
431.1623325343
 30
0.0
  0
SPLINE
  5
370
100
AcDbEntity
  8
0
100
AcDbSpline
 62
7
  6
CONTINUOUS
 70
0
 71
3
 72
9
 73
5
 74
0
 42
0.0000001
 43
0.0000001
 44
0.0000000001
 40
0.0
 40
0.0
 40
0.0
 40
0.0
 40
0.4672657458
 40
1.0
 40
1.0
 40
1.0
 40
1.0
 10
508.7611696567
 20
431.1623325343
 30
0.0
 10
508.7604382374
 20
431.1617260908
 30
0.0
 10
508.7587932288
 20
431.1605238387
 30
0.0
 10
508.7570519184
 20
431.1594700598
 30
0.0
 10
508.7561076645
 20
431.1589391909
 30
0.0
  0
LINE
  5
371
100
AcDbEntity
  8
0
100
AcDbLine
 62
7
  6
CONTINUOUS
 10
508.7561175488
 20
432.5875215147
 11
508.755605503
 21
432.5971262511
  0
SPLINE
  5
372
100
AcDbEntity
  8
0
100
AcDbSpline
 62
7
  6
CONTINUOUS
 70
0
 71
3
 72
24
 73
20
 74
0
 42
0.0000001
 43
0.0000001
 44
0.0000000001
 40
0.0
 40
0.0
 40
0.0
 40
0.0
 40
0.2287548467
 40
0.4407552385
 40
0.5374128881
 40
0.6261795353
 40
0.7057881866
 40
0.7751472941
 40
0.8334468565
 40
0.8800578489
 40
0.9148377273
 40
0.9379321444
 40
0.9454380238
 40
0.9507313855
 40
0.9548652754
 40
0.9596356547
 40
0.9662601152
 40
0.9751476306
 40
1.0
 40
1.0
 40
1.0
 40
1.0
 10
508.755605503
 20
432.5971262511
 30
0.0
 10
508.7484193276
 20
432.7301000339
 30
0.0
 10
508.7268940074
 20
432.9859447189
 30
0.0
 10
508.6829560306
 20
433.2958940967
 30
0.0
 10
508.639398529
 20
433.5231532605
 30
0.0
 10
508.6053272098
 20
433.6736621264
 30
0.0
 10
508.5702297909
 20
433.8075584203
 30
0.0
 10
508.5353678449
 20
433.9231134863
 30
0.0
 10
508.5020508411
 20
434.0189421949
 30
0.0
 10
508.4714546126
 20
434.0944176812
 30
0.0
 10
508.4445233855
 20
434.1488481697
 30
0.0
 10
508.42393395
 20
434.1813731728
 30
0.0
 10
508.4088860022
 20
434.1958775949
 30
0.0
 10
508.3999182455
 20
434.2008293018
 30
0.0
 10
508.3910434814
 20
434.1995163316
 30
0.0
 10
508.3850492802
 20
434.1920572643
 30
0.0
 10
508.3809877126
 20
434.1809731972
 30
0.0
 10
508.376625622
 20
434.1577761874
 30
0.0
 10
508.3760787211
 20
434.1380657287
 30
0.0
 10
508.3760643591
 20
434.1235981262
 30
0.0
  0
SPLINE
  5
373
100
AcDbEntity
  8
0
100
AcDbSpline
 62
7
  6
CONTINUOUS
 70
0
 71
3
 72
8
 73
4
 74
0
 42
0.0000001
 43
0.0000001
 44
0.0000000001
 40
0.0
 40
0.0
 40
0.0
 40
0.0
 40
1.0
 40
1.0
 40
1.0
 40
1.0
 10
508.4346490791
 20
431.3345588435
 30
0.0
 10
508.4335447509
 20
431.3444807879
 30
0.0
 10
508.4307478031
 20
431.3543390894
 30
0.0
 10
508.4265268881
 20
431.3633860999
 30
0.0
  0
SPLINE
  5
374
100
AcDbEntity
  8
0
100
AcDbSpline
 62
7
  6
CONTINUOUS
 70
0
 71
3
 72
9
 73
5
 74
0
 42
0.0000001
 43
0.0000001
 44
0.0000000001
 40
0.0
 40
0.0
 40
0.0
 40
0.0
 40
0.1465409028
 40
1.0
 40
1.0
 40
1.0
 40
1.0
 10
508.5796481794
 20
429.1148292534
 30
0.0
 10
508.5796226356
 20
429.1154328858
 30
0.0
 10
508.577540289
 20
429.1193071241
 30
0.0
 10
508.5728863852
 20
429.1202245049
 30
0.0
 10
508.569509815
 20
429.1212145428
 30
0.0
  0
SPLINE
  5
375
100
AcDbEntity
  8
0
100
AcDbSpline
 62
7
  6
CONTINUOUS
 70
0
 71
3
 72
9
 73
5
 74
0
 42
0.0000001
 43
0.0000001
 44
0.0000000001
 40
0.0
 40
0.0
 40
0.0
 40
0.0
 40
0.1465930325
 40
1.0
 40
1.0
 40
1.0
 40
1.0
 10
508.5796583606
 20
399.6321107139
 30
0.0
 10
508.5796344607
 20
399.6315072802
 30
0.0
 10
508.5775633481
 20
399.6276301591
 30
0.0
 10
508.572909324
 20
399.6267119292
 30
0.0
 10
508.5695360006
 20
399.6257215289
 30
0.0
  0
SPLINE
  5
376
100
AcDbEntity
  8
0
100
AcDbSpline
 62
7
  6
CONTINUOUS
 70
0
 71
3
 72
8
 73
4
 74
0
 42
0.0000001
 43
0.0000001
 44
0.0000000001
 40
0.0
 40
0.0
 40
0.0
 40
0.0
 40
1.0
 40
1.0
 40
1.0
 40
1.0
 10
508.4346426283
 20
397.4123795266
 30
0.0
 10
508.4335299039
 20
397.402452592
 30
0.0
 10
508.4307229478
 20
397.3925906187
 30
0.0
 10
508.4264912492
 20
397.383542143
 30
0.0
  0
SPLINE
  5
377
100
AcDbEntity
  8
0
100
AcDbSpline
 62
7
  6
CONTINUOUS
 70
0
 71
3
 72
20
 73
16
 74
0
 42
0.0000001
 43
0.0000001
 44
0.0000000001
 40
0.0
 40
0.0
 40
0.0
 40
0.0
 40
0.0559109082
 40
0.1041194813
 40
0.143743115
 40
0.1738806988
 40
0.194620951
 40
0.202700212
 40
0.2108076032
 40
0.2326731965
 40
0.2680336382
 40
0.3852128062
 40
0.5581295509
 40
0.7692078034
 40
1.0
 40
1.0
 40
1.0
 40
1.0
 10
508.3758555781
 20
396.6219051851
 30
0.0
 10
508.3758732431
 20
396.5904212581
 30
0.0
 10
508.3769167691
 20
396.5317617016
 30
0.0
 10
508.3825464718
 20
396.4510302688
 30
0.0
 10
508.3925430529
 20
396.3850594794
 30
0.0
 10
508.4065759933
 20
396.3363168892
 30
0.0
 10
508.424482105
 20
396.3063835925
 30
0.0
 10
508.4438388395
 20
396.2969219322
 30
0.0
 10
508.4660693523
 20
396.2983298944
 30
0.0
 10
508.4959630191
 20
396.3235656012
 30
0.0
 10
508.5487962387
 20
396.405770745
 30
0.0
 10
508.6125502659
 20
396.5800791885
 30
0.0
 10
508.677813394
 20
396.8542260618
 30
0.0
 10
508.728889516
 20
397.197288499
 30
0.0
 10
508.7486215543
 20
397.4454251392
 30
0.0
 10
508.7554536161
 20
397.5752065821
 30
0.0
  0
LINE
  5
378
100
AcDbEntity
  8
0
100
AcDbLine
 62
7
  6
CONTINUOUS
 10
508.7554536161
 20
397.5752065821
 11
508.7561137347
 21
397.5879665875
  0
SPLINE
  5
379
100
AcDbEntity
  8
0
100
AcDbSpline
 62
7
  6
CONTINUOUS
 70
0
 71
3
 72
13
 73
9
 74
0
 42
0.0000001
 43
0.0000001
 44
0.0000000001
 40
0.0
 40
0.0
 40
0.0
 40
0.0
 40
0.0789458236
 40
0.1648902859
 40
0.264413312
 40
0.3805766822
 40
0.6625835282
 40
1.0
 40
1.0
 40
1.0
 40
1.0
 10
503.6144399296
 20
392.27159765
 30
0.0
 10
503.6144318962
 20
392.2983024105
 30
0.0
 10
503.6037014528
 20
392.3545528117
 30
0.0
 10
503.556373551
 20
392.4322122472
 30
0.0
 10
503.4802951622
 20
392.5016689796
 30
0.0
 10
503.3351991823
 20
392.5885740695
 30
0.0
 10
503.0961221339
 20
392.6659605642
 30
0.0
 10
502.8891577662
 20
392.6999650946
 30
0.0
 10
502.7758428769
 20
392.7136381742
 30
0.0
  0
SPLINE
  5
37A
100
AcDbEntity
  8
0
100
AcDbSpline
 62
7
  6
CONTINUOUS
 70
0
 71
3
 72
8
 73
4
 74
0
 42
0.0000001
 43
0.0000001
 44
0.0000000001
 40
0.0
 40
0.0
 40
0.0
 40
0.0
 40
1.0
 40
1.0
 40
1.0
 40
1.0
 10
503.6144584987
 20
392.2716404718
 30
0.0
 10
503.8669203174
 20
392.2794523907
 30
0.0
 10
504.1218573958
 20
392.3306839452
 30
0.0
 10
504.3569035405
 20
392.4231572162
 30
0.0
  0
SPLINE
  5
37B
100
AcDbEntity
  8
0
100
AcDbSpline
 62
7
  6
CONTINUOUS
 70
0
 71
3
 72
11
 73
7
 74
0
 42
0.0000001
 43
0.0000001
 44
0.0000000001
 40
0.0
 40
0.0
 40
0.0
 40
0.0
 40
0.2326896511
 40
0.4776530726
 40
0.7341269886
 40
1.0
 40
1.0
 40
1.0
 40
1.0
 10
502.7758420917
 20
394.6951490384
 30
0.0
 10
503.1296597998
 20
394.8821554128
 30
0.0
 10
503.7784222062
 20
395.4217249318
 30
0.0
 10
504.446721387
 20
396.5116509977
 30
0.0
 10
504.8358596087
 20
397.7845495042
 30
0.0
 10
504.9154419597
 20
398.6857811342
 30
0.0
 10
504.9154425111
 20
399.1430503716
 30
0.0
  0
SPLINE
  5
37C
100
AcDbEntity
  8
0
100
AcDbSpline
 62
7
  6
CONTINUOUS
 70
0
 71
3
 72
11
 73
7
 74
0
 42
0.0000001
 43
0.0000001
 44
0.0000000001
 40
0.0
 40
0.0
 40
0.0
 40
0.0
 40
0.2658730155
 40
0.5223469296
 40
0.7673103493
 40
1.0
 40
1.0
 40
1.0
 40
1.0
 10
504.9154425063
 20
429.6038884038
 30
0.0
 10
504.9154419587
 20
430.0611576483
 30
0.0
 10
504.8358596075
 20
430.9623892828
 30
0.0
 10
504.4467213819
 20
432.2352877887
 30
0.0
 10
503.7784222027
 20
433.3252138472
 30
0.0
 10
503.1296597988
 20
433.8647833627
 30
0.0
 10
502.7758420916
 20
434.0517897372
 30
0.0
  0
SPLINE
  5
37D
100
AcDbEntity
  8
0
100
AcDbSpline
 62
7
  6
CONTINUOUS
 70
0
 71
3
 72
13
 73
9
 74
0
 42
0.0000001
 43
0.0000001
 44
0.0000000001
 40
0.0
 40
0.0
 40
0.0
 40
0.0
 40
0.3159930137
 40
0.5982067461
 40
0.7207612247
 40
0.828342815
 40
0.92058246
 40
1.0
 40
1.0
 40
1.0
 40
1.0
 10
502.775845401
 20
435.2733018704
 30
0.0
 10
502.9731703619
 20
435.335263326
 30
0.0
 10
503.3442409573
 20
435.4624307821
 30
0.0
 10
503.7657990791
 20
435.6797894745
 30
0.0
 10
504.0396463703
 20
435.8742819606
 30
0.0
 10
504.1952746375
 20
436.0180518477
 30
0.0
 10
504.3041272475
 20
436.1668307008
 30
0.0
 10
504.3452489465
 20
436.2731036131
 30
0.0
 10
504.356999259
 20
436.323738658
 30
0.0
  0
SPLINE
  5
37E
100
AcDbEntity
  8
0
100
AcDbSpline
 62
7
  6
CONTINUOUS
 70
0
 71
3
 72
8
 73
4
 74
0
 42
0.0000001
 43
0.0000001
 44
0.0000000001
 40
0.0
 40
0.0
 40
0.0
 40
0.0
 40
1.0
 40
1.0
 40
1.0
 40
1.0
 10
504.356903542
 20
436.3237763186
 30
0.0
 10
504.1218575053
 20
436.4162502848
 30
0.0
 10
503.8669204474
 20
436.4674826607
 30
0.0
 10
503.614458499
 20
436.4752953681
 30
0.0
  0
SPLINE
  5
37F
100
AcDbEntity
  8
0
100
AcDbSpline
 62
7
  6
CONTINUOUS
 70
0
 71
3
 72
13
 73
9
 74
0
 42
0.0000001
 43
0.0000001
 44
0.0000000001
 40
0.0
 40
0.0
 40
0.0
 40
0.0
 40
0.3374164587
 40
0.6194233181
 40
0.7355866863
 40
0.8351097215
 40
0.9210541854
 40
1.0
 40
1.0
 40
1.0
 40
1.0
 10
502.7758428768
 20
436.0333006031
 30
0.0
 10
502.8891577447
 20
436.0469736773
 30
0.0
 10
503.096122079
 20
436.0809782127
 30
0.0
 10
503.3351990945
 20
436.1583646739
 30
0.0
 10
503.4802950704
 20
436.2452697347
 30
0.0
 10
503.556373465
 20
436.3147264359
 30
0.0
 10
503.6037014111
 20
436.3923858307
 30
0.0
 10
503.6144318732
 20
436.448636214
 30
0.0
 10
503.6144399328
 20
436.4753409674
 30
0.0
  0
SPLINE
  5
380
100
AcDbEntity
  8
0
100
AcDbSpline
 62
7
  6
CONTINUOUS
 70
0
 71
3
 72
20
 73
16
 74
0
 42
0.0000001
 43
0.0000001
 44
0.0000000001
 40
0.0
 40
0.0
 40
0.0
 40
0.0
 40
0.2303942295
 40
0.4414475523
 40
0.6147958778
 40
0.7326090089
 40
0.7682866527
 40
0.7903502116
 40
0.7984676002
 40
0.8064898529
 40
0.8270129411
 40
0.856913856
 40
0.8963107451
 40
0.9443015441
 40
1.0
 40
1.0
 40
1.0
 40
1.0
 10
508.7561186492
 20
431.1589478319
 30
0.0
 10
508.749476025
 20
431.2895035424
 30
0.0
 10
508.7300575177
 20
431.5393254803
 30
0.0
 10
508.6792822263
 20
431.8850973223
 30
0.0
 10
508.6140096922
 20
432.1620662627
 30
0.0
 10
508.5500236313
 20
432.3385967436
 30
0.0
 10
508.4968734149
 20
432.422254147
 30
0.0
 10
508.4669007384
 20
432.4482156392
 30
0.0
 10
508.4444576554
 20
432.4501343268
 30
0.0
 10
508.42489884
 20
432.4410232086
 30
0.0
 10
508.4067793968
 20
432.4111777235
 30
0.0
 10
508.3926648747
 20
432.3624741959
 30
0.0
 10
508.38258618
 20
432.2963851176
 30
0.0
 10
508.3769211377
 20
432.2154143491
 30
0.0
 10
508.3758723209
 20
432.1565517047
 30
0.0
 10
508.3758558232
 20
432.1249486704
 30
0.0
  0
SPLINE
  5
381
100
AcDbEntity
  8
0
100
AcDbSpline
 62
7
  6
CONTINUOUS
 70
0
 71
3
 72
9
 73
5
 74
0
 42
0.0000001
 43
0.0000001
 44
0.0000000001
 40
0.0
 40
0.0
 40
0.0
 40
0.0
 40
0.2547728469
 40
1.0
 40
1.0
 40
1.0
 40
1.0
 10
508.7579857447
 20
431.2891363429
 30
0.0
 10
508.7560242734
 20
431.3172517339
 30
0.0
 10
508.747628298
 20
431.4275556664
 30
0.0
 10
508.7363574722
 20
431.5376491576
 30
0.0
 10
508.7260545887
 20
431.619442061
 30
0.0
  0
SPLINE
  5
382
100
AcDbEntity
  8
0
100
AcDbSpline
 62
7
  6
CONTINUOUS
 70
0
 71
3
 72
20
 73
16
 74
0
 42
0.0000001
 43
0.0000001
 44
0.0000000001
 40
0.0
 40
0.0
 40
0.0
 40
0.0
 40
0.2411792924
 40
0.3489059645
 40
0.4451320938
 40
0.5277042301
 40
0.5951556383
 40
0.6468027224
 40
0.68320509
 40
0.7070003519
 40
0.7253037867
 40
0.7483574707
 40
0.7806180737
 40
0.8736137275
 40
1.0
 40
1.0
 40
1.0
 40
1.0
 10
508.7260545887
 20
431.619442061
 30
0.0
 10
508.7126319908
 20
431.7260018653
 30
0.0
 10
508.6886444014
 20
431.8796978514
 30
0.0
 10
508.6459887908
 20
432.0733392377
 30
0.0
 10
508.6127287112
 20
432.1965669178
 30
0.0
 10
508.578127564
 20
432.3007502697
 30
0.0
 10
508.5437232393
 20
432.3836816625
 30
0.0
 10
508.5104917571
 20
432.4450106516
 30
0.0
 10
508.4801856108
 20
432.4840338591
 30
0.0
 10
508.449668522
 20
432.5057687371
 30
0.0
 10
508.4182980876
 20
432.4986746299
 30
0.0
 10
508.3992797121
 20
432.469834222
 30
0.0
 10
508.3777662117
 20
432.4077252614
 30
0.0
 10
508.365663401
 20
432.2949135142
 30
0.0
 10
508.3642800465
 20
432.197529361
 30
0.0
 10
508.36507995
 20
432.1412527681
 30
0.0
  0
SPLINE
  5
383
100
AcDbEntity
  8
0
100
AcDbSpline
 62
7
  6
CONTINUOUS
 70
0
 71
3
 72
9
 73
5
 74
0
 42
0.0000001
 43
0.0000001
 44
0.0000000001
 40
0.0
 40
0.0
 40
0.0
 40
0.0
 40
0.4547549367
 40
1.0
 40
1.0
 40
1.0
 40
1.0
 10
508.36507995
 20
432.1412527681
 30
0.0
 10
508.3667618769
 20
432.0229220873
 30
0.0
 10
508.3839015278
 20
431.7630009676
 30
0.0
 10
508.4107340892
 20
431.5041786392
 30
0.0
 10
508.4265205687
 20
431.3631683282
 30
0.0
  0
LINE
  5
384
100
AcDbEntity
  8
0
100
AcDbLine
 62
7
  6
CONTINUOUS
 10
508.4265263646
 20
431.3633908606
 11
508.4291020194
 21
431.338693936
  0
SPLINE
  5
385
100
AcDbEntity
  8
0
100
AcDbSpline
 62
7
  6
CONTINUOUS
 70
0
 71
3
 72
9
 73
5
 74
0
 42
0.0000001
 43
0.0000001
 44
0.0000000001
 40
0.0
 40
0.0
 40
0.0
 40
0.0
 40
0.4715540289
 40
1.0
 40
1.0
 40
1.0
 40
1.0
 10
508.4291020194
 20
431.338693936
 30
0.0
 10
508.4651458765
 20
430.9912434304
 30
0.0
 10
508.5258049285
 20
430.2527667832
 30
0.0
 10
508.5599024966
 20
429.5125589041
 30
0.0
 10
508.5695361134
 20
429.1212183144
 30
0.0
  0
SPLINE
  5
386
100
AcDbEntity
  8
0
100
AcDbSpline
 62
7
  6
CONTINUOUS
 70
0
 71
3
 72
9
 73
5
 74
0
 42
0.0000001
 43
0.0000001
 44
0.0000000001
 40
0.0
 40
0.0
 40
0.0
 40
0.0
 40
0.4996316054
 40
1.0
 40
1.0
 40
1.0
 40
1.0
 10
508.6021536688
 20
427.775541024
 30
0.0
 10
508.6524100307
 20
425.599306307
 30
0.0
 10
508.7235591302
 20
421.2428924772
 30
0.0
 10
508.7401311285
 20
416.8860084508
 30
0.0
 10
508.7409413182
 20
414.7059835973
 30
0.0
  0
LINE
  5
387
100
AcDbEntity
  8
0
100
AcDbLine
 62
7
  6
CONTINUOUS
 10
508.7409413182
 20
414.7059835973
 11
508.7409323851
 21
414.0177741669
  0
SPLINE
  5
388
100
AcDbEntity
  8
0
100
AcDbSpline
 62
7
  6
CONTINUOUS
 70
0
 71
3
 72
9
 73
5
 74
0
 42
0.0000001
 43
0.0000001
 44
0.0000000001
 40
0.0
 40
0.0
 40
0.0
 40
0.0
 40
0.5003685183
 40
1.0
 40
1.0
 40
1.0
 40
1.0
 10
508.7409323851
 20
414.0177741669
 30
0.0
 10
508.740066498
 20
411.8418939285
 30
0.0
 10
508.7234092863
 20
407.4932946666
 30
0.0
 10
508.6523460781
 20
403.1451655241
 30
0.0
 10
508.6021915833
 20
400.9730691242
 30
0.0
  0
SPLINE
  5
389
100
AcDbEntity
  8
0
100
AcDbSpline
 62
7
  6
CONTINUOUS
 70
0
 71
3
 72
9
 73
5
 74
0
 42
0.0000001
 43
0.0000001
 44
0.0000000001
 40
0.0
 40
0.0
 40
0.0
 40
0.0
 40
0.5284448043
 40
1.0
 40
1.0
 40
1.0
 40
1.0
 10
508.569536053
 20
399.6257237001
 30
0.0
 10
508.5598989916
 20
399.2343677729
 30
0.0
 10
508.5258028877
 20
398.4941291891
 30
0.0
 10
508.4651437699
 20
397.7556213489
 30
0.0
 10
508.4290921696
 20
397.4081561705
 30
0.0
  0
LINE
  5
38A
100
AcDbEntity
  8
0
100
AcDbLine
 62
7
  6
CONTINUOUS
 10
508.4290921696
 20
397.4081561705
 11
508.4265256085
 21
397.3835508469
  0
SPLINE
  5
38B
100
AcDbEntity
  8
0
100
AcDbSpline
 62
7
  6
CONTINUOUS
 70
0
 71
3
 72
8
 73
4
 74
0
 42
0.0000001
 43
0.0000001
 44
0.0000000001
 40
0.0
 40
0.0
 40
0.0
 40
0.0
 40
1.0
 40
1.0
 40
1.0
 40
1.0
 10
508.7561192062
 20
397.5879776132
 30
0.0
 10
508.7592722543
 20
397.5863693328
 30
0.0
 10
508.7629172715
 20
397.5844184052
 30
0.0
 10
508.764239086
 20
397.5811349491
 30
0.0
  0
SPLINE
  5
38C
100
AcDbEntity
  8
0
100
AcDbSpline
 62
7
  6
CONTINUOUS
 70
0
 71
3
 72
8
 73
4
 74
0
 42
0.0000001
 43
0.0000001
 44
0.0000000001
 40
0.0
 40
0.0
 40
0.0
 40
0.0
 40
1.0
 40
1.0
 40
1.0
 40
1.0
 10
508.764239086
 20
397.5811349491
 30
0.0
 10
508.7650597739
 20
397.5790963177
 30
0.0
 10
508.7651063322
 20
397.5767917625
 30
0.0
 10
508.7650685328
 20
397.5745944648
 30
0.0
  0
LINE
  5
38D
100
AcDbEntity
  8
0
100
AcDbLine
 62
7
  6
CONTINUOUS
 10
508.7561174196
 20
396.1594829115
 11
508.7555764157
 21
396.1499750543
  0
SPLINE
  5
38E
100
AcDbEntity
  8
0
100
AcDbSpline
 62
7
  6
CONTINUOUS
 70
0
 71
3
 72
23
 73
19
 74
0
 42
0.0000001
 43
0.0000001
 44
0.0000000001
 40
0.0
 40
0.0
 40
0.0
 40
0.0
 40
0.2274939947
 40
0.4391568125
 40
0.624525332
 40
0.7043291289
 40
0.7740127435
 40
0.8326884638
 40
0.8796000619
 40
0.9145310546
 40
0.9377971397
 40
0.9453664681
 40
0.9507062698
 40
0.9548648284
 40
0.9596288836
 40
0.9662402469
 40
0.9751235934
 40
1.0
 40
1.0
 40
1.0
 40
1.0
 10
508.7555764157
 20
396.1499750543
 30
0.0
 10
508.7479764301
 20
396.0177586202
 30
0.0
 10
508.7273952007
 20
395.7627824093
 30
0.0
 10
508.6763222828
 20
395.4025982878
 30
0.0
 10
508.6201504781
 20
395.130528493
 30
0.0
 10
508.5708889767
 20
394.9418891097
 30
0.0
 10
508.5360106779
 20
394.8257931377
 30
0.0
 10
508.5026083748
 20
394.7293755834
 30
0.0
 10
508.4719117039
 20
394.6534213128
 30
0.0
 10
508.4448082666
 20
394.5986607734
 30
0.0
 10
508.4241185676
 20
394.5659507078
 30
0.0
 10
508.4090268562
 20
394.5512524508
 30
0.0
 10
508.4000491391
 20
394.5461866843
 30
0.0
 10
508.391116847
 20
394.5473290332
 30
0.0
 10
508.3849805919
 20
394.5546892538
 30
0.0
 10
508.3808507245
 20
394.5657440426
 30
0.0
 10
508.3763970867
 20
394.5889257136
 30
0.0
 10
508.3758485357
 20
394.6086553882
 30
0.0
 10
508.375844628
 20
394.6231370843
 30
0.0
  0
SPLINE
  5
38F
100
AcDbEntity
  8
0
100
AcDbSpline
 62
7
  6
CONTINUOUS
 70
0
 71
3
 72
8
 73
4
 74
0
 42
0.0000001
 43
0.0000001
 44
0.0000000001
 40
0.0
 40
0.0
 40
0.0
 40
0.0
 40
1.0
 40
1.0
 40
1.0
 40
1.0
 10
508.756069924
 20
396.159420041
 30
0.0
 10
508.7592407333
 20
396.1575769318
 30
0.0
 10
508.7625531978
 20
396.1553804167
 30
0.0
 10
508.7643651577
 20
396.1521917047
 30
0.0
  0
SPLINE
  5
390
100
AcDbEntity
  8
0
100
AcDbSpline
 62
7
  6
CONTINUOUS
 70
0
 71
3
 72
9
 73
5
 74
0
 42
0.0000001
 43
0.0000001
 44
0.0000000001
 40
0.0
 40
0.0
 40
0.0
 40
0.0
 40
0.5222432618
 40
1.0
 40
1.0
 40
1.0
 40
1.0
 10
508.7643651577
 20
396.1521917047
 30
0.0
 10
508.7646639995
 20
396.1516657987
 30
0.0
 10
508.7651406899
 20
396.1505970479
 30
0.0
 10
508.7653143144
 20
396.1494328106
 30
0.0
 10
508.7653097594
 20
396.1488794723
 30
0.0
  0
SPLINE
  5
391
100
AcDbEntity
  8
0
100
AcDbSpline
 62
7
  6
CONTINUOUS
 70
0
 71
3
 72
8
 73
4
 74
0
 42
0.0000001
 43
0.0000001
 44
0.0000000001
 40
0.0
 40
0.0
 40
0.0
 40
0.0
 40
1.0
 40
1.0
 40
1.0
 40
1.0
 10
508.7653260566
 20
432.5980613465
 30
0.0
 10
508.7653491464
 20
432.5953676917
 30
0.0
 10
508.7632634913
 20
432.592860026
 30
0.0
 10
508.7612269274
 20
432.5910968707
 30
0.0
  0
SPLINE
  5
392
100
AcDbEntity
  8
0
100
AcDbSpline
 62
7
  6
CONTINUOUS
 70
0
 71
3
 72
9
 73
5
 74
0
 42
0.0000001
 43
0.0000001
 44
0.0000000001
 40
0.0
 40
0.0
 40
0.0
 40
0.0
 40
0.4672273806
 40
1.0
 40
1.0
 40
1.0
 40
1.0
 10
508.7612269274
 20
432.5910968707
 30
0.0
 10
508.760489756
 20
432.5904586645
 30
0.0
 10
508.7588250849
 20
432.5891925528
 30
0.0
 10
508.7570550762
 20
432.5880829321
 30
0.0
 10
508.7560939188
 20
432.587524038
 30
0.0
  0
LINE
  5
393
100
AcDbEntity
  8
0
100
AcDbLine
 62
7
  6
CONTINUOUS
 10
508.398793011
 20
434.6986511573
 11
508.3996351508
 21
434.6957704609
  0
SPLINE
  5
394
100
AcDbEntity
  8
0
100
AcDbSpline
 62
7
  6
CONTINUOUS
 70
0
 71
3
 72
22
 73
18
 74
0
 42
0.0000001
 43
0.0000001
 44
0.0000000001
 40
0.0
 40
0.0
 40
0.0
 40
0.0
 40
0.2308061556
 40
0.440595512
 40
0.5319745485
 40
0.6109399888
 40
0.6753265548
 40
0.7239609577
 40
0.7571015141
 40
0.7775035736
 40
0.7855376054
 40
0.7941197881
 40
0.816885906
 40
0.8493196901
 40
0.8912601203
 40
0.941801933
 40
1.0
 40
1.0
 40
1.0
 40
1.0
 10
508.7633406705
 20
397.5418061469
 30
0.0
 10
508.7556759528
 20
397.4071191265
 30
0.0
 10
508.7334239379
 20
397.1503769541
 30
0.0
 10
508.6849436612
 20
396.8428319788
 30
0.0
 10
508.6344008531
 20
396.6263886901
 30
0.0
 10
508.5954899514
 20
396.4946841849
 30
0.0
 10
508.5561182859
 20
396.3895917667
 30
0.0
 10
508.5174423414
 20
396.3127929174
 30
0.0
 10
508.4831082667
 20
396.2644198154
 30
0.0
 10
508.4508255816
 20
396.2424623604
 30
0.0
 10
508.428410127
 20
396.2453792704
 30
0.0
 10
508.4092406049
 20
396.2592573194
 30
0.0
 10
508.3919610842
 20
396.2937259416
 30
0.0
 10
508.3781890938
 20
396.3486653711
 30
0.0
 10
508.3691625054
 20
396.4213622294
 30
0.0
 10
508.3647049934
 20
396.5093167279
 30
0.0
 10
508.36459496
 20
396.5729085403
 30
0.0
 10
508.3650924522
 20
396.6069213538
 30
0.0
  0
SPLINE
  5
395
100
AcDbEntity
  8
0
100
AcDbSpline
 62
7
  6
CONTINUOUS
 70
0
 71
3
 72
9
 73
5
 74
0
 42
0.0000001
 43
0.0000001
 44
0.0000000001
 40
0.0
 40
0.0
 40
0.0
 40
0.0
 40
0.4549295942
 40
1.0
 40
1.0
 40
1.0
 40
1.0
 10
508.3650924522
 20
396.6069213538
 30
0.0
 10
508.3668208746
 20
396.7250910456
 30
0.0
 10
508.3839741846
 20
396.9845551233
 30
0.0
 10
508.4107511857
 20
397.242928887
 30
0.0
 10
508.4265041743
 20
397.3836491494
 30
0.0
  0
SPLINE
  5
396
100
AcDbEntity
  8
0
100
AcDbSpline
 62
7
  6
CONTINUOUS
 70
0
 71
3
 72
10
 73
6
 74
0
 42
0.0000001
 43
0.0000001
 44
0.0000000001
 40
0.0
 40
0.0
 40
0.0
 40
0.0
 40
0.5934761507
 40
0.82883257
 40
1.0
 40
1.0
 40
1.0
 40
1.0
 10
508.7653285895
 20
396.1489095232
 30
0.0
 10
508.7488649294
 20
395.8445101058
 30
0.0
 10
508.699394462
 20
395.4195023817
 30
0.0
 10
508.5804312187
 20
394.9195630174
 30
0.0
 10
508.5160611947
 20
394.7204107023
 30
0.0
 10
508.4828191197
 20
394.6390154586
 30
0.0
  0
SPLINE
  5
397
100
AcDbEntity
  8
0
100
AcDbSpline
 62
7
  6
CONTINUOUS
 70
0
 71
3
 72
15
 73
11
 74
0
 42
0.0000001
 43
0.0000001
 44
0.0000000001
 40
0.0
 40
0.0
 40
0.0
 40
0.0
 40
0.2426763351
 40
0.4299465392
 40
0.5630020754
 40
0.6456616704
 40
0.6936022632
 40
0.7537466523
 40
0.8546112072
 40
1.0
 40
1.0
 40
1.0
 40
1.0
 10
508.4828191197
 20
394.6390154586
 30
0.0
 10
508.4743674796
 20
394.6183211034
 30
0.0
 10
508.45851609
 20
394.5820958629
 30
0.0
 10
508.4350171447
 20
394.5355150202
 30
0.0
 10
508.4141074248
 20
394.5052780234
 30
0.0
 10
508.3982353855
 20
394.4857498061
 30
0.0
 10
508.3777487505
 20
394.4836257628
 30
0.0
 10
508.3688065802
 20
394.5042014898
 30
0.0
 10
508.3651328271
 20
394.5309325351
 30
0.0
 10
508.3646360808
 20
394.5540963529
 30
0.0
 10
508.3648295745
 20
394.5674871677
 30
0.0
  0
SPLINE
  5
398
100
AcDbEntity
  8
0
100
AcDbSpline
 62
7
  6
CONTINUOUS
 70
0
 71
3
 72
13
 73
9
 74
0
 42
0.0000001
 43
0.0000001
 44
0.0000000001
 40
0.0
 40
0.0
 40
0.0
 40
0.0
 40
0.0668747794
 40
0.1557425269
 40
0.266147988
 40
0.3950621846
 40
0.6906954169
 40
1.0
 40
1.0
 40
1.0
 40
1.0
 10
508.5695340763
 20
399.6257189695
 30
0.0
 10
508.4965069067
 20
399.587085772
 30
0.0
 10
508.3168652304
 20
399.5157310792
 30
0.0
 10
508.0001516004
 20
399.4266938642
 30
0.0
 10
507.6025490273
 20
399.3457143526
 30
0.0
 10
506.948863265
 20
399.2472744812
 30
0.0
 10
506.04482702
 20
399.1688072306
 30
0.0
 10
505.2975462683
 20
399.1454060408
 30
0.0
 10
504.9154413053
 20
399.1430468549
 30
0.0
  0
SPLINE
  5
399
100
AcDbEntity
  8
0
100
AcDbSpline
 62
7
  6
CONTINUOUS
 70
0
 71
3
 72
11
 73
7
 74
0
 42
0.0000001
 43
0.0000001
 44
0.0000000001
 40
0.0
 40
0.0
 40
0.0
 40
0.0
 40
0.2505213961
 40
0.5008388189
 40
0.7507467996
 40
1.0
 40
1.0
 40
1.0
 40
1.0
 10
504.3569104161
 20
392.4231261487
 30
0.0
 10
504.8537514112
 20
392.6610709733
 30
0.0
 10
505.7939733682
 20
393.2564684512
 30
0.0
 10
506.966651025
 20
394.4358366854
 30
0.0
 10
507.8672977105
 20
395.8291498212
 30
0.0
 10
508.2738055394
 20
396.8572584548
 30
0.0
 10
508.4265041743
 20
397.3836491494
 30
0.0
  0
SPLINE
  5
39A
100
AcDbEntity
  8
0
100
AcDbSpline
 62
7
  6
CONTINUOUS
 70
0
 71
3
 72
11
 73
7
 74
0
 42
0.0000001
 43
0.0000001
 44
0.0000000001
 40
0.0
 40
0.0
 40
0.0
 40
0.0
 40
0.3165921672
 40
0.5993386002
 40
0.8293111661
 40
1.0
 40
1.0
 40
1.0
 40
1.0
 10
502.7758424103
 20
393.4736647616
 30
0.0
 10
502.9740586149
 20
393.4146565568
 30
0.0
 10
503.3437207256
 20
393.2831754764
 30
0.0
 10
503.8282855273
 20
393.034471355
 30
0.0
 10
504.184453526
 20
392.7643570102
 30
0.0
 10
504.3370041369
 20
392.5328722276
 30
0.0
 10
504.3570055352
 20
392.4231787845
 30
0.0
  0
SPLINE
  5
39B
100
AcDbEntity
  8
0
100
AcDbSpline
 62
7
  6
CONTINUOUS
 70
0
 71
3
 72
11
 73
7
 74
0
 42
0.0000001
 43
0.0000001
 44
0.0000000001
 40
0.0
 40
0.0
 40
0.0
 40
0.0
 40
0.2492555445
 40
0.4991632616
 40
0.7494800664
 40
1.0
 40
1.0
 40
1.0
 40
1.0
 10
508.4265205687
 20
431.3631683282
 30
0.0
 10
508.2738215504
 20
431.889574518
 30
0.0
 10
507.8673494085
 20
432.9177237657
 30
0.0
 10
506.966678109
 20
434.3110639459
 30
0.0
 10
505.7939936615
 20
435.490458372
 30
0.0
 10
504.8537574194
 20
436.0858637225
 30
0.0
 10
504.3569104161
 20
436.3238114385
 30
0.0
  0
SPLINE
  5
39C
100
AcDbEntity
  8
0
100
AcDbSpline
 62
7
  6
CONTINUOUS
 70
0
 71
3
 72
13
 73
9
 74
0
 42
0.0000001
 43
0.0000001
 44
0.0000000001
 40
0.0
 40
0.0
 40
0.0
 40
0.0
 40
0.3093058691
 40
0.6049393327
 40
0.7338532599
 40
0.8442583041
 40
0.9331255999
 40
1.0
 40
1.0
 40
1.0
 40
1.0
 10
504.9154413052
 20
429.6038906341
 30
0.0
 10
505.2975478688
 20
429.6015313735
 30
0.0
 10
506.0448305155
 20
429.5781299237
 30
0.0
 10
506.9488682952
 20
429.4996621226
 30
0.0
 10
507.6025534599
 20
429.4012219061
 30
0.0
 10
508.0001546052
 20
429.3202423723
 30
0.0
 10
508.3168666959
 20
429.2312053317
 30
0.0
 10
508.4965073627
 20
429.1598508928
 30
0.0
 10
508.5695341141
 20
429.1212179013
 30
0.0
  0
SPLINE
  5
39D
100
AcDbEntity
  8
0
100
AcDbSpline
 62
7
  6
CONTINUOUS
 70
0
 71
3
 72
10
 73
6
 74
0
 42
0.0000001
 43
0.0000001
 44
0.0000000001
 40
0.0
 40
0.0
 40
0.0
 40
0.0
 40
0.5882061623
 40
0.8245691972
 40
1.0
 40
1.0
 40
1.0
 40
1.0
 10
508.7653278403
 20
432.5980446994
 30
0.0
 10
508.7492974166
 20
432.8953615226
 30
0.0
 10
508.7012389729
 20
433.3119609636
 30
0.0
 10
508.586433629
 20
433.8052202782
 30
0.0
 10
508.5235780052
 20
434.0044071804
 30
0.0
 10
508.4911482433
 20
434.0870765681
 30
0.0
  0
SPLINE
  5
39E
100
AcDbEntity
  8
0
100
AcDbSpline
 62
7
  6
CONTINUOUS
 70
0
 71
3
 72
18
 73
14
 74
0
 42
0.0000001
 43
0.0000001
 44
0.0000000001
 40
0.0
 40
0.0
 40
0.0
 40
0.0
 40
0.2351477332
 40
0.412401355
 40
0.5324621742
 40
0.5724830116
 40
0.6012063208
 40
0.6229506435
 40
0.6458256944
 40
0.676686019
 40
0.7182720445
 40
0.8360891125
 40
1.0
 40
1.0
 40
1.0
 40
1.0
 10
508.4911482433
 20
434.0870765681
 30
0.0
 10
508.4813834926
 20
434.1119687016
 30
0.0
 10
508.4632894078
 20
434.1553103589
 30
0.0
 10
508.4359985348
 20
434.2092939976
 30
0.0
 10
508.4151392257
 20
434.2418879365
 30
0.0
 10
508.3998527579
 20
434.2570370076
 30
0.0
 10
508.3908944024
 20
434.2625542479
 30
0.0
 10
508.3819218362
 20
434.2626768555
 30
0.0
 10
508.3751617477
 20
434.2565113943
 30
0.0
 10
508.3707258448
 20
434.2465323711
 30
0.0
 10
508.3657998961
 20
434.2253787906
 30
0.0
 10
508.3641241861
 20
434.1884605625
 30
0.0
 10
508.3653949062
 20
434.1564659692
 30
0.0
 10
508.3666072642
 20
434.1378669597
 30
0.0
  0
SPLINE
  5
39F
100
AcDbEntity
  8
0
100
AcDbSpline
 62
7
  6
CONTINUOUS
 70
0
 71
3
 72
9
 73
5
 74
0
 42
0.0000001
 43
0.0000001
 44
0.0000000001
 40
0.0
 40
0.0
 40
0.0
 40
0.0
 40
0.2298779561
 40
1.0
 40
1.0
 40
1.0
 40
1.0
 10
508.3666072642
 20
434.1378669597
 30
0.0
 10
508.3669812404
 20
434.1321297218
 30
0.0
 10
508.3688031822
 20
434.1071846671
 30
0.0
 10
508.3712972293
 20
434.0822922207
 30
0.0
 10
508.3734442515
 20
434.0631509488
 30
0.0
  0
SPLINE
  5
3A0
100
AcDbEntity
  8
0
100
AcDbSpline
 62
7
  6
CONTINUOUS
 70
0
 71
3
 72
8
 73
4
 74
0
 42
0.0000001
 43
0.0000001
 44
0.0000000001
 40
0.0
 40
0.0
 40
0.0
 40
0.0
 40
1.0
 40
1.0
 40
1.0
 40
1.0
 10
508.3648295745
 20
394.5674871677
 30
0.0
 10
508.3649929942
 20
394.5787966991
 30
0.0
 10
508.3654704465
 20
394.590102907
 30
0.0
 10
508.3661298494
 20
394.6013943813
 30
0.0
  0
SPLINE
  5
3A1
100
AcDbEntity
  8
0
100
AcDbSpline
 62
7
  6
CONTINUOUS
 70
0
 71
3
 72
9
 73
5
 74
0
 42
0.0000001
 43
0.0000001
 44
0.0000000001
 40
0.0
 40
0.0
 40
0.0
 40
0.0
 40
0.199456441
 40
1.0
 40
1.0
 40
1.0
 40
1.0
 10
508.3678617401
 20
394.6262707889
 30
0.0
 10
508.3697744301
 20
394.6502469193
 30
0.0
 10
508.3824586188
 20
394.7702007015
 30
0.0
 10
508.4021416912
 20
394.8892600181
 30
0.0
 10
508.4182987866
 20
394.9844352756
 30
0.0
  0
SPLINE
  5
3A2
100
AcDbEntity
  8
0
100
AcDbSpline
 62
7
  6
CONTINUOUS
 70
0
 71
3
 72
9
 73
5
 74
0
 42
0.0000001
 43
0.0000001
 44
0.0000000001
 40
0.0
 40
0.0
 40
0.0
 40
0.0
 40
0.4521091015
 40
1.0
 40
1.0
 40
1.0
 40
1.0
 10
508.4182987866
 20
394.9844352756
 30
0.0
 10
508.4454101191
 20
395.1441377456
 30
0.0
 10
508.5101845516
 20
395.4965328211
 30
0.0
 10
508.5708919275
 20
395.8496748746
 30
0.0
 10
508.6013705719
 20
396.0435996277
 30
0.0
  0
SPLINE
  5
3A3
100
AcDbEntity
  8
0
100
AcDbSpline
 62
7
  6
CONTINUOUS
 70
0
 71
3
 72
9
 73
5
 74
0
 42
0.0000001
 43
0.0000001
 44
0.0000000001
 40
0.0
 40
0.0
 40
0.0
 40
0.0
 40
0.2366780455
 40
1.0
 40
1.0
 40
1.0
 40
1.0
 10
508.6193690019
 20
396.1603574229
 30
0.0
 10
508.6358234098
 20
396.2692898676
 30
0.0
 10
508.7012944262
 20
396.7301086302
 30
0.0
 10
508.7468381276
 20
397.1940947075
 30
0.0
 10
508.763858042
 20
397.5489955822
 30
0.0
  0
LINE
  5
3A4
100
AcDbEntity
  8
0
100
AcDbLine
 62
7
  6
CONTINUOUS
 10
508.763858042
 20
397.5489955822
 11
508.764572133
 21
397.5641153279
  0
SPLINE
  5
3A5
100
AcDbEntity
  8
0
100
AcDbSpline
 62
7
  6
CONTINUOUS
 70
0
 71
3
 72
10
 73
6
 74
0
 42
0.0000001
 43
0.0000001
 44
0.0000000001
 40
0.0
 40
0.0
 40
0.0
 40
0.0
 40
0.1798990964
 40
0.4131745695
 40
1.0
 40
1.0
 40
1.0
 40
1.0
 10
508.3734442515
 20
434.0631509488
 30
0.0
 10
508.3821435103
 20
433.9855947478
 30
0.0
 10
508.409600024
 20
433.8083701301
 30
0.0
 10
508.4853743287
 20
433.3812747892
 30
0.0
 10
508.5487815648
 20
433.0311456045
 30
0.0
 10
508.5892128506
 20
432.7798042816
 30
0.0
  0
SPLINE
  5
3A6
100
AcDbEntity
  8
0
100
AcDbSpline
 62
7
  6
CONTINUOUS
 70
0
 71
3
 72
9
 73
5
 74
0
 42
0.0000001
 43
0.0000001
 44
0.0000000001
 40
0.0
 40
0.0
 40
0.0
 40
0.0
 40
0.2436295171
 40
1.0
 40
1.0
 40
1.0
 40
1.0
 10
508.689855347
 20
432.0664556207
 30
0.0
 10
508.6984802769
 20
431.9937960471
 30
0.0
 10
508.7316552241
 20
431.6953053945
 30
0.0
 10
508.7549357103
 20
431.3956540323
 30
0.0
 10
508.7653223429
 20
431.1687295191
 30
0.0
  0
SPLINE
  5
3A7
100
AcDbEntity
  8
0
100
AcDbSpline
 62
7
  6
CONTINUOUS
 70
0
 71
3
 72
9
 73
5
 74
0
 42
0.0000001
 43
0.0000001
 44
0.0000000001
 40
0.0
 40
0.0
 40
0.0
 40
0.0
 40
0.2067651614
 40
1.0
 40
1.0
 40
1.0
 40
1.0
 10
482.7758472392
 20
765.1809908965
 30
0.0
 10
482.7758738914
 20
765.2096245691
 30
0.0
 10
482.8024253021
 20
765.348743032
 30
0.0
 10
482.913571002
 20
765.4523982896
 30
0.0
 10
483.0004320143
 20
765.5196461581
 30
0.0
  0
SPLINE
  5
3A8
100
AcDbEntity
  8
0
100
AcDbSpline
 62
7
  6
CONTINUOUS
 70
0
 71
3
 72
9
 73
5
 74
0
 42
0.0000001
 43
0.0000001
 44
0.0000000001
 40
0.0
 40
0.0
 40
0.0
 40
0.0
 40
0.2117550991
 40
1.0
 40
1.0
 40
1.0
 40
1.0
 10
483.0004320143
 20
765.5196461581
 30
0.0
 10
483.0396060222
 20
765.5499747079
 30
0.0
 10
483.2330663146
 20
765.6822140806
 30
0.0
 10
483.4450199344
 20
765.7842616255
 30
0.0
 10
483.613245439
 20
765.8598260669
 30
0.0
  0
SPLINE
  5
3A9
100
AcDbEntity
  8
0
100
AcDbSpline
 62
7
  6
CONTINUOUS
 70
0
 71
3
 72
8
 73
4
 74
0
 42
0.0000001
 43
0.0000001
 44
0.0000000001
 40
0.0
 40
0.0
 40
0.0
 40
0.0
 40
1.0
 40
1.0
 40
1.0
 40
1.0
 10
483.8428951759
 20
765.9590824067
 30
0.0
 10
484.0195475499
 20
766.0329748574
 30
0.0
 10
484.1977429024
 20
766.1031385202
 30
0.0
 10
484.3758432242
 20
766.1734693878
 30
0.0
  0
SPLINE
  5
3AA
100
AcDbEntity
  8
0
100
AcDbSpline
 62
7
  6
CONTINUOUS
 70
0
 71
3
 72
9
 73
5
 74
0
 42
0.0000001
 43
0.0000001
 44
0.0000000001
 40
0.0
 40
0.0
 40
0.0
 40
0.0
 40
0.2078431797
 40
1.0
 40
1.0
 40
1.0
 40
1.0
 10
482.7758471331
 20
73.16594727
 30
0.0
 10
482.7758724528
 20
73.1378540447
 30
0.0
 10
482.8011859811
 20
73.0020599675
 30
0.0
 10
482.9083001764
 20
72.8997381089
 30
0.0
 10
482.9924295465
 20
72.8335057276
 30
0.0
  0
SPLINE
  5
3AB
100
AcDbEntity
  8
0
100
AcDbSpline
 62
7
  6
CONTINUOUS
 70
0
 71
3
 72
9
 73
5
 74
0
 42
0.0000001
 43
0.0000001
 44
0.0000000001
 40
0.0
 40
0.0
 40
0.0
 40
0.0
 40
0.210844225
 40
1.0
 40
1.0
 40
1.0
 40
1.0
 10
482.9924295465
 20
72.8335057276
 30
0.0
 10
483.031513268
 20
72.8027363547
 30
0.0
 10
483.2258546911
 20
72.6682627057
 30
0.0
 10
483.4395977098
 20
72.5652038033
 30
0.0
 10
483.609392875
 20
72.4888392332
 30
0.0
  0
SPLINE
  5
3AC
100
AcDbEntity
  8
0
100
AcDbSpline
 62
7
  6
CONTINUOUS
 70
0
 71
3
 72
8
 73
4
 74
0
 42
0.0000001
 43
0.0000001
 44
0.0000000001
 40
0.0
 40
0.0
 40
0.0
 40
0.0
 40
1.0
 40
1.0
 40
1.0
 40
1.0
 10
483.8407596078
 20
72.3887590757
 30
0.0
 10
484.0181122606
 20
72.3145383425
 30
0.0
 10
484.1970241895
 20
72.2440840712
 30
0.0
 10
484.3758432242
 20
72.1734693878
 30
0.0
  0
SPLINE
  5
3AD
100
AcDbEntity
  8
0
100
AcDbSpline
 62
7
  6
CONTINUOUS
 70
0
 71
3
 72
9
 73
5
 74
0
 42
0.0000001
 43
0.0000001
 44
0.0000000001
 40
0.0
 40
0.0
 40
0.0
 40
0.0
 40
0.2753276969
 40
1.0
 40
1.0
 40
1.0
 40
1.0
 10
502.2332993571
 20
72.492559933
 30
0.0
 10
502.2897937001
 20
72.5560292163
 30
0.0
 10
502.4865506509
 20
72.7930578886
 30
0.0
 10
502.6469317954
 20
73.0664388406
 30
0.0
 10
502.7138650222
 20
73.2798329028
 30
0.0
  0
SPLINE
  5
3AE
100
AcDbEntity
  8
0
100
AcDbSpline
 62
7
  6
CONTINUOUS
 70
0
 71
3
 72
8
 73
4
 74
0
 42
0.0000001
 43
0.0000001
 44
0.0000000001
 40
0.0
 40
0.0
 40
0.0
 40
0.0
 40
1.0
 40
1.0
 40
1.0
 40
1.0
 10
502.7138650222
 20
73.2798329028
 30
0.0
 10
502.753618419
 20
73.4065732265
 30
0.0
 10
502.7758432242
 20
73.5406407681
 30
0.0
 10
502.7758432242
 20
73.6734693878
 30
0.0
  0
SPLINE
  5
3AF
100
AcDbEntity
  8
0
100
AcDbSpline
 62
7
  6
CONTINUOUS
 70
0
 71
3
 72
9
 73
5
 74
0
 42
0.0000001
 43
0.0000001
 44
0.0000000001
 40
0.0
 40
0.0
 40
0.0
 40
0.0
 40
0.2255111035
 40
1.0
 40
1.0
 40
1.0
 40
1.0
 10
502.7758432242
 20
764.6734693878
 30
0.0
 10
502.7758432242
 20
764.7725528302
 30
0.0
 10
502.7219032732
 20
765.213470547
 30
0.0
 10
502.4595479556
 20
765.6001969966
 30
0.0
 10
502.2332993571
 20
765.8543788426
 30
0.0
  0
SPLINE
  5
3B0
100
AcDbEntity
  8
0
100
AcDbSpline
 62
7
  6
CONTINUOUS
 70
0
 71
3
 72
8
 73
4
 74
0
 42
0.0000001
 43
0.0000001
 44
0.0000000001
 40
0.0
 40
0.0
 40
0.0
 40
0.0
 40
1.0
 40
1.0
 40
1.0
 40
1.0
 10
478.2655547354
 20
748.5381298785
 30
0.0
 10
478.14336878
 20
748.65720458
 30
0.0
 10
478.0211801716
 20
748.7762824139
 30
0.0
 10
477.9000080644
 20
748.8963886697
 30
0.0
  0
SPLINE
  5
3B1
100
AcDbEntity
  8
0
100
AcDbSpline
 62
7
  6
CONTINUOUS
 70
0
 71
3
 72
8
 73
4
 74
0
 42
0.0000001
 43
0.0000001
 44
0.0000000001
 40
0.0
 40
0.0
 40
0.0
 40
0.0
 40
1.0
 40
1.0
 40
1.0
 40
1.0
 10
477.9000080644
 20
748.8963886697
 30
0.0
 10
477.7630894078
 20
749.0321029656
 30
0.0
 10
477.6274085476
 20
749.1691273083
 30
0.0
 10
477.4948760728
 20
749.309128136
 30
0.0
  0
SPLINE
  5
3B2
100
AcDbEntity
  8
0
100
AcDbSpline
 62
7
  6
CONTINUOUS
 70
0
 71
3
 72
9
 73
5
 74
0
 42
0.0000001
 43
0.0000001
 44
0.0000000001
 40
0.0
 40
0.0
 40
0.0
 40
0.0
 40
0.2668600125
 40
1.0
 40
1.0
 40
1.0
 40
1.0
 10
477.4948760728
 20
749.309128136
 30
0.0
 10
477.4059274706
 20
749.4030890912
 30
0.0
 10
477.0785650008
 20
749.7600701762
 30
0.0
 10
476.7763111011
 20
750.1453165149
 30
0.0
 10
476.6009502875
 20
750.4545069011
 30
0.0
  0
SPLINE
  5
3B3
100
AcDbEntity
  8
0
100
AcDbSpline
 62
7
  6
CONTINUOUS
 70
0
 71
3
 72
9
 73
5
 74
0
 42
0.0000001
 43
0.0000001
 44
0.0000000001
 40
0.0
 40
0.0
 40
0.0
 40
0.0
 40
0.2674039892
 40
1.0
 40
1.0
 40
1.0
 40
1.0
 10
476.6009502875
 20
750.4545069011
 30
0.0
 10
476.548167958
 20
750.5475709586
 30
0.0
 10
476.3672485845
 20
750.9038349662
 30
0.0
 10
476.2655466128
 20
751.306546751
 30
0.0
 10
476.2655466128
 20
751.599663396
 30
0.0
  0
SPLINE
  5
3B4
100
AcDbEntity
  8
0
100
AcDbSpline
 62
7
  6
CONTINUOUS
 70
0
 71
3
 72
8
 73
4
 74
0
 42
0.0000001
 43
0.0000001
 44
0.0000000001
 40
0.0
 40
0.0
 40
0.0
 40
0.0
 40
1.0
 40
1.0
 40
1.0
 40
1.0
 10
102.4655466128
 20
767.6734693878
 30
0.0
 10
102.1054681589
 20
767.5516893228
 30
0.0
 10
101.7452745833
 20
767.4301069885
 30
0.0
 10
101.3875368255
 20
767.301613511
 30
0.0
  0
SPLINE
  5
3B5
100
AcDbEntity
  8
0
100
AcDbSpline
 62
7
  6
CONTINUOUS
 70
0
 71
3
 72
9
 73
5
 74
0
 42
0.0000001
 43
0.0000001
 44
0.0000000001
 40
0.0
 40
0.0
 40
0.0
 40
0.0
 40
0.2783451033
 40
1.0
 40
1.0
 40
1.0
 40
1.0
 10
101.3875368255
 20
767.301613511
 30
0.0
 10
101.257058312
 20
767.25474779
 30
0.0
 10
100.7899839366
 20
767.0824417864
 30
0.0
 10
100.3268989159
 20
766.8940785476
 30
0.0
 10
100.0090223854
 20
766.7262799153
 30
0.0
  0
SPLINE
  5
3B6
100
AcDbEntity
  8
0
100
AcDbSpline
 62
7
  6
CONTINUOUS
 70
0
 71
3
 72
9
 73
5
 74
0
 42
0.0000001
 43
0.0000001
 44
0.0000000001
 40
0.0
 40
0.0
 40
0.0
 40
0.0
 40
0.3430032484
 40
1.0
 40
1.0
 40
1.0
 40
1.0
 10
100.0090223854
 20
766.7262799153
 30
0.0
 10
99.9001824414
 20
766.668826181
 30
0.0
 10
99.6024513908
 20
766.4988601448
 30
0.0
 10
99.2655466128
 20
766.2092071919
 30
0.0
 10
99.2655466128
 20
765.9734693878
 30
0.0
  0
SPLINE
  5
3B7
100
AcDbEntity
  8
0
100
AcDbSpline
 62
7
  6
CONTINUOUS
 70
0
 71
3
 72
9
 73
5
 74
0
 42
0.0000001
 43
0.0000001
 44
0.0000000001
 40
0.0
 40
0.0
 40
0.0
 40
0.0
 40
0.3684262578
 40
1.0
 40
1.0
 40
1.0
 40
1.0
 10
99.2655466128
 20
72.3734693878
 30
0.0
 10
99.2655466128
 20
72.1919312702
 30
0.0
 10
99.6460377639
 20
71.7679720764
 30
0.0
 10
100.080361041
 20
71.5760432922
 30
0.0
 10
100.3643382973
 20
71.4487517777
 30
0.0
  0
SPLINE
  5
3B8
100
AcDbEntity
  8
0
100
AcDbSpline
 62
7
  6
CONTINUOUS
 70
0
 71
3
 72
9
 73
5
 74
0
 42
0.0000001
 43
0.0000001
 44
0.0000000001
 40
0.0
 40
0.0
 40
0.0
 40
0.0
 40
0.2312197016
 40
1.0
 40
1.0
 40
1.0
 40
1.0
 10
100.3643382973
 20
71.4487517777
 30
0.0
 10
100.4417032067
 20
71.4140733086
 30
0.0
 10
100.7786495367
 20
71.2693300308
 30
0.0
 10
101.122231117
 20
71.1406187973
 30
0.0
 10
101.3875265104
 20
71.0453289718
 30
0.0
  0
SPLINE
  5
3B9
100
AcDbEntity
  8
0
100
AcDbSpline
 62
7
  6
CONTINUOUS
 70
0
 71
3
 72
8
 73
4
 74
0
 42
0.0000001
 43
0.0000001
 44
0.0000000001
 40
0.0
 40
0.0
 40
0.0
 40
0.0
 40
1.0
 40
1.0
 40
1.0
 40
1.0
 10
101.3875265104
 20
71.0453289718
 30
0.0
 10
101.7452676576
 20
70.916834123
 30
0.0
 10
102.105464698
 20
70.7952506231
 30
0.0
 10
102.4655466128
 20
70.6734693878
 30
0.0
  0
SPLINE
  5
3BA
100
AcDbEntity
  8
0
100
AcDbSpline
 62
7
  6
CONTINUOUS
 70
0
 71
3
 72
8
 73
4
 74
0
 42
0.0000001
 43
0.0000001
 44
0.0000000001
 40
0.0
 40
0.0
 40
0.0
 40
0.0
 40
1.0
 40
1.0
 40
1.0
 40
1.0
 10
473.0655466128
 20
70.6734693878
 30
0.0
 10
473.4256250667
 20
70.7952494527
 30
0.0
 10
473.7858186422
 20
70.916831787
 30
0.0
 10
474.1435564001
 20
71.0453252645
 30
0.0
  0
SPLINE
  5
3BB
100
AcDbEntity
  8
0
100
AcDbSpline
 62
7
  6
CONTINUOUS
 70
0
 71
3
 72
9
 73
5
 74
0
 42
0.0000001
 43
0.0000001
 44
0.0000000001
 40
0.0
 40
0.0
 40
0.0
 40
0.0
 40
0.2783451033
 40
1.0
 40
1.0
 40
1.0
 40
1.0
 10
474.1435564001
 20
71.0453252645
 30
0.0
 10
474.2740349135
 20
71.0921909855
 30
0.0
 10
474.7411092889
 20
71.2644969891
 30
0.0
 10
475.2041943096
 20
71.4528602279
 30
0.0
 10
475.5220708401
 20
71.6206588602
 30
0.0
  0
SPLINE
  5
3BC
100
AcDbEntity
  8
0
100
AcDbSpline
 62
7
  6
CONTINUOUS
 70
0
 71
3
 72
9
 73
5
 74
0
 42
0.0000001
 43
0.0000001
 44
0.0000000001
 40
0.0
 40
0.0
 40
0.0
 40
0.0
 40
0.3430032484
 40
1.0
 40
1.0
 40
1.0
 40
1.0
 10
475.5220708401
 20
71.6206588602
 30
0.0
 10
475.6309107842
 20
71.6781125945
 30
0.0
 10
475.9286418347
 20
71.8480786307
 30
0.0
 10
476.2655466128
 20
72.1377315836
 30
0.0
 10
476.2655466128
 20
72.3734693878
 30
0.0
  0
SPLINE
  5
3BD
100
AcDbEntity
  8
0
100
AcDbSpline
 62
7
  6
CONTINUOUS
 70
0
 71
3
 72
9
 73
5
 74
0
 42
0.0000001
 43
0.0000001
 44
0.0000000001
 40
0.0
 40
0.0
 40
0.0
 40
0.0
 40
0.3684262578
 40
1.0
 40
1.0
 40
1.0
 40
1.0
 10
476.2655466128
 20
765.9734693878
 30
0.0
 10
476.2655466128
 20
766.1550075053
 30
0.0
 10
475.8850554617
 20
766.5789666991
 30
0.0
 10
475.4507321845
 20
766.7708954833
 30
0.0
 10
475.1667549283
 20
766.8981869978
 30
0.0
  0
SPLINE
  5
3BE
100
AcDbEntity
  8
0
100
AcDbSpline
 62
7
  6
CONTINUOUS
 70
0
 71
3
 72
9
 73
5
 74
0
 42
0.0000001
 43
0.0000001
 44
0.0000000001
 40
0.0
 40
0.0
 40
0.0
 40
0.0
 40
0.2312197016
 40
1.0
 40
1.0
 40
1.0
 40
1.0
 10
475.1667549283
 20
766.8981869978
 30
0.0
 10
475.0893900189
 20
766.9328654669
 30
0.0
 10
474.7524436889
 20
767.0776087447
 30
0.0
 10
474.4088621086
 20
767.2063199782
 30
0.0
 10
474.1435667152
 20
767.3016098037
 30
0.0
  0
SPLINE
  5
3BF
100
AcDbEntity
  8
0
100
AcDbSpline
 62
7
  6
CONTINUOUS
 70
0
 71
3
 72
8
 73
4
 74
0
 42
0.0000001
 43
0.0000001
 44
0.0000000001
 40
0.0
 40
0.0
 40
0.0
 40
0.0
 40
1.0
 40
1.0
 40
1.0
 40
1.0
 10
474.1435667152
 20
767.3016098037
 30
0.0
 10
473.7858255679
 20
767.4301046525
 30
0.0
 10
473.4256285275
 20
767.5516881524
 30
0.0
 10
473.0655466128
 20
767.6734693878
 30
0.0
  0
SPLINE
  5
3C0
100
AcDbEntity
  8
0
100
AcDbSpline
 62
7
  6
CONTINUOUS
 70
0
 71
3
 72
9
 73
5
 74
0
 42
0.0000001
 43
0.0000001
 44
0.0000000001
 40
0.0
 40
0.0
 40
0.0
 40
0.0
 40
0.2379608035
 40
1.0
 40
1.0
 40
1.0
 40
1.0
 10
476.2655466128
 20
86.7472753796
 30
0.0
 10
476.2655466128
 20
86.842566672
 30
0.0
 10
476.2971175137
 20
87.2432673877
 30
0.0
 10
476.4504057057
 20
87.6269973211
 30
0.0
 10
476.6009522136
 20
87.8924352617
 30
0.0
  0
SPLINE
  5
3C1
100
AcDbEntity
  8
0
100
AcDbSpline
 62
7
  6
CONTINUOUS
 70
0
 71
3
 72
9
 73
5
 74
0
 42
0.0000001
 43
0.0000001
 44
0.0000000001
 40
0.0
 40
0.0
 40
0.0
 40
0.0
 40
0.2284817273
 40
1.0
 40
1.0
 40
1.0
 40
1.0
 10
476.6009522136
 20
87.8924352617
 30
0.0
 10
476.67733189
 20
88.0271050345
 30
0.0
 10
477.0526629795
 20
88.5933915722
 30
0.0
 10
477.5287106848
 20
89.0825187292
 30
0.0
 10
477.9000081787
 20
89.4505502201
 30
0.0
  0
SPLINE
  5
3C2
100
AcDbEntity
  8
0
100
AcDbSpline
 62
7
  6
CONTINUOUS
 70
0
 71
3
 72
8
 73
4
 74
0
 42
0.0000001
 43
0.0000001
 44
0.0000000001
 40
0.0
 40
0.0
 40
0.0
 40
0.0
 40
1.0
 40
1.0
 40
1.0
 40
1.0
 10
477.9000081787
 20
89.4505502201
 30
0.0
 10
478.0211802483
 20
89.5706564372
 30
0.0
 10
478.1433688183
 20
89.6897342334
 30
0.0
 10
478.2655547353
 20
89.8088088971
 30
0.0
  0
ENDSEC
  0
SECTION
  2
OBJECTS
  0
DICTIONARY
  5
C
100
AcDbDictionary
280
0
281
1
  3
ACAD_GROUP
350
D
  3
ACAD_MLINESTYLE
350
17
  3
ACAD_LAYOUT
350
1A
  3
ACAD_PLOTSETTINGS
350
19
  3
ACAD_PLOTSTYLENAME
350
E
  0
DICTIONARY
  5
D
102
{ACAD_REACTORS
330
C
102
}
100
AcDbDictionary
280
0
281
1
  0
ACDBDICTIONARYWDFLT
  5
E
102
{ACAD_REACTORS
330
C
102
}
100
AcDbDictionary
281
1
  3
Normal
350
F
100
AcDbDictionaryWithDefault
340
F
  0
DICTIONARY
  5
17
102
{ACAD_REACTORS
330
C
102
}
100
AcDbDictionary
280
0
281
1
  3
Standard
350
18
  0
DICTIONARY
  5
19
102
{ACAD_REACTORS
330
C
102
}
100
AcDbDictionary
281
1
  0
DICTIONARY
  5
1A
102
{ACAD_REACTORS
330
C
102
}
100
AcDbDictionary
281
1
  3
Model
350
3C3
  3
Layout1
350
3C4
  0
ACDBPLACEHOLDER
  5
F
102
{ACAD_REACTORS
330
E
102
}
  0
MLINESTYLE
  5
18
102
{ACAD_REACTORS
330
17
102
}
100
AcDbMlineStyle
  2
STANDARD
 70
0
  3

 62
256
 51
90.0
 52
90.0
 71
2
 49
0.5
 62
256
  6
BYLAYER
 49
-0.5
 62
256
  6
BYLAYER
  0
LAYOUT
  5
3C3
102
{ACAD_REACTORS
330
1A
102
}
100
AcDbPlotSettings
  1

  2
none_device
  4

  6

 40
0.0
 41
0.0
 42
0.0
 43
0.0
 44
210.0
 45
297.0
 46
0.0
 47
0.0
 48
0.0
 49
0.0
140
0.0
141
0.0
142
1.0
143
1.0
 70
1024
 72
1
 73
0
 74
0
  7

 75
0
147
1.0
148
0.0
149
0.0
100
AcDbLayout
  1
Model
 70
0
 71
0
 10
0.0
 20
0.0
 11
210.0
 21
297.0
 12
0.0
 22
0.0
 32
0.0
 14
0.0
 24
0.0
 34
0.0
 15
0.0
 25
0.0
 35
0.0
146
0.0
 13
0.0
 23
0.0
 33
0.0
 16
1.0
 26
0.0
 36
0.0
 17
0.0
 27
1.0
 37
0.0
 76
0
330
210
345
0
346
0
  0
LAYOUT
  5
3C4
102
{ACAD_REACTORS
330
1A
102
}
100
AcDbPlotSettings
  1

  2
none_device
  4

  6

 40
0.0
 41
0.0
 42
0.0
 43
0.0
 44
210.0
 45
297.0
 46
0.0
 47
0.0
 48
0.0
 49
0.0
140
0.0
141
0.0
142
1.0
143
1.0
 70
0
 72
1
 73
0
 74
0
  7

 75
0
147
1.0
148
0.0
149
0.0
100
AcDbLayout
  1
Layout1
 70
0
 71
1
 10
0.0
 20
0.0
 11
210.0
 21
297.0
 12
0.0
 22
0.0
 32
0.0
 14
0.0
 24
0.0
 34
0.0
 15
0.0
 25
0.0
 35
0.0
146
0.0
 13
0.0
 23
0.0
 33
0.0
 16
1.0
 26
0.0
 36
0.0
 17
0.0
 27
1.0
 37
0.0
 76
0
330
211
345
0
346
0
  0
ENDSEC
  0
EOF
