999
DXF file: C:\Users\sesa63760\Dev\_Creo\CAD\MCADID0003781_3D-CAD\drw0001_1.dxf
999
Pro/ENGINEER 2019471 by Parametric Technology Corporation
  0
SECTION
  2
HEADER
  9
$ACADVER
  1
AC1024
  9
$DWGCODEPAGE
  3
ANSI_1252
  9
$EXTMAX
 10
42.4988864048
 20
60.1055679153
 30
0.0
  9
$EXTMIN
 10
0.0
 20
0.0
 30
0.0
  9
$LIMMIN
 10
0.0
 20
0.0
  9
$LIMMAX
 10
42.4988864048
 20
60.1055679153
  9
$VIEWCTR
 10
21.2494432024
 20
30.0527839577
  9
$VIEWSIZE
 40
60.1055679153
  9
$CLAYER
  8
0
  9
$LTSCALE
 40
3.9179925752
  9
$CELTYPE
  6
BYLAYER
  9
$DIMSCALE
 40
1.0
  9
$DIMASZ
 40
0.5059391239
  9
$DIMEXO
 40
1.0
  9
$DIMDLI
 40
2.7069766883
  9
$DIMEXE
 40
1.0
  9
$DIMCEN
 40
0.6411260578
  9
$DIMLFAC
 40
1.0
  9
$DIMBLK
  1
_FILLED
  9
$DIMALT
 70
0
  9
$DIMALTF
 40
0.0393700787
  9
$DIMTXT
 40
0.7083147734
  9
$DIMTOL
 70
1
  9
$DIMLIM
 70
0
  9
$DIMTFAC
 40
1.0
  9
$DIMTP
 40
0.01
  9
$DIMTM
 40
0.01
  9
$DIMGAP
 40
0.625
  9
$DIMDSEP
 70
46
  9
$AUNITS
 70
0
  9
$PDMODE
 70
3
  9
$PDSIZE
 40
0.3125
  9
$HANDSEED
  5
2A1
  9
$TILEMODE
 70
1
  9
$MEASUREMENT
 70
1
  9
$INSUNITS
 70
4
  0
ENDSEC
  0
SECTION
  2
CLASSES
  0
CLASS
  1
ACDBDICTIONARYWDFLT
  2
AcDbDictionaryWithDefault
  3
AutoCAD 2000
 90
0
 91
1
280
0
281
0
  0
CLASS
  1
ACDBPLACEHOLDER
  2
AcDbPlaceHolder
  3
AutoCAD 2000
 90
0
 91
1
280
0
281
0
  0
CLASS
  1
LAYOUT
  2
AcDbLayout
  3
AutoCAD 2000
 90
0
 91
0
280
0
281
0
  0
ENDSEC
  0
SECTION
  2
TABLES
  0
TABLE
  2
VPORT
  5
8
100
AcDbSymbolTable
 70
2
  0
VPORT
  5
1F4
100
AcDbSymbolTableRecord
100
AcDbViewportTableRecord
  2
*ACTIVE
 70
0
 10
0.0
 20
0.0
 11
1.0
 21
1.0
 12
21.2494432024
 22
30.0527839577
 13
0.0
 23
0.0
 14
1.0
 24
1.0
 15
0.0
 25
0.0
 16
0.0
 26
0.0
 36
1.0
 17
0.0
 27
0.0
 37
0.0
 40
60.1055679153
 41
0.7070707071
 42
50.0
 43
0.0
 44
0.0
 50
0.0
 51
0.0
 71
0
 72
100
 73
1
 74
1
 75
0
 76
0
 77
0
 78
0
  0
ENDTAB
  0
TABLE
  2
LTYPE
  5
5
100
AcDbSymbolTable
 70
6
  0
LTYPE
  5
14
100
AcDbSymbolTableRecord
100
AcDbLinetypeTableRecord
  2
BYBLOCK
 70
0
  3

 72
65
 73
0
 40
0.0
  0
LTYPE
  5
15
100
AcDbSymbolTableRecord
100
AcDbLinetypeTableRecord
  2
BYLAYER
 70
0
  3

 72
65
 73
0
 40
0.0
  0
LTYPE
  5
16
100
AcDbSymbolTableRecord
100
AcDbLinetypeTableRecord
  2
CONTINUOUS
 70
64
  3
Solid line
 72
65
 73
0
 40
0.0
  0
LTYPE
  5
1F5
100
AcDbSymbolTableRecord
100
AcDbLinetypeTableRecord
  2
CENTER
 70
64
  3
____ _ ____ _ ____ _ ____ _ ____ _ ____ _ ____
 72
65
 73
4
 40
0.6
 49
0.375
 74
0
 49
-0.075
 74
0
 49
0.075
 74
0
 49
-0.075
 74
0
  0
LTYPE
  5
1F6
100
AcDbSymbolTableRecord
100
AcDbLinetypeTableRecord
  2
HIDDEN
 70
64
  3
- - - - - - - - - - - - - - - - - - - -
 72
65
 73
2
 40
0.2
 49
0.1
 74
0
 49
-0.1
 74
0
  0
LTYPE
  5
1F7
100
AcDbSymbolTableRecord
100
AcDbLinetypeTableRecord
  2
PHANTOM
 70
64
  3
_____ _ _ _____ _ _ _____ _ _ _____
 72
65
 73
6
 40
0.8
 49
0.45
 74
0
 49
-0.05
 74
0
 49
0.1
 74
0
 49
-0.05
 74
0
 49
0.1
 74
0
 49
-0.05
 74
0
  0
LTYPE
  5
1F8
100
AcDbSymbolTableRecord
100
AcDbLinetypeTableRecord
  2
DOT
 70
64
  3
. . . . . . . . . . . . . . . . . . . .
 72
65
 73
2
 40
0.2
 49
0.1
 74
0
 49
-0.1
 74
0
  0
LTYPE
  5
1F9
100
AcDbSymbolTableRecord
100
AcDbLinetypeTableRecord
  2
DASHED
 70
64
  3
- - - - - - - - - - - - - - - - - - - -
 72
65
 73
2
 40
0.2
 49
0.1
 74
0
 49
-0.1
 74
0
  0
ENDTAB
  0
TABLE
  2
LAYER
  5
2
100
AcDbSymbolTable
 70
36
  0
LAYER
  5
10
100
AcDbSymbolTableRecord
100
AcDbLayerTableRecord
  2
0
 70
0
 62
7
  6
CONTINUOUS
370
-3
390
F
  0
LAYER
  5
1FA
100
AcDbSymbolTableRecord
100
AcDbLayerTableRecord
  2
DEFAULT_1
 70
0
 62
7
  6
CENTER
370
-3
390
F
  0
LAYER
  5
1FB
100
AcDbSymbolTableRecord
100
AcDbLayerTableRecord
  2
DEFAULT_2
 70
0
 62
7
  6
HIDDEN
370
-3
390
F
  0
LAYER
  5
1FC
100
AcDbSymbolTableRecord
100
AcDbLayerTableRecord
  2
DEFAULT_3
 70
0
 62
7
  6
PHANTOM
370
-3
390
F
  0
LAYER
  5
1FD
100
AcDbSymbolTableRecord
100
AcDbLayerTableRecord
  2
00_COMPONENTS
 70
0
 62
7
  6
CONTINUOUS
370
-3
390
F
  0
LAYER
  5
1FE
100
AcDbSymbolTableRecord
100
AcDbLayerTableRecord
  2
01_1_DEFAULT_DATUMS
 70
0
 62
7
  6
CONTINUOUS
370
-3
390
F
  0
LAYER
  5
1FF
100
AcDbSymbolTableRecord
100
AcDbLayerTableRecord
  2
01_PLANES
 70
0
 62
7
  6
CONTINUOUS
370
-3
390
F
  0
LAYER
  5
200
100
AcDbSymbolTableRecord
100
AcDbLayerTableRecord
  2
02_COORD_SYS
 70
0
 62
7
  6
CONTINUOUS
370
-3
390
F
  0
LAYER
  5
201
100
AcDbSymbolTableRecord
100
AcDbLayerTableRecord
  2
03_AXES
 70
0
 62
7
  6
CONTINUOUS
370
-3
390
F
  0
LAYER
  5
202
100
AcDbSymbolTableRecord
100
AcDbLayerTableRecord
  2
04_POINTS
 70
0
 62
7
  6
CONTINUOUS
370
-3
390
F
  0
LAYER
  5
203
100
AcDbSymbolTableRecord
100
AcDbLayerTableRecord
  2
05_CURVES
 70
0
 62
7
  6
CONTINUOUS
370
-3
390
F
  0
LAYER
  5
204
100
AcDbSymbolTableRecord
100
AcDbLayerTableRecord
  2
06_SURFS
 70
0
 62
7
  6
CONTINUOUS
370
-3
390
F
  0
LAYER
  5
205
100
AcDbSymbolTableRecord
100
AcDbLayerTableRecord
  2
07_COSMETICS
 70
0
 62
7
  6
CONTINUOUS
370
-3
390
F
  0
LAYER
  5
206
100
AcDbSymbolTableRecord
100
AcDbLayerTableRecord
  2
1
 70
0
 62
7
  6
CONTINUOUS
370
-3
390
F
  0
LAYER
  5
207
100
AcDbSymbolTableRecord
100
AcDbLayerTableRecord
  2
10_NOTES
 70
0
 62
7
  6
CONTINUOUS
370
-3
390
F
  0
LAYER
  5
208
100
AcDbSymbolTableRecord
100
AcDbLayerTableRecord
  2
11_NOTES_PUB
 70
0
 62
7
  6
CONTINUOUS
370
-3
390
F
  0
LAYER
  5
209
100
AcDbSymbolTableRecord
100
AcDbLayerTableRecord
  2
13_REF_GTOL
 70
0
 62
7
  6
CONTINUOUS
370
-3
390
F
  0
LAYER
  5
20A
100
AcDbSymbolTableRecord
100
AcDbLayerTableRecord
  2
16_MISC
 70
0
 62
7
  6
CONTINUOUS
370
-3
390
F
  0
LAYER
  5
20B
100
AcDbSymbolTableRecord
100
AcDbLayerTableRecord
  2
17_NO_PRINT
 70
0
 62
7
  6
CONTINUOUS
370
-3
390
F
  0
LAYER
  5
20C
100
AcDbSymbolTableRecord
100
AcDbLayerTableRecord
  2
18_DATUM_CAMS_JOINTS
 70
0
 62
7
  6
CONTINUOUS
370
-3
390
F
  0
LAYER
  5
20D
100
AcDbSymbolTableRecord
100
AcDbLayerTableRecord
  2
19_DATUM_FUNCTIONAL
 70
0
 62
7
  6
CONTINUOUS
370
-3
390
F
  0
LAYER
  5
20E
100
AcDbSymbolTableRecord
100
AcDbLayerTableRecord
  2
20_DATUM_KINEMATIC_SCHEME
 70
0
 62
7
  6
CONTINUOUS
370
-3
390
F
  0
ENDTAB
  0
TABLE
  2
STYLE
  5
3
100
AcDbSymbolTable
 70
1
  0
STYLE
  5
11
100
AcDbSymbolTableRecord
100
AcDbTextStyleTableRecord
  2
STANDARD
 70
0
 40
0.0
 41
1.0
 50
0.0
 71
0
 42
0.2
  3
ARIAL.TTF
  4

  0
STYLE
  5
20F
100
AcDbSymbolTableRecord
100
AcDbTextStyleTableRecord
  2
TEXTSTYLE_1
 70
0
 40
0.0
 41
0.8
 50
0.0
 71
0
 42
0.2
  3
gdt
  4

  0
ENDTAB
  0
TABLE
  2
VIEW
  5
6
100
AcDbSymbolTable
 70
0
  0
ENDTAB
  0
TABLE
  2
UCS
  5
7
100
AcDbSymbolTable
 70
0
  0
ENDTAB
  0
TABLE
  2
APPID
  5
9
100
AcDbSymbolTable
 70
1
  0
APPID
  5
210
100
AcDbSymbolTableRecord
100
AcDbRegAppTableRecord
  2
ACAD
 70
0
  0
ENDTAB
  0
TABLE
  2
BLOCK_RECORD
  5
1
100
AcDbSymbolTable
 70
0
  0
BLOCK_RECORD
  5
211
100
AcDbSymbolTableRecord
100
AcDbBlockTableRecord
  2
*Model_Space
  0
BLOCK_RECORD
  5
212
100
AcDbSymbolTableRecord
100
AcDbBlockTableRecord
  2
*Paper_Space
  0
BLOCK_RECORD
  5
213
100
AcDbSymbolTableRecord
100
AcDbBlockTableRecord
  2
_FILLED
  0
ENDTAB
  0
TABLE
  2
DIMSTYLE
  5
A
100
AcDbSymbolTable
 70
1
100
AcDbDimStyleTable
 71
0
  0
DIMSTYLE
105
214
100
AcDbSymbolTableRecord
100
AcDbDimStyleTableRecord
  2
STANDARD
 70
0
  3

  4

 40
1.0
 41
0.5059391239
 42
1.0
 43
0.38
 44
1.0
 45
0.0
 46
0.0
 47
0.01
 48
0.01
140
0.7083147734
141
0.09
142
0.0
143
25.4
144
1.0
145
0.0
146
1.0
147
0.625
 71
1
 72
0
 73
0
 74
0
 75
0
 76
0
 77
1
 78
8
 79
2
170
0
171
1
172
0
173
0
174
0
175
0
176
0
177
0
178
0
270
2
179
2
271
2
272
2
273
2
274
2
275
0
280
0
281
0
282
0
283
1
284
8
285
0
286
0
287
3
288
0
340
11
278
46
341
213
342
213
343
213
344
213
  0
ENDTAB
  0
ENDSEC
  0
SECTION
  2
BLOCKS
  0
BLOCK
  5
20
100
AcDbEntity
  8
0
100
AcDbBlockBegin
  2
*Model_Space
 70
0
 10
0.0
 20
0.0
 30
0.0
  3
*Model_Space
  1

  0
ENDBLK
  5
21
100
AcDbEntity
  8
0
100
AcDbBlockEnd
  0
BLOCK
  5
1C
100
AcDbEntity
  8
0
100
AcDbBlockBegin
  2
*Paper_Space
 70
0
 10
0.0
 20
0.0
 30
0.0
  3
*Paper_Space
  1

  0
ENDBLK
  5
1D
100
AcDbEntity
  8
0
100
AcDbBlockEnd
  0
BLOCK
  5
215
100
AcDbEntity
  8
0
100
AcDbBlockBegin
  2
_FILLED
 70
64
 10
0.0
 20
0.0
  3
_FILLED
  1

  0
SOLID
  5
216
100
AcDbEntity
  8
0
  6
BYBLOCK
 62
0
100
AcDbTrace
 10
0.0
 20
0.0
 11
-1.0
 21
0.25
 12
-1.0
 22
-0.25
 13
-1.0
 23
-0.25
  0
ENDBLK
  5
217
100
AcDbEntity
  8
0
  6
BYBLOCK
 62
0
100
AcDbBlockEnd
  0
ENDSEC
  0
SECTION
  2
ENTITIES
  0
LINE
  5
218
100
AcDbEntity
  8
1
100
AcDbLine
 62
7
  6
BYLAYER
 10
18.9223228052
 20
5.2017869616
 11
16.9278094874
 21
5.9905869564
  0
LINE
  5
219
100
AcDbEntity
  8
1
100
AcDbLine
 62
7
  6
BYLAYER
 10
16.927809488
 20
5.9905869575
 11
17.6349133246
 21
5.5823286931
  0
LWPOLYLINE
  5
21A
100
AcDbEntity
  8
1
100
AcDbPolyline
 62
7
  6
BYLAYER
 90
6
 70
0
 10
16.3794465085
 20
51.3823813589
 10
14.6081854852
 20
50.8537940328
 10
12.138381219
 20
49.4911396869
 10
10.4347454724
 20
47.7833562241
 10
9.6332109193
 20
45.8694876735
 10
9.5795745652
 20
45.2147042816
  0
LWPOLYLINE
  5
21B
100
AcDbEntity
  8
1
100
AcDbPolyline
 62
7
  6
BYLAYER
 90
3
 70
0
 10
16.4455733746
 20
51.3184767011
 10
15.8905202565
 20
50.7431432591
 10
15.5794920805
 20
49.6423109016
  0
LWPOLYLINE
  5
21C
100
AcDbEntity
  8
1
100
AcDbPolyline
 62
7
  6
BYLAYER
 90
3
 70
0
 10
15.5794920805
 20
47.3492577083
 10
14.3656144506
 20
46.6886245691
 10
12.963768897
 20
45.0838048109
  0
LWPOLYLINE
  5
21D
100
AcDbEntity
  8
1
100
AcDbPolyline
 62
7
  6
BYLAYER
 90
3
 70
0
 10
18.9120099089
 20
12.4538339217
 10
16.1235187998
 20
13.2384464574
 10
15.4580058636
 20
13.5636048806
  0
LWPOLYLINE
  5
21E
100
AcDbEntity
  8
1
100
AcDbPolyline
 62
7
  6
BYLAYER
 90
7
 70
0
 10
17.2308034814
 20
12.4146941795
 10
19.0954013236
 20
11.6772737997
 10
21.2954893874
 20
11.3785302846
 10
23.5339335886
 20
11.5588106011
 10
25.5084196341
 20
12.1937668937
 10
26.3109123598
 20
12.6570835193
 10
26.8829532344
 20
13.25002541
  0
LWPOLYLINE
  5
21F
100
AcDbEntity
  8
1
100
AcDbPolyline
 62
7
  6
BYLAYER
 90
4
 70
0
 10
10.2302544365
 20
44.3096771698
 10
10.757551891
 20
45.4856696489
 10
12.9362900398
 20
47.5688772884
 10
15.5794920805
 20
48.8530769105
  0
LINE
  5
220
100
AcDbEntity
  8
1
100
AcDbLine
 62
7
  6
BYLAYER
 10
16.3185128692
 20
13.1835799416
 11
17.2308034814
 21
12.4146941795
  0
LINE
  5
221
100
AcDbEntity
  8
1
100
AcDbLine
 62
7
  6
BYLAYER
 10
8.6942941165
 20
22.8047559203
 11
8.6942941165
 21
19.0842611433
  0
LINE
  5
222
100
AcDbEntity
  8
1
100
AcDbLine
 62
7
  6
BYLAYER
 10
9.5586974082
 20
17.2217885487
 11
9.5586974082
 21
20.9422833256
  0
LINE
  5
223
100
AcDbEntity
  8
1
100
AcDbLine
 62
7
  6
BYLAYER
 10
9.5794920805
 20
24.2714172911
 11
9.5794920805
 21
45.2147042892
  0
LWPOLYLINE
  5
224
100
AcDbEntity
  8
1
100
AcDbPolyline
 62
7
  6
BYLAYER
 90
6
 70
0
 10
10.0795981771
 20
45.214704278
 10
10.1301374186
 20
45.8371061067
 10
10.8962936944
 20
47.6722524938
 10
12.5282613735
 20
49.3103784131
 10
14.8951013063
 20
50.6173663249
 10
16.1231286537
 20
50.9842506152
  0
LINE
  5
225
100
AcDbEntity
  8
1
100
AcDbLine
 62
7
  6
BYLAYER
 10
12.963768897
 20
45.0838048109
 11
12.6032516759
 21
43.6731000432
  0
LWPOLYLINE
  5
226
100
AcDbEntity
  8
1
100
AcDbPolyline
 62
7
  6
BYLAYER
 90
4
 70
0
 10
12.5799466192
 20
43.9899505231
 10
12.9664820576
 20
45.497232887
 10
14.3805384769
 20
47.1083924392
 10
15.5794920805
 20
47.75729436
  0
LWPOLYLINE
  5
227
100
AcDbEntity
  8
1
100
AcDbPolyline
 62
7
  6
BYLAYER
 90
6
 70
0
 10
26.2616706316
 20
50.1279379154
 10
25.2564626513
 20
49.2593767268
 10
23.5694659305
 20
48.6085821826
 10
21.5795137302
 20
48.3800501699
 10
19.5895582339
 20
48.6085726161
 10
17.902552127
 20
49.2593590502
  0
LWPOLYLINE
  5
228
100
AcDbEntity
  8
1
100
AcDbPolyline
 62
7
  6
BYLAYER
 90
3
 70
0
 10
15.3968633693
 20
13.5934780746
 10
15.5615316797
 20
13.1892730488
 10
16.9278094874
 20
12.0377632782
  0
LINE
  5
229
100
AcDbEntity
  8
1
100
AcDbLine
 62
7
  6
BYLAYER
 10
16.6297424457
 20
53.1347602263
 11
16.4317524606
 21
52.3345871572
  0
LINE
  5
22A
100
AcDbEntity
  8
1
100
AcDbLine
 62
7
  6
BYLAYER
 10
16.4317524606
 20
52.3345871572
 11
16.3794920805
 21
51.9100241096
  0
LINE
  5
22B
100
AcDbEntity
  8
1
100
AcDbLine
 62
7
  6
BYLAYER
 10
26.1438663026
 20
49.8771585021
 11
26.3019808636
 21
50.0812858574
  0
LINE
  5
22C
100
AcDbEntity
  8
1
100
AcDbLine
 62
7
  6
BYLAYER
 10
15.0009920805
 20
8.6762211241
 11
15.0009920805
 21
13.7622828674
  0
LINE
  5
22D
100
AcDbEntity
  8
1
100
AcDbLine
 62
7
  6
BYLAYER
 10
15.5794920805
 20
44.398201872
 11
15.5794920805
 21
49.6423109016
  0
LINE
  5
22E
100
AcDbEntity
  8
1
100
AcDbLine
 62
7
  6
BYLAYER
 10
16.3794920805
 20
51.3822286503
 11
16.3794920805
 21
51.9100241096
  0
LINE
  5
22F
100
AcDbEntity
  8
1
100
AcDbLine
 62
7
  6
BYLAYER
 10
16.5794920805
 20
50.1137187933
 11
16.5794920805
 21
50.5355799917
  0
LINE
  5
230
100
AcDbEntity
  8
1
100
AcDbLine
 62
7
  6
BYLAYER
 10
16.6297946597
 20
16.8598757804
 11
16.6297946597
 21
13.1393810035
  0
LINE
  5
231
100
AcDbEntity
  8
1
100
AcDbLine
 62
7
  6
BYLAYER
 10
19.8557451365
 20
12.6403401733
 11
19.8557451365
 21
16.3608349503
  0
LINE
  5
232
100
AcDbEntity
  8
1
100
AcDbLine
 62
7
  6
BYLAYER
 10
26.3836739345
 20
50.761151692
 11
26.7794920805
 21
51.9100241096
  0
LINE
  5
233
100
AcDbEntity
  8
1
100
AcDbLine
 62
7
  6
BYLAYER
 10
23.525087091
 20
50.6386663433
 11
23.525087091
 21
51.2568598105
  0
LINE
  5
234
100
AcDbEntity
  8
1
100
AcDbLine
 62
7
  6
BYLAYER
 10
23.7008247887
 20
50.699101019
 11
23.7008247887
 21
51.0119133182
  0
LWPOLYLINE
  5
235
100
AcDbEntity
  8
1
100
AcDbPolyline
 62
7
  6
BYLAYER
 90
3
 70
0
 10
16.3794920805
 20
51.9100241096
 10
16.7753267965
 20
50.7611285964
 10
17.902552127
 20
49.7871545095
  0
LINE
  5
236
100
AcDbEntity
  8
1
100
AcDbLine
 62
7
  6
BYLAYER
 10
26.5794920805
 20
50.1137187933
 11
26.5794920805
 21
50.5356008208
  0
LINE
  5
237
100
AcDbEntity
  8
1
100
AcDbLine
 62
7
  6
BYLAYER
 10
26.7794920805
 20
51.3822286503
 11
26.7794920805
 21
51.9100241096
  0
LWPOLYLINE
  5
238
100
AcDbEntity
  8
1
100
AcDbPolyline
 62
7
  6
BYLAYER
 90
3
 70
0
 10
14.6576798865
 20
40.2332985445
 10
15.8214088296
 20
39.6275033975
 10
17.9920775033
 20
38.9660395896
  0
LINE
  5
239
100
AcDbEntity
  8
1
100
AcDbLine
 62
7
  6
BYLAYER
 10
33.5794920805
 20
26.674218335
 11
33.6002867528
 21
26.6577354733
  0
LINE
  5
23A
100
AcDbEntity
  8
1
100
AcDbLine
 62
7
  6
BYLAYER
 10
33.5796453701
 20
26.6749311848
 11
33.6002867528
 21
26.6577354733
  0
LWPOLYLINE
  5
23B
100
AcDbEntity
  8
1
100
AcDbPolyline
 62
7
  6
BYLAYER
 90
5
 70
0
 10
16.62976522
 20
40.7239903778
 10
15.1759510468
 20
41.9492771305
 10
14.5873067344
 20
43.3908513427
 10
14.9433259893
 20
44.8676533022
 10
15.5794920805
 20
45.5260271922
  0
LWPOLYLINE
  5
23C
100
AcDbEntity
  8
1
100
AcDbPolyline
 62
7
  6
BYLAYER
 90
4
 70
0
 10
27.5794920805
 20
49.6423109016
 10
27.5730887756
 20
49.802307215
 10
27.0682452013
 20
51.0415274972
 10
26.7689466001
 20
51.2937787317
  0
LINE
  5
23D
100
AcDbEntity
  8
1
100
AcDbLine
 62
7
  6
BYLAYER
 10
27.5794920805
 20
44.398201872
 11
27.5794920805
 21
49.6423109016
  0
LINE
  5
23E
100
AcDbEntity
  8
1
100
AcDbLine
 62
7
  6
BYLAYER
 10
28.1579920805
 20
8.6762211241
 11
28.1579920805
 21
13.7488810041
  0
LINE
  5
23F
100
AcDbEntity
  8
1
100
AcDbLine
 62
7
  6
BYLAYER
 10
26.7794920805
 20
51.9100241096
 11
26.7272317004
 21
52.3345871572
  0
LINE
  5
240
100
AcDbEntity
  8
1
100
AcDbLine
 62
7
  6
BYLAYER
 10
29.5149926237
 20
17.8551292597
 11
29.5149926237
 21
14.1346344827
  0
LINE
  5
241
100
AcDbEntity
  8
1
100
AcDbLine
 62
7
  6
BYLAYER
 10
17.0151178584
 20
49.8771585021
 11
16.8570032974
 21
50.0812858574
  0
LINE
  5
242
100
AcDbEntity
  8
1
100
AcDbLine
 62
7
  6
BYLAYER
 10
31.8765398088
 20
15.4980662471
 11
31.8765398088
 21
19.2185610241
  0
LINE
  5
243
100
AcDbEntity
  8
1
100
AcDbLine
 62
7
  6
BYLAYER
 10
26.5292417153
 20
53.1347602263
 11
26.7272317004
 21
52.3345871572
  0
LINE
  5
244
100
AcDbEntity
  8
1
100
AcDbLine
 62
7
  6
BYLAYER
 10
33.5794920805
 20
24.2714172911
 11
33.5794920805
 21
45.2147042892
  0
LINE
  5
245
100
AcDbEntity
  8
1
100
AcDbLine
 62
7
  6
BYLAYER
 10
34.4646900445
 20
24.7952628787
 11
34.4646900445
 21
21.0747681017
  0
LINE
  5
246
100
AcDbEntity
  8
1
100
AcDbLine
 62
7
  6
BYLAYER
 10
17.0151178584
 20
49.8771585021
 11
18.0439728944
 21
49.0144069141
  0
LINE
  5
247
100
AcDbEntity
  8
1
100
AcDbLine
 62
7
  6
BYLAYER
 10
16.8570032974
 20
50.0812858574
 11
17.9214989173
 21
49.1886476778
  0
LINE
  5
248
100
AcDbEntity
  8
1
100
AcDbLine
 62
7
  6
BYLAYER
 10
17.902552127
 20
49.2593590502
 11
16.8973097106
 21
50.1279343368
  0
LWPOLYLINE
  5
249
100
AcDbEntity
  8
1
100
AcDbPolyline
 62
7
  6
BYLAYER
 90
6
 70
0
 10
17.902552127
 20
49.7871545095
 10
19.5895582339
 20
49.1363680754
 10
21.5795137302
 20
48.9078456292
 10
23.5694659305
 20
49.1363776419
 10
25.2564626513
 20
49.7871721861
 10
26.3836739345
 20
50.761151692
  0
LWPOLYLINE
  5
24A
100
AcDbEntity
  8
1
100
AcDbPolyline
 62
7
  6
BYLAYER
 90
10
 70
0
 10
27.5794920805
 20
45.5542295399
 10
27.9830331142
 20
45.2141217794
 10
28.5716774266
 20
43.7725475671
 10
28.2156581717
 20
42.2957456076
 10
26.9607888795
 20
40.9970703266
 10
26.0479138414
 20
40.4708459026
 10
23.8058531648
 20
39.7501666133
 10
21.2605450988
 20
39.5445059405
 10
18.763032031
 20
39.8818640817
 10
16.62976522
 20
40.7239903778
  0
LWPOLYLINE
  5
24B
100
AcDbEntity
  8
1
100
AcDbPolyline
 62
7
  6
BYLAYER
 90
5
 70
0
 10
27.9584772198
 20
13.6921650713
 10
27.644862517
 20
13.5116798839
 10
24.9949828475
 20
12.6016596402
 10
21.9720540982
 20
12.2354706529
 10
18.9120099089
 20
12.4538339217
  0
LINE
  5
24C
100
AcDbEntity
  8
1
100
AcDbLine
 62
7
  6
BYLAYER
 10
27.5794920805
 20
47.7889465634
 11
28.1369983695
 21
47.5488842499
  0
LINE
  5
24D
100
AcDbEntity
  8
1
100
AcDbLine
 62
7
  6
BYLAYER
 10
28.1369983695
 20
47.1406330413
 11
27.5794920805
 21
47.3810830883
  0
LINE
  5
24E
100
AcDbEntity
  8
1
100
AcDbLine
 62
7
  6
BYLAYER
 10
23.7008247887
 20
51.0119133182
 11
24.0403847095
 21
50.8158727415
  0
LWPOLYLINE
  5
24F
100
AcDbEntity
  8
1
100
AcDbPolyline
 62
7
  6
BYLAYER
 90
3
 70
0
 10
27.5794920805
 20
48.8330772518
 10
28.331506396
 20
48.6051039389
 10
29.8096630404
 20
47.8356512576
  0
LINE
  5
250
100
AcDbEntity
  8
1
100
AcDbLine
 62
7
  6
BYLAYER
 10
24.8889093142
 20
51.3057657262
 11
24.5493493934
 21
51.5018063028
  0
LWPOLYLINE
  5
251
100
AcDbEntity
  8
1
100
AcDbPolyline
 62
7
  6
BYLAYER
 90
3
 70
0
 10
30.2535800701
 20
50.0021264066
 10
27.5640303102
 20
51.2197630036
 10
26.7834647845
 20
51.3994830209
  0
LINE
  5
252
100
AcDbEntity
  8
1
100
AcDbLine
 62
7
  6
BYLAYER
 10
25.5241718508
 20
5.582387014
 11
26.2312937952
 21
5.990655733
  0
LWPOLYLINE
  5
253
100
AcDbEntity
  8
1
100
AcDbPolyline
 62
7
  6
BYLAYER
 90
4
 70
0
 10
25.4982531349
 20
5.6629654765
 10
23.6701089033
 20
5.0750698637
 10
21.2757015575
 20
4.8822285528
 10
18.9223228052
 20
5.2017869616
  0
ARC
  5
254
100
AcDbEntity
  8
1
100
AcDbCircle
 62
7
  6
BYLAYER
 10
18.5971545141
 20
46.5848038742
 40
11.0090404841
100
AcDbArc
 50
238.4462928326
 51
240.0096855038
  0
ARC
  5
255
100
AcDbEntity
  8
1
100
AcDbCircle
 62
7
  6
BYLAYER
 10
27.5427880966
 20
43.5789315245
 40
3.0368164715
100
AcDbArc
 50
6.0057218579
 51
7.3925065081
  0
ARC
  5
256
100
AcDbEntity
  8
1
100
AcDbCircle
 62
7
  6
BYLAYER
 10
27.5559804869
 20
43.5803569209
 40
3.0235473524
100
AcDbArc
 50
5.5035391633
 51
6.0050153605
  0
ARC
  5
257
100
AcDbEntity
  8
1
100
AcDbCircle
 62
7
  6
BYLAYER
 10
24.0623015999
 20
51.82058981
 40
2.8357217222
100
AcDbArc
 50
317.517640589
 51
322.1675442101
  0
ARC
  5
258
100
AcDbEntity
  8
1
100
AcDbCircle
 62
7
  6
BYLAYER
 10
24.1858225803
 20
51.7211368604
 40
2.6771696236
100
AcDbArc
 50
322.2272196349
 51
326.0577799661
  0
ARC
  5
259
100
AcDbEntity
  8
1
100
AcDbCircle
 62
7
  6
BYLAYER
 10
18.9279268642
 20
51.7791531345
 40
2.6501408483
100
AcDbArc
 50
215.6827928157
 51
218.798554464
  0
ARC
  5
25A
100
AcDbEntity
  8
1
100
AcDbCircle
 62
7
  6
BYLAYER
 10
18.9464330255
 20
51.7018189217
 40
2.6442095231
100
AcDbArc
 50
213.9183996682
 51
217.7966653408
  0
SPLINE
  5
25B
100
AcDbEntity
  8
1
100
AcDbSpline
 62
7
  6
BYLAYER
 70
0
 71
3
 72
17
 73
13
 74
0
 42
0.0000001
 43
0.0000001
 44
0.0000000001
 40
0.0
 40
0.0
 40
0.0
 40
0.0
 40
0.1478351556
 40
0.288170425
 40
0.4210077814
 40
0.5467931505
 40
0.6662758296
 40
0.7805724039
 40
0.8362687216
 40
0.8912511702
 40
0.9457484004
 40
1.0
 40
1.0
 40
1.0
 40
1.0
 10
13.2668244239
 20
40.6267580934
 30
0.0
 10
13.0205615955
 20
40.7754842285
 30
0.0
 10
12.5521329841
 20
41.085340633
 30
0.0
 10
11.9127901297
 20
41.5996863217
 30
0.0
 10
11.3604713937
 20
42.1475300947
 30
0.0
 10
10.9004127435
 20
42.7241366604
 30
0.0
 10
10.5370442876
 20
43.3245436643
 30
0.0
 10
10.3160831848
 20
43.8452287739
 30
0.0
 10
10.1931467363
 20
44.265823343
 30
0.0
 10
10.1276388836
 20
44.58088082
 30
0.0
 10
10.0882518088
 20
44.8973987875
 30
0.0
 10
10.0795021717
 20
45.1091300848
 30
0.0
 10
10.0795054196
 20
45.2147042789
 30
0.0
  0
SPLINE
  5
25C
100
AcDbEntity
  8
1
100
AcDbSpline
 62
7
  6
BYLAYER
 70
0
 71
3
 72
17
 73
13
 74
0
 42
0.0000001
 43
0.0000001
 44
0.0000000001
 40
0.0
 40
0.0
 40
0.0
 40
0.0
 40
0.0542513795
 40
0.1087484193
 40
0.1637306874
 40
0.2194268706
 40
0.333723313
 40
0.453206034
 40
0.5789913823
 40
0.7118289829
 40
0.8521648241
 40
1.0
 40
1.0
 40
1.0
 40
1.0
 10
33.5794781784
 20
45.2147042961
 30
0.0
 10
33.5794816385
 20
45.324868222
 30
0.0
 10
33.5703512731
 20
45.5458043905
 30
0.0
 10
33.5292516164
 20
45.8760827318
 30
0.0
 10
33.4608969463
 20
46.2048375882
 30
0.0
 10
33.3326153681
 20
46.6437179068
 30
0.0
 10
33.1020487248
 20
47.187041579
 30
0.0
 10
32.7228814265
 20
47.8135528514
 30
0.0
 10
32.2428212507
 20
48.4152306765
 30
0.0
 10
31.6664876496
 20
48.9868950983
 30
0.0
 10
30.9993458219
 20
49.5236044617
 30
0.0
 10
30.5105500048
 20
49.8469339014
 30
0.0
 10
30.2535800701
 20
50.0021264066
 30
0.0
  0
SPLINE
  5
25D
100
AcDbEntity
  8
1
100
AcDbSpline
 62
7
  6
BYLAYER
 70
0
 71
3
 72
17
 73
13
 74
0
 42
0.0000001
 43
0.0000001
 44
0.0000000001
 40
0.0
 40
0.0
 40
0.0
 40
0.0
 40
0.1478352072
 40
0.2881705174
 40
0.4210078111
 40
0.5467930893
 40
0.666275703
 40
0.7805722793
 40
0.8362686187
 40
0.8912510992
 40
0.9457483641
 40
1.0
 40
1.0
 40
1.0
 40
1.0
 10
12.905404091
 20
20.5046231938
 30
0.0
 10
12.648434093
 20
20.6598157372
 30
0.0
 10
12.1596389069
 20
20.9831443263
 30
0.0
 10
11.4924984416
 20
21.519852857
 30
0.0
 10
10.9161661007
 20
22.0915158501
 30
0.0
 10
10.436105062
 20
22.6931918284
 30
0.0
 10
10.056938189
 20
23.3197032417
 30
0.0
 10
9.826369944
 20
23.8630266863
 30
0.0
 10
9.6980884206
 20
24.3019080908
 30
0.0
 10
9.6297322508
 20
24.6306638705
 30
0.0
 10
9.588632657
 20
24.9609436992
 30
0.0
 10
9.5795026179
 20
25.18188085
 30
0.0
 10
9.579506006
 20
25.2920453004
 30
0.0
  0
SPLINE
  5
25E
100
AcDbEntity
  8
1
100
AcDbSpline
 62
7
  6
BYLAYER
 70
0
 71
3
 72
34
 73
30
 74
0
 42
0.0000001
 43
0.0000001
 44
0.0000000001
 40
0.0
 40
0.0
 40
0.0
 40
0.0
 40
0.0213346412
 40
0.0429020714
 40
0.0649225831
 40
0.0875940185
 40
0.1110834901
 40
0.1355252709
 40
0.1610176316
 40
0.1876269081
 40
0.2153867163
 40
0.2443044925
 40
0.2743610384
 40
0.3055171604
 40
0.3377130541
 40
0.3708740772
 40
0.4396997319
 40
0.5111709843
 40
0.584309743
 40
0.658060771
 40
0.731341575
 40
0.7674803756
 40
0.803108525
 40
0.8381048735
 40
0.8723551145
 40
0.9057533364
 40
0.9382128836
 40
0.9696567025
 40
1.0
 40
1.0
 40
1.0
 40
1.0
 10
33.579478155
 20
25.292045322
 30
0.0
 10
33.5794728693
 20
25.1201825839
 30
0.0
 10
33.5570971785
 20
24.774174975
 30
0.0
 10
33.4567083889
 20
24.2595678243
 30
0.0
 10
33.2902795944
 20
23.7510340859
 30
0.0
 10
33.0588416622
 20
23.2516329426
 30
0.0
 10
32.7639963999
 20
22.7640375266
 30
0.0
 10
32.407436414
 20
22.2909462521
 30
0.0
 10
31.9913419219
 20
21.8347845579
 30
0.0
 10
31.5179799648
 20
21.3980491627
 30
0.0
 10
30.9900654652
 20
20.9829557111
 30
0.0
 10
30.4104396033
 20
20.5918077501
 30
0.0
 10
29.7823396565
 20
20.226602926
 30
0.0
 10
29.1091631942
 20
19.8894009863
 30
0.0
 10
28.3946186735
 20
19.5819308966
 30
0.0
 10
27.3794520267
 20
19.2093978345
 30
0.0
 10
26.0317057903
 20
18.8311845817
 30
0.0
 10
24.3378207859
 20
18.5234493376
 30
0.0
 10
22.5838836098
 20
18.3628508339
 30
0.0
 10
20.8082263945
 20
18.3529029891
 30
0.0
 10
19.3353638388
 20
18.4708745152
 30
0.0
 10
18.1790851287
 20
18.6412837441
 30
0.0
 10
17.334470778
 20
18.8051047198
 30
0.0
 10
16.5132262719
 20
19.0046601583
 30
0.0
 10
15.7198424312
 20
19.2387748325
 30
0.0
 10
14.9586754819
 20
19.5062409212
 30
0.0
 10
14.2338227053
 20
19.8055787427
 30
0.0
 10
13.5494360906
 20
20.1351879735
 30
0.0
 10
13.1146394466
 20
20.3782591543
 30
0.0
 10
12.905404091
 20
20.5046231938
 30
0.0
  0
SPLINE
  5
25F
100
AcDbEntity
  8
1
100
AcDbSpline
 62
7
  6
BYLAYER
 70
0
 71
3
 72
32
 73
28
 74
0
 42
0.0000001
 43
0.0000001
 44
0.0000000001
 40
0.0
 40
0.0
 40
0.0
 40
0.0
 40
0.0213355442
 40
0.0429038842
 40
0.0649253239
 40
0.087597717
 40
0.1110881813
 40
0.1355309945
 40
0.1610244352
 40
0.1876348483
 40
0.2153958511
 40
0.2443148805
 40
0.2743727346
 40
0.3055302167
 40
0.3708655136
 40
0.4396941369
 40
0.5111684505
 40
0.5843103097
 40
0.658064457
 40
0.7313483783
 40
0.8030999815
 40
0.8380978657
 40
0.8723496131
 40
0.9057492952
 40
0.9382102458
 40
0.9696554065
 40
1.0
 40
1.0
 40
1.0
 40
1.0
 10
33.0794787414
 20
45.2147042994
 30
0.0
 10
33.0794736745
 20
45.0500026069
 30
0.0
 10
33.0580302979
 20
44.7184122065
 30
0.0
 10
32.9618245761
 20
44.2252473435
 30
0.0
 10
32.8023305086
 20
43.7379028381
 30
0.0
 10
32.5805360994
 20
43.2593103606
 30
0.0
 10
32.297976407
 20
42.7920316349
 30
0.0
 10
31.9562734742
 20
42.3386526659
 30
0.0
 10
31.557516546
 20
41.9014977551
 30
0.0
 10
31.1038783647
 20
41.4829597379
 30
0.0
 10
30.5979598371
 20
41.0851611258
 30
0.0
 10
30.0424869934
 20
40.7103128134
 30
0.0
 10
29.4405494297
 20
40.360316241
 30
0.0
 10
28.5666069017
 20
39.9225705875
 30
0.0
 10
27.3770149496
 20
39.4526437204
 30
0.0
 10
25.8462908715
 20
39.0230694319
 30
0.0
 10
24.2228605122
 20
38.7281266794
 30
0.0
 10
22.5420590342
 20
38.5742282372
 30
0.0
 10
20.8402990635
 20
38.5646918142
 30
0.0
 10
19.154700525
 20
38.6997297543
 30
0.0
 10
17.782371076
 20
38.9322143427
 30
0.0
 10
16.7243293557
 20
39.1892881681
 30
0.0
 10
15.9639931689
 20
39.4136545038
 30
0.0
 10
15.2345433682
 20
39.669974743
 30
0.0
 10
14.5398919649
 20
39.9568406556
 30
0.0
 10
13.8840216343
 20
40.2727160258
 30
0.0
 10
13.4673415978
 20
40.5056592474
 30
0.0
 10
13.2668244239
 20
40.6267580934
 30
0.0
  0
SPLINE
  5
260
100
AcDbEntity
  8
1
100
AcDbSpline
 62
7
  6
BYLAYER
 70
0
 71
3
 72
34
 73
30
 74
0
 42
0.0000001
 43
0.0000001
 44
0.0000000001
 40
0.0
 40
0.0
 40
0.0
 40
0.0
 40
0.0303432676
 40
0.061786949
 40
0.0942463193
 40
0.1276444207
 40
0.1618945525
 40
0.1968907982
 40
0.2325188787
 40
0.2686576838
 40
0.3419386569
 40
0.4156899284
 40
0.4888288471
 40
0.5603002094
 40
0.6291259934
 40
0.6622870834
 40
0.6944830262
 40
0.7256391788
 40
0.755695728
 40
0.7846134882
 40
0.8123732717
 40
0.8389825204
 40
0.8644748643
 40
0.8889166309
 40
0.9124060983
 40
0.9350775195
 40
0.957098011
 40
0.9786654026
 40
1.0
 40
1.0
 40
1.0
 40
1.0
 10
12.905404091
 20
40.4272821718
 30
0.0
 10
13.1146392394
 20
40.3009182574
 30
0.0
 10
13.5494345613
 20
40.0578474748
 30
0.0
 10
14.2338187329
 20
39.7282395787
 30
0.0
 10
14.9586680574
 20
39.4289025869
 30
0.0
 10
15.7198318814
 20
39.1614375337
 30
0.0
 10
16.513212727
 20
38.9273221729
 30
0.0
 10
17.3344550541
 20
38.7277673657
 30
0.0
 10
18.179067776
 20
38.563945118
 30
0.0
 10
19.3353473083
 20
38.3935356042
 30
0.0
 10
20.8082130601
 20
38.2755622297
 30
0.0
 10
22.5838749313
 20
38.2855093036
 30
0.0
 10
24.3378162717
 20
38.4461076203
 30
0.0
 10
26.0317045083
 20
38.7538431678
 30
0.0
 10
27.3794530656
 20
39.1320572492
 30
0.0
 10
28.3946216207
 20
39.5045908592
 30
0.0
 10
29.1091670385
 20
39.8120618486
 30
0.0
 10
29.7823440505
 20
40.1492641743
 30
0.0
 10
30.4104439084
 20
40.5144694445
 30
0.0
 10
30.990069325
 20
40.9056175131
 30
0.0
 10
31.5179832105
 20
41.3207108608
 30
0.0
 10
31.9913444124
 20
41.7574462339
 30
0.0
 10
32.4074385163
 20
42.213607654
 30
0.0
 10
32.763997791
 20
42.6866990875
 30
0.0
 10
33.0588430287
 20
43.1742942304
 30
0.0
 10
33.2902799946
 20
43.673695451
 30
0.0
 10
33.4567090735
 20
44.1822284923
 30
0.0
 10
33.5570965742
 20
44.6968350463
 30
0.0
 10
33.5794727805
 20
45.0428419119
 30
0.0
 10
33.5794781784
 20
45.2147042961
 30
0.0
  0
SPLINE
  5
261
100
AcDbEntity
  8
1
100
AcDbSpline
 62
7
  6
BYLAYER
 70
0
 71
3
 72
17
 73
13
 74
0
 42
0.0000001
 43
0.0000001
 44
0.0000000001
 40
0.0
 40
0.0
 40
0.0
 40
0.0
 40
0.1478351556
 40
0.288170425
 40
0.4210077814
 40
0.5467931505
 40
0.6662758296
 40
0.7805724039
 40
0.8362687216
 40
0.8912511702
 40
0.9457484004
 40
1.0
 40
1.0
 40
1.0
 40
1.0
 10
29.8921597372
 20
49.802650485
 30
0.0
 10
30.1384225655
 20
49.6539243498
 30
0.0
 10
30.6068511769
 20
49.3440679453
 30
0.0
 10
31.2461940314
 20
48.8297222566
 30
0.0
 10
31.7985127673
 20
48.2818784836
 30
0.0
 10
32.2585714175
 20
47.705271918
 30
0.0
 10
32.6219398734
 20
47.1048649141
 30
0.0
 10
32.8429009762
 20
46.5841798044
 30
0.0
 10
32.9658374247
 20
46.1635852354
 30
0.0
 10
33.0313452774
 20
45.8485277584
 30
0.0
 10
33.0707323522
 20
45.5320097908
 30
0.0
 10
33.0794819893
 20
45.3202784936
 30
0.0
 10
33.0794787414
 20
45.2147042994
 30
0.0
  0
SPLINE
  5
262
100
AcDbEntity
  8
1
100
AcDbSpline
 62
7
  6
BYLAYER
 70
0
 71
3
 72
17
 73
13
 74
0
 42
0.0000001
 43
0.0000001
 44
0.0000000001
 40
0.0
 40
0.0
 40
0.0
 40
0.0
 40
0.0542513795
 40
0.1087484193
 40
0.1637306874
 40
0.2194268706
 40
0.333723313
 40
0.453206034
 40
0.5789913823
 40
0.7118289829
 40
0.8521648241
 40
1.0
 40
1.0
 40
1.0
 40
1.0
 10
9.5795059826
 20
45.2147042823
 30
0.0
 10
9.5795025225
 20
45.1045403563
 30
0.0
 10
9.5886328879
 20
44.8836041879
 30
0.0
 10
9.6297325447
 20
44.5533258465
 30
0.0
 10
9.6980872147
 20
44.2245709902
 30
0.0
 10
9.8263687929
 20
43.7856906715
 30
0.0
 10
10.0569354362
 20
43.2423669994
 30
0.0
 10
10.4361027346
 20
42.615855727
 30
0.0
 10
10.9161629103
 20
42.0141779018
 30
0.0
 10
11.4924965114
 20
41.4425134801
 30
0.0
 10
12.1596383392
 20
40.9058041167
 30
0.0
 10
12.6484341562
 20
40.5824746769
 30
0.0
 10
12.905404091
 20
40.4272821718
 30
0.0
  0
SPLINE
  5
263
100
AcDbEntity
  8
1
100
AcDbSpline
 62
7
  6
BYLAYER
 70
0
 71
3
 72
11
 73
7
 74
0
 42
0.0000001
 43
0.0000001
 44
0.0000000001
 40
0.0
 40
0.0
 40
0.0
 40
0.0
 40
0.2619644092
 40
0.5163946225
 40
0.7626422505
 40
1.0
 40
1.0
 40
1.0
 40
1.0
 10
27.0906683618
 20
51.0420490892
 30
0.0
 10
27.3463540735
 20
50.9614534012
 30
0.0
 10
27.846370887
 20
50.7894860808
 30
0.0
 10
28.5696312471
 20
50.4950851082
 30
0.0
 10
29.2515792171
 20
50.1693998674
 30
0.0
 10
29.6842315238
 20
49.9282250988
 30
0.0
 10
29.8921597372
 20
49.802650485
 30
0.0
  0
SPLINE
  5
264
100
AcDbEntity
  8
1
100
AcDbSpline
 62
7
  6
BYLAYER
 70
0
 71
3
 72
21
 73
17
 74
0
 42
0.0000001
 43
0.0000001
 44
0.0000000001
 40
0.0
 40
0.0
 40
0.0
 40
0.0
 40
0.055844269
 40
0.1141893177
 40
0.1747993472
 40
0.2373746563
 40
0.3015766317
 40
0.3670266925
 40
0.4999946768
 40
0.6329609177
 40
0.6984137037
 40
0.7626157637
 40
0.8251863936
 40
0.8858066455
 40
0.9441816859
 40
1.0
 40
1.0
 40
1.0
 40
1.0
 10
25.5241642615
 20
5.5823913943
 30
0.0
 10
25.3920057762
 20
5.506087375
 30
0.0
 10
25.1148840085
 20
5.361764949
 30
0.0
 10
24.6751337467
 20
5.1742093231
 30
0.0
 10
24.2057626011
 20
5.0124510875
 30
0.0
 10
23.7113298833
 20
4.8778853816
 30
0.0
 10
23.1964846084
 20
4.7719252116
 30
0.0
 10
22.4858202817
 20
4.6694660167
 30
0.0
 10
21.5795964556
 20
4.6186257273
 30
0.0
 10
20.673362752
 20
4.6694403033
 30
0.0
 10
19.9626952527
 20
4.7718977419
 30
0.0
 10
19.4478514593
 20
4.8778369489
 30
0.0
 10
18.9533942149
 20
5.0123714848
 30
0.0
 10
18.483930476
 20
5.1741637539
 30
0.0
 10
18.0441588317
 20
5.3617661754
 30
0.0
 10
17.7670121209
 20
5.5060631429
 30
0.0
 10
17.6349133246
 20
5.5823286931
 30
0.0
  0
SPLINE
  5
265
100
AcDbEntity
  8
1
100
AcDbSpline
 62
7
  6
BYLAYER
 70
0
 71
3
 72
16
 73
12
 74
0
 42
0.0000001
 43
0.0000001
 44
0.0000000001
 40
0.0
 40
0.0
 40
0.0
 40
0.0
 40
0.1080064031
 40
0.2180485038
 40
0.3319788444
 40
0.4513302928
 40
0.5134425783
 40
0.5773017909
 40
0.7105181316
 40
0.8514014188
 40
1.0
 40
1.0
 40
1.0
 40
1.0
 10
28.1579797909
 20
8.676221123
 30
0.0
 10
28.1579687275
 20
8.5516847046
 30
0.0
 10
28.1363631379
 20
8.299759081
 30
0.0
 10
28.0398117397
 20
7.9276562035
 30
0.0
 10
27.8805106804
 20
7.5635777851
 30
0.0
 10
27.6994245551
 20
7.2737347989
 30
0.0
 10
27.5268729457
 20
7.0494059471
 30
0.0
 10
27.3301957105
 20
6.824155958
 30
0.0
 10
27.0480144951
 20
6.5541086898
 30
0.0
 10
26.6620534454
 20
6.2552784222
 30
0.0
 10
26.3796642166
 20
6.0763363448
 30
0.0
 10
26.2312795362
 20
5.9906639642
 30
0.0
  0
SPLINE
  5
266
100
AcDbEntity
  8
1
100
AcDbSpline
 62
7
  6
BYLAYER
 70
0
 71
3
 72
9
 73
5
 74
0
 42
0.0000001
 43
0.0000001
 44
0.0000000001
 40
0.0
 40
0.0
 40
0.0
 40
0.0
 40
0.5056172058
 40
1.0
 40
1.0
 40
1.0
 40
1.0
 10
19.8557451365
 20
12.6403401733
 30
0.0
 10
19.3067964492
 20
12.6827383172
 30
0.0
 10
18.2238098333
 20
12.8070611572
 30
0.0
 10
17.1535484358
 20
13.0148709803
 30
0.0
 10
16.6297946597
 20
13.1393810035
 30
0.0
  0
SPLINE
  5
267
100
AcDbEntity
  8
1
100
AcDbSpline
 62
7
  6
BYLAYER
 70
0
 71
3
 72
13
 73
9
 74
0
 42
0.0000001
 43
0.0000001
 44
0.0000000001
 40
0.0
 40
0.0
 40
0.0
 40
0.0
 40
0.2548385715
 40
0.3814544684
 40
0.5072724421
 40
0.6321182786
 40
0.755881012
 40
1.0
 40
1.0
 40
1.0
 40
1.0
 10
29.5149926237
 20
14.1346344827
 30
0.0
 10
28.7249852577
 20
13.8641298064
 30
0.0
 10
27.5271570384
 20
13.500773711
 30
0.0
 10
25.9071988194
 20
13.1262510133
 30
0.0
 10
24.690133686
 20
12.9063580331
 30
0.0
 10
23.4727549336
 20
12.7495235689
 30
0.0
 10
21.8626848679
 20
12.6230641506
 30
0.0
 10
20.6552202489
 20
12.6139527107
 30
0.0
 10
19.8557451365
 20
12.6403401733
 30
0.0
  0
SPLINE
  5
268
100
AcDbEntity
  8
1
100
AcDbSpline
 62
7
  6
BYLAYER
 70
0
 71
3
 72
9
 73
5
 74
0
 42
0.0000001
 43
0.0000001
 44
0.0000000001
 40
0.0
 40
0.0
 40
0.0
 40
0.0
 40
0.4839262544
 40
1.0
 40
1.0
 40
1.0
 40
1.0
 10
31.8765398088
 20
15.4980662471
 30
0.0
 10
31.5239540224
 20
15.2339220603
 30
0.0
 10
30.7589832314
 20
14.7357504552
 30
0.0
 10
29.9442426198
 20
14.325623261
 30
0.0
 10
29.5149926237
 20
14.1346344827
 30
0.0
  0
SPLINE
  5
269
100
AcDbEntity
  8
1
100
AcDbSpline
 62
7
  6
BYLAYER
 70
0
 71
3
 72
14
 73
10
 74
0
 42
0.0000001
 43
0.0000001
 44
0.0000000001
 40
0.0
 40
0.0
 40
0.0
 40
0.0
 40
0.15331652
 40
0.2999458729
 40
0.4388352259
 40
0.5690944062
 40
0.6901608891
 40
0.8020199288
 40
1.0
 40
1.0
 40
1.0
 40
1.0
 10
34.4646900445
 20
21.0747681017
 30
0.0
 10
34.3605475002
 20
20.777415377
 30
0.0
 10
34.152219754
 20
20.197265941
 30
0.0
 10
33.8308482122
 20
19.3546031722
 30
0.0
 10
33.50737716
 20
18.5636771339
 30
0.0
 10
33.1825656251
 20
17.8303889941
 30
0.0
 10
32.8571621628
 20
17.1585064967
 30
0.0
 10
32.4407459173
 20
16.3769074743
 30
0.0
 10
32.1070703502
 20
15.8332954328
 30
0.0
 10
31.8765398088
 20
15.4980662471
 30
0.0
  0
SPLINE
  5
26A
100
AcDbEntity
  8
1
100
AcDbSpline
 62
7
  6
BYLAYER
 70
0
 71
3
 72
10
 73
6
 74
0
 42
0.0000001
 43
0.0000001
 44
0.0000000001
 40
0.0
 40
0.0
 40
0.0
 40
0.0
 40
0.513747762
 40
0.7596706072
 40
1.0
 40
1.0
 40
1.0
 40
1.0
 10
9.5586974082
 20
17.2217885487
 30
0.0
 10
9.3534000149
 20
17.5096359711
 30
0.0
 10
9.0843805067
 20
17.9626039067
 30
0.0
 10
8.8250398016
 20
18.6009875526
 30
0.0
 10
8.7316308039
 20
18.923137415
 30
0.0
 10
8.6942941165
 20
19.0842611433
 30
0.0
  0
SPLINE
  5
26B
100
AcDbEntity
  8
1
100
AcDbSpline
 62
7
  6
BYLAYER
 70
0
 71
3
 72
15
 73
11
 74
0
 42
0.0000001
 43
0.0000001
 44
0.0000000001
 40
0.0
 40
0.0
 40
0.0
 40
0.0
 40
0.1475535832
 40
0.2877318013
 40
0.4204730043
 40
0.5462306078
 40
0.6657897488
 40
0.7802532544
 40
0.8910753957
 40
1.0
 40
1.0
 40
1.0
 40
1.0
 10
15.0219857915
 20
40.4310170771
 30
0.0
 10
14.8330776813
 20
40.5470378525
 30
0.0
 10
14.4737678469
 20
40.7885892416
 30
0.0
 10
13.983573179
 20
41.1886278946
 30
0.0
 10
13.5603198436
 20
41.6141701349
 30
0.0
 10
13.2079213741
 20
42.0614370466
 30
0.0
 10
12.9297075423
 20
42.5267993838
 30
0.0
 10
12.7285161232
 20
43.0063259871
 30
0.0
 10
12.6067655484
 20
43.4955239228
 30
0.0
 10
12.5795064654
 20
43.8262970871
 30
0.0
 10
12.579517326
 20
43.9899505326
 30
0.0
  0
SPLINE
  5
26C
100
AcDbEntity
  8
1
100
AcDbSpline
 62
7
  6
BYLAYER
 70
0
 71
3
 72
24
 73
20
 74
0
 42
0.0000001
 43
0.0000001
 44
0.0000000001
 40
0.0
 40
0.0
 40
0.0
 40
0.0
 40
0.0610178285
 40
0.1257452475
 40
0.1935325043
 40
0.2636782964
 40
0.3353389107
 40
0.4076185792
 40
0.479601472
 40
0.5503764618
 40
0.6190832282
 40
0.6849479333
 40
0.7473217746
 40
0.8057341893
 40
0.8599485809
 40
0.9100261412
 40
0.9564008261
 40
0.9784841271
 40
1.0
 40
1.0
 40
1.0
 40
1.0
 10
25.1150112666
 20
54.7677472961
 30
0.0
 10
24.94655099
 20
54.8650056819
 30
0.0
 10
24.5868093556
 20
55.0441311738
 30
0.0
 10
24.007980482
 20
55.2603557225
 30
0.0
 10
23.3832845206
 20
55.4286423528
 30
0.0
 10
22.7246855284
 20
55.545892926
 30
0.0
 10
22.0444541048
 20
55.6099063444
 30
0.0
 10
21.3554491322
 20
55.6194857727
 30
0.0
 10
20.6706693163
 20
55.5744558135
 30
0.0
 10
20.003038907
 20
55.4756242024
 30
0.0
 10
19.3651346167
 20
55.3248914541
 30
0.0
 10
18.7689277446
 20
55.1250696974
 30
0.0
 10
18.2255731149
 20
54.8797831653
 30
0.0
 10
17.7451669597
 20
54.5934854298
 30
0.0
 10
17.336610675
 20
54.2711102348
 30
0.0
 10
17.0077389603
 20
53.9181813226
 30
0.0
 10
16.8024143391
 20
53.5977650019
 30
0.0
 10
16.6875189496
 20
53.3344377373
 30
0.0
 10
16.646232073
 20
53.2013431071
 30
0.0
 10
16.6297635484
 20
53.1347585568
 30
0.0
  0
SPLINE
  5
26D
100
AcDbEntity
  8
1
100
AcDbSpline
 62
7
  6
BYLAYER
 70
0
 71
3
 72
17
 73
13
 74
0
 42
0.0000001
 43
0.0000001
 44
0.0000000001
 40
0.0
 40
0.0
 40
0.0
 40
0.0
 40
0.1286862729
 40
0.2703064617
 40
0.4174617485
 40
0.5618000299
 40
0.6954543785
 40
0.812710726
 40
0.8646760834
 40
0.9125066088
 40
0.9571378188
 40
1.0
 40
1.0
 40
1.0
 40
1.0
 10
24.5493493934
 20
51.5018063028
 30
0.0
 10
24.5049364666
 20
51.527447538
 30
0.0
 10
24.404363018
 20
51.5689327465
 30
0.0
 10
24.2404629099
 20
51.6017397229
 30
0.0
 10
24.0671051957
 20
51.6065148028
 30
0.0
 10
23.8984640068
 20
51.5828209614
 30
0.0
 10
23.7481864657
 20
51.5326231086
 30
0.0
 10
23.6436880759
 20
51.4689898266
 30
0.0
 10
23.582324529
 20
51.4074521713
 30
0.0
 10
23.5497641688
 20
51.3595079204
 30
0.0
 10
23.5296487605
 20
51.3089624987
 30
0.0
 10
23.5251152532
 20
51.2739409425
 30
0.0
 10
23.5251140532
 20
51.2568597435
 30
0.0
  0
SPLINE
  5
26E
100
AcDbEntity
  8
1
100
AcDbSpline
 62
7
  6
BYLAYER
 70
0
 71
3
 72
14
 73
10
 74
0
 42
0.0000001
 43
0.0000001
 44
0.0000000001
 40
0.0
 40
0.0
 40
0.0
 40
0.0
 40
0.1485051927
 40
0.2895204814
 40
0.5483824147
 40
0.667821373
 40
0.7818544671
 40
0.8919698161
 40
1.0
 40
1.0
 40
1.0
 40
1.0
 10
18.6633338451
 20
51.0428918345
 30
0.0
 10
18.5707258959
 20
51.0963578494
 30
0.0
 10
18.394328984
 20
51.2081882698
 30
0.0
 10
18.0816704453
 20
51.44977687
 30
0.0
 10
17.820840097
 20
51.7235164349
 30
0.0
 10
17.6317941065
 20
52.0246170881
 30
0.0
 10
17.5314401856
 20
52.2518268315
 30
0.0
 10
17.4701527781
 20
52.4840742398
 30
0.0
 10
17.4558626728
 20
52.6413925219
 30
0.0
 10
17.455439257
 20
52.7191804531
 30
0.0
  0
SPLINE
  5
26F
100
AcDbEntity
  8
1
100
AcDbSpline
 62
7
  6
BYLAYER
 70
0
 71
3
 72
15
 73
11
 74
0
 42
0.0000001
 43
0.0000001
 44
0.0000000001
 40
0.0
 40
0.0
 40
0.0
 40
0.0
 40
0.1194995971
 40
0.2457142682
 40
0.3762181735
 40
0.5083686131
 40
0.639378437
 40
0.7665351739
 40
0.887418812
 40
1.0
 40
1.0
 40
1.0
 40
1.0
 10
24.0403847095
 20
50.8158727415
 30
0.0
 10
23.8372332367
 20
50.7286565799
 30
0.0
 10
23.4067750639
 20
50.5781270257
 30
0.0
 10
22.7261086
 20
50.4264387969
 30
0.0
 10
22.0098341294
 20
50.3460309346
 30
0.0
 10
21.2803021338
 20
50.3393199299
 30
0.0
 10
20.5600382809
 20
50.4065973183
 30
0.0
 10
19.8712265778
 20
50.5457170722
 30
0.0
 10
19.235314881
 20
50.7524547788
 30
0.0
 10
18.843712666
 20
50.9387524297
 30
0.0
 10
18.6633338451
 20
51.0428918345
 30
0.0
  0
SPLINE
  5
270
100
AcDbEntity
  8
1
100
AcDbSpline
 62
7
  6
BYLAYER
 70
0
 71
3
 72
13
 73
9
 74
0
 42
0.0000001
 43
0.0000001
 44
0.0000000001
 40
0.0
 40
0.0
 40
0.0
 40
0.0
 40
0.1124138501
 40
0.2262832509
 40
0.3429042166
 40
0.46343943
 40
0.7196103746
 40
1.0
 40
1.0
 40
1.0
 40
1.0
 10
25.7035513752
 20
52.7191804348
 30
0.0
 10
25.7032176563
 20
52.6559547603
 30
0.0
 10
25.693675446
 20
52.5285624689
 30
0.0
 10
25.6531173482
 20
52.3394513701
 30
0.0
 10
25.5866417779
 20
52.1529591671
 30
0.0
 10
25.4615641418
 20
51.904587241
 30
0.0
 10
25.2383602332
 20
51.6062406639
 30
0.0
 10
25.0134749105
 20
51.4024809848
 30
0.0
 10
24.8889093142
 20
51.3057657262
 30
0.0
  0
SPLINE
  5
271
100
AcDbEntity
  8
1
100
AcDbSpline
 62
7
  6
BYLAYER
 70
0
 71
3
 72
9
 73
5
 74
0
 42
0.0000001
 43
0.0000001
 44
0.0000000001
 40
0.0
 40
0.0
 40
0.0
 40
0.0
 40
0.5163605516
 40
1.0
 40
1.0
 40
1.0
 40
1.0
 10
8.6942941165
 20
22.8047559203
 30
0.0
 10
8.8360494156
 20
23.209502364
 30
0.0
 10
9.1193759075
 20
23.9903047887
 30
0.0
 10
9.4247438662
 20
24.7628450412
 30
0.0
 10
9.5794904641
 20
25.1335166556
 30
0.0
  0
SPLINE
  5
272
100
AcDbEntity
  8
1
100
AcDbSpline
 62
7
  6
BYLAYER
 70
0
 71
3
 72
14
 73
10
 74
0
 42
0.0000001
 43
0.0000001
 44
0.0000000001
 40
0.0
 40
0.0
 40
0.0
 40
0.0
 40
0.1080844763
 40
0.2196259873
 40
0.3355630845
 40
0.4566462021
 40
0.7160156067
 40
0.8550306074
 40
1.0
 40
1.0
 40
1.0
 40
1.0
 10
26.5292288933
 20
53.1347591691
 30
0.0
 10
26.510049875
 20
53.2122997557
 30
0.0
 10
26.460288396
 20
53.3673759453
 30
0.0
 10
26.3548455519
 20
53.5924782026
 30
0.0
 10
26.218560005
 20
53.8117486199
 30
0.0
 10
25.9917665958
 20
54.1008327126
 30
0.0
 10
25.7099718843
 20
54.3652941602
 30
0.0
 10
25.3860638629
 20
54.6029515704
 30
0.0
 10
25.2077944491
 20
54.7141801126
 30
0.0
 10
25.1150112666
 20
54.7677472961
 30
0.0
  0
SPLINE
  5
273
100
AcDbEntity
  8
1
100
AcDbSpline
 62
7
  6
BYLAYER
 70
0
 71
3
 72
9
 73
5
 74
0
 42
0.0000001
 43
0.0000001
 44
0.0000000001
 40
0.0
 40
0.0
 40
0.0
 40
0.0
 40
0.2616049082
 40
1.0
 40
1.0
 40
1.0
 40
1.0
 10
13.0942460339
 20
14.7091769483
 30
0.0
 10
13.3867002319
 20
14.5403322581
 30
0.0
 10
14.5221273306
 20
13.9257051223
 30
0.0
 10
15.7222224572
 20
13.4306446887
 30
0.0
 10
16.6297946597
 20
13.1393810035
 30
0.0
  0
SPLINE
  5
274
100
AcDbEntity
  8
1
100
AcDbSpline
 62
7
  6
BYLAYER
 70
0
 71
3
 72
10
 73
6
 74
0
 42
0.0000001
 43
0.0000001
 44
0.0000000001
 40
0.0
 40
0.0
 40
0.0
 40
0.0
 40
0.2586157655
 40
0.5120337606
 40
1.0
 40
1.0
 40
1.0
 40
1.0
 10
9.5586974082
 20
17.2217885487
 30
0.0
 10
9.8461705877
 20
16.982108294
 30
0.0
 10
10.4230952954
 20
16.5166782493
 30
0.0
 10
11.5826623473
 20
15.6504907156
 30
0.0
 10
12.4826460188
 20
15.0622763935
 30
0.0
 10
13.0942460339
 20
14.7091769483
 30
0.0
  0
SPLINE
  5
275
100
AcDbEntity
  8
1
100
AcDbSpline
 62
7
  6
BYLAYER
 70
0
 71
3
 72
10
 73
6
 74
0
 42
0.0000001
 43
0.0000001
 44
0.0000000001
 40
0.0
 40
0.0
 40
0.0
 40
0.0
 40
0.2403293928
 40
0.486252238
 40
1.0
 40
1.0
 40
1.0
 40
1.0
 10
34.4646900445
 20
24.7952628787
 30
0.0
 10
34.4273533571
 20
24.956386607
 30
0.0
 10
34.3339443594
 20
25.2785364694
 30
0.0
 10
34.0746036543
 20
25.9169201153
 30
0.0
 10
33.8055841462
 20
26.3698880509
 30
0.0
 10
33.6002867528
 20
26.6577354733
 30
0.0
  0
SPLINE
  5
276
100
AcDbEntity
  8
1
100
AcDbSpline
 62
7
  6
BYLAYER
 70
0
 71
3
 72
11
 73
7
 74
0
 42
0.0000001
 43
0.0000001
 44
0.0000000001
 40
0.0
 40
0.0
 40
0.0
 40
0.0
 40
0.2427892145
 40
0.488445105
 40
0.7400238093
 40
1.0
 40
1.0
 40
1.0
 40
1.0
 10
16.3794920805
 20
51.3822286503
 30
0.0
 10
16.3794920805
 20
51.2825575671
 30
0.0
 10
16.3956860475
 20
51.0816798963
 30
0.0
 10
16.4678313293
 20
50.7853728419
 30
0.0
 10
16.5862215163
 20
50.4967848882
 30
0.0
 10
16.6926441681
 20
50.314897172
 30
0.0
 10
16.7521803581
 20
50.2263192661
 30
0.0
  0
SPLINE
  5
277
100
AcDbEntity
  8
1
100
AcDbSpline
 62
7
  6
BYLAYER
 70
0
 71
3
 72
11
 73
7
 74
0
 42
0.0000001
 43
0.0000001
 44
0.0000000001
 40
0.0
 40
0.0
 40
0.0
 40
0.0
 40
0.2599760956
 40
0.51155466
 40
0.7572106942
 40
1.0
 40
1.0
 40
1.0
 40
1.0
 10
26.4068053628
 20
50.2263215966
 30
0.0
 10
26.4663412954
 20
50.3148993363
 30
0.0
 10
26.5727634541
 20
50.4967866645
 30
0.0
 10
26.6911532564
 20
50.7853739725
 30
0.0
 10
26.763298085
 20
51.0816804595
 30
0.0
 10
26.7794920805
 20
51.2825577561
 30
0.0
 10
26.7794920805
 20
51.3822286503
 30
0.0
  0
SPLINE
  5
278
100
AcDbEntity
  8
1
100
AcDbSpline
 62
7
  6
BYLAYER
 70
0
 71
3
 72
15
 73
11
 74
0
 42
0.0000001
 43
0.0000001
 44
0.0000000001
 40
0.0
 40
0.0
 40
0.0
 40
0.0
 40
0.1485424806
 40
0.289507063
 40
0.4227371856
 40
0.5486421081
 40
0.6679989207
 40
0.7819403199
 40
0.8919888333
 40
1.0
 40
1.0
 40
1.0
 40
1.0
 10
16.9278094874
 20
5.9905869564
 30
0.0
 10
16.7794824521
 20
6.0762216728
 30
0.0
 10
16.4971273523
 20
6.2552361619
 30
0.0
 10
16.111023045
 20
6.5539903078
 30
0.0
 10
15.7770882524
 20
6.8736552363
 30
0.0
 10
15.4986408108
 20
7.2111456776
 30
0.0
 10
15.2785354737
 20
7.5635409265
 30
0.0
 10
15.11915165
 20
7.9276266461
 30
0.0
 10
15.0226416415
 20
8.2997510167
 30
0.0
 10
15.0009933065
 20
8.5516821689
 30
0.0
 10
15.0010043701
 20
8.6762211223
 30
0.0
  0
SPLINE
  5
279
100
AcDbEntity
  8
1
100
AcDbSpline
 62
7
  6
BYLAYER
 70
0
 71
3
 72
27
 73
23
 74
0
 42
0.0000001
 43
0.0000001
 44
0.0000000001
 40
0.0
 40
0.0
 40
0.0
 40
0.0
 40
0.0213433233
 40
0.0429209818
 40
0.0649552717
 40
0.0876442274
 40
0.1111574884
 40
0.1356277479
 40
0.1877559578
 40
0.2444904971
 40
0.3057808564
 40
0.3712251139
 40
0.4401571926
 40
0.5117192707
 40
0.5849229701
 40
0.6587038334
 40
0.7319686805
 40
0.803653263
 40
0.8727587998
 40
0.9384313916
 40
0.9697759576
 40
1.0
 40
1.0
 40
1.0
 40
1.0
 10
30.579466835
 20
43.9899507944
 30
0.0
 10
30.5794582506
 20
43.8605955616
 30
0.0
 10
30.5625529878
 20
43.6001585639
 30
0.0
 10
30.4867561755
 20
43.2128295409
 30
0.0
 10
30.3609929147
 20
42.8301378986
 30
0.0
 10
30.1862558962
 20
42.4543223177
 30
0.0
 10
29.9635083768
 20
42.0875135584
 30
0.0
 10
29.5969131439
 20
41.6029207579
 30
0.0
 10
29.0189846029
 20
41.031667163
 30
0.0
 10
28.1783757038
 20
40.4285175087
 30
0.0
 10
27.1943101998
 20
39.9046234993
 30
0.0
 10
26.0881418073
 20
39.4708379882
 30
0.0
 10
24.8836437291
 20
39.1361706812
 30
0.0
 10
23.6069637149
 20
38.9078172241
 30
0.0
 10
22.2859278902
 20
38.79072773
 30
0.0
 10
20.9494340217
 20
38.7874692761
 30
0.0
 10
19.6267337996
 20
38.8980743239
 30
0.0
 10
18.3467393769
 20
39.1201964995
 30
0.0
 10
17.137424046
 20
39.4488890208
 30
0.0
 10
16.1957621748
 20
39.8114443191
 30
0.0
 10
15.5027721259
 20
40.1506370046
 30
0.0
 10
15.1780761898
 20
40.3351517962
 30
0.0
 10
15.0219857915
 20
40.4310170771
 30
0.0
  0
SPLINE
  5
27A
100
AcDbEntity
  8
1
100
AcDbSpline
 62
7
  6
BYLAYER
 70
0
 71
3
 72
22
 73
18
 74
0
 42
0.0000001
 43
0.0000001
 44
0.0000000001
 40
0.0
 40
0.0
 40
0.0
 40
0.0
 40
0.0584299295
 40
0.1200469474
 40
0.1843694324
 40
0.2509143794
 40
0.3191005533
 40
0.3882854811
 40
0.4578022271
 40
0.5269763331
 40
0.5951394331
 40
0.6616566257
 40
0.7259429376
 40
0.7874877437
 40
0.845883645
 40
0.9008479786
 40
1.0
 40
1.0
 40
1.0
 40
1.0
 10
18.0439728944
 20
49.0144069141
 30
0.0
 10
18.1906519095
 20
48.9297236611
 30
0.0
 10
18.5015291529
 20
48.7718804415
 30
0.0
 10
18.9990143246
 20
48.5748763269
 30
0.0
 10
19.5338898097
 20
48.4138828053
 30
0.0
 10
20.0982479005
 20
48.2911962493
 30
0.0
 10
20.6840364733
 20
48.208459878
 30
0.0
 10
21.2827974877
 20
48.1669969737
 30
0.0
 10
21.8858473359
 20
48.1673364436
 30
0.0
 10
22.4844631824
 20
48.2094655434
 30
0.0
 10
23.0699810142
 20
48.292843277
 30
0.0
 10
23.6339416759
 20
48.4161745109
 30
0.0
 10
24.1682243917
 20
48.5777731434
 30
0.0
 10
24.6650645641
 20
48.775260468
 30
0.0
 10
25.1176460201
 20
49.0060356206
 30
0.0
 10
25.6346078558
 20
49.3415873962
 30
0.0
 10
25.9678451779
 20
49.6499542283
 30
0.0
 10
26.1438620326
 20
49.8771596047
 30
0.0
  0
SPLINE
  5
27B
100
AcDbEntity
  8
1
100
AcDbSpline
 62
7
  6
BYLAYER
 70
0
 71
3
 72
21
 73
17
 74
0
 42
0.0000001
 43
0.0000001
 44
0.0000000001
 40
0.0
 40
0.0
 40
0.0
 40
0.0
 40
0.0578726669
 40
0.1188139121
 40
0.1823765528
 40
0.2481187519
 40
0.3838900678
 40
0.5214496874
 40
0.5893837289
 40
0.6559227394
 40
0.7205060945
 40
0.7826368281
 40
0.8418950711
 40
0.8979674966
 40
0.9506752577
 40
1.0
 40
1.0
 40
1.0
 40
1.0
 10
17.9214989173
 20
49.1886476778
 30
0.0
 10
18.0679851184
 20
49.1040757434
 30
0.0
 10
18.377896482
 20
48.9460063705
 30
0.0
 10
18.873133284
 20
48.7472231632
 30
0.0
 10
19.405026587
 20
48.5830650071
 30
0.0
 10
20.1611712437
 20
48.4115030145
 30
0.0
 10
21.1490232195
 20
48.2974780418
 30
0.0
 10
22.1494496083
 20
48.3160569981
 30
0.0
 10
22.939280596
 20
48.4118923828
 30
0.0
 10
23.5109822212
 20
48.522552612
 30
0.0
 10
24.0565644614
 20
48.6708356378
 30
0.0
 10
24.5687409006
 20
48.8546698652
 30
0.0
 10
25.04060424
 20
49.071696091
 30
0.0
 10
25.4658779786
 20
49.3190789809
 30
0.0
 10
25.8388152155
 20
49.5935234329
 30
0.0
 10
26.0562828141
 20
49.7990920997
 30
0.0
 10
26.1536047044
 20
49.9054477759
 30
0.0
  0
SPLINE
  5
27C
100
AcDbEntity
  8
1
100
AcDbSpline
 62
7
  6
BYLAYER
 70
0
 71
3
 72
11
 73
7
 74
0
 42
0.0000001
 43
0.0000001
 44
0.0000000001
 40
0.0
 40
0.0
 40
0.0
 40
0.0
 40
0.264427988
 40
0.5168766408
 40
0.7606945433
 40
1.0
 40
1.0
 40
1.0
 40
1.0
 10
16.7753267965
 20
50.233333137
 30
0.0
 10
16.7119206171
 20
50.3217203088
 30
0.0
 10
16.5988814756
 20
50.5027405364
 30
0.0
 10
16.4728833168
 20
50.7904801978
 30
0.0
 10
16.396622976
 20
51.0846502623
 30
0.0
 10
16.3794910857
 20
51.2837854037
 30
0.0
 10
16.3794920806
 20
51.3822286503
 30
0.0
  0
SPLINE
  5
27D
100
AcDbEntity
  8
1
100
AcDbSpline
 62
7
  6
BYLAYER
 70
0
 71
3
 72
26
 73
22
 74
0
 42
0.0000001
 43
0.0000001
 44
0.0000000001
 40
0.0
 40
0.0
 40
0.0
 40
0.0
 40
0.0636348053
 40
0.1315194326
 40
0.202792372
 40
0.2764604193
 40
0.3513697041
 40
0.4263177313
 40
0.5000942105
 40
0.5715484982
 40
0.6396528648
 40
0.7035709506
 40
0.7627413384
 40
0.8169787449
 40
0.8665900273
 40
0.8899593485
 40
0.9125677481
 40
0.9346270301
 40
0.9563789761
 40
0.9780823316
 40
1.0
 40
1.0
 40
1.0
 40
1.0
 10
18.0439728944
 20
50.6853057574
 30
0.0
 10
18.2347764516
 20
50.5751477644
 30
0.0
 10
18.6452896619
 20
50.3748216678
 30
0.0
 10
19.3088988411
 20
50.1415852354
 30
0.0
 10
20.0268527505
 20
49.9703255096
 30
0.0
 10
20.7818075702
 20
49.8650136181
 30
0.0
 10
21.5558839525
 20
49.8282253101
 30
0.0
 10
22.3305180258
 20
49.8608187222
 30
0.0
 10
23.0871896748
 20
49.9620094448
 30
0.0
 10
23.807827221
 20
50.1293840626
 30
0.0
 10
24.475307698
 20
50.3590058542
 30
0.0
 10
25.0738633292
 20
50.6455662058
 30
0.0
 10
25.5894803781
 20
50.9827662117
 30
0.0
 10
26.0099024836
 20
51.3632288408
 30
0.0
 10
26.2775198308
 20
51.7174947557
 30
0.0
 10
26.4293077631
 20
52.0123647671
 30
0.0
 10
26.5113215725
 20
52.2338535926
 30
0.0
 10
26.5630102076
 20
52.4586024749
 30
0.0
 10
26.5841046415
 20
52.6851489012
 30
0.0
 10
26.5742784846
 20
52.911940993
 30
0.0
 10
26.5474492219
 20
53.0610945561
 30
0.0
 10
26.5292288933
 20
53.1347591691
 30
0.0
  0
SPLINE
  5
27E
100
AcDbEntity
  8
1
100
AcDbSpline
 62
7
  6
BYLAYER
 70
0
 71
3
 72
9
 73
5
 74
0
 42
0.0000001
 43
0.0000001
 44
0.0000000001
 40
0.0
 40
0.0
 40
0.0
 40
0.0
 40
0.2438715437
 40
1.0
 40
1.0
 40
1.0
 40
1.0
 10
26.2312795362
 20
5.9906639642
 30
0.0
 10
26.1759959725
 20
5.9587450727
 30
0.0
 10
25.9472946863
 20
5.8313584311
 30
0.0
 10
25.7110026613
 20
5.7177258255
 30
0.0
 10
25.5294019601
 20
5.6390117485
 30
0.0
  0
SPLINE
  5
27F
100
AcDbEntity
  8
1
100
AcDbSpline
 62
7
  6
BYLAYER
 70
0
 71
3
 72
14
 73
10
 74
0
 42
0.0000001
 43
0.0000001
 44
0.0000000001
 40
0.0
 40
0.0
 40
0.0
 40
0.0
 40
0.1486506118
 40
0.2897285364
 40
0.5485153255
 40
0.667873774
 40
0.7818290118
 40
0.8919103452
 40
1.0
 40
1.0
 40
1.0
 40
1.0
 10
24.4956503159
 20
54.410161219
 30
0.0
 10
24.5889764615
 20
54.3562805627
 30
0.0
 10
24.7666669977
 20
54.2435549212
 30
0.0
 10
25.0812450751
 20
53.9999144079
 30
0.0
 10
25.3431513129
 20
53.7236356176
 30
0.0
 10
25.5319204104
 20
53.4196975613
 30
0.0
 10
25.6314288589
 20
53.1904082001
 30
0.0
 10
25.6911426047
 20
52.9560898997
 30
0.0
 10
25.7039649642
 20
52.7975381242
 30
0.0
 10
25.7035513752
 20
52.7191804348
 30
0.0
  0
SPLINE
  5
280
100
AcDbEntity
  8
1
100
AcDbSpline
 62
7
  6
BYLAYER
 70
0
 71
3
 72
11
 73
7
 74
0
 42
0.0000001
 43
0.0000001
 44
0.0000000001
 40
0.0
 40
0.0
 40
0.0
 40
0.0
 40
0.2290012903
 40
0.4731141929
 40
0.7306757854
 40
1.0
 40
1.0
 40
1.0
 40
1.0
 10
33.1706149267
 20
22.4783198417
 30
0.0
 10
33.0578714174
 20
22.235390769
 30
0.0
 10
32.8339464816
 20
21.7292995086
 30
0.0
 10
32.5105254224
 20
20.9382521662
 30
0.0
 10
32.189025237
 20
20.0957608022
 30
0.0
 10
31.9806531257
 20
19.5158302974
 30
0.0
 10
31.8765398088
 20
19.2185610241
 30
0.0
  0
SPLINE
  5
281
100
AcDbEntity
  8
1
100
AcDbSpline
 62
7
  6
BYLAYER
 70
0
 71
3
 72
11
 73
7
 74
0
 42
0.0000001
 43
0.0000001
 44
0.0000000001
 40
0.0
 40
0.0
 40
0.0
 40
0.0
 40
0.2205563685
 40
0.459898801
 40
0.7192980468
 40
1.0
 40
1.0
 40
1.0
 40
1.0
 10
34.4646900445
 20
24.7952628787
 30
0.0
 10
34.3540171813
 20
24.6343263989
 30
0.0
 10
34.1319001682
 20
24.2927378163
 30
0.0
 10
33.8089967623
 20
23.7434444646
 30
0.0
 10
33.4840712738
 20
23.134250729
 30
0.0
 10
33.2752607629
 20
22.703800813
 30
0.0
 10
33.1706149267
 20
22.4783198417
 30
0.0
  0
SPLINE
  5
282
100
AcDbEntity
  8
1
100
AcDbSpline
 62
7
  6
BYLAYER
 70
0
 71
3
 72
15
 73
11
 74
0
 42
0.0000001
 43
0.0000001
 44
0.0000000001
 40
0.0
 40
0.0
 40
0.0
 40
0.0
 40
0.0980147274
 40
0.2032703951
 40
0.3167472528
 40
0.4387534617
 40
0.5690009482
 40
0.7067342494
 40
0.8508690982
 40
1.0
 40
1.0
 40
1.0
 40
1.0
 10
33.1706149267
 20
22.4783198417
 30
0.0
 10
33.0309299195
 20
22.1773397721
 30
0.0
 10
32.6760137913
 20
21.5821139725
 30
0.0
 10
31.9716516082
 20
20.7678166177
 30
0.0
 10
31.0919790656
 20
20.0157566918
 30
0.0
 10
30.0525123423
 20
19.3376728727
 30
0.0
 10
28.8705211111
 20
18.7440166269
 30
0.0
 10
27.5657160206
 20
18.2442292152
 30
0.0
 10
26.1600360461
 20
17.8466412051
 30
0.0
 10
25.1842948533
 20
17.6565742939
 30
0.0
 10
24.6853688801
 20
17.5793899953
 30
0.0
  0
SPLINE
  5
283
100
AcDbEntity
  8
1
100
AcDbSpline
 62
7
  6
BYLAYER
 70
0
 71
3
 72
25
 73
21
 74
0
 42
0.0000001
 43
0.0000001
 44
0.0000000001
 40
0.0
 40
0.0
 40
0.0
 40
0.0
 40
0.0213355396
 40
0.0428916628
 40
0.064885057
 40
0.0875119332
 40
0.1352408545
 40
0.1870914394
 40
0.2434820443
 40
0.3043937051
 40
0.3694601971
 40
0.4380500183
 40
0.509343495
 40
0.5823883033
 40
0.6561477909
 40
0.7295614533
 40
0.8015791219
 40
0.871203862
 40
0.9376017596
 40
1.0
 40
1.0
 40
1.0
 40
1.0
 10
17.455439257
 20
52.7191804531
 30
0.0
 10
17.4551204713
 20
52.7777462398
 30
0.0
 10
17.4620475882
 20
52.8956626521
 30
0.0
 10
17.4950678314
 20
53.0711347977
 30
0.0
 10
17.5503925233
 20
53.2446344207
 30
0.0
 10
17.6553102711
 20
53.4759513286
 30
0.0
 10
17.8443232911
 20
53.7562375243
 30
0.0
 10
18.1470312787
 20
54.0618156811
 30
0.0
 10
18.5226442918
 20
54.3375596607
 30
0.0
 10
18.9631194501
 20
54.5781010537
 30
0.0
 10
19.4592333942
 20
54.7787231243
 30
0.0
 10
20.00051348
 20
54.935354396
 30
0.0
 10
20.5754973396
 20
55.0447246543
 30
0.0
 10
21.1719417559
 20
55.1044717153
 30
0.0
 10
21.7771033539
 20
55.1133570185
 30
0.0
 10
22.3780460588
 20
55.0711884083
 30
0.0
 10
22.961894611
 20
54.9788595794
 30
0.0
 10
23.516318816
 20
54.8383294314
 30
0.0
 10
24.0292842638
 20
54.6525233811
 30
0.0
 10
24.3473123859
 20
54.4958022253
 30
0.0
 10
24.4956503159
 20
54.410161219
 30
0.0
  0
SPLINE
  5
284
100
AcDbEntity
  8
1
100
AcDbSpline
 62
7
  6
BYLAYER
 70
0
 71
3
 72
11
 73
7
 74
0
 42
0.0000001
 43
0.0000001
 44
0.0000000001
 40
0.0
 40
0.0
 40
0.0
 40
0.0
 40
0.2177223876
 40
0.4508740741
 40
0.7104733784
 40
1.0
 40
1.0
 40
1.0
 40
1.0
 10
23.5251140532
 20
51.2568597435
 30
0.0
 10
23.525112448
 20
51.2340133142
 30
0.0
 10
23.5335150176
 20
51.1863786981
 30
0.0
 10
23.5696448813
 20
51.1199904908
 30
0.0
 10
23.6267659997
 20
51.0600281758
 30
0.0
 10
23.67451382
 20
51.0271036194
 30
0.0
 10
23.7008247887
 20
51.0119133182
 30
0.0
  0
SPLINE
  5
285
100
AcDbEntity
  8
1
100
AcDbSpline
 62
7
  6
BYLAYER
 70
0
 71
3
 72
9
 73
5
 74
0
 42
0.0000001
 43
0.0000001
 44
0.0000000001
 40
0.0
 40
0.0
 40
0.0
 40
0.0
 40
0.5160737456
 40
1.0
 40
1.0
 40
1.0
 40
1.0
 10
29.5149926237
 20
17.8551292597
 30
0.0
 10
29.9442426198
 20
18.046118038
 30
0.0
 10
30.7589832314
 20
18.4562452322
 30
0.0
 10
31.5239540224
 20
18.9544168373
 30
0.0
 10
31.8765398088
 20
19.2185610241
 30
0.0
  0
SPLINE
  5
286
100
AcDbEntity
  8
1
100
AcDbSpline
 62
7
  6
BYLAYER
 70
0
 71
3
 72
15
 73
11
 74
0
 42
0.0000001
 43
0.0000001
 44
0.0000000001
 40
0.0
 40
0.0
 40
0.0
 40
0.0
 40
0.1107768154
 40
0.2208923845
 40
0.3332599259
 40
0.4505131362
 40
0.5747038774
 40
0.7072739063
 40
0.8490507903
 40
1.0
 40
1.0
 40
1.0
 40
1.0
 10
16.6297635484
 20
53.1347585568
 30
0.0
 10
16.6028119194
 20
53.0257893481
 30
0.0
 10
16.5697983119
 20
52.8026428525
 30
0.0
 10
16.588922492
 20
52.4632641716
 30
0.0
 10
16.6765046702
 20
52.1280694833
 30
0.0
 10
16.8307864045
 20
51.8023616118
 30
0.0
 10
17.0486902744
 20
51.4903699913
 30
0.0
 10
17.326968922
 20
51.1959290188
 30
0.0
 10
17.6615865237
 20
50.9227560198
 30
0.0
 10
17.9115045755
 20
50.7617846468
 30
0.0
 10
18.0439728944
 20
50.6853057574
 30
0.0
  0
SPLINE
  5
287
100
AcDbEntity
  8
1
100
AcDbSpline
 62
7
  6
BYLAYER
 70
0
 71
3
 72
10
 73
6
 74
0
 42
0.0000001
 43
0.0000001
 44
0.0000000001
 40
0.0
 40
0.0
 40
0.0
 40
0.0
 40
0.2403293928
 40
0.486252238
 40
1.0
 40
1.0
 40
1.0
 40
1.0
 10
8.6942941165
 20
22.8047559203
 30
0.0
 10
8.7316308039
 20
22.643632192
 30
0.0
 10
8.8250398016
 20
22.3214823296
 30
0.0
 10
9.0843805067
 20
21.6830986837
 30
0.0
 10
9.3534000149
 20
21.230130748
 30
0.0
 10
9.5586974082
 20
20.9422833256
 30
0.0
  0
SPLINE
  5
288
100
AcDbEntity
  8
1
100
AcDbSpline
 62
7
  6
BYLAYER
 70
0
 71
3
 72
15
 73
11
 74
0
 42
0.0000001
 43
0.0000001
 44
0.0000000001
 40
0.0
 40
0.0
 40
0.0
 40
0.0
 40
0.1485809526
 40
0.2895108876
 40
0.4227267246
 40
0.5486441314
 40
0.6680045963
 40
0.7819424763
 40
0.8919924626
 40
1.0
 40
1.0
 40
1.0
 40
1.0
 10
13.0942460339
 20
19.3724874433
 30
0.0
 10
12.8236085823
 20
19.5287365141
 30
0.0
 10
12.3085119942
 20
19.8552311341
 30
0.0
 10
11.604295442
 20
20.4002724919
 30
0.0
 10
10.9951830145
 20
20.9832974552
 30
0.0
 10
10.4872855297
 20
21.5989478552
 30
0.0
 10
10.085706427
 20
22.2417444416
 30
0.0
 10
9.7950190543
 20
22.9059120044
 30
0.0
 10
9.6189886206
 20
23.5847030172
 30
0.0
 10
9.5794886522
 20
24.0442500333
 30
0.0
 10
9.5794908992
 20
24.2714172898
 30
0.0
  0
SPLINE
  5
289
100
AcDbEntity
  8
1
100
AcDbSpline
 62
7
  6
BYLAYER
 70
0
 71
3
 72
28
 73
24
 74
0
 42
0.0000001
 43
0.0000001
 44
0.0000000001
 40
0.0
 40
0.0
 40
0.0
 40
0.0
 40
0.0306624255
 40
0.0624022485
 40
0.1287340752
 40
0.1983173794
 40
0.2702854196
 40
0.343653476
 40
0.417376044
 40
0.4903913865
 40
0.5616691087
 40
0.630257877
 40
0.6953374301
 40
0.7562775281
 40
0.7850849767
 40
0.8127451124
 40
0.8646392276
 40
0.8890230112
 40
0.9124693214
 40
0.935111035
 40
0.9571133875
 40
0.978670894
 40
1.0
 40
1.0
 40
1.0
 40
1.0
 10
13.0942460339
 20
37.0497647742
 30
0.0
 10
13.3061843673
 20
36.9274048885
 30
0.0
 10
13.7457042825
 20
36.6923407926
 30
0.0
 10
14.6792057163
 20
36.2619920912
 30
0.0
 10
15.9398665141
 20
35.8052456631
 30
0.0
 10
17.550319006
 20
35.3964329041
 30
0.0
 10
19.2467283016
 20
35.1274337091
 30
0.0
 10
20.9928471133
 20
35.0040077313
 30
0.0
 10
22.7514877117
 20
35.0287553266
 30
0.0
 10
24.4851283045
 20
35.2011625031
 30
0.0
 10
26.1568146914
 20
35.5175499276
 30
0.0
 10
27.7310902823
 20
35.9712637751
 30
0.0
 10
29.17447114
 20
36.5527402129
 30
0.0
 10
30.2631038209
 20
37.1448217627
 30
0.0
 10
31.0371765896
 20
37.6743180941
 30
0.0
 10
31.7141173575
 20
38.2133156793
 30
0.0
 10
32.3028424128
 20
38.804694222
 30
0.0
 10
32.779257446
 20
39.443662228
 30
0.0
 10
33.0686716528
 20
39.9271849004
 30
0.0
 10
33.2957391156
 20
40.4221782239
 30
0.0
 10
33.4590657422
 20
40.9260233532
 30
0.0
 10
33.557496409
 20
41.4357815842
 30
0.0
 10
33.5794956775
 20
41.7784620831
 30
0.0
 10
33.5794870374
 20
41.9486946206
 30
0.0
  0
SPLINE
  5
28A
100
AcDbEntity
  8
1
100
AcDbSpline
 62
7
  6
BYLAYER
 70
0
 71
3
 72
27
 73
23
 74
0
 42
0.0000001
 43
0.0000001
 44
0.0000000001
 40
0.0
 40
0.0
 40
0.0
 40
0.0
 40
0.0821474034
 40
0.1610694369
 40
0.2361863563
 40
0.3070697472
 40
0.3734837866
 40
0.4354359683
 40
0.4932309603
 40
0.5475150561
 40
0.5736723614
 40
0.5993569257
 40
0.6247404473
 40
0.6500062724
 40
0.6753412586
 40
0.700930287
 40
0.7269492124
 40
0.7535593112
 40
0.8090475367
 40
0.8683226524
 40
0.9319254479
 40
1.0
 40
1.0
 40
1.0
 40
1.0
 10
25.0464578823
 20
38.883496616
 30
0.0
 10
25.4000307407
 20
38.9635209642
 30
0.0
 10
26.0877185056
 20
39.1467472171
 30
0.0
 10
27.070478842
 20
39.4976365829
 30
0.0
 10
27.9727826494
 20
39.9148199715
 30
0.0
 10
28.78144286
 20
40.392393098
 30
0.0
 10
29.4847025462
 20
40.9237609285
 30
0.0
 10
30.072203948
 20
41.5018571874
 30
0.0
 10
30.5348597785
 20
42.1188448726
 30
0.0
 10
30.8132915015
 20
42.6659083984
 30
0.0
 10
30.9625351462
 20
43.110540107
 30
0.0
 10
31.03816322
 20
43.4434637455
 30
0.0
 10
31.0783455703
 20
43.7785408449
 30
0.0
 10
31.082931976
 20
44.1144543031
 30
0.0
 10
31.05197738
 20
44.4498770897
 30
0.0
 10
30.9855025206
 20
44.7834680338
 30
0.0
 10
30.8838845032
 20
45.1139590084
 30
0.0
 10
30.6996376292
 20
45.5547736732
 30
0.0
 10
30.3784801232
 20
46.0937914129
 30
0.0
 10
29.8685727582
 20
46.6973013395
 30
0.0
 10
29.2370502184
 20
47.2588637167
 30
0.0
 10
28.7572922117
 20
47.5893839159
 30
0.0
 10
28.5013042745
 20
47.7466027824
 30
0.0
  0
SPLINE
  5
28B
100
AcDbEntity
  8
1
100
AcDbSpline
 62
7
  6
BYLAYER
 70
0
 71
3
 72
9
 73
5
 74
0
 42
0.0000001
 43
0.0000001
 44
0.0000000001
 40
0.0
 40
0.0
 40
0.0
 40
0.0
 40
0.2439313674
 40
1.0
 40
1.0
 40
1.0
 40
1.0
 10
28.5013042745
 20
47.7466027824
 30
0.0
 10
28.4297955533
 20
47.790520946
 30
0.0
 10
28.1339878013
 20
47.9662192063
 30
0.0
 10
27.8281704464
 20
48.1249222373
 30
0.0
 10
27.5929628464
 20
48.2359748452
 30
0.0
  0
SPLINE
  5
28C
100
AcDbEntity
  8
1
100
AcDbSpline
 62
7
  6
BYLAYER
 70
0
 71
3
 72
23
 73
19
 74
0
 42
0.0000001
 43
0.0000001
 44
0.0000000001
 40
0.0
 40
0.0
 40
0.0
 40
0.0
 40
0.0771864745
 40
0.1505124121
 40
0.2198538458
 40
0.2852439881
 40
0.3469082515
 40
0.4052817802
 40
0.4610270571
 40
0.5150213384
 40
0.5683024172
 40
0.6219791288
 40
0.6771222571
 40
0.7346647206
 40
0.7953255348
 40
0.8596111982
 40
0.9278299676
 40
1.0
 40
1.0
 40
1.0
 40
1.0
 10
15.5745877464
 20
48.2400242548
 30
0.0
 10
15.3288863232
 20
48.1243062382
 30
0.0
 10
14.8583434212
 20
47.8796948267
 30
0.0
 10
14.2053147269
 20
47.4629893093
 30
0.0
 10
13.6288873901
 20
47.0095377147
 30
0.0
 10
13.1352118553
 20
46.5237308198
 30
0.0
 10
12.7295237191
 20
46.0103248993
 30
0.0
 10
12.4165383189
 20
45.4742321764
 30
0.0
 10
12.2002572018
 20
44.9208618869
 30
0.0
 10
12.0837578908
 20
44.356249584
 30
0.0
 10
12.069106248
 20
43.787080531
 30
0.0
 10
12.1564284695
 20
43.2204483432
 30
0.0
 10
12.3442936581
 20
42.6631888942
 30
0.0
 10
12.6299141699
 20
42.1215886368
 30
0.0
 10
13.009339398
 20
41.6011084242
 30
0.0
 10
13.478307717
 20
41.1068228131
 30
0.0
 10
14.0315527125
 20
40.6436832356
 30
0.0
 10
14.4412947709
 20
40.3661947387
 30
0.0
 10
14.6576798865
 20
40.2332985445
 30
0.0
  0
SPLINE
  5
28D
100
AcDbEntity
  8
1
100
AcDbSpline
 62
7
  6
BYLAYER
 70
0
 71
3
 72
15
 73
11
 74
0
 42
0.0000001
 43
0.0000001
 44
0.0000000001
 40
0.0
 40
0.0
 40
0.0
 40
0.0
 40
0.1475535832
 40
0.2877318013
 40
0.4204730043
 40
0.5462306078
 40
0.6657897488
 40
0.7802532544
 40
0.8910753957
 40
1.0
 40
1.0
 40
1.0
 40
1.0
 10
28.1369983695
 20
47.5488842499
 30
0.0
 10
28.3259064797
 20
47.4328634745
 30
0.0
 10
28.6852163141
 20
47.1913120854
 30
0.0
 10
29.175410982
 20
46.7912734324
 30
0.0
 10
29.5986643174
 20
46.3657311921
 30
0.0
 10
29.9510627869
 20
45.9184642803
 30
0.0
 10
30.2292766187
 20
45.4531019431
 30
0.0
 10
30.4304680378
 20
44.9735753398
 30
0.0
 10
30.5522186126
 20
44.4843774042
 30
0.0
 10
30.5794776956
 20
44.1536042399
 30
0.0
 10
30.579466835
 20
43.9899507944
 30
0.0
  0
SPLINE
  5
28E
100
AcDbEntity
  8
1
100
AcDbSpline
 62
7
  6
BYLAYER
 70
0
 71
3
 72
9
 73
5
 74
0
 42
0.0000001
 43
0.0000001
 44
0.0000000001
 40
0.0
 40
0.0
 40
0.0
 40
0.0
 40
0.5149842263
 40
1.0
 40
1.0
 40
1.0
 40
1.0
 10
13.0942460339
 20
19.3724874433
 30
0.0
 10
12.5183316417
 20
19.7049842507
 30
0.0
 10
11.3649538704
 20
20.2921555125
 30
0.0
 10
10.155046113
 20
20.7508994104
 30
0.0
 10
9.5586974082
 20
20.9422833256
 30
0.0
  0
SPLINE
  5
28F
100
AcDbEntity
  8
1
100
AcDbSpline
 62
7
  6
BYLAYER
 70
0
 71
3
 72
11
 73
7
 74
0
 42
0.0000001
 43
0.0000001
 44
0.0000000001
 40
0.0
 40
0.0
 40
0.0
 40
0.0
 40
0.2585281581
 40
0.5118653157
 40
0.7592978375
 40
1.0
 40
1.0
 40
1.0
 40
1.0
 10
16.6297946597
 20
16.8598757804
 30
0.0
 10
16.3423825959
 20
17.09950508
 30
0.0
 10
15.7653478238
 20
17.5644949786
 30
0.0
 10
14.8843666521
 20
18.2220384134
 30
0.0
 10
13.9979888834
 20
18.8277329818
 30
0.0
 10
13.3959718766
 20
19.1982898877
 30
0.0
 10
13.0942460339
 20
19.3724874433
 30
0.0
  0
SPLINE
  5
290
100
AcDbEntity
  8
1
100
AcDbSpline
 62
7
  6
BYLAYER
 70
0
 71
3
 72
9
 73
5
 74
0
 42
0.0000001
 43
0.0000001
 44
0.0000000001
 40
0.0
 40
0.0
 40
0.0
 40
0.0
 40
0.4943827942
 40
1.0
 40
1.0
 40
1.0
 40
1.0
 10
16.6297946597
 20
16.8598757804
 30
0.0
 10
17.1535484358
 20
16.7353657572
 30
0.0
 10
18.2238098333
 20
16.5275559341
 30
0.0
 10
19.3067964492
 20
16.4032330942
 30
0.0
 10
19.8557451365
 20
16.3608349503
 30
0.0
  0
SPLINE
  5
291
100
AcDbEntity
  8
1
100
AcDbSpline
 62
7
  6
BYLAYER
 70
0
 71
3
 72
15
 73
11
 74
0
 42
0.0000001
 43
0.0000001
 44
0.0000000001
 40
0.0
 40
0.0
 40
0.0
 40
0.0
 40
0.1298425803
 40
0.2611905963
 40
0.3925259819
 40
0.5223749791
 40
0.6492922651
 40
0.7719403272
 40
0.8891638547
 40
1.0
 40
1.0
 40
1.0
 40
1.0
 10
24.6853688801
 20
17.5793899953
 30
0.0
 10
24.1749180299
 20
17.5004227878
 30
0.0
 10
23.1413643549
 20
17.3824251159
 30
0.0
 10
21.5795721802
 20
17.3236420861
 30
0.0
 10
20.0176535431
 20
17.3824330012
 30
0.0
 10
18.4821989974
 20
17.5577137243
 30
0.0
 10
16.9991088542
 20
17.8466132191
 30
0.0
 10
15.5932870379
 20
18.2442274908
 30
0.0
 10
14.288644011
 20
18.7439169664
 30
0.0
 10
13.4760908785
 20
19.1520342069
 30
0.0
 10
13.0942460339
 20
19.3724874433
 30
0.0
  0
SPLINE
  5
292
100
AcDbEntity
  8
1
100
AcDbSpline
 62
7
  6
BYLAYER
 70
0
 71
3
 72
9
 73
5
 74
0
 42
0.0000001
 43
0.0000001
 44
0.0000000001
 40
0.0
 40
0.0
 40
0.0
 40
0.0
 40
0.4975682171
 40
1.0
 40
1.0
 40
1.0
 40
1.0
 10
24.6853688801
 20
17.5793899953
 30
0.0
 10
23.8681599776
 20
17.4529670401
 30
0.0
 10
22.2382403394
 20
17.1132110757
 30
0.0
 10
20.6457310707
 20
16.6313322881
 30
0.0
 10
19.8557451365
 20
16.3608349503
 30
0.0
  0
SPLINE
  5
293
100
AcDbEntity
  8
1
100
AcDbSpline
 62
7
  6
BYLAYER
 70
0
 71
3
 72
9
 73
5
 74
0
 42
0.0000001
 43
0.0000001
 44
0.0000000001
 40
0.0
 40
0.0
 40
0.0
 40
0.0
 40
0.2467928057
 40
1.0
 40
1.0
 40
1.0
 40
1.0
 10
29.5149926237
 20
17.8551292597
 30
0.0
 10
29.1169476046
 20
17.8682671271
 30
0.0
 10
27.5033123244
 20
17.887868392
 30
0.0
 10
25.8865678527
 20
17.7652165611
 30
0.0
 10
24.6853688801
 20
17.5793899953
 30
0.0
  0
SPLINE
  5
294
100
AcDbEntity
  8
1
100
AcDbSpline
 62
7
  6
BYLAYER
 70
0
 71
3
 72
11
 73
7
 74
0
 42
0.0000001
 43
0.0000001
 44
0.0000000001
 40
0.0
 40
0.0
 40
0.0
 40
0.0
 40
0.2372295822
 40
0.4799028735
 40
0.7328824475
 40
1.0
 40
1.0
 40
1.0
 40
1.0
 10
26.7794920804
 20
51.3822286503
 30
0.0
 10
26.7794909792
 20
51.2732747054
 30
0.0
 10
26.7584238986
 20
51.0523375052
 30
0.0
 10
26.6648145973
 20
50.727209647
 30
0.0
 10
26.5106562929
 20
50.4108940574
 30
0.0
 10
26.3733058644
 20
50.214240176
 30
0.0
 10
26.2964457473
 20
50.1186206324
 30
0.0
  0
SPLINE
  5
295
100
AcDbEntity
  8
1
100
AcDbSpline
 62
7
  6
BYLAYER
 70
0
 71
3
 72
25
 73
21
 74
0
 42
0.0000001
 43
0.0000001
 44
0.0000000001
 40
0.0
 40
0.0
 40
0.0
 40
0.0
 40
0.0213317768
 40
0.0428920354
 40
0.0648969262
 40
0.0875419264
 40
0.135316258
 40
0.1872165662
 40
0.2436546379
 40
0.3046026224
 40
0.3696899407
 40
0.4382872572
 40
0.5095743953
 40
0.5825989938
 40
0.6563303452
 40
0.729708189
 40
0.8016862413
 40
0.8712719782
 40
0.9376267127
 40
1.0
 40
1.0
 40
1.0
 40
1.0
 10
26.5794920804
 20
50.113718792
 30
0.0
 10
26.5794913635
 20
50.0427886947
 30
0.0
 10
26.5703093734
 20
49.9000060311
 30
0.0
 10
26.5293062388
 20
49.6876096859
 30
0.0
 10
26.4612634484
 20
49.4776594114
 30
0.0
 10
26.3328606888
 20
49.1977936798
 30
0.0
 10
26.1025177772
 20
48.8587966423
 30
0.0
 10
25.7345209099
 20
48.4893122288
 30
0.0
 10
25.2784507768
 20
48.1560479307
 30
0.0
 10
24.744100501
 20
47.8654349186
 30
0.0
 10
24.1426445108
 20
47.6231181139
 30
0.0
 10
23.4867148674
 20
47.4340691884
 30
0.0
 10
22.7901716374
 20
47.3022491276
 30
0.0
 10
22.0678224546
 20
47.2304225011
 30
0.0
 10
21.3350579321
 20
47.2201018239
 30
0.0
 10
20.6074983522
 20
47.2715202308
 30
0.0
 10
19.9007034727
 20
47.3836214709
 30
0.0
 10
19.2295715586
 20
47.5539563428
 30
0.0
 10
18.6085859752
 20
47.7790142083
 30
0.0
 10
18.2235848518
 20
47.9688013566
 30
0.0
 10
18.0439728944
 20
48.0724980226
 30
0.0
  0
SPLINE
  5
296
100
AcDbEntity
  8
1
100
AcDbSpline
 62
7
  6
BYLAYER
 70
0
 71
3
 72
23
 73
19
 74
0
 42
0.0000001
 43
0.0000001
 44
0.0000000001
 40
0.0
 40
0.0
 40
0.0
 40
0.0
 40
0.0595699339
 40
0.1225520381
 40
0.1884065295
 40
0.2565570223
 40
0.3263054092
 40
0.3969016628
 40
0.4675711484
 40
0.5375332846
 40
0.6060330677
 40
0.672366489
 40
0.7359076389
 40
0.7961450385
 40
0.8527164292
 40
0.9054502857
 40
0.9544209309
 40
1.0
 40
1.0
 40
1.0
 40
1.0
 10
16.9278094874
 20
12.0377632782
 30
0.0
 10
17.1338373195
 20
11.9188157448
 30
0.0
 10
17.5719716762
 20
11.698300861
 30
0.0
 10
18.2749424736
 20
11.4272064114
 30
0.0
 10
19.0321625097
 20
11.2103185914
 30
0.0
 10
19.8310221667
 20
11.0511222568
 30
0.0
 10
20.658587562
 20
10.9522028194
 30
0.0
 10
21.5012593402
 20
10.9151689401
 30
0.0
 10
22.3452130272
 20
10.9406400374
 30
0.0
 10
23.1766011287
 20
11.0282194942
 30
0.0
 10
23.9817963864
 20
11.1764306992
 30
0.0
 10
24.7476258271
 20
11.3828694478
 30
0.0
 10
25.4615833388
 20
11.6442361018
 30
0.0
 10
26.1120885271
 20
11.956321539
 30
0.0
 10
26.6886126102
 20
12.3142114689
 30
0.0
 10
27.181814524
 20
12.7125952253
 30
0.0
 10
27.5833893474
 20
13.145325229
 30
0.0
 10
27.7920306804
 20
13.4629555105
 30
0.0
 10
27.8764646879
 20
13.6242131119
 30
0.0
  0
SPLINE
  5
297
100
AcDbEntity
  8
1
100
AcDbSpline
 62
7
  6
BYLAYER
 70
0
 71
3
 72
15
 73
11
 74
0
 42
0.0000001
 43
0.0000001
 44
0.0000000001
 40
0.0
 40
0.0
 40
0.0
 40
0.0
 40
0.1080111667
 40
0.2180596801
 40
0.3320010793
 40
0.4513578919
 40
0.5772628144
 40
0.710492937
 40
0.8514575194
 40
1.0
 40
1.0
 40
1.0
 40
1.0
 10
15.5795032894
 20
49.6423109013
 30
0.0
 10
15.5794931987
 20
49.5287236519
 30
0.0
 10
15.5992378228
 20
49.2989468163
 30
0.0
 10
15.6872609362
 20
48.9595463111
 30
0.0
 10
15.8326288684
 20
48.6274775541
 30
0.0
 10
16.0333785868
 20
48.3060712315
 30
0.0
 10
16.2873399229
 20
47.9982590177
 30
0.0
 10
16.5919091645
 20
47.7067047773
 30
0.0
 10
16.944060239
 20
47.4342224675
 30
0.0
 10
17.2015856018
 20
47.2709501509
 30
0.0
 10
17.3368690572
 20
47.1928459784
 30
0.0
  0
SPLINE
  5
298
100
AcDbEntity
  8
1
100
AcDbSpline
 62
7
  6
BYLAYER
 70
0
 71
3
 72
15
 73
11
 74
0
 42
0.0000001
 43
0.0000001
 44
0.0000000001
 40
0.0
 40
0.0
 40
0.0
 40
0.0
 40
0.1485424806
 40
0.289507063
 40
0.4227371856
 40
0.5486421081
 40
0.6679989207
 40
0.7819403199
 40
0.8919888333
 40
1.0
 40
1.0
 40
1.0
 40
1.0
 10
17.3368690572
 20
41.9487369488
 30
0.0
 10
17.2015856018
 20
42.0268411213
 30
0.0
 10
16.944060239
 20
42.1901134379
 30
0.0
 10
16.5919091645
 20
42.4625957477
 30
0.0
 10
16.2873399229
 20
42.7541499881
 30
0.0
 10
16.0333785868
 20
43.0619622019
 30
0.0
 10
15.8326288684
 20
43.3833685245
 30
0.0
 10
15.6872609362
 20
43.7154372815
 30
0.0
 10
15.5992378228
 20
44.0548377867
 30
0.0
 10
15.5794931987
 20
44.2846146223
 30
0.0
 10
15.5795032894
 20
44.3982018717
 30
0.0
  0
SPLINE
  5
299
100
AcDbEntity
  8
1
100
AcDbSpline
 62
7
  6
BYLAYER
 70
0
 71
3
 72
25
 73
21
 74
0
 42
0.0000001
 43
0.0000001
 44
0.0000000001
 40
0.0
 40
0.0
 40
0.0
 40
0.0
 40
0.0213318996
 40
0.0428919381
 40
0.0648973691
 40
0.0875416688
 40
0.1353167231
 40
0.187217302
 40
0.2436543918
 40
0.3046019887
 40
0.3696901142
 40
0.4382877983
 40
0.5095743699
 40
0.5825988319
 40
0.6563307499
 40
0.7297080135
 40
0.8016860297
 40
0.8712735683
 40
0.9376232943
 40
1.0
 40
1.0
 40
1.0
 40
1.0
 10
27.5794808716
 20
44.3982018724
 30
0.0
 10
27.5794733101
 20
44.3130852407
 30
0.0
 10
27.5684837398
 20
44.1417464062
 30
0.0
 10
27.5192922036
 20
43.8868622531
 30
0.0
 10
27.4375879301
 20
43.6349426704
 30
0.0
 10
27.2835778674
 20
43.2990692006
 30
0.0
 10
27.0071069976
 20
42.8923003586
 30
0.0
 10
26.5655138892
 20
42.4489266971
 30
0.0
 10
26.0182449757
 20
42.0489936772
 30
0.0
 10
25.3770343515
 20
41.700243358
 30
0.0
 10
24.6552769636
 20
41.4094763866
 30
0.0
 10
23.8681538816
 20
41.182636962
 30
0.0
 10
23.0323061018
 20
41.0244410548
 30
0.0
 10
22.1654884856
 20
40.9382339287
 30
0.0
 10
21.2861706814
 20
40.925853376
 30
0.0
 10
20.4131005516
 20
40.9875697015
 30
0.0
 10
19.5649407129
 20
41.122085683
 30
0.0
 10
18.7595965417
 20
41.3264895514
 30
0.0
 10
18.014405087
 20
41.5965390848
 30
0.0
 10
17.5524152832
 20
41.8242940925
 30
0.0
 10
17.3368690572
 20
41.9487369488
 30
0.0
  0
SPLINE
  5
29A
100
AcDbEntity
  8
1
100
AcDbSpline
 62
7
  6
BYLAYER
 70
0
 71
3
 72
14
 73
10
 74
0
 42
0.0000001
 43
0.0000001
 44
0.0000000001
 40
0.0
 40
0.0
 40
0.0
 40
0.0
 40
0.1086412008
 40
0.2200657844
 40
0.3355365034
 40
0.4560574948
 40
0.7147749863
 40
0.8541238847
 40
1.0
 40
1.0
 40
1.0
 40
1.0
 10
30.5543625453
 20
43.9696662449
 30
0.0
 10
30.5351774102
 20
44.1175500872
 30
0.0
 10
30.4741470882
 20
44.4146455442
 30
0.0
 10
30.3186812937
 20
44.8496124391
 30
0.0
 10
30.0997743776
 20
45.2747682203
 30
0.0
 10
29.7172504002
 20
45.8374642363
 30
0.0
 10
29.2191617505
 20
46.3541755689
 30
0.0
 10
28.6338507137
 20
46.8183728344
 30
0.0
 10
28.3076208486
 20
47.0358426631
 30
0.0
 10
28.1369983695
 20
47.1406330413
 30
0.0
  0
SPLINE
  5
29B
100
AcDbEntity
  8
1
100
AcDbSpline
 62
7
  6
BYLAYER
 70
0
 71
3
 72
15
 73
11
 74
0
 42
0.0000001
 43
0.0000001
 44
0.0000000001
 40
0.0
 40
0.0
 40
0.0
 40
0.0
 40
0.1485263577
 40
0.2895010829
 40
0.4227415638
 40
0.5486452136
 40
0.6679959928
 40
0.7819398889
 40
0.8919882913
 40
1.0
 40
1.0
 40
1.0
 40
1.0
 10
18.0439728944
 20
48.0724980226
 30
0.0
 10
17.9312489805
 20
48.1375777323
 30
0.0
 10
17.7166551197
 20
48.2736438882
 30
0.0
 10
17.4231837224
 20
48.500702954
 30
0.0
 10
17.1693671191
 20
48.7436786506
 30
0.0
 10
16.9577160533
 20
49.0001807007
 30
0.0
 10
16.790459383
 20
49.2680339607
 30
0.0
 10
16.6692857524
 20
49.544739942
 30
0.0
 10
16.5959651936
 20
49.8275853373
 30
0.0
 10
16.5794911239
 20
50.0190623279
 30
0.0
 10
16.5794920806
 20
50.113718792
 30
0.0
  0
SPLINE
  5
29C
100
AcDbEntity
  8
1
100
AcDbSpline
 62
7
  6
BYLAYER
 70
0
 71
3
 72
25
 73
21
 74
0
 42
0.0000001
 43
0.0000001
 44
0.0000000001
 40
0.0
 40
0.0
 40
0.0
 40
0.0
 40
0.0623767057
 40
0.1287264317
 40
0.1983139703
 40
0.2702919865
 40
0.3436692501
 40
0.4174011681
 40
0.4904256301
 40
0.5617122017
 40
0.6303098858
 40
0.6953980113
 40
0.7563456082
 40
0.812782698
 40
0.8646832769
 40
0.9124583312
 40
0.9351026309
 40
0.9571080619
 40
0.9786681004
 40
1.0
 40
1.0
 40
1.0
 40
1.0
 10
17.3368690572
 20
47.1928459784
 30
0.0
 10
17.5524152832
 20
47.0684031221
 30
0.0
 10
18.014405087
 20
46.8406481144
 30
0.0
 10
18.7595965417
 20
46.570598581
 30
0.0
 10
19.5649407129
 20
46.3661947126
 30
0.0
 10
20.4131005516
 20
46.2316787311
 30
0.0
 10
21.2861706814
 20
46.1699624055
 30
0.0
 10
22.1654884856
 20
46.1823429583
 30
0.0
 10
23.0323061018
 20
46.2685500844
 30
0.0
 10
23.8681538816
 20
46.4267459916
 30
0.0
 10
24.6552769636
 20
46.6535854162
 30
0.0
 10
25.3770343515
 20
46.9443523876
 30
0.0
 10
26.0182449757
 20
47.2931027068
 30
0.0
 10
26.5655138892
 20
47.6930357267
 30
0.0
 10
27.0071069976
 20
48.1364093882
 30
0.0
 10
27.2835778674
 20
48.5431782301
 30
0.0
 10
27.4375879301
 20
48.8790517
 30
0.0
 10
27.5192922036
 20
49.1309712827
 30
0.0
 10
27.5684837398
 20
49.3858554357
 30
0.0
 10
27.5794733101
 20
49.5571942703
 30
0.0
 10
27.5794808716
 20
49.642310902
 30
0.0
  0
SPLINE
  5
29D
100
AcDbEntity
  8
1
100
AcDbSpline
 62
7
  6
BYLAYER
 70
0
 71
3
 72
11
 73
7
 74
0
 42
0.0000001
 43
0.0000001
 44
0.0000000001
 40
0.0
 40
0.0
 40
0.0
 40
0.0
 40
0.2449194656
 40
0.4919712047
 40
0.7431195028
 40
1.0
 40
1.0
 40
1.0
 40
1.0
 10
33.5794932618
 20
24.2714172898
 30
0.0
 10
33.5794917654
 20
24.1201456906
 30
0.0
 10
33.5621880456
 20
23.8160100372
 30
0.0
 10
33.4845069858
 20
23.3627210537
 30
0.0
 10
33.3555047357
 20
22.9136371803
 30
0.0
 10
33.2374061781
 20
22.6222353265
 30
0.0
 10
33.1706149267
 20
22.4783198417
 30
0.0
  0
SPLINE
  5
29E
100
AcDbEntity
  8
1
100
AcDbSpline
 62
7
  6
BYLAYER
 70
0
 71
3
 72
16
 73
12
 74
0
 42
0.0000001
 43
0.0000001
 44
0.0000000001
 40
0.0
 40
0.0
 40
0.0
 40
0.0
 40
0.1089188725
 40
0.2197351948
 40
0.3341896468
 40
0.4537450764
 40
0.5158230274
 40
0.5795590347
 40
0.7122826708
 40
0.8524343948
 40
1.0
 40
1.0
 40
1.0
 40
1.0
 10
9.5794971236
 20
41.9486946207
 30
0.0
 10
9.5795081985
 20
41.7304883859
 30
0.0
 10
9.6158445843
 20
41.2894566139
 30
0.0
 10
9.7782084712
 20
40.6371942174
 30
0.0
 10
10.0463762745
 20
39.9978205674
 30
0.0
 10
10.351814176
 20
39.4870930506
 30
0.0
 10
10.6431306742
 20
39.090840012
 30
0.0
 10
10.9749897916
 20
38.6927917352
 30
0.0
 10
11.4516125648
 20
38.213598693
 30
0.0
 10
12.1051243455
 20
37.6802201322
 30
0.0
 10
12.5842372096
 20
37.3581661144
 30
0.0
 10
12.8361503618
 20
37.2034498388
 30
0.0
  0
ENDSEC
  0
SECTION
  2
OBJECTS
  0
DICTIONARY
  5
C
100
AcDbDictionary
280
0
281
1
  3
ACAD_GROUP
350
D
  3
ACAD_MLINESTYLE
350
17
  3
ACAD_LAYOUT
350
1A
  3
ACAD_PLOTSETTINGS
350
19
  3
ACAD_PLOTSTYLENAME
350
E
  0
DICTIONARY
  5
D
102
{ACAD_REACTORS
330
C
102
}
100
AcDbDictionary
280
0
281
1
  0
ACDBDICTIONARYWDFLT
  5
E
102
{ACAD_REACTORS
330
C
102
}
100
AcDbDictionary
281
1
  3
Normal
350
F
100
AcDbDictionaryWithDefault
340
F
  0
DICTIONARY
  5
17
102
{ACAD_REACTORS
330
C
102
}
100
AcDbDictionary
280
0
281
1
  3
Standard
350
18
  0
DICTIONARY
  5
19
102
{ACAD_REACTORS
330
C
102
}
100
AcDbDictionary
281
1
  0
DICTIONARY
  5
1A
102
{ACAD_REACTORS
330
C
102
}
100
AcDbDictionary
281
1
  3
Model
350
29F
  3
Layout1
350
2A0
  0
ACDBPLACEHOLDER
  5
F
102
{ACAD_REACTORS
330
E
102
}
  0
MLINESTYLE
  5
18
102
{ACAD_REACTORS
330
17
102
}
100
AcDbMlineStyle
  2
STANDARD
 70
0
  3

 62
256
 51
90.0
 52
90.0
 71
2
 49
0.5
 62
256
  6
BYLAYER
 49
-0.5
 62
256
  6
BYLAYER
  0
LAYOUT
  5
29F
102
{ACAD_REACTORS
330
1A
102
}
100
AcDbPlotSettings
  1

  2
none_device
  4

  6

 40
0.0
 41
0.0
 42
0.0
 43
0.0
 44
210.0
 45
297.0
 46
0.0
 47
0.0
 48
0.0
 49
0.0
140
0.0
141
0.0
142
1.0
143
1.0
 70
1024
 72
1
 73
0
 74
0
  7

 75
0
147
1.0
148
0.0
149
0.0
100
AcDbLayout
  1
Model
 70
0
 71
0
 10
0.0
 20
0.0
 11
210.0
 21
297.0
 12
0.0
 22
0.0
 32
0.0
 14
0.0
 24
0.0
 34
0.0
 15
0.0
 25
0.0
 35
0.0
146
0.0
 13
0.0
 23
0.0
 33
0.0
 16
1.0
 26
0.0
 36
0.0
 17
0.0
 27
1.0
 37
0.0
 76
0
330
211
345
0
346
0
  0
LAYOUT
  5
2A0
102
{ACAD_REACTORS
330
1A
102
}
100
AcDbPlotSettings
  1

  2
none_device
  4

  6

 40
0.0
 41
0.0
 42
0.0
 43
0.0
 44
210.0
 45
297.0
 46
0.0
 47
0.0
 48
0.0
 49
0.0
140
0.0
141
0.0
142
1.0
143
1.0
 70
0
 72
1
 73
0
 74
0
  7

 75
0
147
1.0
148
0.0
149
0.0
100
AcDbLayout
  1
Layout1
 70
0
 71
1
 10
0.0
 20
0.0
 11
210.0
 21
297.0
 12
0.0
 22
0.0
 32
0.0
 14
0.0
 24
0.0
 34
0.0
 15
0.0
 25
0.0
 35
0.0
146
0.0
 13
0.0
 23
0.0
 33
0.0
 16
1.0
 26
0.0
 36
0.0
 17
0.0
 27
1.0
 37
0.0
 76
0
330
212
345
0
346
0
  0
ENDSEC
  0
EOF
