999
DXF file: C:\Users\sesa63760\Dev\_Creo\CAD\MCADUE0001288_3D-CAD\drw0001_6.dxf
999
Pro/ENGINEER 2019471 by Parametric Technology Corporation
  0
SECTION
  2
HEADER
  9
$ACADVER
  1
AC1024
  9
$DWGCODEPAGE
  3
ANSI_1252
  9
$EXTMAX
 10
1016.4400604283
 20
1437.5366568915
 30
0.0
  9
$EXTMIN
 10
0.0
 20
0.0
 30
0.0
  9
$LIMMIN
 10
0.0
 20
0.0
  9
$LIMMAX
 10
1016.4400604283
 20
1437.5366568915
  9
$VIEWCTR
 10
508.2200302142
 20
718.7683284457
  9
$VIEWSIZE
 40
1437.5366568915
  9
$CLAYER
  8
0
  9
$LTSCALE
 40
93.70609319
  9
$CELTYPE
  6
BYLAYER
  9
$DIMSCALE
 40
1.0
  9
$DIMASZ
 40
12.1004769099
  9
$DIMEXO
 40
1.0
  9
$DIMDLI
 40
64.7423916585
  9
$DIMEXE
 40
1.0
  9
$DIMCEN
 40
15.3337243402
  9
$DIMLFAC
 40
1.0
  9
$DIMBLK
  1
_FILLED
  9
$DIMALT
 70
0
  9
$DIMALTF
 40
0.0393700787
  9
$DIMTXT
 40
16.9406676738
  9
$DIMTOL
 70
1
  9
$DIMLIM
 70
0
  9
$DIMTFAC
 40
1.0
  9
$DIMTP
 40
0.01
  9
$DIMTM
 40
0.01
  9
$DIMGAP
 40
0.625
  9
$DIMDSEP
 70
46
  9
$AUNITS
 70
0
  9
$PDMODE
 70
3
  9
$PDSIZE
 40
0.3125
  9
$HANDSEED
  5
306
  9
$TILEMODE
 70
1
  9
$MEASUREMENT
 70
1
  9
$INSUNITS
 70
4
  0
ENDSEC
  0
SECTION
  2
CLASSES
  0
CLASS
  1
ACDBDICTIONARYWDFLT
  2
AcDbDictionaryWithDefault
  3
AutoCAD 2000
 90
0
 91
1
280
0
281
0
  0
CLASS
  1
ACDBPLACEHOLDER
  2
AcDbPlaceHolder
  3
AutoCAD 2000
 90
0
 91
1
280
0
281
0
  0
CLASS
  1
LAYOUT
  2
AcDbLayout
  3
AutoCAD 2000
 90
0
 91
0
280
0
281
0
  0
ENDSEC
  0
SECTION
  2
TABLES
  0
TABLE
  2
VPORT
  5
8
100
AcDbSymbolTable
 70
2
  0
VPORT
  5
1F4
100
AcDbSymbolTableRecord
100
AcDbViewportTableRecord
  2
*ACTIVE
 70
0
 10
0.0
 20
0.0
 11
1.0
 21
1.0
 12
508.2200302142
 22
718.7683284457
 13
0.0
 23
0.0
 14
1.0
 24
1.0
 15
0.0
 25
0.0
 16
0.0
 26
0.0
 36
1.0
 17
0.0
 27
0.0
 37
0.0
 40
1437.5366568915
 41
0.7070707071
 42
50.0
 43
0.0
 44
0.0
 50
0.0
 51
0.0
 71
0
 72
100
 73
1
 74
1
 75
0
 76
0
 77
0
 78
0
  0
ENDTAB
  0
TABLE
  2
LTYPE
  5
5
100
AcDbSymbolTable
 70
6
  0
LTYPE
  5
14
100
AcDbSymbolTableRecord
100
AcDbLinetypeTableRecord
  2
BYBLOCK
 70
0
  3

 72
65
 73
0
 40
0.0
  0
LTYPE
  5
15
100
AcDbSymbolTableRecord
100
AcDbLinetypeTableRecord
  2
BYLAYER
 70
0
  3

 72
65
 73
0
 40
0.0
  0
LTYPE
  5
16
100
AcDbSymbolTableRecord
100
AcDbLinetypeTableRecord
  2
CONTINUOUS
 70
64
  3
Solid line
 72
65
 73
0
 40
0.0
  0
LTYPE
  5
1F5
100
AcDbSymbolTableRecord
100
AcDbLinetypeTableRecord
  2
CENTER
 70
64
  3
____ _ ____ _ ____ _ ____ _ ____ _ ____ _ ____
 72
65
 73
4
 40
0.6
 49
0.375
 74
0
 49
-0.075
 74
0
 49
0.075
 74
0
 49
-0.075
 74
0
  0
LTYPE
  5
1F6
100
AcDbSymbolTableRecord
100
AcDbLinetypeTableRecord
  2
HIDDEN
 70
64
  3
- - - - - - - - - - - - - - - - - - - -
 72
65
 73
2
 40
0.2
 49
0.1
 74
0
 49
-0.1
 74
0
  0
LTYPE
  5
1F7
100
AcDbSymbolTableRecord
100
AcDbLinetypeTableRecord
  2
PHANTOM
 70
64
  3
_____ _ _ _____ _ _ _____ _ _ _____
 72
65
 73
6
 40
0.8
 49
0.45
 74
0
 49
-0.05
 74
0
 49
0.1
 74
0
 49
-0.05
 74
0
 49
0.1
 74
0
 49
-0.05
 74
0
  0
LTYPE
  5
1F8
100
AcDbSymbolTableRecord
100
AcDbLinetypeTableRecord
  2
DOT
 70
64
  3
. . . . . . . . . . . . . . . . . . . .
 72
65
 73
2
 40
0.2
 49
0.1
 74
0
 49
-0.1
 74
0
  0
LTYPE
  5
1F9
100
AcDbSymbolTableRecord
100
AcDbLinetypeTableRecord
  2
DASHED
 70
64
  3
- - - - - - - - - - - - - - - - - - - -
 72
65
 73
2
 40
0.2
 49
0.1
 74
0
 49
-0.1
 74
0
  0
ENDTAB
  0
TABLE
  2
LAYER
  5
2
100
AcDbSymbolTable
 70
36
  0
LAYER
  5
10
100
AcDbSymbolTableRecord
100
AcDbLayerTableRecord
  2
0
 70
0
 62
7
  6
CONTINUOUS
370
-3
390
F
  0
LAYER
  5
1FA
100
AcDbSymbolTableRecord
100
AcDbLayerTableRecord
  2
DEFAULT_1
 70
0
 62
7
  6
CENTER
370
-3
390
F
  0
LAYER
  5
1FB
100
AcDbSymbolTableRecord
100
AcDbLayerTableRecord
  2
DEFAULT_2
 70
0
 62
8
  6
HIDDEN
370
-3
390
F
  0
LAYER
  5
1FC
100
AcDbSymbolTableRecord
100
AcDbLayerTableRecord
  2
DEFAULT_3
 70
0
 62
7
  6
PHANTOM
370
-3
390
F
  0
LAYER
  5
1FD
100
AcDbSymbolTableRecord
100
AcDbLayerTableRecord
  2
00_COMPONENTS
 70
0
 62
7
  6
CONTINUOUS
370
-3
390
F
  0
LAYER
  5
1FE
100
AcDbSymbolTableRecord
100
AcDbLayerTableRecord
  2
01_1_DEFAULT_DATUMS
 70
0
 62
7
  6
CONTINUOUS
370
-3
390
F
  0
LAYER
  5
1FF
100
AcDbSymbolTableRecord
100
AcDbLayerTableRecord
  2
01_PLANES
 70
0
 62
7
  6
CONTINUOUS
370
-3
390
F
  0
LAYER
  5
200
100
AcDbSymbolTableRecord
100
AcDbLayerTableRecord
  2
02_COORD_SYS
 70
0
 62
7
  6
CONTINUOUS
370
-3
390
F
  0
LAYER
  5
201
100
AcDbSymbolTableRecord
100
AcDbLayerTableRecord
  2
03_AXES
 70
0
 62
7
  6
CONTINUOUS
370
-3
390
F
  0
LAYER
  5
202
100
AcDbSymbolTableRecord
100
AcDbLayerTableRecord
  2
04_POINTS
 70
0
 62
7
  6
CONTINUOUS
370
-3
390
F
  0
LAYER
  5
203
100
AcDbSymbolTableRecord
100
AcDbLayerTableRecord
  2
05_CURVES
 70
0
 62
7
  6
CONTINUOUS
370
-3
390
F
  0
LAYER
  5
204
100
AcDbSymbolTableRecord
100
AcDbLayerTableRecord
  2
06_SURFS
 70
0
 62
7
  6
CONTINUOUS
370
-3
390
F
  0
LAYER
  5
205
100
AcDbSymbolTableRecord
100
AcDbLayerTableRecord
  2
07_COSMETICS
 70
0
 62
7
  6
CONTINUOUS
370
-3
390
F
  0
LAYER
  5
206
100
AcDbSymbolTableRecord
100
AcDbLayerTableRecord
  2
10_NOTES
 70
0
 62
7
  6
CONTINUOUS
370
-3
390
F
  0
LAYER
  5
207
100
AcDbSymbolTableRecord
100
AcDbLayerTableRecord
  2
11_NOTES_PUB
 70
0
 62
7
  6
CONTINUOUS
370
-3
390
F
  0
LAYER
  5
208
100
AcDbSymbolTableRecord
100
AcDbLayerTableRecord
  2
13_REF_GTOL
 70
0
 62
7
  6
CONTINUOUS
370
-3
390
F
  0
LAYER
  5
209
100
AcDbSymbolTableRecord
100
AcDbLayerTableRecord
  2
16_MISC
 70
0
 62
7
  6
CONTINUOUS
370
-3
390
F
  0
LAYER
  5
20A
100
AcDbSymbolTableRecord
100
AcDbLayerTableRecord
  2
17_NO_PRINT
 70
0
 62
7
  6
CONTINUOUS
370
-3
390
F
  0
LAYER
  5
20B
100
AcDbSymbolTableRecord
100
AcDbLayerTableRecord
  2
18_DATUM_CAMS_JOINTS
 70
0
 62
7
  6
CONTINUOUS
370
-3
390
F
  0
LAYER
  5
20C
100
AcDbSymbolTableRecord
100
AcDbLayerTableRecord
  2
19_DATUM_FUNCTIONAL
 70
0
 62
7
  6
CONTINUOUS
370
-3
390
F
  0
LAYER
  5
20D
100
AcDbSymbolTableRecord
100
AcDbLayerTableRecord
  2
20_DATUM_KINEMATIC_SCHEME
 70
0
 62
7
  6
CONTINUOUS
370
-3
390
F
  0
ENDTAB
  0
TABLE
  2
STYLE
  5
3
100
AcDbSymbolTable
 70
1
  0
STYLE
  5
11
100
AcDbSymbolTableRecord
100
AcDbTextStyleTableRecord
  2
STANDARD
 70
0
 40
0.0
 41
0.8
 50
0.0
 71
0
 42
0.2
  3
txt
  4

  0
STYLE
  5
20E
100
AcDbSymbolTableRecord
100
AcDbTextStyleTableRecord
  2
TEXTSTYLE_1
 70
0
 40
0.0
 41
0.8
 50
0.0
 71
0
 42
0.2
  3
gdt
  4

  0
ENDTAB
  0
TABLE
  2
VIEW
  5
6
100
AcDbSymbolTable
 70
0
  0
ENDTAB
  0
TABLE
  2
UCS
  5
7
100
AcDbSymbolTable
 70
0
  0
ENDTAB
  0
TABLE
  2
APPID
  5
9
100
AcDbSymbolTable
 70
1
  0
APPID
  5
20F
100
AcDbSymbolTableRecord
100
AcDbRegAppTableRecord
  2
ACAD
 70
0
  0
ENDTAB
  0
TABLE
  2
BLOCK_RECORD
  5
1
100
AcDbSymbolTable
 70
0
  0
BLOCK_RECORD
  5
210
100
AcDbSymbolTableRecord
100
AcDbBlockTableRecord
  2
*Model_Space
  0
BLOCK_RECORD
  5
211
100
AcDbSymbolTableRecord
100
AcDbBlockTableRecord
  2
*Paper_Space
  0
BLOCK_RECORD
  5
212
100
AcDbSymbolTableRecord
100
AcDbBlockTableRecord
  2
_FILLED
  0
ENDTAB
  0
TABLE
  2
DIMSTYLE
  5
A
100
AcDbSymbolTable
 70
1
100
AcDbDimStyleTable
 71
0
  0
DIMSTYLE
105
213
100
AcDbSymbolTableRecord
100
AcDbDimStyleTableRecord
  2
STANDARD
 70
0
  3

  4

 40
1.0
 41
12.1004769099
 42
1.0
 43
0.38
 44
1.0
 45
0.0
 46
0.0
 47
0.01
 48
0.01
140
16.9406676738
141
0.09
142
0.0
143
25.4
144
1.0
145
0.0
146
1.0
147
0.625
 71
1
 72
0
 73
0
 74
0
 75
0
 76
0
 77
1
 78
8
 79
2
170
0
171
1
172
0
173
0
174
0
175
0
176
0
177
0
178
0
270
2
179
2
271
2
272
2
273
2
274
2
275
0
280
0
281
0
282
0
283
1
284
8
285
0
286
0
287
3
288
0
340
11
278
46
341
212
342
212
343
212
344
212
  0
ENDTAB
  0
ENDSEC
  0
SECTION
  2
BLOCKS
  0
BLOCK
  5
20
100
AcDbEntity
  8
0
100
AcDbBlockBegin
  2
*Model_Space
 70
0
 10
0.0
 20
0.0
 30
0.0
  3
*Model_Space
  1

  0
ENDBLK
  5
21
100
AcDbEntity
  8
0
100
AcDbBlockEnd
  0
BLOCK
  5
1C
100
AcDbEntity
  8
0
100
AcDbBlockBegin
  2
*Paper_Space
 70
0
 10
0.0
 20
0.0
 30
0.0
  3
*Paper_Space
  1

  0
ENDBLK
  5
1D
100
AcDbEntity
  8
0
100
AcDbBlockEnd
  0
BLOCK
  5
214
100
AcDbEntity
  8
0
100
AcDbBlockBegin
  2
_FILLED
 70
64
 10
0.0
 20
0.0
  3
_FILLED
  1

  0
SOLID
  5
215
100
AcDbEntity
  8
0
  6
BYBLOCK
 62
0
100
AcDbTrace
 10
0.0
 20
0.0
 11
-1.0
 21
0.25
 12
-1.0
 22
-0.25
 13
-1.0
 23
-0.25
  0
ENDBLK
  5
216
100
AcDbEntity
  8
0
  6
BYBLOCK
 62
0
100
AcDbBlockEnd
  0
ENDSEC
  0
SECTION
  2
ENTITIES
  0
LINE
  5
217
100
AcDbEntity
  8
0
100
AcDbLine
 62
7
  6
CONTINUOUS
 10
397.3717937243
 20
118.7683284464
 11
667.9717937243
 21
118.7683284464
  0
LINE
  5
218
100
AcDbEntity
  8
0
100
AcDbLine
 62
7
  6
CONTINUOUS
 10
385.9614971129
 20
120.0683284457
 11
370.8614971128
 21
120.0683284457
  0
LINE
  5
219
100
AcDbEntity
  8
0
100
AcDbLine
 62
7
  6
CONTINUOUS
 10
397.3717937243
 20
120.2683284457
 11
667.9717937243
 21
120.2683284457
  0
LINE
  5
21A
100
AcDbEntity
  8
0
100
AcDbLine
 62
7
  6
CONTINUOUS
 10
385.9614971129
 20
121.5683284457
 11
370.8614971129
 21
121.5683284457
  0
LINE
  5
21B
100
AcDbEntity
  8
0
100
AcDbLine
 62
7
  6
CONTINUOUS
 10
368.2402105712
 20
121.9727037036
 11
370.8614971126
 21
121.5683284457
  0
LINE
  5
21C
100
AcDbEntity
  8
0
100
AcDbLine
 62
7
  6
CONTINUOUS
 10
391.7901757335
 20
138.3053888044
 11
387.6614971129
 21
137.5028549778
  0
LINE
  5
21D
100
AcDbEntity
  8
0
100
AcDbLine
 62
7
  6
CONTINUOUS
 10
387.6614971129
 20
138.975295753
 11
391.7901757335
 21
139.7778295796
  0
LINE
  5
21E
100
AcDbEntity
  8
0
100
AcDbLine
 62
7
  6
CONTINUOUS
 10
392.1717626636
 20
1298.1330144
 11
391.7901757335
 21
1297.7588273118
  0
LINE
  5
21F
100
AcDbEntity
  8
0
100
AcDbLine
 62
7
  6
CONTINUOUS
 10
391.7901757335
 20
139.7778295797
 11
392.1717626969
 21
139.4036425257
  0
LINE
  5
220
100
AcDbEntity
  8
0
100
AcDbLine
 62
7
  6
CONTINUOUS
 10
391.7901757335
 20
1299.2312680871
 11
391.5039622405
 21
1297.7588273119
  0
LINE
  5
221
100
AcDbEntity
  8
0
100
AcDbLine
 62
7
  6
CONTINUOUS
 10
391.5039622404
 20
139.7778295797
 11
391.7901757335
 21
138.3053888044
  0
LWPOLYLINE
  5
222
100
AcDbEntity
  8
0
100
AcDbPolyline
 62
7
  6
CONTINUOUS
 90
4
 70
0
 10
361.9947960568
 20
697.0099922859
 10
362.0139300182
 20
696.8281223675
 10
362.0478950276
 20
696.406033006
 10
362.0532775887
 20
696.2215029929
  0
LINE
  5
223
100
AcDbEntity
  8
0
100
AcDbLine
 62
7
  6
CONTINUOUS
 10
362.0349877925
 20
696.6710250654
 11
362.0029640902
 21
696.9811372438
  0
LWPOLYLINE
  5
224
100
AcDbEntity
  8
0
100
AcDbPolyline
 62
7
  6
CONTINUOUS
 90
3
 70
0
 10
361.6641600392
 20
697.1765479735
 10
361.7510978808
 20
696.1773800159
 10
361.8623094089
 20
695.4196406627
  0
LINE
  5
225
100
AcDbEntity
  8
0
100
AcDbLine
 62
7
  6
CONTINUOUS
 10
361.6635644011
 20
695.7467638867
 11
361.6967406471
 21
695.3176727623
  0
LINE
  5
226
100
AcDbEntity
  8
0
100
AcDbLine
 62
7
  6
CONTINUOUS
 10
361.6734513336
 20
697.1856461613
 11
361.6739827666
 21
697.1774640031
  0
LINE
  5
227
100
AcDbEntity
  8
0
100
AcDbLine
 62
7
  6
CONTINUOUS
 10
361.6733685716
 20
695.7476074142
 11
361.6727903612
 21
695.7570423798
  0
LWPOLYLINE
  5
228
100
AcDbEntity
  8
0
100
AcDbPolyline
 62
7
  6
CONTINUOUS
 90
4
 70
0
 10
361.8507288627
 20
699.229652238
 10
361.8933310817
 20
698.2229016174
 10
361.9270979835
 20
697.7373175966
 10
361.994799052
 20
697.0099027561
  0
LINE
  5
229
100
AcDbEntity
  8
0
100
AcDbLine
 62
7
  6
CONTINUOUS
 10
361.8608217915
 20
699.2298971481
 11
361.8610013976
 21
699.2232649088
  0
LINE
  5
22A
100
AcDbEntity
  8
0
100
AcDbLine
 62
7
  6
CONTINUOUS
 10
362.0706435657
 20
733.7219302878
 11
362.0706440253
 21
733.7208279004
  0
LINE
  5
22B
100
AcDbEntity
  8
0
100
AcDbLine
 62
7
  6
CONTINUOUS
 10
367.6614971129
 20
1313.8683284457
 11
367.6614971129
 21
123.2683284457
  0
LINE
  5
22C
100
AcDbEntity
  8
0
100
AcDbLine
 62
7
  6
CONTINUOUS
 10
368.2402105712
 20
121.9727037036
 11
368.2402105711
 21
1315.1639531879
  0
LINE
  5
22D
100
AcDbEntity
  8
0
100
AcDbLine
 62
7
  6
CONTINUOUS
 10
370.8614971128
 20
120.0683284461
 11
370.8614971128
 21
121.5683284476
  0
LINE
  5
22E
100
AcDbEntity
  8
0
100
AcDbLine
 62
7
  6
CONTINUOUS
 10
370.8614971128
 20
1315.5683284457
 11
370.8614971128
 21
1317.0683284454
  0
LINE
  5
22F
100
AcDbEntity
  8
0
100
AcDbLine
 62
7
  6
CONTINUOUS
 10
373.708100515
 20
1315.5683284457
 11
373.708100515
 21
121.5683284457
  0
LINE
  5
230
100
AcDbEntity
  8
0
100
AcDbLine
 62
7
  6
CONTINUOUS
 10
374.9368285814
 20
121.5683284457
 11
374.9368285814
 21
120.0683284457
  0
LINE
  5
231
100
AcDbEntity
  8
0
100
AcDbLine
 62
7
  6
CONTINUOUS
 10
374.9368285814
 20
1315.5683284457
 11
374.9368285814
 21
1317.0683284457
  0
LINE
  5
232
100
AcDbEntity
  8
0
100
AcDbLine
 62
7
  6
CONTINUOUS
 10
376.3293870567
 20
120.0683284457
 11
376.3293870567
 21
1317.0683284457
  0
LINE
  5
233
100
AcDbEntity
  8
0
100
AcDbLine
 62
7
  6
CONTINUOUS
 10
385.9614971129
 20
1317.0683284457
 11
385.9614971129
 21
120.0683284457
  0
LINE
  5
234
100
AcDbEntity
  8
0
100
AcDbLine
 62
7
  6
CONTINUOUS
 10
387.6614971129
 20
1314.587876294
 11
387.6614971129
 21
122.5487805981
  0
LINE
  5
235
100
AcDbEntity
  8
0
100
AcDbLine
 62
7
  6
CONTINUOUS
 10
391.7901757335
 20
1297.7588273119
 11
391.7901757335
 21
139.7778295796
  0
LINE
  5
236
100
AcDbEntity
  8
0
100
AcDbLine
 62
7
  6
CONTINUOUS
 10
392.9717937243
 20
187.0183294465
 11
392.9717937243
 21
188.5182961571
  0
LINE
  5
237
100
AcDbEntity
  8
0
100
AcDbLine
 62
7
  6
CONTINUOUS
 10
392.9717937243
 20
774.0183294465
 11
392.9717937243
 21
775.5182961571
  0
LINE
  5
238
100
AcDbEntity
  8
0
100
AcDbLine
 62
7
  6
CONTINUOUS
 10
392.9717937243
 20
1249.0183294465
 11
392.9717937243
 21
1250.5182961571
  0
LINE
  5
239
100
AcDbEntity
  8
0
100
AcDbLine
 62
7
  6
CONTINUOUS
 10
393.9717937243
 20
182.7683284457
 11
393.9717937243
 21
192.7683284426
  0
LINE
  5
23A
100
AcDbEntity
  8
0
100
AcDbLine
 62
7
  6
CONTINUOUS
 10
393.9717937243
 20
769.7683284457
 11
393.9717937243
 21
779.7683284426
  0
LINE
  5
23B
100
AcDbEntity
  8
0
100
AcDbLine
 62
7
  6
CONTINUOUS
 10
393.9717937243
 20
1244.7683284457
 11
393.9717937243
 21
1254.7683284426
  0
LINE
  5
23C
100
AcDbEntity
  8
0
100
AcDbLine
 62
7
  6
CONTINUOUS
 10
394.1717937243
 20
1315.5683284457
 11
394.1717937243
 21
121.9683284457
  0
LINE
  5
23D
100
AcDbEntity
  8
0
100
AcDbLine
 62
7
  6
CONTINUOUS
 10
397.3717937243
 20
118.7683284464
 11
397.3717937243
 21
1318.7683284451
  0
LINE
  5
23E
100
AcDbEntity
  8
0
100
AcDbLine
 62
7
  6
CONTINUOUS
 10
362.0523519318
 20
694.2223147038
 11
362.0523518708
 21
694.2220235092
  0
LINE
  5
23F
100
AcDbEntity
  8
0
100
AcDbLine
 62
7
  6
CONTINUOUS
 10
362.0532771326
 20
696.2199695847
 11
362.0532774358
 21
696.2211363426
  0
LINE
  5
240
100
AcDbEntity
  8
0
100
AcDbLine
 62
7
  6
CONTINUOUS
 10
361.6801661002
 20
732.1851527086
 11
361.6756618365
 21
722.4589594953
  0
LINE
  5
241
100
AcDbEntity
  8
0
100
AcDbLine
 62
7
  6
CONTINUOUS
 10
361.672246092
 20
715.0832387617
 11
361.6639575959
 21
697.1856374872
  0
LINE
  5
242
100
AcDbEntity
  8
0
100
AcDbLine
 62
7
  6
CONTINUOUS
 10
361.6639533859
 20
697.1765467773
 11
361.6632960061
 21
695.7570465778
  0
LINE
  5
243
100
AcDbEntity
  8
0
100
AcDbLine
 62
7
  6
CONTINUOUS
 10
361.6727903613
 20
695.7570421809
 11
361.6733985722
 21
697.0703704334
  0
LINE
  5
244
100
AcDbEntity
  8
0
100
AcDbLine
 62
7
  6
CONTINUOUS
 10
361.6734513276
 20
697.1856330906
 11
361.681798587
 21
715.2101236138
  0
LINE
  5
245
100
AcDbEntity
  8
0
100
AcDbLine
 62
7
  6
CONTINUOUS
 10
361.6850943563
 20
722.3320822741
 11
361.6889957975
 21
730.7565827649
  0
LINE
  5
246
100
AcDbEntity
  8
0
100
AcDbLine
 62
7
  6
CONTINUOUS
 10
361.6890660983
 20
730.9152863329
 11
361.6896541797
 21
732.1851483146
  0
LINE
  5
247
100
AcDbEntity
  8
0
100
AcDbLine
 62
7
  6
CONTINUOUS
 10
365.5148458643
 20
698.7388833233
 11
365.5289524914
 21
729.199751372
  0
LINE
  5
248
100
AcDbEntity
  8
0
100
AcDbLine
 62
7
  6
CONTINUOUS
 10
366.0689452499
 20
689.1694931256
 11
366.0702647482
 21
692.0187258779
  0
LINE
  5
249
100
AcDbEntity
  8
0
100
AcDbLine
 62
7
  6
CONTINUOUS
 10
366.0905954346
 20
735.9193940204
 11
366.0919149311
 21
738.7686227661
  0
LINE
  5
24A
100
AcDbEntity
  8
0
100
AcDbLine
 62
7
  6
CONTINUOUS
 10
366.8113178189
 20
688.9980018803
 11
366.8126464236
 21
691.8668983182
  0
LINE
  5
24B
100
AcDbEntity
  8
0
100
AcDbLine
 62
7
  6
CONTINUOUS
 10
366.8331174165
 20
736.0705345937
 11
366.834446019
 21
738.9394263428
  0
LINE
  5
24C
100
AcDbEntity
  8
0
100
AcDbLine
 62
7
  6
CONTINUOUS
 10
362.0697184075
 20
731.7221133257
 11
362.0697174374
 21
731.7207459684
  0
LWPOLYLINE
  5
24D
100
AcDbEntity
  8
0
100
AcDbPolyline
 62
7
  6
CONTINUOUS
 90
3
 70
0
 10
361.8643925495
 20
728.7123671671
 10
361.6943070908
 20
713.9770965484
 10
361.850738789
 20
699.2296605518
  0
LINE
  5
24E
100
AcDbEntity
  8
0
100
AcDbLine
 62
7
  6
CONTINUOUS
 10
361.8746609639
 20
728.7187544167
 11
361.8744959978
 21
728.7121160907
  0
LWPOLYLINE
  5
24F
100
AcDbEntity
  8
0
100
AcDbPolyline
 62
7
  6
CONTINUOUS
 90
4
 70
0
 10
362.0697199724
 20
731.7202339245
 10
362.0642319759
 20
731.5371469014
 10
362.0302366137
 20
731.1180214796
 10
362.0105070241
 20
730.9319194643
  0
LWPOLYLINE
  5
250
100
AcDbEntity
  8
0
100
AcDbPolyline
 62
7
  6
CONTINUOUS
 90
9
 70
0
 10
362.0706316427
 20
733.7219305743
 10
362.068948602
 20
733.6799835649
 10
362.0477845542
 20
733.5015282442
 10
361.9974555901
 20
733.1969420457
 10
361.9605523438
 20
732.9888541941
 10
361.8703757372
 20
732.467319634
 10
361.7743641613
 20
731.8180843862
 10
361.6980029867
 20
731.0678501357
 10
361.6808750718
 20
730.7754553197
  0
LWPOLYLINE
  5
251
100
AcDbEntity
  8
0
100
AcDbPolyline
 62
7
  6
CONTINUOUS
 90
4
 70
0
 10
362.0105108072
 20
730.9320099694
 10
361.9427106144
 20
730.2118872625
 10
361.9083859234
 20
729.7266800194
 10
361.8643824776
 20
728.7123754914
  0
LINE
  5
252
100
AcDbEntity
  8
0
100
AcDbLine
 62
7
  6
CONTINUOUS
 10
361.6805623392
 20
730.7760115285
 11
361.6799979516
 21
730.7705098887
  0
LWPOLYLINE
  5
253
100
AcDbEntity
  8
0
100
AcDbPolyline
 62
7
  6
CONTINUOUS
 90
3
 70
0
 10
361.8653960065
 20
733.5757005205
 10
361.7146713542
 20
732.6307923747
 10
361.6804411458
 20
732.1954214785
  0
LINE
  5
254
100
AcDbEntity
  8
0
100
AcDbLine
 62
7
  6
CONTINUOUS
 10
361.9489727973
 20
733.9341032375
 11
361.8654238478
 21
733.5758199654
  0
LINE
  5
255
100
AcDbEntity
  8
0
100
AcDbLine
 62
7
  6
CONTINUOUS
 10
362.0627724669
 20
734.3463809054
 11
361.9489727973
 21
733.9341032375
  0
LINE
  5
256
100
AcDbEntity
  8
0
100
AcDbLine
 62
7
  6
CONTINUOUS
 10
362.0642395232
 20
734.3515247278
 11
362.0627724669
 21
734.3463809054
  0
LINE
  5
257
100
AcDbEntity
  8
0
100
AcDbLine
 62
7
  6
CONTINUOUS
 10
362.0636655258
 20
734.3462042034
 11
362.0788619035
 21
734.3994067604
  0
LINE
  5
258
100
AcDbEntity
  8
0
100
AcDbLine
 62
7
  6
CONTINUOUS
 10
362.0721869392
 20
734.3774725072
 11
362.0821520198
 21
734.4102344775
  0
LINE
  5
259
100
AcDbEntity
  8
0
100
AcDbLine
 62
7
  6
CONTINUOUS
 10
362.0529561453
 20
693.5654395284
 11
362.0632123414
 21
693.5316586304
  0
LINE
  5
25A
100
AcDbEntity
  8
0
100
AcDbLine
 62
7
  6
CONTINUOUS
 10
362.0447497705
 20
693.5956575025
 11
362.0593910987
 21
693.5441765894
  0
LINE
  5
25B
100
AcDbEntity
  8
0
100
AcDbLine
 62
7
  6
CONTINUOUS
 10
361.9307094845
 20
694.007000155
 11
362.0449688005
 21
693.5915953937
  0
LINE
  5
25C
100
AcDbEntity
  8
0
100
AcDbLine
 62
7
  6
CONTINUOUS
 10
361.8468178853
 20
694.3683072449
 11
361.9307094845
 21
694.007000155
  0
LWPOLYLINE
  5
25D
100
AcDbEntity
  8
0
100
AcDbPolyline
 62
7
  6
CONTINUOUS
 90
4
 70
0
 10
361.8623094089
 20
695.4196406627
 10
362.0140290561
 20
694.5417430307
 10
362.0436733385
 20
694.3352273848
 10
362.0523417697
 20
694.2210631459
  0
LINE
  5
25E
100
AcDbEntity
  8
0
100
AcDbLine
 62
7
  6
CONTINUOUS
 10
361.6967406471
 20
695.3176727623
 11
361.8468178853
 21
694.3683072449
  0
LINE
  5
25F
100
AcDbEntity
  8
0
100
AcDbLine
 62
7
  6
CONTINUOUS
 10
361.6734513336
 20
697.1856461613
 11
361.6744334313
 21
697.1778390124
  0
LINE
  5
260
100
AcDbEntity
  8
0
100
AcDbLine
 62
7
  6
CONTINUOUS
 10
361.6641609269
 20
697.1765282358
 11
361.6642372094
 21
697.1759102362
  0
LINE
  5
261
100
AcDbEntity
  8
0
100
AcDbLine
 62
7
  6
CONTINUOUS
 10
361.6738765604
 20
695.7480057973
 11
361.6727903612
 21
695.7570423798
  0
LINE
  5
262
100
AcDbEntity
  8
0
100
AcDbLine
 62
7
  6
CONTINUOUS
 10
366.8113178189
 20
688.9980018803
 11
366.0689508646
 21
689.1694906272
  0
LINE
  5
263
100
AcDbEntity
  8
0
100
AcDbLine
 62
7
  6
CONTINUOUS
 10
361.6727903613
 20
695.7570421809
 11
361.6632960061
 21
695.7570465778
  0
LINE
  5
264
100
AcDbEntity
  8
0
100
AcDbLine
 62
7
  6
CONTINUOUS
 10
361.6734513276
 20
697.1856330906
 11
361.6639575959
 21
697.1856374872
  0
LINE
  5
265
100
AcDbEntity
  8
0
100
AcDbLine
 62
7
  6
CONTINUOUS
 10
366.8113178189
 20
688.9980018803
 11
367.6499194507
 21
688.9683284242
  0
LINE
  5
266
100
AcDbEntity
  8
0
100
AcDbLine
 62
7
  6
CONTINUOUS
 10
367.6614971129
 20
738.9679241298
 11
366.834446019
 21
738.9394263428
  0
LINE
  5
267
100
AcDbEntity
  8
0
100
AcDbLine
 62
7
  6
CONTINUOUS
 10
361.6803241588
 20
730.7565614196
 11
361.6795045024
 21
730.7565446464
  0
LINE
  5
268
100
AcDbEntity
  8
0
100
AcDbLine
 62
7
  6
CONTINUOUS
 10
361.6803241588
 20
730.7565614196
 11
361.6889957975
 21
730.7565827649
  0
LINE
  5
269
100
AcDbEntity
  8
0
100
AcDbLine
 62
7
  6
CONTINUOUS
 10
361.6801661002
 20
732.1851527086
 11
361.6896541797
 21
732.1851483146
  0
LINE
  5
26A
100
AcDbEntity
  8
0
100
AcDbLine
 62
7
  6
CONTINUOUS
 10
366.834446019
 20
738.9394263428
 11
366.0919205481
 21
738.7686252593
  0
LINE
  5
26B
100
AcDbEntity
  8
0
100
AcDbLine
 62
7
  6
CONTINUOUS
 10
667.9717937243
 20
1318.768328445
 11
667.9717937243
 21
118.7683284464
  0
LINE
  5
26C
100
AcDbEntity
  8
0
100
AcDbLine
 62
7
  6
CONTINUOUS
 10
671.1717937243
 20
121.9683284457
 11
671.1717937243
 21
1315.5683284457
  0
LINE
  5
26D
100
AcDbEntity
  8
0
100
AcDbLine
 62
7
  6
CONTINUOUS
 10
671.3717937243
 20
1303.2683284457
 11
671.3717937243
 21
1290.2683284457
  0
LINE
  5
26E
100
AcDbEntity
  8
0
100
AcDbLine
 62
7
  6
CONTINUOUS
 10
671.3717937243
 20
147.2683284457
 11
671.3717937243
 21
134.2683284457
  0
LINE
  5
26F
100
AcDbEntity
  8
0
100
AcDbLine
 62
7
  6
CONTINUOUS
 10
368.7142648835
 20
121.7648202525
 11
368.2402105711
 21
121.4328838494
  0
LINE
  5
270
100
AcDbEntity
  8
0
100
AcDbLine
 62
7
  6
CONTINUOUS
 10
368.7142648836
 20
1315.371836639
 11
368.2402105708
 21
1315.7037730423
  0
LINE
  5
271
100
AcDbEntity
  8
0
100
AcDbLine
 62
7
  6
CONTINUOUS
 10
370.8614971126
 20
1315.5683284457
 11
368.2402105711
 21
1315.1639531879
  0
LINE
  5
272
100
AcDbEntity
  8
0
100
AcDbLine
 62
7
  6
CONTINUOUS
 10
370.8614971129
 20
1315.5683284457
 11
373.708100515
 21
1315.5683284457
  0
LINE
  5
273
100
AcDbEntity
  8
0
100
AcDbLine
 62
7
  6
CONTINUOUS
 10
373.7108981827
 20
1315.5683284457
 11
385.9614971129
 21
1315.5683284457
  0
LINE
  5
274
100
AcDbEntity
  8
0
100
AcDbLine
 62
7
  6
CONTINUOUS
 10
370.8614971128
 20
1317.0683284457
 11
385.9614971129
 21
1317.0683284457
  0
LINE
  5
275
100
AcDbEntity
  8
0
100
AcDbLine
 62
7
  6
CONTINUOUS
 10
397.3717937243
 20
1317.2683284457
 11
667.9717937243
 21
1317.2683284457
  0
LINE
  5
276
100
AcDbEntity
  8
0
100
AcDbLine
 62
7
  6
CONTINUOUS
 10
397.3717937243
 20
1318.7683284457
 11
667.9717937243
 21
1318.7683284457
  0
LINE
  5
277
100
AcDbEntity
  8
0
100
AcDbLine
 62
7
  6
CONTINUOUS
 10
391.7901757335
 20
1297.7588273119
 11
387.6614971129
 21
1298.5613611385
  0
LINE
  5
278
100
AcDbEntity
  8
0
100
AcDbLine
 62
7
  6
CONTINUOUS
 10
387.6614971129
 20
1300.0338019137
 11
391.7901757335
 21
1299.2312680871
  0
ARC
  5
279
100
AcDbEntity
  8
0
100
AcDbCircle
 62
7
  6
CONTINUOUS
 10
381.4497818082
 20
698.7129103988
 40
19.861279316
100
AcDbArc
 50
188.1705624319
 51
189.129778658
  0
ARC
  5
27A
100
AcDbEntity
  8
0
100
AcDbCircle
 62
7
  6
CONTINUOUS
 10
377.8810285817
 20
698.1957045139
 40
16.2552463439
100
AcDbArc
 50
186.7924892395
 51
188.1537728146
  0
ARC
  5
27B
100
AcDbEntity
  8
0
100
AcDbCircle
 62
7
  6
CONTINUOUS
 10
405.6905437243
 20
187.7683284457
 40
12.7408438324
100
AcDbArc
 50
156.8936731546
 51
176.6252870295
  0
ARC
  5
27C
100
AcDbEntity
  8
0
100
AcDbCircle
 62
7
  6
CONTINUOUS
 10
405.6905437243
 20
187.7683284457
 40
12.7408438324
100
AcDbArc
 50
183.3747129705
 51
203.1063268454
  0
ARC
  5
27D
100
AcDbEntity
  8
0
100
AcDbCircle
 62
7
  6
CONTINUOUS
 10
371.6846270055
 20
696.4684048259
 40
10.0596163811
100
AcDbArc
 50
194.7092735697
 51
196.3497377707
  0
ARC
  5
27E
100
AcDbEntity
  8
0
100
AcDbCircle
 62
7
  6
CONTINUOUS
 10
371.4716885759
 20
696.413636664
 40
9.8397502839
100
AcDbArc
 50
193.3455221992
 51
194.7156492126
  0
ARC
  5
27F
100
AcDbEntity
  8
0
100
AcDbCircle
 62
7
  6
CONTINUOUS
 10
371.3261201397
 20
696.3590251759
 40
9.6848175635
100
AcDbArc
 50
196.3258554971
 51
196.7651826505
  0
ARC
  5
280
100
AcDbEntity
  8
0
100
AcDbCircle
 62
7
  6
CONTINUOUS
 10
371.2596263862
 20
696.3639511427
 40
9.6219461309
100
AcDbArc
 50
191.3999973941
 51
193.3491247892
  0
ARC
  5
281
100
AcDbEntity
  8
0
100
AcDbCircle
 62
7
  6
CONTINUOUS
 10
370.8361753835
 20
696.2809377698
 40
9.1904414101
100
AcDbArc
 50
188.6785369207
 51
191.4144768995
  0
ARC
  5
282
100
AcDbEntity
  8
0
100
AcDbCircle
 62
7
  6
CONTINUOUS
 10
370.1451195381
 20
696.1854554583
 40
8.4928961992
100
AcDbArc
 50
182.9627046823
 51
188.7452221985
  0
ARC
  5
283
100
AcDbEntity
  8
0
100
AcDbCircle
 62
7
  6
CONTINUOUS
 10
369.093994375
 20
695.9676604143
 40
7.4408333333
100
AcDbArc
 50
199.106706298
 51
246.0118879643
  0
ARC
  5
284
100
AcDbEntity
  8
0
100
AcDbCircle
 62
7
  6
CONTINUOUS
 10
356.3816712819
 20
696.523998163
 40
5.6398754862
100
AcDbArc
 50
4.9349271858
 51
5.6214463558
  0
ARC
  5
285
100
AcDbEntity
  8
0
100
AcDbCircle
 62
7
  6
CONTINUOUS
 10
358.0352694491
 20
696.6681040788
 40
3.9800107518
100
AcDbArc
 50
4.5109989747
 51
4.9158938117
  0
ARC
  5
286
100
AcDbEntity
  8
0
100
AcDbCircle
 62
7
  6
CONTINUOUS
 10
370.8614971129
 20
123.2683284457
 40
3.2
100
AcDbArc
 50
180.0
 51
269.9999999995
  0
ARC
  5
287
100
AcDbEntity
  8
0
100
AcDbCircle
 62
7
  6
CONTINUOUS
 10
397.3717937243
 20
121.9683284457
 40
3.2
100
AcDbArc
 50
180.0
 51
270.0
  0
ARC
  5
288
100
AcDbEntity
  8
0
100
AcDbCircle
 62
7
  6
CONTINUOUS
 10
392.1717937243
 20
136.3421344375
 40
2.0
100
AcDbArc
 50
0.0
 51
101.0
  0
ARC
  5
289
100
AcDbEntity
  8
0
100
AcDbCircle
 62
7
  6
CONTINUOUS
 10
385.9614971129
 20
121.7683284457
 40
1.7
100
AcDbArc
 50
270.0
 51
16.0132042002
  0
ARC
  5
28A
100
AcDbEntity
  8
0
100
AcDbCircle
 62
7
  6
CONTINUOUS
 10
362.5310887099
 20
715.0823683567
 40
0.8588452238
100
AcDbArc
 50
171.4453688657
 51
179.9419729414
  0
ARC
  5
28B
100
AcDbEntity
  8
0
100
AcDbCircle
 62
7
  6
CONTINUOUS
 10
361.8632959846
 20
695.7569539565
 40
0.2
100
AcDbArc
 50
179.9734659518
 51
182.9201205716
  0
ARC
  5
28C
100
AcDbEntity
  8
0
100
AcDbCircle
 62
7
  6
CONTINUOUS
 10
361.8639575744
 20
697.1855448659
 40
0.2
100
AcDbArc
 50
179.9734659519
 51
182.5786603724
  0
ARC
  5
28D
100
AcDbEntity
  8
0
100
AcDbCircle
 62
7
  6
CONTINUOUS
 10
309.6238723248
 20
736.5412983593
 40
52.6911836748
100
AcDbArc
 50
353.9204374595
 51
354.1087265208
  0
ARC
  5
28E
100
AcDbEntity
  8
0
100
AcDbCircle
 62
7
  6
CONTINUOUS
 10
385.4967337033
 20
728.5292899974
 40
23.9519572661
100
AcDbArc
 50
169.7379063722
 51
170.1205260461
  0
ARC
  5
28F
100
AcDbEntity
  8
0
100
AcDbCircle
 62
7
  6
CONTINUOUS
 10
381.5618067496
 20
729.2322300674
 40
19.9549666071
100
AcDbArc
 50
171.4343356539
 51
172.3622374173
  0
ARC
  5
290
100
AcDbEntity
  8
0
100
AcDbCircle
 62
7
  6
CONTINUOUS
 10
381.2276000182
 20
729.274552377
 40
19.6182601325
100
AcDbArc
 50
170.2349109684
 51
170.7409555281
  0
ARC
  5
291
100
AcDbEntity
  8
0
100
AcDbCircle
 62
7
  6
CONTINUOUS
 10
379.9603012662
 20
729.4795696919
 40
18.3344861565
100
AcDbArc
 50
170.7360799874
 51
171.4532360312
  0
ARC
  5
292
100
AcDbEntity
  8
0
100
AcDbCircle
 62
7
  6
CONTINUOUS
 10
379.001756069
 20
729.5778271158
 40
17.3716952587
100
AcDbArc
 50
172.3697425889
 51
172.6870961371
  0
ARC
  5
293
100
AcDbEntity
  8
0
100
AcDbCircle
 62
7
  6
CONTINUOUS
 10
378.4716624862
 20
728.4373188417
 40
16.59941188
100
AcDbArc
 50
176.9778415468
 51
179.0285177117
  0
ARC
  5
294
100
AcDbEntity
  8
0
100
AcDbCircle
 62
7
  6
CONTINUOUS
 10
377.132652098
 20
729.8155750236
 40
15.4875326402
100
AcDbArc
 50
172.6793254674
 51
173.4550045383
  0
ARC
  5
295
100
AcDbEntity
  8
0
100
AcDbCircle
 62
7
  6
CONTINUOUS
 10
405.6905437243
 20
774.7683284457
 40
12.7408438324
100
AcDbArc
 50
156.8936731546
 51
176.6252870295
  0
ARC
  5
296
100
AcDbEntity
  8
0
100
AcDbCircle
 62
7
  6
CONTINUOUS
 10
405.6905437243
 20
774.7683284457
 40
12.7408438324
100
AcDbArc
 50
183.3747129705
 51
203.1063268454
  0
ARC
  5
297
100
AcDbEntity
  8
0
100
AcDbCircle
 62
7
  6
CONTINUOUS
 10
371.6416073212
 20
731.4827977691
 40
9.9976634328
100
AcDbArc
 50
163.6037166663
 51
165.2389155417
  0
ARC
  5
298
100
AcDbEntity
  8
0
100
AcDbCircle
 62
7
  6
CONTINUOUS
 10
371.5903991656
 20
731.4932364937
 40
9.9454860831
100
AcDbArc
 50
165.2219029868
 51
166.5795674782
  0
ARC
  5
299
100
AcDbEntity
  8
0
100
AcDbCircle
 62
7
  6
CONTINUOUS
 10
371.2235722704
 20
731.5802230363
 40
9.5684869577
100
AcDbArc
 50
166.5764094425
 51
168.5837677653
  0
ARC
  5
29A
100
AcDbEntity
  8
0
100
AcDbCircle
 62
7
  6
CONTINUOUS
 10
371.0026976229
 20
731.6713544833
 40
9.3315109082
100
AcDbArc
 50
163.1421731871
 51
163.5910322558
  0
ARC
  5
29B
100
AcDbEntity
  8
0
100
AcDbCircle
 62
7
  6
CONTINUOUS
 10
370.8444596033
 20
731.6544534759
 40
9.1821824594
100
AcDbArc
 50
168.5695540281
 51
171.3651119293
  0
ARC
  5
29C
100
AcDbEntity
  8
0
100
AcDbCircle
 62
7
  6
CONTINUOUS
 10
370.1527266621
 20
731.7496266905
 40
8.4840067689
100
AcDbArc
 50
171.2991952649
 51
176.9861082288
  0
ARC
  5
29D
100
AcDbEntity
  8
0
100
AcDbCircle
 62
7
  6
CONTINUOUS
 10
369.1106662085
 20
731.9676565539
 40
7.4408333333
100
AcDbArc
 50
113.9350439393
 51
160.8400198826
  0
ARC
  5
29E
100
AcDbEntity
  8
0
100
AcDbCircle
 62
7
  6
CONTINUOUS
 10
368.5835675852
 20
731.8196915593
 40
6.9133456159
100
AcDbArc
 50
174.3320654676
 51
176.8822183344
  0
ARC
  5
29F
100
AcDbEntity
  8
0
100
AcDbCircle
 62
7
  6
CONTINUOUS
 10
368.1598809842
 20
731.8618733051
 40
6.4875644312
100
AcDbArc
 50
172.2753379068
 51
174.3332226013
  0
ARC
  5
2A0
100
AcDbEntity
  8
0
100
AcDbCircle
 62
7
  6
CONTINUOUS
 10
358.7379455166
 20
731.7859244563
 40
3.3429498188
100
AcDbArc
 50
358.0103282018
 51
359.2602740223
  0
ARC
  5
2A1
100
AcDbEntity
  8
0
100
AcDbCircle
 62
7
  6
CONTINUOUS
 10
361.0756540707
 20
731.0130891325
 40
0.944490368
100
AcDbArc
 50
355.3345746119
 51
356.8270242937
  0
ARC
  5
2A2
100
AcDbEntity
  8
0
100
AcDbCircle
 62
7
  6
CONTINUOUS
 10
362.5344920023
 20
722.4590332738
 40
0.8588322988
100
AcDbArc
 50
180.0048838729
 51
188.5005061366
  0
ARC
  5
2A3
100
AcDbEntity
  8
0
100
AcDbCircle
 62
7
  6
CONTINUOUS
 10
361.8795044889
 20
730.7564691779
 40
0.2
100
AcDbArc
 50
175.9743212265
 51
179.9734659519
  0
ARC
  5
2A4
100
AcDbEntity
  8
0
100
AcDbCircle
 62
7
  6
CONTINUOUS
 10
361.8801660787
 20
732.1850600873
 40
0.2
100
AcDbArc
 50
177.0296565068
 51
179.9734659518
  0
ARC
  5
2A5
100
AcDbEntity
  8
0
100
AcDbCircle
 62
7
  6
CONTINUOUS
 10
405.6905437243
 20
1249.7683284457
 40
12.7408438324
100
AcDbArc
 50
156.8936731546
 51
176.6252870295
  0
ARC
  5
2A6
100
AcDbEntity
  8
0
100
AcDbCircle
 62
7
  6
CONTINUOUS
 10
405.6905437243
 20
1249.7683284457
 40
12.7408438324
100
AcDbArc
 50
183.3747129705
 51
203.1063268454
  0
ARC
  5
2A7
100
AcDbEntity
  8
0
100
AcDbCircle
 62
7
  6
CONTINUOUS
 10
370.8614971129
 20
1313.8683284457
 40
3.2
100
AcDbArc
 50
90.0000000005
 51
180.0
  0
ARC
  5
2A8
100
AcDbEntity
  8
0
100
AcDbCircle
 62
7
  6
CONTINUOUS
 10
397.3717937243
 20
1315.5683284457
 40
3.2
100
AcDbArc
 50
90.0
 51
180.0
  0
ARC
  5
2A9
100
AcDbEntity
  8
0
100
AcDbCircle
 62
7
  6
CONTINUOUS
 10
392.1717937243
 20
1301.1945224539
 40
2.0
100
AcDbArc
 50
258.9999999987
 51
326.3370610578
  0
ARC
  5
2AA
100
AcDbEntity
  8
0
100
AcDbCircle
 62
7
  6
CONTINUOUS
 10
385.9614971129
 20
1315.3683284457
 40
1.7
100
AcDbArc
 50
343.9792550843
 51
90.0
  0
ARC
  5
2AB
100
AcDbEntity
  8
0
100
AcDbCircle
 62
7
  6
CONTINUOUS
 10
369.2035740026
 20
1313.8480740341
 40
1.5436640017
100
AcDbArc
 50
162.9687274239
 51
170.8815832649
  0
ARC
  5
2AC
100
AcDbEntity
  8
0
100
AcDbCircle
 62
7
  6
CONTINUOUS
 10
369.0856402399
 20
1313.8674921016
 40
1.4241433726
100
AcDbArc
 50
170.9010181811
 51
179.9663524085
  0
ARC
  5
2AD
100
AcDbEntity
  8
0
100
AcDbCircle
 62
7
  6
CONTINUOUS
 10
578.4149672564
 20
704.9763556903
 40
216.6303757644
100
AcDbArc
 50
181.3158527289
 51
181.5200382019
  0
ARC
  5
2AE
100
AcDbEntity
  8
0
100
AcDbCircle
 62
7
  6
CONTINUOUS
 10
650.7467937243
 20
140.7683284457
 40
21.625
100
AcDbArc
 50
342.5076754749
 51
17.4923245251
  0
ARC
  5
2AF
100
AcDbEntity
  8
0
100
AcDbCircle
 62
7
  6
CONTINUOUS
 10
667.9717937243
 20
121.9683284457
 40
3.2
100
AcDbArc
 50
270.0000000001
 51
360.0
  0
ARC
  5
2B0
100
AcDbEntity
  8
0
100
AcDbCircle
 62
7
  6
CONTINUOUS
 10
637.3927969393
 20
721.2277021697
 40
275.619955262
100
AcDbArc
 50
178.4439506425
 51
178.6018274775
  0
ARC
  5
2B1
100
AcDbEntity
  8
0
100
AcDbCircle
 62
7
  6
CONTINUOUS
 10
650.7467937243
 20
1296.7683284457
 40
21.625
100
AcDbArc
 50
342.5076754749
 51
17.4923245251
  0
ARC
  5
2B2
100
AcDbEntity
  8
0
100
AcDbCircle
 62
7
  6
CONTINUOUS
 10
667.9717937243
 20
1315.5683284457
 40
3.2
100
AcDbArc
 50
0.0
 51
89.9999999999
  0
SPLINE
  5
2B3
100
AcDbEntity
  8
0
100
AcDbSpline
 62
7
  6
CONTINUOUS
 70
0
 71
3
 72
8
 73
4
 74
0
 42
0.0000001
 43
0.0000001
 44
0.0000000001
 40
0.0
 40
0.0
 40
0.0
 40
0.0
 40
1.0
 40
1.0
 40
1.0
 40
1.0
 10
362.0029637784
 20
696.9811371609
 30
0.0
 10
361.9987407889
 20
696.9901652464
 30
0.0
 10
361.9959023931
 20
696.9999971335
 30
0.0
 10
361.9948057089
 20
697.0099035583
 30
0.0
  0
SPLINE
  5
2B4
100
AcDbEntity
  8
0
100
AcDbSpline
 62
7
  6
CONTINUOUS
 70
0
 71
3
 72
9
 73
5
 74
0
 42
0.0000001
 43
0.0000001
 44
0.0000000001
 40
0.0
 40
0.0
 40
0.0
 40
0.0
 40
0.4325147695
 40
1.0
 40
1.0
 40
1.0
 40
1.0
 10
361.6642372094
 20
697.1759102362
 30
0.0
 10
361.6643333798
 20
697.1770453302
 30
0.0
 10
361.665440727
 20
697.179579152
 30
0.0
 10
361.6673692501
 20
697.1814183586
 30
0.0
 10
361.6685259362
 20
697.1823649561
 30
0.0
  0
SPLINE
  5
2B5
100
AcDbEntity
  8
0
100
AcDbSpline
 62
7
  6
CONTINUOUS
 70
0
 71
3
 72
9
 73
5
 74
0
 42
0.0000001
 43
0.0000001
 44
0.0000000001
 40
0.0
 40
0.0
 40
0.0
 40
0.0
 40
0.4681274753
 40
1.0
 40
1.0
 40
1.0
 40
1.0
 10
361.6685259362
 20
697.1823649561
 30
0.0
 10
361.6692368716
 20
697.1829467645
 30
0.0
 10
361.6708268879
 20
697.184103006
 30
0.0
 10
361.6725068274
 20
697.1851209355
 30
0.0
 10
361.6734163546
 20
697.1856329661
 30
0.0
  0
SPLINE
  5
2B6
100
AcDbEntity
  8
0
100
AcDbSpline
 62
7
  6
CONTINUOUS
 70
0
 71
3
 72
9
 73
5
 74
0
 42
0.0000001
 43
0.0000001
 44
0.0000000001
 40
0.0
 40
0.0
 40
0.0
 40
0.0
 40
0.4348826672
 40
1.0
 40
1.0
 40
1.0
 40
1.0
 10
361.6635752454
 20
695.7464881497
 30
0.0
 10
361.6635638976
 20
695.7476903602
 30
0.0
 10
361.6645156244
 20
695.7504545285
 30
0.0
 10
361.6664849075
 20
695.7524595703
 30
0.0
 10
361.6676662622
 20
695.7534819228
 30
0.0
  0
SPLINE
  5
2B7
100
AcDbEntity
  8
0
100
AcDbSpline
 62
7
  6
CONTINUOUS
 70
0
 71
3
 72
9
 73
5
 74
0
 42
0.0000001
 43
0.0000001
 44
0.0000000001
 40
0.0
 40
0.0
 40
0.0
 40
0.0
 40
0.4669406614
 40
1.0
 40
1.0
 40
1.0
 40
1.0
 10
361.6676662622
 20
695.7534819228
 30
0.0
 10
361.6684001177
 20
695.7541170064
 30
0.0
 10
361.6700572493
 20
695.7553788868
 30
0.0
 10
361.6718195383
 20
695.7564849953
 30
0.0
 10
361.6727773759
 20
695.7570418129
 30
0.0
  0
SPLINE
  5
2B8
100
AcDbEntity
  8
0
100
AcDbSpline
 62
7
  6
CONTINUOUS
 70
0
 71
3
 72
19
 73
15
 74
0
 42
0.0000001
 43
0.0000001
 44
0.0000000001
 40
0.0
 40
0.0
 40
0.0
 40
0.0
 40
0.2293175349
 40
0.4403508869
 40
0.6141722296
 40
0.7322461193
 40
0.7676141508
 40
0.7896080952
 40
0.8052972323
 40
0.8258665379
 40
0.8559459456
 40
0.8956946663
 40
0.9440995347
 40
1.0
 40
1.0
 40
1.0
 40
1.0
 10
361.6739827666
 20
697.1774640031
 30
0.0
 10
361.6824047852
 20
697.0482623113
 30
0.0
 10
361.7008694202
 20
696.8003683758
 30
0.0
 10
361.7502141906
 20
696.4561718595
 30
0.0
 10
361.8162088664
 20
696.1809829564
 30
0.0
 10
361.8790507952
 20
696.0037041597
 30
0.0
 10
361.9329948575
 20
695.9221598902
 30
0.0
 10
361.966270187
 20
695.8924306739
 30
0.0
 10
362.0027848522
 20
695.8990752547
 30
0.0
 10
362.0224587567
 20
695.9341023069
 30
0.0
 10
362.0367818976
 20
695.9823576277
 30
0.0
 10
362.0465658868
 20
696.0489061459
 30
0.0
 10
362.0522349561
 20
696.1299415501
 30
0.0
 10
362.0532722699
 20
696.1888862114
 30
0.0
 10
362.053281718
 20
696.2204483965
 30
0.0
  0
SPLINE
  5
2B9
100
AcDbEntity
  8
0
100
AcDbSpline
 62
7
  6
CONTINUOUS
 70
0
 71
3
 72
9
 73
5
 74
0
 42
0.0000001
 43
0.0000001
 44
0.0000000001
 40
0.0
 40
0.0
 40
0.0
 40
0.0
 40
0.5825076186
 40
1.0
 40
1.0
 40
1.0
 40
1.0
 10
362.0024066596
 20
733.2132463717
 30
0.0
 10
362.0202770763
 20
733.313791079
 30
0.0
 10
362.0502318491
 20
733.486440788
 30
0.0
 10
362.0749499713
 20
733.6602805741
 30
0.0
 10
362.0798795999
 20
733.7333057209
 30
0.0
  0
SPLINE
  5
2BA
100
AcDbEntity
  8
0
100
AcDbSpline
 62
7
  6
CONTINUOUS
 70
0
 71
3
 72
15
 73
11
 74
0
 42
0.0000001
 43
0.0000001
 44
0.0000000001
 40
0.0
 40
0.0
 40
0.0
 40
0.0
 40
0.1650679547
 40
0.2838938847
 40
0.356467394
 40
0.3793916804
 40
0.40112504
 40
0.4694330836
 40
0.5893603699
 40
1.0
 40
1.0
 40
1.0
 40
1.0
 10
362.0798795999
 20
733.7333057209
 30
0.0
 10
362.0811538456
 20
733.7521817836
 30
0.0
 10
362.0827565864
 20
733.7848793838
 30
0.0
 10
362.080364001
 20
733.8252815664
 30
0.0
 10
362.0752780669
 20
733.850298834
 30
0.0
 10
362.0649136067
 20
733.8602087704
 30
0.0
 10
362.0509821133
 20
733.8597555417
 30
0.0
 10
362.0331760925
 20
733.8408891268
 30
0.0
 10
361.9958774364
 20
733.7848544226
 30
0.0
 10
361.9721164918
 20
733.7274406425
 30
0.0
 10
361.9549262524
 20
733.683627436
 30
0.0
  0
SPLINE
  5
2BB
100
AcDbEntity
  8
0
100
AcDbSpline
 62
7
  6
CONTINUOUS
 70
0
 71
3
 72
9
 73
5
 74
0
 42
0.0000001
 43
0.0000001
 44
0.0000000001
 40
0.0
 40
0.0
 40
0.0
 40
0.0
 40
0.4159253316
 40
1.0
 40
1.0
 40
1.0
 40
1.0
 10
361.9549262524
 20
733.683627436
 30
0.0
 10
361.9054416874
 20
733.5575048493
 30
0.0
 10
361.8157920577
 20
733.2431700657
 30
0.0
 10
361.7568400404
 20
732.9224030071
 30
0.0
 10
361.7311883742
 20
732.7338845291
 30
0.0
  0
SPLINE
  5
2BC
100
AcDbEntity
  8
0
100
AcDbSpline
 62
7
  6
CONTINUOUS
 70
0
 71
3
 72
9
 73
5
 74
0
 42
0.0000001
 43
0.0000001
 44
0.0000000001
 40
0.0
 40
0.0
 40
0.0
 40
0.0
 40
0.2718540674
 40
1.0
 40
1.0
 40
1.0
 40
1.0
 10
361.9279331063
 20
732.7963610415
 30
0.0
 10
361.9346126937
 20
732.8341506875
 30
0.0
 10
361.9603155576
 20
732.9729549456
 30
0.0
 10
361.9845133624
 20
733.1120293394
 30
0.0
 10
362.0024066596
 20
733.2132463717
 30
0.0
  0
LINE
  5
2BD
100
AcDbEntity
  8
0
100
AcDbLine
 62
7
  6
CONTINUOUS
 10
361.8935804967
 20
732.6019867896
 11
361.8999634597
 21
732.6388752498
  0
SPLINE
  5
2BE
100
AcDbEntity
  8
0
100
AcDbSpline
 62
7
  6
CONTINUOUS
 70
0
 71
3
 72
9
 73
5
 74
0
 42
0.0000001
 43
0.0000001
 44
0.0000000001
 40
0.0
 40
0.0
 40
0.0
 40
0.0
 40
0.2536079827
 40
1.0
 40
1.0
 40
1.0
 40
1.0
 10
361.6803205704
 20
730.7760303162
 30
0.0
 10
361.6834862145
 20
730.8442313816
 30
0.0
 10
361.6985140926
 20
731.1130348397
 30
0.0
 10
361.7232059105
 20
731.3812627756
 30
0.0
 10
361.7460571492
 20
731.5808974196
 30
0.0
  0
LINE
  5
2BF
100
AcDbEntity
  8
0
100
AcDbLine
 62
7
  6
CONTINUOUS
 10
361.6896541305
 20
732.1850428061
 11
361.6902290967
 21
732.1945933538
  0
SPLINE
  5
2C0
100
AcDbEntity
  8
0
100
AcDbSpline
 62
7
  6
CONTINUOUS
 70
0
 71
3
 72
22
 73
18
 74
0
 42
0.0000001
 43
0.0000001
 44
0.0000000001
 40
0.0
 40
0.0
 40
0.0
 40
0.0
 40
0.2271956625
 40
0.4387232641
 40
0.6236853385
 40
0.7034018143
 40
0.7732887123
 40
0.8321242859
 40
0.8787670895
 40
0.9133919419
 40
0.9369363743
 40
0.9502726894
 40
0.9544063296
 40
0.9590512198
 40
0.9656959521
 40
0.9747401913
 40
1.0
 40
1.0
 40
1.0
 40
1.0
 10
361.6902290967
 20
732.1945933538
 30
0.0
 10
361.6982446318
 20
732.3266505498
 30
0.0
 10
361.7186248382
 20
732.5814439553
 30
0.0
 10
361.7694352206
 20
732.9413028945
 30
0.0
 10
361.8259080915
 20
733.2130118946
 30
0.0
 10
361.8752850465
 20
733.4015236459
 30
0.0
 10
361.910090903
 20
733.5177936714
 30
0.0
 10
361.9433039724
 20
733.6145109323
 30
0.0
 10
361.974104157
 20
733.6898235507
 30
0.0
 10
362.0015504113
 20
733.7451547533
 30
0.0
 10
362.0241784246
 20
733.7787095336
 30
0.0
 10
362.0411241151
 20
733.798503754
 30
0.0
 10
362.0551372901
 20
733.7986704893
 30
0.0
 10
362.0614926458
 20
733.7913003896
 30
0.0
 10
362.0655301205
 20
733.7802259084
 30
0.0
 10
362.0700511442
 20
733.7566780897
 30
0.0
 10
362.0706219865
 20
733.7366397969
 30
0.0
 10
362.0706435662
 20
733.7219305592
 30
0.0
  0
SPLINE
  5
2C1
100
AcDbEntity
  8
0
100
AcDbSpline
 62
7
  6
CONTINUOUS
 70
0
 71
3
 72
11
 73
7
 74
0
 42
0.0000001
 43
0.0000001
 44
0.0000000001
 40
0.0
 40
0.0
 40
0.0
 40
0.0
 40
0.2492453876
 40
0.4991374345
 40
0.7494687785
 40
1.0
 40
1.0
 40
1.0
 40
1.0
 10
362.0187094735
 20
730.9608075918
 30
0.0
 10
362.1716476062
 20
731.487106322
 30
0.0
 10
362.5786039367
 20
732.5149694847
 30
0.0
 10
363.4798658286
 20
733.9078488936
 30
0.0
 10
364.653131425
 20
735.0866303378
 30
0.0
 10
365.5936266034
 20
735.6816763918
 30
0.0
 10
366.0905954346
 20
735.9193940204
 30
0.0
  0
SPLINE
  5
2C2
100
AcDbEntity
  8
0
100
AcDbSpline
 62
7
  6
CONTINUOUS
 70
0
 71
3
 72
10
 73
6
 74
0
 42
0.0000001
 43
0.0000001
 44
0.0000000001
 40
0.0
 40
0.0
 40
0.0
 40
0.0
 40
0.5878830207
 40
0.8242985374
 40
1.0
 40
1.0
 40
1.0
 40
1.0
 10
361.6635750286
 20
695.7464923797
 30
0.0
 10
361.6794445108
 20
695.4496198256
 30
0.0
 10
361.7272166582
 20
695.0335433595
 30
0.0
 10
361.8415344619
 20
694.5406748029
 30
0.0
 10
361.9041968433
 20
694.3414714552
 30
0.0
 10
361.9365369829
 20
694.2587125003
 30
0.0
  0
SPLINE
  5
2C3
100
AcDbEntity
  8
0
100
AcDbSpline
 62
7
  6
CONTINUOUS
 70
0
 71
3
 72
14
 73
10
 74
0
 42
0.0000001
 43
0.0000001
 44
0.0000000001
 40
0.0
 40
0.0
 40
0.0
 40
0.0
 40
0.4131067239
 40
0.5331927867
 40
0.6010758804
 40
0.6434549611
 40
0.7161187679
 40
0.8349080186
 40
1.0
 40
1.0
 40
1.0
 40
1.0
 10
361.9365369829
 20
694.2587125003
 30
0.0
 10
361.9537416902
 20
694.2146853681
 30
0.0
 10
361.9777411686
 20
694.1558202436
 30
0.0
 10
362.0144897212
 20
694.101753754
 30
0.0
 10
362.0346371846
 20
694.07853128
 30
0.0
 10
362.0574599915
 20
694.0880826402
 30
0.0
 10
362.061149626
 20
694.1173660438
 30
0.0
 10
362.0645955091
 20
694.1566277387
 30
0.0
 10
362.0627053103
 20
694.1896243006
 30
0.0
 10
362.0614523895
 20
694.2084731951
 30
0.0
  0
SPLINE
  5
2C4
100
AcDbEntity
  8
0
100
AcDbSpline
 62
7
  6
CONTINUOUS
 70
0
 71
3
 72
9
 73
5
 74
0
 42
0.0000001
 43
0.0000001
 44
0.0000000001
 40
0.0
 40
0.0
 40
0.0
 40
0.0
 40
0.2308721385
 40
1.0
 40
1.0
 40
1.0
 40
1.0
 10
362.0614523895
 20
694.2084731951
 30
0.0
 10
362.0610872129
 20
694.2139668995
 30
0.0
 10
362.0593316655
 20
694.2377507961
 30
0.0
 10
362.0569717645
 20
694.2614872019
 30
0.0
 10
362.0549477189
 20
694.279717309
 30
0.0
  0
SPLINE
  5
2C5
100
AcDbEntity
  8
0
100
AcDbSpline
 62
7
  6
CONTINUOUS
 70
0
 71
3
 72
11
 73
7
 74
0
 42
0.0000001
 43
0.0000001
 44
0.0000000001
 40
0.0
 40
0.0
 40
0.0
 40
0.0
 40
0.2505310944
 40
0.500862352
 40
0.7507540892
 40
1.0
 40
1.0
 40
1.0
 40
1.0
 10
366.0702647482
 20
692.0187258779
 30
0.0
 10
365.5735123057
 20
692.2569057038
 30
0.0
 10
364.6335584275
 20
692.8528241307
 30
0.0
 10
363.4613811845
 20
694.0327065263
 30
0.0
 10
362.5614027855
 20
695.4264342546
 30
0.0
 10
362.1554140451
 20
696.4546907782
 30
0.0
 10
362.0029640902
 20
696.9811372438
 30
0.0
  0
LINE
  5
2C6
100
AcDbEntity
  8
0
100
AcDbLine
 62
7
  6
CONTINUOUS
 10
362.0505259908
 20
734.3049304789
 11
362.0512612848
 21
734.3074279489
  0
SPLINE
  5
2C7
100
AcDbEntity
  8
0
100
AcDbSpline
 62
7
  6
CONTINUOUS
 70
0
 71
3
 72
8
 73
4
 74
0
 42
0.0000001
 43
0.0000001
 44
0.0000000001
 40
0.0
 40
0.0
 40
0.0
 40
0.0
 40
1.0
 40
1.0
 40
1.0
 40
1.0
 10
361.6896551295
 20
732.1851354933
 30
0.0
 10
361.6865328608
 20
732.1869545566
 30
0.0
 10
361.6832868628
 20
732.1891162571
 30
0.0
 10
361.6814637787
 20
732.1922361798
 30
0.0
  0
SPLINE
  5
2C8
100
AcDbEntity
  8
0
100
AcDbSpline
 62
7
  6
CONTINUOUS
 70
0
 71
3
 72
9
 73
5
 74
0
 42
0.0000001
 43
0.0000001
 44
0.0000000001
 40
0.0
 40
0.0
 40
0.0
 40
0.0
 40
0.5233927499
 40
1.0
 40
1.0
 40
1.0
 40
1.0
 10
361.6814637787
 20
732.1922361798
 30
0.0
 10
361.6811437447
 20
732.1927838678
 30
0.0
 10
361.6806342877
 20
732.1938981979
 30
0.0
 10
361.6804492956
 20
732.1951168222
 30
0.0
 10
361.6804545653
 20
732.1956944329
 30
0.0
  0
SPLINE
  5
2C9
100
AcDbEntity
  8
0
100
AcDbSpline
 62
7
  6
CONTINUOUS
 70
0
 71
3
 72
8
 73
4
 74
0
 42
0.0000001
 43
0.0000001
 44
0.0000000001
 40
0.0
 40
0.0
 40
0.0
 40
0.0
 40
1.0
 40
1.0
 40
1.0
 40
1.0
 10
362.0105174288
 20
730.9320141938
 30
0.0
 10
362.0116251664
 20
730.9419312133
 30
0.0
 10
362.0144750413
 20
730.951771859
 30
0.0
 10
362.0187093294
 20
730.9608076303
 30
0.0
  0
SPLINE
  5
2CA
100
AcDbEntity
  8
0
100
AcDbSpline
 62
7
  6
CONTINUOUS
 70
0
 71
3
 72
8
 73
4
 74
0
 42
0.0000001
 43
0.0000001
 44
0.0000000001
 40
0.0
 40
0.0
 40
0.0
 40
0.0
 40
1.0
 40
1.0
 40
1.0
 40
1.0
 10
366.0702716023
 20
692.0187527412
 30
0.0
 10
366.305274683
 20
691.926169703
 30
0.0
 10
366.5601881349
 20
691.8748197255
 30
0.0
 10
366.8126464288
 20
691.8668902401
 30
0.0
  0
SPLINE
  5
2CB
100
AcDbEntity
  8
0
100
AcDbSpline
 62
7
  6
CONTINUOUS
 70
0
 71
3
 72
9
 73
5
 74
0
 42
0.0000001
 43
0.0000001
 44
0.0000000001
 40
0.0
 40
0.0
 40
0.0
 40
0.0
 40
0.2576679587
 40
1.0
 40
1.0
 40
1.0
 40
1.0
 10
361.9681192402
 20
697.3405907887
 30
0.0
 10
361.9702374969
 20
697.3178906351
 30
0.0
 10
361.9785882008
 20
697.2298037376
 30
0.0
 10
361.9880201227
 20
697.1418240684
 30
0.0
 10
361.9944235018
 20
697.0764545124
 30
0.0
  0
SPLINE
  5
2CC
100
AcDbEntity
  8
0
100
AcDbSpline
 62
7
  6
CONTINUOUS
 70
0
 71
3
 72
9
 73
5
 74
0
 42
0.0000001
 43
0.0000001
 44
0.0000000001
 40
0.0
 40
0.0
 40
0.0
 40
0.0
 40
0.5175401734
 40
1.0
 40
1.0
 40
1.0
 40
1.0
 10
361.8609770744
 20
699.2232619028
 30
0.0
 10
361.8655903165
 20
698.8979459337
 30
0.0
 10
361.9006494581
 20
698.2701114262
 30
0.0
 10
361.9369214086
 20
697.6422775912
 30
0.0
 10
361.9681192402
 20
697.3405907887
 30
0.0
  0
SPLINE
  5
2CD
100
AcDbEntity
  8
0
100
AcDbSpline
 62
7
  6
CONTINUOUS
 70
0
 71
3
 72
12
 73
8
 74
0
 42
0.0000001
 43
0.0000001
 44
0.0000000001
 40
0.0
 40
0.0
 40
0.0
 40
0.0
 40
0.1086546902
 40
0.2252754083
 40
0.4726020502
 40
0.73139008
 40
1.0
 40
1.0
 40
1.0
 40
1.0
 10
362.0170150119
 20
730.9362670419
 30
0.0
 10
362.0122916143
 20
730.8774727975
 30
0.0
 10
361.9980164178
 20
730.7559821488
 30
0.0
 10
361.9737621057
 20
730.5005828025
 30
0.0
 10
361.9450149267
 20
730.1637188915
 30
0.0
 10
361.9199514233
 20
729.7438895337
 30
0.0
 10
361.9022484189
 20
729.4581278641
 30
0.0
 10
361.89533674
 20
729.3124756953
 30
0.0
  0
SPLINE
  5
2CE
100
AcDbEntity
  8
0
100
AcDbSpline
 62
7
  6
CONTINUOUS
 70
0
 71
3
 72
12
 73
8
 74
0
 42
0.0000001
 43
0.0000001
 44
0.0000000001
 40
0.0
 40
0.0
 40
0.0
 40
0.0
 40
0.3162430099
 40
0.5984383161
 40
0.8279238775
 40
0.920414068
 40
1.0
 40
1.0
 40
1.0
 40
1.0
 10
367.6608706793
 20
734.8714024016
 30
0.0
 10
367.4647755814
 20
734.9337690317
 30
0.0
 10
367.0955092783
 20
735.0609915235
 30
0.0
 10
366.6162905989
 20
735.3093986375
 30
0.0
 10
366.2995264011
 20
735.5519518379
 30
0.0
 10
366.1422496275
 20
735.7621324595
 30
0.0
 10
366.0985360964
 20
735.8682125331
 30
0.0
 10
366.0905852458
 20
735.9193837169
 30
0.0
  0
SPLINE
  5
2CF
100
AcDbEntity
  8
0
100
AcDbSpline
 62
7
  6
CONTINUOUS
 70
0
 71
3
 72
12
 73
8
 74
0
 42
0.0000001
 43
0.0000001
 44
0.0000000001
 40
0.0
 40
0.0
 40
0.0
 40
0.0
 40
0.0668806105
 40
0.1557561091
 40
0.3950093907
 40
0.6906684224
 40
1.0
 40
1.0
 40
1.0
 40
1.0
 10
361.8746366138
 20
728.7187577413
 30
0.0
 10
361.9476816614
 20
728.757357117
 30
0.0
 10
362.1273402514
 20
728.8286780826
 30
0.0
 10
362.597567277
 20
728.9601365038
 30
0.0
 10
363.3602152245
 20
729.0836444883
 30
0.0
 10
364.3993461434
 20
729.1748509607
 30
0.0
 10
365.1468465419
 20
729.1975553393
 30
0.0
 10
365.5289525688
 20
729.1997375665
 30
0.0
  0
SPLINE
  5
2D0
100
AcDbEntity
  8
0
100
AcDbSpline
 62
7
  6
CONTINUOUS
 70
0
 71
3
 72
9
 73
5
 74
0
 42
0.0000001
 43
0.0000001
 44
0.0000000001
 40
0.0
 40
0.0
 40
0.0
 40
0.0
 40
0.3794610191
 40
1.0
 40
1.0
 40
1.0
 40
1.0
 10
361.8746610031
 20
728.7187530897
 30
0.0
 10
361.8731820759
 20
728.7183201982
 30
0.0
 10
361.8696541381
 20
728.7171037914
 30
0.0
 10
361.864622629
 20
728.7148883386
 30
0.0
 10
361.8645163662
 20
728.7123705887
 30
0.0
  0
SPLINE
  5
2D1
100
AcDbEntity
  8
0
100
AcDbSpline
 62
7
  6
CONTINUOUS
 70
0
 71
3
 72
9
 73
5
 74
0
 42
0.0000001
 43
0.0000001
 44
0.0000000001
 40
0.0
 40
0.0
 40
0.0
 40
0.0
 40
0.4995601812
 40
1.0
 40
1.0
 40
1.0
 40
1.0
 10
361.8549024064
 20
727.9529096036
 30
0.0
 10
361.7991500737
 20
725.6841090176
 30
0.0
 10
361.7185718355
 20
721.1416814375
 30
0.0
 10
361.6985617129
 20
716.5986681992
 30
0.0
 10
361.696561081
 20
714.3251874178
 30
0.0
  0
LINE
  5
2D2
100
AcDbEntity
  8
0
100
AcDbLine
 62
7
  6
CONTINUOUS
 10
361.696561081
 20
714.3251874178
 11
361.6962330825
 21
713.601701231
  0
SPLINE
  5
2D3
100
AcDbEntity
  8
0
100
AcDbSpline
 62
7
  6
CONTINUOUS
 70
0
 71
3
 72
9
 73
5
 74
0
 42
0.0000001
 43
0.0000001
 44
0.0000000001
 40
0.0
 40
0.0
 40
0.0
 40
0.0
 40
0.5004365408
 40
1.0
 40
1.0
 40
1.0
 40
1.0
 10
361.6962330825
 20
713.601701231
 30
0.0
 10
361.6961664909
 20
711.3328771351
 30
0.0
 10
361.7118269227
 20
706.7991210688
 30
0.0
 10
361.7885433828
 20
702.2659094217
 30
0.0
 10
361.8417182496
 20
700.0016679159
 30
0.0
  0
SPLINE
  5
2D4
100
AcDbEntity
  8
0
100
AcDbSpline
 62
7
  6
CONTINUOUS
 70
0
 71
3
 72
11
 73
7
 74
0
 42
0.0000001
 43
0.0000001
 44
0.0000000001
 40
0.0
 40
0.0
 40
0.0
 40
0.0
 40
0.2658729927
 40
0.5223468889
 40
0.7673103118
 40
1.0
 40
1.0
 40
1.0
 40
1.0
 10
365.5148447402
 20
698.7388837557
 30
0.0
 10
365.5146344413
 20
698.2816159591
 30
0.0
 10
365.593800874
 20
697.3803504833
 30
0.0
 10
365.9823504552
 20
696.1072764099
 30
0.0
 10
366.6501442022
 20
695.0170450761
 30
0.0
 10
367.2986550139
 20
694.4771771809
 30
0.0
 10
367.6523850841
 20
694.2900074978
 30
0.0
  0
SPLINE
  5
2D5
100
AcDbEntity
  8
0
100
AcDbSpline
 62
7
  6
CONTINUOUS
 70
0
 71
3
 72
11
 73
7
 74
0
 42
0.0000001
 43
0.0000001
 44
0.0000000001
 40
0.0
 40
0.0
 40
0.0
 40
0.0
 40
0.2327357083
 40
0.4777184115
 40
0.7341742186
 40
1.0
 40
1.0
 40
1.0
 40
1.0
 10
367.6612291447
 20
733.6416684416
 30
0.0
 10
367.308666688
 20
733.4538636092
 30
0.0
 10
366.6625304927
 20
732.913927797
 30
0.0
 10
365.9967832636
 20
731.8255196444
 30
0.0
 10
365.608819103
 20
730.5552449954
 30
0.0
 10
365.5291642118
 20
729.6560094039
 30
0.0
 10
365.5289513622
 20
729.1997509407
 30
0.0
  0
SPLINE
  5
2D6
100
AcDbEntity
  8
0
100
AcDbSpline
 62
7
  6
CONTINUOUS
 70
0
 71
3
 72
9
 73
5
 74
0
 42
0.0000001
 43
0.0000001
 44
0.0000000001
 40
0.0
 40
0.0
 40
0.0
 40
0.0
 40
0.2730028909
 40
1.0
 40
1.0
 40
1.0
 40
1.0
 10
362.0367654872
 20
731.1330206856
 30
0.0
 10
362.0417728406
 20
731.1817710456
 30
0.0
 10
362.0596026105
 20
731.3603727362
 30
0.0
 10
362.0744091563
 20
731.5394325133
 30
0.0
 10
362.078879877
 20
731.6698594288
 30
0.0
  0
SPLINE
  5
2D7
100
AcDbEntity
  8
0
100
AcDbSpline
 62
7
  6
CONTINUOUS
 70
0
 71
3
 72
19
 73
15
 74
0
 42
0.0000001
 43
0.0000001
 44
0.0000000001
 40
0.0
 40
0.0
 40
0.0
 40
0.0
 40
0.0574644576
 40
0.1073748675
 40
0.1486716963
 40
0.1804714727
 40
0.2026460284
 40
0.2187183876
 40
0.2396161586
 40
0.2735926468
 40
0.3880905624
 40
0.5594516805
 40
0.7695184378
 40
1.0
 40
1.0
 40
1.0
 40
1.0
 10
362.0806167295
 20
731.7427659873
 30
0.0
 10
362.0810372289
 20
731.7765451084
 30
0.0
 10
362.0807837955
 20
731.8397198257
 30
0.0
 10
362.0760793413
 20
731.9269216542
 30
0.0
 10
362.0670652051
 20
731.999087473
 30
0.0
 10
362.0525878482
 20
732.0527005169
 30
0.0
 10
362.0340198608
 20
732.0916467916
 30
0.0
 10
361.9971210494
 20
732.1052243131
 30
0.0
 10
361.9604834702
 20
732.0772492145
 30
0.0
 10
361.9045095474
 20
731.9968072596
 30
0.0
 10
361.8360623398
 20
731.8177581123
 30
0.0
 10
361.7654359442
 20
731.5359492204
 30
0.0
 10
361.7100590833
 20
731.179541081
 30
0.0
 10
361.6884440672
 20
730.9214096561
 30
0.0
 10
361.6808780946
 20
730.7861274355
 30
0.0
  0
LINE
  5
2D8
100
AcDbEntity
  8
0
100
AcDbLine
 62
7
  6
CONTINUOUS
 10
361.6808780946
 20
730.7861274355
 11
361.6803205704
 21
730.7760303162
  0
LINE
  5
2D9
100
AcDbEntity
  8
0
100
AcDbLine
 62
7
  6
CONTINUOUS
 10
361.6889957951
 20
730.7565776094
 11
361.6898117222
 21
730.7697779218
  0
SPLINE
  5
2DA
100
AcDbEntity
  8
0
100
AcDbSpline
 62
7
  6
CONTINUOUS
 70
0
 71
3
 72
19
 73
15
 74
0
 42
0.0000001
 43
0.0000001
 44
0.0000000001
 40
0.0
 40
0.0
 40
0.0
 40
0.0
 40
0.2294308163
 40
0.4404036099
 40
0.6140638958
 40
0.7317907364
 40
0.7671659615
 40
0.7891367234
 40
0.8048614926
 40
0.8256529545
 40
0.8558405362
 40
0.8955736697
 40
0.943984994
 40
1.0
 40
1.0
 40
1.0
 40
1.0
 10
361.6898117222
 20
730.7697779218
 30
0.0
 10
361.6978527201
 20
730.8987009359
 30
0.0
 10
361.7170100205
 20
731.1458900194
 30
0.0
 10
361.767172625
 20
731.4888946473
 30
0.0
 10
361.8330674186
 20
731.7629289514
 30
0.0
 10
361.8964129787
 20
731.9392628671
 30
0.0
 10
361.9500682153
 20
732.0202271975
 30
0.0
 10
361.983349866
 20
732.0500708559
 30
0.0
 10
362.019816502
 20
732.0426610562
 30
0.0
 10
362.0391248038
 20
732.0074366549
 30
0.0
 10
362.0534894529
 20
731.9591418667
 30
0.0
 10
362.0631778015
 20
731.8927187422
 30
0.0
 10
362.0687653619
 20
731.8118474023
 30
0.0
 10
362.0697400305
 20
731.7530004591
 30
0.0
 10
362.0697244994
 20
731.7214630423
 30
0.0
  0
SPLINE
  5
2DB
100
AcDbEntity
  8
0
100
AcDbSpline
 62
7
  6
CONTINUOUS
 70
0
 71
3
 72
9
 73
5
 74
0
 42
0.0000001
 43
0.0000001
 44
0.0000000001
 40
0.0
 40
0.0
 40
0.0
 40
0.0
 40
0.376088952
 40
1.0
 40
1.0
 40
1.0
 40
1.0
 10
361.6805623392
 20
730.7760115285
 30
0.0
 10
361.6804307229
 20
730.7739053612
 30
0.0
 10
361.6802289571
 20
730.7684956921
 30
0.0
 10
361.6810181681
 20
730.7619972012
 30
0.0
 10
361.6836505548
 20
730.7596893089
 30
0.0
  0
SPLINE
  5
2DC
100
AcDbEntity
  8
0
100
AcDbSpline
 62
7
  6
CONTINUOUS
 70
0
 71
3
 72
9
 73
5
 74
0
 42
0.0000001
 43
0.0000001
 44
0.0000000001
 40
0.0
 40
0.0
 40
0.0
 40
0.0
 40
0.4834542702
 40
1.0
 40
1.0
 40
1.0
 40
1.0
 10
361.6836505548
 20
730.7596893089
 30
0.0
 10
361.6844138866
 20
730.759020073
 30
0.0
 10
361.6860413441
 20
730.7576877758
 30
0.0
 10
361.6879927425
 20
730.7567787279
 30
0.0
 10
361.689051459
 20
730.7565429774
 30
0.0
  0
SPLINE
  5
2DD
100
AcDbEntity
  8
0
100
AcDbSpline
 62
7
  6
CONTINUOUS
 70
0
 71
3
 72
8
 73
4
 74
0
 42
0.0000001
 43
0.0000001
 44
0.0000000001
 40
0.0
 40
0.0
 40
0.0
 40
0.0
 40
1.0
 40
1.0
 40
1.0
 40
1.0
 10
366.0906023302
 20
735.9193676594
 30
0.0
 10
366.3256911099
 20
736.0117324841
 30
0.0
 10
366.5806520211
 20
736.0628456855
 30
0.0
 10
366.8331174288
 20
736.0705406886
 30
0.0
  0
SPLINE
  5
2DE
100
AcDbEntity
  8
0
100
AcDbSpline
 62
7
  6
CONTINUOUS
 70
0
 71
3
 72
20
 73
16
 74
0
 42
0.0000001
 43
0.0000001
 44
0.0000000001
 40
0.0
 40
0.0
 40
0.0
 40
0.0
 40
0.0248778091
 40
0.0402730952
 40
0.0487605793
 40
0.0615057074
 40
0.084755435
 40
0.119842231
 40
0.1668738976
 40
0.2256190187
 40
0.2953610567
 40
0.375154024
 40
0.5604745287
 40
0.7723046971
 40
1.0
 40
1.0
 40
1.0
 40
1.0
 10
362.0523480156
 20
694.2207228904
 30
0.0
 10
362.0523474435
 20
694.2062521828
 30
0.0
 10
362.0503007311
 20
694.1835935664
 30
0.0
 10
362.0477952699
 20
694.1533882676
 30
0.0
 10
362.0261470398
 20
694.1400940211
 30
0.0
 10
362.0049810696
 20
694.1629561462
 30
0.0
 10
361.9836971543
 20
694.1951903162
 30
0.0
 10
361.956209441
 20
694.2516296812
 30
0.0
 10
361.9257371894
 20
694.3271073264
 30
0.0
 10
361.8923242817
 20
694.4238465626
 30
0.0
 10
361.8575285628
 20
694.5398460694
 30
0.0
 10
361.8083835683
 20
694.7283875118
 30
0.0
 10
361.7521209859
 20
695.0002459885
 30
0.0
 10
361.7013541615
 20
695.3604008245
 30
0.0
 10
361.6815252074
 20
695.6154149958
 30
0.0
 10
361.6733685716
 20
695.7476074142
 30
0.0
  0
SPLINE
  5
2DF
100
AcDbEntity
  8
0
100
AcDbSpline
 62
7
  6
CONTINUOUS
 70
0
 71
3
 72
12
 73
8
 74
0
 42
0.0000001
 43
0.0000001
 44
0.0000000001
 40
0.0
 40
0.0
 40
0.0
 40
0.0
 40
0.3093328598
 40
0.6049921205
 40
0.8442447169
 40
0.9331197661
 40
1.0
 40
1.0
 40
1.0
 40
1.0
 10
365.5148459544
 20
698.738896992
 30
0.0
 10
365.1327405203
 20
698.7414332082
 30
0.0
 10
364.3852595897
 20
698.7648301866
 30
0.0
 10
363.3462125905
 20
698.85699965
 30
0.0
 10
362.5836805339
 20
698.9812142781
 30
0.0
 10
362.1135773515
 20
699.1131080265
 30
0.0
 10
361.9339859014
 20
699.1845951082
 30
0.0
 10
361.8609770507
 20
699.2232619153
 30
0.0
  0
SPLINE
  5
2E0
100
AcDbEntity
  8
0
100
AcDbSpline
 62
7
  6
CONTINUOUS
 70
0
 71
3
 72
11
 73
7
 74
0
 42
0.0000001
 43
0.0000001
 44
0.0000000001
 40
0.0
 40
0.0
 40
0.0
 40
0.0
 40
0.1706847764
 40
0.4005785846
 40
0.6833657535
 40
1.0
 40
1.0
 40
1.0
 40
1.0
 10
366.0702546623
 20
692.0187361449
 30
0.0
 10
366.0879448856
 20
692.1288216312
 30
0.0
 10
366.2444766394
 20
692.3595459139
 30
0.0
 10
366.5986719187
 20
692.6295018567
 30
0.0
 10
367.0832313884
 20
692.8805478846
 30
0.0
 10
367.4549484443
 20
693.0050690598
 30
0.0
 10
367.6518182852
 20
693.068504352
 30
0.0
  0
SPLINE
  5
2E1
100
AcDbEntity
  8
0
100
AcDbSpline
 62
7
  6
CONTINUOUS
 70
0
 71
3
 72
12
 73
8
 74
0
 42
0.0000001
 43
0.0000001
 44
0.0000000001
 40
0.0
 40
0.0
 40
0.0
 40
0.0
 40
0.1632595338
 40
0.2630596922
 40
0.3794417495
 40
0.6618884601
 40
1.0
 40
1.0
 40
1.0
 40
1.0
 10
366.83313597
 20
736.0705348918
 30
0.0
 10
366.8331392525
 20
736.0160099842
 30
0.0
 10
366.8711371264
 20
735.9275039116
 30
0.0
 10
366.9652820599
 20
735.8421997644
 30
0.0
 10
367.1083595362
 20
735.7550421831
 30
0.0
 10
367.3445324045
 20
735.6777649904
 30
0.0
 10
367.5491275767
 20
735.6433068911
 30
0.0
 10
367.6611919818
 20
735.6294209583
 30
0.0
  0
SPLINE
  5
2E2
100
AcDbEntity
  8
0
100
AcDbSpline
 62
7
  6
CONTINUOUS
 70
0
 71
3
 72
9
 73
5
 74
0
 42
0.0000001
 43
0.0000001
 44
0.0000000001
 40
0.0
 40
0.0
 40
0.0
 40
0.0
 40
0.3795131349
 40
1.0
 40
1.0
 40
1.0
 40
1.0
 10
361.8609750501
 20
699.2232616159
 30
0.0
 10
361.8594981032
 20
699.2236959942
 30
0.0
 10
361.8559758111
 20
699.2249147714
 30
0.0
 10
361.8509529509
 20
699.2271403476
 30
0.0
 10
361.8508541121
 20
699.2296554175
 30
0.0
  0
SPLINE
  5
2E3
100
AcDbEntity
  8
0
100
AcDbSpline
 62
7
  6
CONTINUOUS
 70
0
 71
3
 72
12
 73
8
 74
0
 42
0.0000001
 43
0.0000001
 44
0.0000000001
 40
0.0
 40
0.0
 40
0.0
 40
0.0
 40
0.3382346819
 40
0.6209318529
 40
0.7373827227
 40
0.8371537547
 40
1.0
 40
1.0
 40
1.0
 40
1.0
 10
367.6514667777
 20
692.3084968668
 30
0.0
 10
367.5381543261
 20
692.2948773154
 30
0.0
 10
367.3311930753
 20
692.2608713024
 30
0.0
 10
367.0920775932
 20
692.1839231516
 30
0.0
 10
366.9469679828
 20
692.0965918583
 30
0.0
 10
366.851472572
 20
692.0110363003
 30
0.0
 10
366.8127202501
 20
691.9218459678
 30
0.0
 10
366.8126649579
 20
691.8668979971
 30
0.0
  0
SPLINE
  5
2E4
100
AcDbEntity
  8
0
100
AcDbSpline
 62
7
  6
CONTINUOUS
 70
0
 71
3
 72
9
 73
5
 74
0
 42
0.0000001
 43
0.0000001
 44
0.0000000001
 40
0.0
 40
0.0
 40
0.0
 40
0.0
 40
0.253698763
 40
1.0
 40
1.0
 40
1.0
 40
1.0
 10
361.6642377306
 20
697.1759001142
 30
0.0
 10
361.6657817868
 20
697.1461103269
 30
0.0
 10
361.6726016834
 20
697.0287286949
 30
0.0
 10
361.6824434051
 20
696.9115141604
 30
0.0
 10
361.6917842945
 20
696.8242630088
 30
0.0
  0
SPLINE
  5
2E5
100
AcDbEntity
  8
0
100
AcDbSpline
 62
7
  6
CONTINUOUS
 70
0
 71
3
 72
20
 73
16
 74
0
 42
0.0000001
 43
0.0000001
 44
0.0000000001
 40
0.0
 40
0.0
 40
0.0
 40
0.0
 40
0.239138926
 40
0.3473918926
 40
0.445004332
 40
0.5296883292
 40
0.5995433271
 40
0.653600785
 40
0.6919788877
 40
0.7168566586
 40
0.7345970472
 40
0.7560806223
 40
0.786694058
 40
0.876613723
 40
1.0
 40
1.0
 40
1.0
 40
1.0
 10
361.6917842945
 20
696.8242630088
 30
0.0
 10
361.7040936047
 20
696.7092845039
 30
0.0
 10
361.7269299609
 20
696.5426721757
 30
0.0
 10
361.7689890733
 20
696.331578434
 30
0.0
 10
361.8027310493
 20
696.1951539975
 30
0.0
 10
361.8384317556
 20
696.0784328921
 30
0.0
 10
361.8745757745
 20
695.9843187962
 30
0.0
 10
361.9096216152
 20
695.9134841216
 30
0.0
 10
361.9421662291
 20
695.8676289603
 30
0.0
 10
361.97335023
 20
695.8402752553
 30
0.0
 10
362.0078349924
 20
695.8429946685
 30
0.0
 10
362.0289677084
 20
695.8725109345
 30
0.0
 10
362.0514832642
 20
695.9367885811
 30
0.0
 10
362.0639509574
 20
696.0558064538
 30
0.0
 10
362.0648950158
 20
696.1585446494
 30
0.0
 10
362.0637854567
 20
696.218197715
 30
0.0
  0
SPLINE
  5
2E6
100
AcDbEntity
  8
0
100
AcDbSpline
 62
7
  6
CONTINUOUS
 70
0
 71
3
 72
9
 73
5
 74
0
 42
0.0000001
 43
0.0000001
 44
0.0000000001
 40
0.0
 40
0.0
 40
0.0
 40
0.0
 40
0.2244318098
 40
1.0
 40
1.0
 40
1.0
 40
1.0
 10
362.0637854567
 20
696.218197715
 30
0.0
 10
362.0631540995
 20
696.2521412804
 30
0.0
 10
362.0579590814
 20
696.4033396954
 30
0.0
 10
362.0458342894
 20
696.5542085927
 30
0.0
 10
362.0349877925
 20
696.6710250654
 30
0.0
  0
SPLINE
  5
2E7
100
AcDbEntity
  8
0
100
AcDbSpline
 62
7
  6
CONTINUOUS
 70
0
 71
3
 72
9
 73
5
 74
0
 42
0.0000001
 43
0.0000001
 44
0.0000000001
 40
0.0
 40
0.0
 40
0.0
 40
0.0
 40
0.4128765322
 40
1.0
 40
1.0
 40
1.0
 40
1.0
 10
362.0549477189
 20
694.279717309
 30
0.0
 10
362.035209529
 20
694.4574945881
 30
0.0
 10
361.9556141012
 20
694.883877658
 30
0.0
 10
361.8804333491
 20
695.3103539249
 30
0.0
 10
361.8401156452
 20
695.5614965816
 30
0.0
  0
SPLINE
  5
2E8
100
AcDbEntity
  8
0
100
AcDbSpline
 62
7
  6
CONTINUOUS
 70
0
 71
3
 72
9
 73
5
 74
0
 42
0.0000001
 43
0.0000001
 44
0.0000000001
 40
0.0
 40
0.0
 40
0.0
 40
0.0
 40
0.2435761263
 40
1.0
 40
1.0
 40
1.0
 40
1.0
 10
361.7398774729
 20
696.2731347276
 30
0.0
 10
361.7312153739
 20
696.346185624
 30
0.0
 10
361.6979000175
 20
696.6463501021
 30
0.0
 10
361.6745769647
 20
696.9476858924
 30
0.0
 10
361.6642377306
 20
697.1759001142
 30
0.0
  0
SPLINE
  5
2E9
100
AcDbEntity
  8
0
100
AcDbSpline
 62
7
  6
CONTINUOUS
 70
0
 71
3
 72
8
 73
4
 74
0
 42
0.0000001
 43
0.0000001
 44
0.0000000001
 40
0.0
 40
0.0
 40
0.0
 40
0.0
 40
1.0
 40
1.0
 40
1.0
 40
1.0
 10
387.6614963586
 20
122.5487766841
 30
0.0
 10
387.6615676335
 20
122.4158225907
 30
0.0
 10
387.5402727535
 20
122.3004866604
 30
0.0
 10
387.4331364685
 20
122.221755393
 30
0.0
  0
SPLINE
  5
2EA
100
AcDbEntity
  8
0
100
AcDbSpline
 62
7
  6
CONTINUOUS
 70
0
 71
3
 72
9
 73
5
 74
0
 42
0.0000001
 43
0.0000001
 44
0.0000000001
 40
0.0
 40
0.0
 40
0.0
 40
0.0
 40
0.2060615799
 40
1.0
 40
1.0
 40
1.0
 40
1.0
 10
387.4331364685
 20
122.221755393
 30
0.0
 10
387.3855203515
 20
122.1867637257
 30
0.0
 10
387.1427203391
 20
122.0330738459
 30
0.0
 10
386.8773869391
 20
121.9200176294
 30
0.0
 10
386.666226787
 20
121.8348955281
 30
0.0
  0
SPLINE
  5
2EB
100
AcDbEntity
  8
0
100
AcDbSpline
 62
7
  6
CONTINUOUS
 70
0
 71
3
 72
8
 73
4
 74
0
 42
0.0000001
 43
0.0000001
 44
0.0000000001
 40
0.0
 40
0.0
 40
0.0
 40
0.0
 40
1.0
 40
1.0
 40
1.0
 40
1.0
 10
386.666226787
 20
121.8348955281
 30
0.0
 10
386.4815258954
 20
121.7604395862
 30
0.0
 10
386.2948270302
 20
121.6909876755
 30
0.0
 10
386.1079572695
 20
121.6221560025
 30
0.0
  0
LINE
  5
2EC
100
AcDbEntity
  8
0
100
AcDbLine
 62
7
  6
CONTINUOUS
 10
386.1079572695
 20
121.6221560025
 11
385.9614971129
 21
121.5683284458
  0
SPLINE
  5
2ED
100
AcDbEntity
  8
0
100
AcDbSpline
 62
7
  6
CONTINUOUS
 70
0
 71
3
 72
8
 73
4
 74
0
 42
0.0000001
 43
0.0000001
 44
0.0000000001
 40
0.0
 40
0.0
 40
0.0
 40
0.0
 40
1.0
 40
1.0
 40
1.0
 40
1.0
 10
387.6614969813
 20
1314.5878422792
 30
0.0
 10
387.661547008
 20
1314.7204967947
 30
0.0
 10
387.5408955414
 20
1314.8357842164
 30
0.0
 10
387.4340489839
 20
1314.9144037822
 30
0.0
  0
SPLINE
  5
2EE
100
AcDbEntity
  8
0
100
AcDbSpline
 62
7
  6
CONTINUOUS
 70
0
 71
3
 72
9
 73
5
 74
0
 42
0.0000001
 43
0.0000001
 44
0.0000000001
 40
0.0
 40
0.0
 40
0.0
 40
0.0
 40
0.2059829801
 40
1.0
 40
1.0
 40
1.0
 40
1.0
 10
387.4340489839
 20
1314.9144037822
 30
0.0
 10
387.3865904917
 20
1314.9493245709
 30
0.0
 10
387.144449021
 20
1315.102730781
 30
0.0
 10
386.8797612702
 20
1315.2154861236
 30
0.0
 10
386.6691324415
 20
1315.3004767195
 30
0.0
  0
SPLINE
  5
2EF
100
AcDbEntity
  8
0
100
AcDbSpline
 62
7
  6
CONTINUOUS
 70
0
 71
3
 72
8
 73
4
 74
0
 42
0.0000001
 43
0.0000001
 44
0.0000000001
 40
0.0
 40
0.0
 40
0.0
 40
0.0
 40
1.0
 40
1.0
 40
1.0
 40
1.0
 10
386.6691324415
 20
1315.3004767195
 30
0.0
 10
386.4836135216
 20
1315.3753352449
 30
0.0
 10
386.2960851818
 20
1315.4451672404
 30
0.0
 10
386.108371155
 20
1315.5143374118
 30
0.0
  0
LINE
  5
2F0
100
AcDbEntity
  8
0
100
AcDbLine
 62
7
  6
CONTINUOUS
 10
386.108371155
 20
1315.5143374118
 11
385.9614971129
 21
1315.5683284458
  0
SPLINE
  5
2F1
100
AcDbEntity
  8
0
100
AcDbSpline
 62
7
  6
CONTINUOUS
 70
0
 71
3
 72
8
 73
4
 74
0
 42
0.0000001
 43
0.0000001
 44
0.0000000001
 40
0.0
 40
0.0
 40
0.0
 40
0.0
 40
1.0
 40
1.0
 40
1.0
 40
1.0
 10
368.2402105711
 20
1315.1639531878
 30
0.0
 10
368.0211250292
 20
1314.9107866749
 30
0.0
 10
367.8252650882
 20
1314.6204450336
 30
0.0
 10
367.7276073327
 20
1314.3002033736
 30
0.0
  0
SPLINE
  5
2F2
100
AcDbEntity
  8
0
100
AcDbSpline
 62
7
  6
CONTINUOUS
 70
0
 71
3
 72
8
 73
4
 74
0
 42
0.0000001
 43
0.0000001
 44
0.0000000001
 40
0.0
 40
0.0
 40
0.0
 40
0.0
 40
1.0
 40
1.0
 40
1.0
 40
1.0
 10
367.6614971129
 20
123.2683284457
 30
0.0
 10
367.6614971129
 20
122.956425321
 30
0.0
 10
367.7772269987
 20
122.6407955547
 30
0.0
 10
367.940967618
 20
122.3753288547
 30
0.0
  0
SPLINE
  5
2F3
100
AcDbEntity
  8
0
100
AcDbSpline
 62
7
  6
CONTINUOUS
 70
0
 71
3
 72
8
 73
4
 74
0
 42
0.0000001
 43
0.0000001
 44
0.0000000001
 40
0.0
 40
0.0
 40
0.0
 40
0.0
 40
1.0
 40
1.0
 40
1.0
 40
1.0
 10
367.940967618
 20
122.3753288547
 30
0.0
 10
368.0287519103
 20
122.23300738
 30
0.0
 10
368.1307879818
 20
122.099148083
 30
0.0
 10
368.2402105711
 20
121.9727037036
 30
0.0
  0
SPLINE
  5
2F4
100
AcDbEntity
  8
0
100
AcDbSpline
 62
7
  6
CONTINUOUS
 70
0
 71
3
 72
8
 73
4
 74
0
 42
0.0000001
 43
0.0000001
 44
0.0000000001
 40
0.0
 40
0.0
 40
0.0
 40
0.0
 40
1.0
 40
1.0
 40
1.0
 40
1.0
 10
392.1717790787
 20
139.4036612285
 30
0.0
 10
392.431798166
 20
139.1502480454
 30
0.0
 10
392.6922027203
 20
138.8969437514
 30
0.0
 10
392.941830917
 20
138.6332888056
 30
0.0
  0
SPLINE
  5
2F5
100
AcDbEntity
  8
0
100
AcDbSpline
 62
7
  6
CONTINUOUS
 70
0
 71
3
 72
8
 73
4
 74
0
 42
0.0000001
 43
0.0000001
 44
0.0000000001
 40
0.0
 40
0.0
 40
0.0
 40
0.0
 40
1.0
 40
1.0
 40
1.0
 40
1.0
 10
392.941830917
 20
138.6332888056
 30
0.0
 10
393.2750114321
 20
138.2813866896
 30
0.0
 10
393.5973386737
 20
137.9088176899
 30
0.0
 10
393.8364186636
 20
137.4872905694
 30
0.0
  0
SPLINE
  5
2F6
100
AcDbEntity
  8
0
100
AcDbSpline
 62
7
  6
CONTINUOUS
 70
0
 71
3
 72
8
 73
4
 74
0
 42
0.0000001
 43
0.0000001
 44
0.0000000001
 40
0.0
 40
0.0
 40
0.0
 40
0.0
 40
1.0
 40
1.0
 40
1.0
 40
1.0
 10
667.9717937243
 20
120.2683284457
 30
0.0
 10
668.3318033082
 20
120.3900852185
 30
0.0
 10
668.6919264856
 20
120.5116486223
 30
0.0
 10
669.0495961921
 20
120.6401164912
 30
0.0
  0
SPLINE
  5
2F7
100
AcDbEntity
  8
0
100
AcDbSpline
 62
7
  6
CONTINUOUS
 70
0
 71
3
 72
9
 73
5
 74
0
 42
0.0000001
 43
0.0000001
 44
0.0000000001
 40
0.0
 40
0.0
 40
0.0
 40
0.0
 40
0.2783460807
 40
1.0
 40
1.0
 40
1.0
 40
1.0
 10
669.0495961921
 20
120.6401164912
 30
0.0
 10
669.1800942674
 20
120.6869888131
 30
0.0
 10
669.6472376013
 20
120.8593167598
 30
0.0
 10
670.1103946625
 20
121.0476961906
 30
0.0
 10
670.4283187266
 20
121.2155156681
 30
0.0
  0
SPLINE
  5
2F8
100
AcDbEntity
  8
0
100
AcDbSpline
 62
7
  6
CONTINUOUS
 70
0
 71
3
 72
9
 73
5
 74
0
 42
0.0000001
 43
0.0000001
 44
0.0000000001
 40
0.0
 40
0.0
 40
0.0
 40
0.0
 40
0.343001666
 40
1.0
 40
1.0
 40
1.0
 40
1.0
 10
670.4283187266
 20
121.2155156681
 30
0.0
 10
670.5371590165
 20
121.2729681312
 30
0.0
 10
670.8348936547
 20
121.4429309117
 30
0.0
 10
671.1717937243
 20
121.7325895371
 30
0.0
 10
671.1717937243
 20
121.9683284458
 30
0.0
  0
SPLINE
  5
2F9
100
AcDbEntity
  8
0
100
AcDbSpline
 62
7
  6
CONTINUOUS
 70
0
 71
3
 72
9
 73
5
 74
0
 42
0.0000001
 43
0.0000001
 44
0.0000000001
 40
0.0
 40
0.0
 40
0.0
 40
0.0
 40
0.3684284557
 40
1.0
 40
1.0
 40
1.0
 40
1.0
 10
671.1717937243
 20
1315.5683284457
 30
0.0
 10
671.1717937243
 20
1315.7498672808
 30
0.0
 10
670.7913123469
 20
1316.1738320016
 30
0.0
 10
670.3569832971
 20
1316.3657540075
 30
0.0
 10
670.0730063297
 20
1316.4930419868
 30
0.0
  0
SPLINE
  5
2FA
100
AcDbEntity
  8
0
100
AcDbSpline
 62
7
  6
CONTINUOUS
 70
0
 71
3
 72
8
 73
4
 74
0
 42
0.0000001
 43
0.0000001
 44
0.0000000001
 40
0.0
 40
0.0
 40
0.0
 40
0.0
 40
1.0
 40
1.0
 40
1.0
 40
1.0
 10
670.0730063297
 20
1316.4930419868
 30
0.0
 10
669.7384383398
 20
1316.6430065554
 30
0.0
 10
669.3948039892
 20
1316.7725463708
 30
0.0
 10
669.0497473883
 20
1316.8964860893
 30
0.0
  0
SPLINE
  5
2FB
100
AcDbEntity
  8
0
100
AcDbSpline
 62
7
  6
CONTINUOUS
 70
0
 71
3
 72
8
 73
4
 74
0
 42
0.0000001
 43
0.0000001
 44
0.0000000001
 40
0.0
 40
0.0
 40
0.0
 40
0.0
 40
1.0
 40
1.0
 40
1.0
 40
1.0
 10
669.0497473883
 20
1316.8964860893
 30
0.0
 10
668.6920280212
 20
1317.0249741042
 30
0.0
 10
668.3318540331
 20
1317.1465545176
 30
0.0
 10
667.9717937243
 20
1317.2683284458
 30
0.0
  0
SPLINE
  5
2FC
100
AcDbEntity
  8
0
100
AcDbSpline
 62
7
  6
CONTINUOUS
 70
0
 71
3
 72
9
 73
5
 74
0
 42
0.0000001
 43
0.0000001
 44
0.0000000001
 40
0.0
 40
0.0
 40
0.0
 40
0.0
 40
0.2129498442
 40
1.0
 40
1.0
 40
1.0
 40
1.0
 10
394.1717937243
 20
1301.194522454
 30
0.0
 10
394.1717937243
 20
1300.9661731283
 30
0.0
 10
393.954959386
 20
1299.8895584256
 30
0.0
 10
393.1367076142
 20
1299.0854224146
 30
0.0
 10
392.5373209736
 20
1298.4912727521
 30
0.0
  0
SPLINE
  5
2FD
100
AcDbEntity
  8
0
100
AcDbSpline
 62
7
  6
CONTINUOUS
 70
0
 71
3
 72
8
 73
4
 74
0
 42
0.0000001
 43
0.0000001
 44
0.0000000001
 40
0.0
 40
0.0
 40
0.0
 40
0.0
 40
1.0
 40
1.0
 40
1.0
 40
1.0
 10
392.5373209736
 20
1298.4912727521
 30
0.0
 10
392.4161502118
 20
1298.371160687
 30
0.0
 10
392.2939637085
 20
1298.2520762071
 30
0.0
 10
392.1717790544
 20
1298.1329956798
 30
0.0
  0
SPLINE
  5
2FE
100
AcDbEntity
  8
0
100
AcDbSpline
 62
7
  6
CONTINUOUS
 70
0
 71
3
 72
8
 73
4
 74
0
 42
0.0000001
 43
0.0000001
 44
0.0000000001
 40
0.0
 40
0.0
 40
0.0
 40
0.0
 40
1.0
 40
1.0
 40
1.0
 40
1.0
 10
397.3717937243
 20
1317.2683284457
 30
0.0
 10
397.0117841404
 20
1317.146571673
 30
0.0
 10
396.6516609632
 20
1317.0250082692
 30
0.0
 10
396.2939912568
 20
1316.8965404004
 30
0.0
  0
SPLINE
  5
2FF
100
AcDbEntity
  8
0
100
AcDbSpline
 62
7
  6
CONTINUOUS
 70
0
 71
3
 72
9
 73
5
 74
0
 42
0.0000001
 43
0.0000001
 44
0.0000000001
 40
0.0
 40
0.0
 40
0.0
 40
0.0
 40
0.2783460807
 40
1.0
 40
1.0
 40
1.0
 40
1.0
 10
396.2939912568
 20
1316.8965404004
 30
0.0
 10
396.1634931815
 20
1316.8496680785
 30
0.0
 10
395.6963498475
 20
1316.6773401318
 30
0.0
 10
395.2331927861
 20
1316.4889607009
 30
0.0
 10
394.9152687219
 20
1316.3211412234
 30
0.0
  0
SPLINE
  5
300
100
AcDbEntity
  8
0
100
AcDbSpline
 62
7
  6
CONTINUOUS
 70
0
 71
3
 72
9
 73
5
 74
0
 42
0.0000001
 43
0.0000001
 44
0.0000000001
 40
0.0
 40
0.0
 40
0.0
 40
0.0
 40
0.343001666
 40
1.0
 40
1.0
 40
1.0
 40
1.0
 10
394.9152687219
 20
1316.3211412234
 30
0.0
 10
394.8064284321
 20
1316.2636887603
 30
0.0
 10
394.5086937939
 20
1316.0937259798
 30
0.0
 10
394.1717937243
 20
1315.8040673544
 30
0.0
 10
394.1717937243
 20
1315.5683284457
 30
0.0
  0
SPLINE
  5
301
100
AcDbEntity
  8
0
100
AcDbSpline
 62
7
  6
CONTINUOUS
 70
0
 71
3
 72
9
 73
5
 74
0
 42
0.0000001
 43
0.0000001
 44
0.0000000001
 40
0.0
 40
0.0
 40
0.0
 40
0.0
 40
0.3684284557
 40
1.0
 40
1.0
 40
1.0
 40
1.0
 10
394.1717937243
 20
121.9683284458
 30
0.0
 10
394.1717937243
 20
121.7867896107
 30
0.0
 10
394.5522751016
 20
121.36282489
 30
0.0
 10
394.9866041514
 20
121.170902884
 30
0.0
 10
395.2705811189
 20
121.0436149047
 30
0.0
  0
SPLINE
  5
302
100
AcDbEntity
  8
0
100
AcDbSpline
 62
7
  6
CONTINUOUS
 70
0
 71
3
 72
8
 73
4
 74
0
 42
0.0000001
 43
0.0000001
 44
0.0000000001
 40
0.0
 40
0.0
 40
0.0
 40
0.0
 40
1.0
 40
1.0
 40
1.0
 40
1.0
 10
395.2705811189
 20
121.0436149047
 30
0.0
 10
395.6051489579
 20
120.8936504038
 30
0.0
 10
395.9487831501
 20
120.7641106387
 30
0.0
 10
396.2938395932
 20
120.6401709699
 30
0.0
  0
SPLINE
  5
303
100
AcDbEntity
  8
0
100
AcDbSpline
 62
7
  6
CONTINUOUS
 70
0
 71
3
 72
8
 73
4
 74
0
 42
0.0000001
 43
0.0000001
 44
0.0000000001
 40
0.0
 40
0.0
 40
0.0
 40
0.0
 40
1.0
 40
1.0
 40
1.0
 40
1.0
 10
396.2938395932
 20
120.6401709699
 30
0.0
 10
396.6515591137
 20
120.5116828928
 30
0.0
 10
397.0117332588
 20
120.3901024268
 30
0.0
 10
397.3717937243
 20
120.2683284457
 30
0.0
  0
ENDSEC
  0
SECTION
  2
OBJECTS
  0
DICTIONARY
  5
C
100
AcDbDictionary
280
0
281
1
  3
ACAD_GROUP
350
D
  3
ACAD_MLINESTYLE
350
17
  3
ACAD_LAYOUT
350
1A
  3
ACAD_PLOTSETTINGS
350
19
  3
ACAD_PLOTSTYLENAME
350
E
  0
DICTIONARY
  5
D
102
{ACAD_REACTORS
330
C
102
}
100
AcDbDictionary
280
0
281
1
  0
ACDBDICTIONARYWDFLT
  5
E
102
{ACAD_REACTORS
330
C
102
}
100
AcDbDictionary
281
1
  3
Normal
350
F
100
AcDbDictionaryWithDefault
340
F
  0
DICTIONARY
  5
17
102
{ACAD_REACTORS
330
C
102
}
100
AcDbDictionary
280
0
281
1
  3
Standard
350
18
  0
DICTIONARY
  5
19
102
{ACAD_REACTORS
330
C
102
}
100
AcDbDictionary
281
1
  0
DICTIONARY
  5
1A
102
{ACAD_REACTORS
330
C
102
}
100
AcDbDictionary
281
1
  3
Model
350
304
  3
Layout1
350
305
  0
ACDBPLACEHOLDER
  5
F
102
{ACAD_REACTORS
330
E
102
}
  0
MLINESTYLE
  5
18
102
{ACAD_REACTORS
330
17
102
}
100
AcDbMlineStyle
  2
STANDARD
 70
0
  3

 62
256
 51
90.0
 52
90.0
 71
2
 49
0.5
 62
256
  6
BYLAYER
 49
-0.5
 62
256
  6
BYLAYER
  0
LAYOUT
  5
304
102
{ACAD_REACTORS
330
1A
102
}
100
AcDbPlotSettings
  1

  2
none_device
  4

  6

 40
0.0
 41
0.0
 42
0.0
 43
0.0
 44
210.0
 45
297.0
 46
0.0
 47
0.0
 48
0.0
 49
0.0
140
0.0
141
0.0
142
1.0
143
1.0
 70
1024
 72
1
 73
0
 74
0
  7

 75
0
147
1.0
148
0.0
149
0.0
100
AcDbLayout
  1
Model
 70
0
 71
0
 10
0.0
 20
0.0
 11
210.0
 21
297.0
 12
0.0
 22
0.0
 32
0.0
 14
0.0
 24
0.0
 34
0.0
 15
0.0
 25
0.0
 35
0.0
146
0.0
 13
0.0
 23
0.0
 33
0.0
 16
1.0
 26
0.0
 36
0.0
 17
0.0
 27
1.0
 37
0.0
 76
0
330
210
345
0
346
0
  0
LAYOUT
  5
305
102
{ACAD_REACTORS
330
1A
102
}
100
AcDbPlotSettings
  1

  2
none_device
  4

  6

 40
0.0
 41
0.0
 42
0.0
 43
0.0
 44
210.0
 45
297.0
 46
0.0
 47
0.0
 48
0.0
 49
0.0
140
0.0
141
0.0
142
1.0
143
1.0
 70
0
 72
1
 73
0
 74
0
  7

 75
0
147
1.0
148
0.0
149
0.0
100
AcDbLayout
  1
Layout1
 70
0
 71
1
 10
0.0
 20
0.0
 11
210.0
 21
297.0
 12
0.0
 22
0.0
 32
0.0
 14
0.0
 24
0.0
 34
0.0
 15
0.0
 25
0.0
 35
0.0
146
0.0
 13
0.0
 23
0.0
 33
0.0
 16
1.0
 26
0.0
 36
0.0
 17
0.0
 27
1.0
 37
0.0
 76
0
330
211
345
0
346
0
  0
ENDSEC
  0
EOF
