999
DXF file: C:\Users\sesa63760\Dev\_Creo\CAD\MCADUE0003437_3D-CAD\drw0001_7.dxf
999
Pro/ENGINEER 2019471 by Parametric Technology Corporation
  0
SECTION
  2
HEADER
  9
$ACADVER
  1
AC1024
  9
$DWGCODEPAGE
  3
ANSI_1252
  9
$EXTMAX
 10
909.4932917799
 20
1286.2833698031
 30
0.0
  9
$EXTMIN
 10
0.0
 20
0.0
 30
0.0
  9
$LIMMIN
 10
0.0
 20
0.0
  9
$LIMMAX
 10
909.4932917799
 20
1286.2833698031
  9
$VIEWCTR
 10
454.74664589
 20
643.1416849015
  9
$VIEWSIZE
 40
1286.2833698031
  9
$CLAYER
  8
0
  9
$LTSCALE
 40
83.8466196612
  9
$CELTYPE
  6
BYLAYER
  9
$DIMSCALE
 40
1.0
  9
$DIMASZ
 40
10.8273010926
  9
$DIMEXO
 40
1.0
  9
$DIMDLI
 40
57.9303917659
  9
$DIMEXE
 40
1.0
  9
$DIMCEN
 40
13.7203559446
  9
$DIMLFAC
 40
1.0
  9
$DIMBLK
  1
_FILLED
  9
$DIMALT
 70
0
  9
$DIMALTF
 40
0.0393700787
  9
$DIMTXT
 40
15.1582215297
  9
$DIMTOL
 70
1
  9
$DIMLIM
 70
0
  9
$DIMTFAC
 40
1.0
  9
$DIMTP
 40
0.01
  9
$DIMTM
 40
0.01
  9
$DIMGAP
 40
0.625
  9
$DIMDSEP
 70
46
  9
$AUNITS
 70
0
  9
$PDMODE
 70
3
  9
$PDSIZE
 40
0.3125
  9
$HANDSEED
  5
3FD
  9
$TILEMODE
 70
1
  9
$MEASUREMENT
 70
1
  9
$INSUNITS
 70
4
  0
ENDSEC
  0
SECTION
  2
CLASSES
  0
CLASS
  1
ACDBDICTIONARYWDFLT
  2
AcDbDictionaryWithDefault
  3
AutoCAD 2000
 90
0
 91
1
280
0
281
0
  0
CLASS
  1
ACDBPLACEHOLDER
  2
AcDbPlaceHolder
  3
AutoCAD 2000
 90
0
 91
1
280
0
281
0
  0
CLASS
  1
LAYOUT
  2
AcDbLayout
  3
AutoCAD 2000
 90
0
 91
0
280
0
281
0
  0
ENDSEC
  0
SECTION
  2
TABLES
  0
TABLE
  2
VPORT
  5
8
100
AcDbSymbolTable
 70
2
  0
VPORT
  5
1F4
100
AcDbSymbolTableRecord
100
AcDbViewportTableRecord
  2
*ACTIVE
 70
0
 10
0.0
 20
0.0
 11
1.0
 21
1.0
 12
454.74664589
 22
643.1416849015
 13
0.0
 23
0.0
 14
1.0
 24
1.0
 15
0.0
 25
0.0
 16
0.0
 26
0.0
 36
1.0
 17
0.0
 27
0.0
 37
0.0
 40
1286.2833698031
 41
0.7070707071
 42
50.0
 43
0.0
 44
0.0
 50
0.0
 51
0.0
 71
0
 72
100
 73
1
 74
1
 75
0
 76
0
 77
0
 78
0
  0
ENDTAB
  0
TABLE
  2
LTYPE
  5
5
100
AcDbSymbolTable
 70
6
  0
LTYPE
  5
14
100
AcDbSymbolTableRecord
100
AcDbLinetypeTableRecord
  2
BYBLOCK
 70
0
  3

 72
65
 73
0
 40
0.0
  0
LTYPE
  5
15
100
AcDbSymbolTableRecord
100
AcDbLinetypeTableRecord
  2
BYLAYER
 70
0
  3

 72
65
 73
0
 40
0.0
  0
LTYPE
  5
16
100
AcDbSymbolTableRecord
100
AcDbLinetypeTableRecord
  2
CONTINUOUS
 70
64
  3
Solid line
 72
65
 73
0
 40
0.0
  0
LTYPE
  5
1F5
100
AcDbSymbolTableRecord
100
AcDbLinetypeTableRecord
  2
CENTER
 70
64
  3
____ _ ____ _ ____ _ ____ _ ____ _ ____ _ ____
 72
65
 73
4
 40
0.6
 49
0.375
 74
0
 49
-0.075
 74
0
 49
0.075
 74
0
 49
-0.075
 74
0
  0
LTYPE
  5
1F6
100
AcDbSymbolTableRecord
100
AcDbLinetypeTableRecord
  2
HIDDEN
 70
64
  3
- - - - - - - - - - - - - - - - - - - -
 72
65
 73
2
 40
0.2
 49
0.1
 74
0
 49
-0.1
 74
0
  0
LTYPE
  5
1F7
100
AcDbSymbolTableRecord
100
AcDbLinetypeTableRecord
  2
PHANTOM
 70
64
  3
_____ _ _ _____ _ _ _____ _ _ _____
 72
65
 73
6
 40
0.8
 49
0.45
 74
0
 49
-0.05
 74
0
 49
0.1
 74
0
 49
-0.05
 74
0
 49
0.1
 74
0
 49
-0.05
 74
0
  0
LTYPE
  5
1F8
100
AcDbSymbolTableRecord
100
AcDbLinetypeTableRecord
  2
DOT
 70
64
  3
. . . . . . . . . . . . . . . . . . . .
 72
65
 73
2
 40
0.2
 49
0.1
 74
0
 49
-0.1
 74
0
  0
LTYPE
  5
1F9
100
AcDbSymbolTableRecord
100
AcDbLinetypeTableRecord
  2
DASHED
 70
64
  3
- - - - - - - - - - - - - - - - - - - -
 72
65
 73
2
 40
0.2
 49
0.1
 74
0
 49
-0.1
 74
0
  0
ENDTAB
  0
TABLE
  2
LAYER
  5
2
100
AcDbSymbolTable
 70
36
  0
LAYER
  5
10
100
AcDbSymbolTableRecord
100
AcDbLayerTableRecord
  2
0
 70
0
 62
7
  6
CONTINUOUS
370
-3
390
F
  0
LAYER
  5
1FA
100
AcDbSymbolTableRecord
100
AcDbLayerTableRecord
  2
DEFAULT_1
 70
0
 62
7
  6
CENTER
370
-3
390
F
  0
LAYER
  5
1FB
100
AcDbSymbolTableRecord
100
AcDbLayerTableRecord
  2
DEFAULT_2
 70
0
 62
8
  6
HIDDEN
370
-3
390
F
  0
LAYER
  5
1FC
100
AcDbSymbolTableRecord
100
AcDbLayerTableRecord
  2
DEFAULT_3
 70
0
 62
7
  6
PHANTOM
370
-3
390
F
  0
LAYER
  5
1FD
100
AcDbSymbolTableRecord
100
AcDbLayerTableRecord
  2
00_COMPONENTS
 70
0
 62
7
  6
CONTINUOUS
370
-3
390
F
  0
LAYER
  5
1FE
100
AcDbSymbolTableRecord
100
AcDbLayerTableRecord
  2
01_1_DEFAULT_DATUMS
 70
0
 62
7
  6
CONTINUOUS
370
-3
390
F
  0
LAYER
  5
1FF
100
AcDbSymbolTableRecord
100
AcDbLayerTableRecord
  2
01_PLANES
 70
0
 62
7
  6
CONTINUOUS
370
-3
390
F
  0
LAYER
  5
200
100
AcDbSymbolTableRecord
100
AcDbLayerTableRecord
  2
02_COORD_SYS
 70
0
 62
7
  6
CONTINUOUS
370
-3
390
F
  0
LAYER
  5
201
100
AcDbSymbolTableRecord
100
AcDbLayerTableRecord
  2
03_AXES
 70
0
 62
7
  6
CONTINUOUS
370
-3
390
F
  0
LAYER
  5
202
100
AcDbSymbolTableRecord
100
AcDbLayerTableRecord
  2
04_POINTS
 70
0
 62
7
  6
CONTINUOUS
370
-3
390
F
  0
LAYER
  5
203
100
AcDbSymbolTableRecord
100
AcDbLayerTableRecord
  2
05_CURVES
 70
0
 62
7
  6
CONTINUOUS
370
-3
390
F
  0
LAYER
  5
204
100
AcDbSymbolTableRecord
100
AcDbLayerTableRecord
  2
06_SURFS
 70
0
 62
7
  6
CONTINUOUS
370
-3
390
F
  0
LAYER
  5
205
100
AcDbSymbolTableRecord
100
AcDbLayerTableRecord
  2
07_COSMETICS
 70
0
 62
7
  6
CONTINUOUS
370
-3
390
F
  0
LAYER
  5
206
100
AcDbSymbolTableRecord
100
AcDbLayerTableRecord
  2
10_NOTES
 70
0
 62
7
  6
CONTINUOUS
370
-3
390
F
  0
LAYER
  5
207
100
AcDbSymbolTableRecord
100
AcDbLayerTableRecord
  2
11_NOTES_PUB
 70
0
 62
7
  6
CONTINUOUS
370
-3
390
F
  0
LAYER
  5
208
100
AcDbSymbolTableRecord
100
AcDbLayerTableRecord
  2
13_REF_GTOL
 70
0
 62
7
  6
CONTINUOUS
370
-3
390
F
  0
LAYER
  5
209
100
AcDbSymbolTableRecord
100
AcDbLayerTableRecord
  2
16_MISC
 70
0
 62
7
  6
CONTINUOUS
370
-3
390
F
  0
LAYER
  5
20A
100
AcDbSymbolTableRecord
100
AcDbLayerTableRecord
  2
17_NO_PRINT
 70
0
 62
7
  6
CONTINUOUS
370
-3
390
F
  0
LAYER
  5
20B
100
AcDbSymbolTableRecord
100
AcDbLayerTableRecord
  2
18_DATUM_CAMS_JOINTS
 70
0
 62
7
  6
CONTINUOUS
370
-3
390
F
  0
LAYER
  5
20C
100
AcDbSymbolTableRecord
100
AcDbLayerTableRecord
  2
19_DATUM_FUNCTIONAL
 70
0
 62
7
  6
CONTINUOUS
370
-3
390
F
  0
LAYER
  5
20D
100
AcDbSymbolTableRecord
100
AcDbLayerTableRecord
  2
20_DATUM_KINEMATIC_SCHEME
 70
0
 62
7
  6
CONTINUOUS
370
-3
390
F
  0
ENDTAB
  0
TABLE
  2
STYLE
  5
3
100
AcDbSymbolTable
 70
1
  0
STYLE
  5
11
100
AcDbSymbolTableRecord
100
AcDbTextStyleTableRecord
  2
STANDARD
 70
0
 40
0.0
 41
0.8
 50
0.0
 71
0
 42
0.2
  3
txt
  4

  0
STYLE
  5
20E
100
AcDbSymbolTableRecord
100
AcDbTextStyleTableRecord
  2
TEXTSTYLE_1
 70
0
 40
0.0
 41
0.8
 50
0.0
 71
0
 42
0.2
  3
gdt
  4

  0
ENDTAB
  0
TABLE
  2
VIEW
  5
6
100
AcDbSymbolTable
 70
0
  0
ENDTAB
  0
TABLE
  2
UCS
  5
7
100
AcDbSymbolTable
 70
0
  0
ENDTAB
  0
TABLE
  2
APPID
  5
9
100
AcDbSymbolTable
 70
1
  0
APPID
  5
20F
100
AcDbSymbolTableRecord
100
AcDbRegAppTableRecord
  2
ACAD
 70
0
  0
ENDTAB
  0
TABLE
  2
BLOCK_RECORD
  5
1
100
AcDbSymbolTable
 70
0
  0
BLOCK_RECORD
  5
210
100
AcDbSymbolTableRecord
100
AcDbBlockTableRecord
  2
*Model_Space
  0
BLOCK_RECORD
  5
211
100
AcDbSymbolTableRecord
100
AcDbBlockTableRecord
  2
*Paper_Space
  0
BLOCK_RECORD
  5
212
100
AcDbSymbolTableRecord
100
AcDbBlockTableRecord
  2
_FILLED
  0
ENDTAB
  0
TABLE
  2
DIMSTYLE
  5
A
100
AcDbSymbolTable
 70
1
100
AcDbDimStyleTable
 71
0
  0
DIMSTYLE
105
213
100
AcDbSymbolTableRecord
100
AcDbDimStyleTableRecord
  2
STANDARD
 70
0
  3

  4

 40
1.0
 41
10.8273010926
 42
1.0
 43
0.38
 44
1.0
 45
0.0
 46
0.0
 47
0.01
 48
0.01
140
15.1582215297
141
0.09
142
0.0
143
25.4
144
1.0
145
0.0
146
1.0
147
0.625
 71
1
 72
0
 73
0
 74
0
 75
0
 76
0
 77
1
 78
8
 79
2
170
0
171
1
172
0
173
0
174
0
175
0
176
0
177
0
178
0
270
2
179
2
271
2
272
2
273
2
274
2
275
0
280
0
281
0
282
0
283
1
284
8
285
0
286
0
287
3
288
0
340
11
278
46
341
212
342
212
343
212
344
212
  0
ENDTAB
  0
ENDSEC
  0
SECTION
  2
BLOCKS
  0
BLOCK
  5
20
100
AcDbEntity
  8
0
100
AcDbBlockBegin
  2
*Model_Space
 70
0
 10
0.0
 20
0.0
 30
0.0
  3
*Model_Space
  1

  0
ENDBLK
  5
21
100
AcDbEntity
  8
0
100
AcDbBlockEnd
  0
BLOCK
  5
1C
100
AcDbEntity
  8
0
100
AcDbBlockBegin
  2
*Paper_Space
 70
0
 10
0.0
 20
0.0
 30
0.0
  3
*Paper_Space
  1

  0
ENDBLK
  5
1D
100
AcDbEntity
  8
0
100
AcDbBlockEnd
  0
BLOCK
  5
214
100
AcDbEntity
  8
0
100
AcDbBlockBegin
  2
_FILLED
 70
64
 10
0.0
 20
0.0
  3
_FILLED
  1

  0
SOLID
  5
215
100
AcDbEntity
  8
0
  6
BYBLOCK
 62
0
100
AcDbTrace
 10
0.0
 20
0.0
 11
-1.0
 21
0.25
 12
-1.0
 22
-0.25
 13
-1.0
 23
-0.25
  0
ENDBLK
  5
216
100
AcDbEntity
  8
0
  6
BYBLOCK
 62
0
100
AcDbBlockEnd
  0
ENDSEC
  0
SECTION
  2
ENTITIES
  0
LINE
  5
217
100
AcDbEntity
  8
0
100
AcDbLine
 62
7
  6
CONTINUOUS
 10
108.9836950601
 20
805.1860673683
 11
108.5933338832
 21
804.6448629363
  0
LINE
  5
218
100
AcDbEntity
  8
0
100
AcDbLine
 62
7
  6
CONTINUOUS
 10
108.593239668
 20
487.9360012783
 11
108.9836894584
 21
487.3948898304
  0
LINE
  5
219
100
AcDbEntity
  8
0
100
AcDbLine
 62
7
  6
CONTINUOUS
 10
116.7846263432
 20
477.3648911983
 11
116.7532124697
 21
478.2808866397
  0
LINE
  5
21A
100
AcDbEntity
  8
0
100
AcDbLine
 62
7
  6
CONTINUOUS
 10
106.6441521439
 20
485.5082194514
 11
106.6340148895
 21
486.0078120278
  0
LINE
  5
21B
100
AcDbEntity
  8
0
100
AcDbLine
 62
7
  6
CONTINUOUS
 10
96.5710441394
 20
476.7904814004
 11
96.5710441394
 21
815.7904814004
  0
LINE
  5
21C
100
AcDbEntity
  8
0
100
AcDbLine
 62
7
  6
CONTINUOUS
 10
96.6181758397
 20
476.7904814004
 11
96.6181758397
 21
815.7904814004
  0
LINE
  5
21D
100
AcDbEntity
  8
0
100
AcDbLine
 62
7
  6
CONTINUOUS
 10
100.3210347493
 20
808.1381841614
 11
100.3210347493
 21
484.4427786394
  0
LINE
  5
21E
100
AcDbEntity
  8
0
100
AcDbLine
 62
7
  6
CONTINUOUS
 10
104.5220881029
 20
493.3254963781
 11
104.5220881028
 21
799.2554664298
  0
LINE
  5
21F
100
AcDbEntity
  8
0
100
AcDbLine
 62
7
  6
CONTINUOUS
 10
106.745174053
 20
799.2554664301
 11
106.745174053
 21
493.3254963747
  0
LINE
  5
220
100
AcDbEntity
  8
0
100
AcDbLine
 62
7
  6
CONTINUOUS
 10
106.8210441394
 20
826.0404814004
 11
106.8210441394
 21
825.9933497001
  0
LINE
  5
221
100
AcDbEntity
  8
0
100
AcDbLine
 62
7
  6
CONTINUOUS
 10
106.8210441394
 20
466.5876131007
 11
106.8210441394
 21
466.5404814004
  0
LINE
  5
222
100
AcDbEntity
  8
0
100
AcDbLine
 62
7
  6
CONTINUOUS
 10
108.1435231474
 20
493.904711534
 11
108.1435231474
 21
798.6762512668
  0
LINE
  5
223
100
AcDbEntity
  8
0
100
AcDbLine
 62
7
  6
CONTINUOUS
 10
106.6340150354
 20
806.5731507701
 11
106.6441522818
 21
807.0727433466
  0
LINE
  5
224
100
AcDbEntity
  8
0
100
AcDbLine
 62
7
  6
CONTINUOUS
 10
116.7532124678
 20
814.3000761631
 11
116.7846263447
 21
815.2160716009
  0
LINE
  5
225
100
AcDbEntity
  8
0
100
AcDbLine
 62
7
  6
CONTINUOUS
 10
119.8255573678
 20
814.3910326768
 11
119.4541331706
 21
814.0171384113
  0
LINE
  5
226
100
AcDbEntity
  8
0
100
AcDbLine
 62
7
  6
CONTINUOUS
 10
116.7532124721
 20
814.3000761793
 11
116.3998754507
 21
813.9467391578
  0
LINE
  5
227
100
AcDbEntity
  8
0
100
AcDbLine
 62
7
  6
CONTINUOUS
 10
108.6647864198
 20
806.2116500508
 11
108.3114493987
 21
805.8583130296
  0
LINE
  5
228
100
AcDbEntity
  8
0
100
AcDbLine
 62
7
  6
CONTINUOUS
 10
108.9836950603
 20
805.186067368
 11
109.3370320815
 21
805.5394043892
  0
LINE
  5
229
100
AcDbEntity
  8
0
100
AcDbLine
 62
7
  6
CONTINUOUS
 10
117.0721211504
 20
813.2744934581
 11
117.4254581718
 21
813.6278304796
  0
LINE
  5
22A
100
AcDbEntity
  8
0
100
AcDbLine
 62
7
  6
CONTINUOUS
 10
118.6101556102
 20
812.6969010284
 11
109.9146283342
 21
804.001374048
  0
LINE
  5
22B
100
AcDbEntity
  8
0
100
AcDbLine
 62
7
  6
CONTINUOUS
 10
109.6077661962
 20
802.2112466938
 11
120.400278846
 21
813.0037593436
  0
LINE
  5
22C
100
AcDbEntity
  8
0
100
AcDbLine
 62
7
  6
CONTINUOUS
 10
113.1427616232
 20
798.6762512668
 11
123.935274273
 21
809.4687639167
  0
LINE
  5
22D
100
AcDbEntity
  8
0
100
AcDbLine
 62
7
  6
CONTINUOUS
 10
108.22042598
 20
802.785901827
 11
108.5942819723
 21
803.1572861907
  0
LINE
  5
22E
100
AcDbEntity
  8
0
100
AcDbLine
 62
7
  6
CONTINUOUS
 10
108.5943871102
 20
489.4235704427
 11
108.2204783074
 21
489.7950090553
  0
LINE
  5
22F
100
AcDbEntity
  8
0
100
AcDbLine
 62
7
  6
CONTINUOUS
 10
108.3114493606
 20
486.7226497332
 11
108.6647863821
 21
486.3693127117
  0
LINE
  5
230
100
AcDbEntity
  8
0
100
AcDbLine
 62
7
  6
CONTINUOUS
 10
116.399875493
 20
478.6342236848
 11
116.7532125142
 21
478.2808866636
  0
LINE
  5
231
100
AcDbEntity
  8
0
100
AcDbLine
 62
7
  6
CONTINUOUS
 10
117.4254581718
 20
478.9531323213
 11
117.0721211507
 21
479.3064693425
  0
LINE
  5
232
100
AcDbEntity
  8
0
100
AcDbLine
 62
7
  6
CONTINUOUS
 10
109.3370320818
 20
487.0415584114
 11
108.9836950603
 21
487.3948954329
  0
LINE
  5
233
100
AcDbEntity
  8
0
100
AcDbLine
 62
7
  6
CONTINUOUS
 10
109.9146218158
 20
488.5795959298
 11
118.6101533328
 21
479.8840639358
  0
LINE
  5
234
100
AcDbEntity
  8
0
100
AcDbLine
 62
7
  6
CONTINUOUS
 10
120.400278846
 20
479.5772034573
 11
109.6077661962
 21
490.3697161071
  0
LINE
  5
235
100
AcDbEntity
  8
0
100
AcDbLine
 62
7
  6
CONTINUOUS
 10
123.935274273
 20
483.1121988842
 11
113.1427616232
 21
493.904711534
  0
LINE
  5
236
100
AcDbEntity
  8
0
100
AcDbLine
 62
7
  6
CONTINUOUS
 10
119.8256237129
 20
478.189863241
 11
119.4542392984
 21
478.5637192826
  0
LINE
  5
237
100
AcDbEntity
  8
0
100
AcDbLine
 62
7
  6
CONTINUOUS
 10
113.1427616232
 20
798.6762512668
 11
113.1427616232
 21
493.904711534
  0
LINE
  5
238
100
AcDbEntity
  8
0
100
AcDbLine
 62
7
  6
CONTINUOUS
 10
123.3560591132
 20
818.0894374365
 11
123.3560591132
 21
815.8663514869
  0
LINE
  5
239
100
AcDbEntity
  8
0
100
AcDbLine
 62
7
  6
CONTINUOUS
 10
123.3560591132
 20
476.7146113134
 11
123.3560591132
 21
474.4915253638
  0
LINE
  5
23A
100
AcDbEntity
  8
0
100
AcDbLine
 62
7
  6
CONTINUOUS
 10
123.935274273
 20
814.4680023925
 11
123.935274273
 21
809.4687639166
  0
LINE
  5
23B
100
AcDbEntity
  8
0
100
AcDbLine
 62
7
  6
CONTINUOUS
 10
123.935274273
 20
483.1121988842
 11
123.935274273
 21
478.1129604084
  0
LINE
  5
23C
100
AcDbEntity
  8
0
100
AcDbLine
 62
7
  6
CONTINUOUS
 10
117.9665676646
 20
814.0182884716
 11
117.4254581718
 21
813.6278304796
  0
LINE
  5
23D
100
AcDbEntity
  8
0
100
AcDbLine
 62
7
  6
CONTINUOUS
 10
117.425451272
 20
478.9531254223
 11
117.966668059
 21
478.5627703251
  0
LINE
  5
23E
100
AcDbEntity
  8
0
100
AcDbLine
 62
7
  6
CONTINUOUS
 10
119.4542392984
 20
478.5637192826
 11
119.5291939844
 21
478.9528956791
  0
LINE
  5
23F
100
AcDbEntity
  8
0
100
AcDbLine
 62
7
  6
CONTINUOUS
 10
119.5291863312
 20
813.6280593938
 11
119.4541331706
 21
814.0171384113
  0
LINE
  5
240
100
AcDbEntity
  8
0
100
AcDbLine
 62
7
  6
CONTINUOUS
 10
120.400278846
 20
479.5772034573
 11
119.8256237129
 21
478.189863241
  0
LINE
  5
241
100
AcDbEntity
  8
0
100
AcDbLine
 62
7
  6
CONTINUOUS
 10
123.3560591097
 20
476.714611314
 11
123.935274273
 21
478.1129604084
  0
LINE
  5
242
100
AcDbEntity
  8
0
100
AcDbLine
 62
7
  6
CONTINUOUS
 10
119.8255573678
 20
814.3910326768
 11
120.400278846
 21
813.0037593436
  0
LINE
  5
243
100
AcDbEntity
  8
0
100
AcDbLine
 62
7
  6
CONTINUOUS
 10
123.935274273
 20
814.4680023925
 11
123.3560590733
 21
815.8663514868
  0
LINE
  5
244
100
AcDbEntity
  8
0
100
AcDbLine
 62
7
  6
CONTINUOUS
 10
464.5432505956
 20
818.6931643828
 11
465.0144454495
 21
818.8595101552
  0
LINE
  5
245
100
AcDbEntity
  8
0
100
AcDbLine
 62
7
  6
CONTINUOUS
 10
805.2466343415
 20
486.7540636043
 11
804.3306389001
 21
486.7226497308
  0
LINE
  5
246
100
AcDbEntity
  8
0
100
AcDbLine
 62
7
  6
CONTINUOUS
 10
797.1015473493
 20
476.765516795
 11
796.6018539839
 21
476.7640861336
  0
LINE
  5
247
100
AcDbEntity
  8
0
100
AcDbLine
 62
7
  6
CONTINUOUS
 10
805.8210441394
 20
466.5404814004
 11
106.8210441394
 21
466.5404814004
  0
LINE
  5
248
100
AcDbEntity
  8
0
100
AcDbLine
 62
7
  6
CONTINUOUS
 10
805.8210441394
 20
466.5876131007
 11
106.8210441394
 21
466.5876131007
  0
LINE
  5
249
100
AcDbEntity
  8
0
100
AcDbLine
 62
7
  6
CONTINUOUS
 10
114.4733413784
 20
470.2904720104
 11
445.6196230157
 21
470.2904720087
  0
LINE
  5
24A
100
AcDbEntity
  8
0
100
AcDbLine
 62
7
  6
CONTINUOUS
 10
467.0224653095
 20
470.2904720198
 11
798.1687469004
 21
470.2904720103
  0
LINE
  5
24B
100
AcDbEntity
  8
0
100
AcDbLine
 62
7
  6
CONTINUOUS
 10
789.2860292136
 20
474.4915253634
 11
470.331825126
 21
474.4915253654
  0
LINE
  5
24C
100
AcDbEntity
  8
0
100
AcDbLine
 62
7
  6
CONTINUOUS
 10
442.3102631558
 20
474.4915253639
 11
123.35605911
 21
474.4915253638
  0
LINE
  5
24D
100
AcDbEntity
  8
0
100
AcDbLine
 62
7
  6
CONTINUOUS
 10
442.3102631553
 20
476.7146113127
 11
123.3560591097
 21
476.714611314
  0
LINE
  5
24E
100
AcDbEntity
  8
0
100
AcDbLine
 62
7
  6
CONTINUOUS
 10
470.3318250678
 20
476.7146113125
 11
789.2860292056
 21
476.714611314
  0
LINE
  5
24F
100
AcDbEntity
  8
0
100
AcDbLine
 62
7
  6
CONTINUOUS
 10
96.5710441394
 20
476.7904814004
 11
96.6181758397
 21
476.7904814004
  0
LINE
  5
250
100
AcDbEntity
  8
0
100
AcDbLine
 62
7
  6
CONTINUOUS
 10
816.0239124391
 20
476.7904814004
 11
816.0710441394
 21
476.7904814004
  0
LINE
  5
251
100
AcDbEntity
  8
0
100
AcDbLine
 62
7
  6
CONTINUOUS
 10
471.1804055223
 20
477.0555581323
 11
469.729356205
 21
477.0555581323
  0
LINE
  5
252
100
AcDbEntity
  8
0
100
AcDbLine
 62
7
  6
CONTINUOUS
 10
442.9127320727
 20
477.0555581323
 11
441.4616827562
 21
477.0555581323
  0
LINE
  5
253
100
AcDbEntity
  8
0
100
AcDbLine
 62
7
  6
CONTINUOUS
 10
788.7068140058
 20
478.1129604084
 11
471.9096959859
 21
478.1129604083
  0
LINE
  5
254
100
AcDbEntity
  8
0
100
AcDbLine
 62
7
  6
CONTINUOUS
 10
440.7323922522
 20
478.1129604083
 11
123.935274273
 21
478.1129604084
  0
LINE
  5
255
100
AcDbEntity
  8
0
100
AcDbLine
 62
7
  6
CONTINUOUS
 10
788.7068140058
 20
483.1121988842
 11
471.9096960127
 21
483.1121988782
  0
LINE
  5
256
100
AcDbEntity
  8
0
100
AcDbLine
 62
7
  6
CONTINUOUS
 10
440.7323922661
 20
483.1121988781
 11
123.935274273
 21
483.1121988842
  0
LINE
  5
257
100
AcDbEntity
  8
0
100
AcDbLine
 62
7
  6
CONTINUOUS
 10
116.0383747696
 20
476.6034522886
 11
115.5387821931
 21
476.6135895354
  0
LINE
  5
258
100
AcDbEntity
  8
0
100
AcDbLine
 62
7
  6
CONTINUOUS
 10
108.3114493767
 20
486.7226497287
 11
107.3954539389
 21
486.7540636057
  0
LINE
  5
259
100
AcDbEntity
  8
0
100
AcDbLine
 62
7
  6
CONTINUOUS
 10
465.0144454037
 20
473.721452516
 11
464.5432505523
 21
473.8877982954
  0
LINE
  5
25A
100
AcDbEntity
  8
0
100
AcDbLine
 62
7
  6
CONTINUOUS
 10
113.1427616232
 20
493.904711534
 11
109.6077661962
 21
490.369716107
  0
LINE
  5
25B
100
AcDbEntity
  8
0
100
AcDbLine
 62
7
  6
CONTINUOUS
 10
108.9836894584
 20
487.3948898304
 11
108.3114493767
 21
486.7226497287
  0
LINE
  5
25C
100
AcDbEntity
  8
0
100
AcDbLine
 62
7
  6
CONTINUOUS
 10
108.6648127456
 20
486.3693410629
 11
109.337044949
 21
487.0415692906
  0
LINE
  5
25D
100
AcDbEntity
  8
0
100
AcDbLine
 62
7
  6
CONTINUOUS
 10
107.3954539389
 20
486.7540636057
 11
108.593239668
 21
487.9360012783
  0
LINE
  5
25E
100
AcDbEntity
  8
0
100
AcDbLine
 62
7
  6
CONTINUOUS
 10
105.9526875483
 20
488.7756980138
 11
103.3076382913
 21
486.1661611125
  0
LINE
  5
25F
100
AcDbEntity
  8
0
100
AcDbLine
 62
7
  6
CONTINUOUS
 10
469.7293562062
 20
815.5254046686
 11
470.3318251235
 21
815.8663514881
  0
LINE
  5
260
100
AcDbEntity
  8
0
100
AcDbLine
 62
7
  6
CONTINUOUS
 10
465.0144453926
 20
818.8595103161
 11
465.6436762988
 21
819.1687457833
  0
LINE
  5
261
100
AcDbEntity
  8
0
100
AcDbLine
 62
7
  6
CONTINUOUS
 10
445.3651765406
 20
811.3475122295
 11
440.7323922682
 21
809.4687639099
  0
LINE
  5
262
100
AcDbEntity
  8
0
100
AcDbLine
 62
7
  6
CONTINUOUS
 10
104.5220881028
 20
493.325497025
 11
106.745174053
 21
493.325497025
  0
LINE
  5
263
100
AcDbEntity
  8
0
100
AcDbLine
 62
7
  6
CONTINUOUS
 10
805.8969142259
 20
493.3254944878
 11
808.1200001764
 21
493.3254944878
  0
LINE
  5
264
100
AcDbEntity
  8
0
100
AcDbLine
 62
7
  6
CONTINUOUS
 10
108.1435231474
 20
493.904711534
 11
113.1427616232
 21
493.904711534
  0
LINE
  5
265
100
AcDbEntity
  8
0
100
AcDbLine
 62
7
  6
CONTINUOUS
 10
799.4993266556
 20
493.904711534
 11
804.4985651314
 21
493.904711534
  0
LINE
  5
266
100
AcDbEntity
  8
0
100
AcDbLine
 62
7
  6
CONTINUOUS
 10
440.732392236
 20
483.1121988736
 11
445.3651765228
 21
481.2334505668
  0
LINE
  5
267
100
AcDbEntity
  8
0
100
AcDbLine
 62
7
  6
CONTINUOUS
 10
465.643676149
 20
473.412217104
 11
465.014445409
 21
473.7214525312
  0
LINE
  5
268
100
AcDbEntity
  8
0
100
AcDbLine
 62
7
  6
CONTINUOUS
 10
470.3318250678
 20
476.7146113125
 11
469.729356205
 21
477.0555581323
  0
LINE
  5
269
100
AcDbEntity
  8
0
100
AcDbLine
 62
7
  6
CONTINUOUS
 10
103.3076382913
 20
806.4148016883
 11
105.9511990686
 21
803.8065495462
  0
LINE
  5
26A
100
AcDbEntity
  8
0
100
AcDbLine
 62
7
  6
CONTINUOUS
 10
108.5933338832
 20
804.6448629363
 11
107.3954539373
 21
805.8268991967
  0
LINE
  5
26B
100
AcDbEntity
  8
0
100
AcDbLine
 62
7
  6
CONTINUOUS
 10
109.6077661962
 20
802.2112466939
 11
113.1427616232
 21
798.6762512669
  0
LINE
  5
26C
100
AcDbEntity
  8
0
100
AcDbLine
 62
7
  6
CONTINUOUS
 10
108.3114493784
 20
805.8583130697
 11
108.9836950601
 21
805.1860673683
  0
LINE
  5
26D
100
AcDbEntity
  8
0
100
AcDbLine
 62
7
  6
CONTINUOUS
 10
109.3370330756
 20
805.5394053835
 11
108.664785386
 21
806.2116490961
  0
LINE
  5
26E
100
AcDbEntity
  8
0
100
AcDbLine
 62
7
  6
CONTINUOUS
 10
440.732392293
 20
814.4680023926
 11
441.4616827565
 21
815.5254046686
  0
LINE
  5
26F
100
AcDbEntity
  8
0
100
AcDbLine
 62
7
  6
CONTINUOUS
 10
445.3651765428
 20
811.3475122244
 11
446.1672376417
 21
812.1888442864
  0
LINE
  5
270
100
AcDbEntity
  8
0
100
AcDbLine
 62
7
  6
CONTINUOUS
 10
117.966668059
 20
478.5627703251
 11
116.7846263432
 21
477.3648911983
  0
LINE
  5
271
100
AcDbEntity
  8
0
100
AcDbLine
 62
7
  6
CONTINUOUS
 10
116.1967238515
 20
473.2770755523
 11
118.8049759968
 21
475.9206363226
  0
LINE
  5
272
100
AcDbEntity
  8
0
100
AcDbLine
 62
7
  6
CONTINUOUS
 10
117.0721201563
 20
479.3064703366
 11
116.3998764437
 21
478.634222647
  0
LINE
  5
273
100
AcDbEntity
  8
0
100
AcDbLine
 62
7
  6
CONTINUOUS
 10
116.7532124697
 20
478.2808866397
 11
117.425451272
 21
478.9531254223
  0
LINE
  5
274
100
AcDbEntity
  8
0
100
AcDbLine
 62
7
  6
CONTINUOUS
 10
120.400278846
 20
479.5772034572
 11
123.935274273
 21
483.1121988842
  0
LINE
  5
275
100
AcDbEntity
  8
0
100
AcDbLine
 62
7
  6
CONTINUOUS
 10
116.3999034571
 20
813.946713139
 11
117.0721327046
 21
813.2744799159
  0
LINE
  5
276
100
AcDbEntity
  8
0
100
AcDbLine
 62
7
  6
CONTINUOUS
 10
117.4254581718
 20
813.6278304796
 11
116.7532124678
 21
814.3000761631
  0
LINE
  5
277
100
AcDbEntity
  8
0
100
AcDbLine
 62
7
  6
CONTINUOUS
 10
123.935274273
 20
809.4687639167
 11
120.400278846
 21
813.0037593437
  0
LINE
  5
278
100
AcDbEntity
  8
0
100
AcDbLine
 62
7
  6
CONTINUOUS
 10
116.7846263447
 20
815.2160716009
 11
117.9665676646
 21
814.0182884716
  0
LINE
  5
279
100
AcDbEntity
  8
0
100
AcDbLine
 62
7
  6
CONTINUOUS
 10
118.8056593145
 20
816.6598753587
 11
116.1967238515
 21
819.3038872486
  0
LINE
  5
27A
100
AcDbEntity
  8
0
100
AcDbLine
 62
7
  6
CONTINUOUS
 10
446.1672417432
 20
480.3921300775
 11
445.3651765317
 21
481.2334505491
  0
LINE
  5
27B
100
AcDbEntity
  8
0
100
AcDbLine
 62
7
  6
CONTINUOUS
 10
441.4616827562
 20
477.0555581323
 11
440.7323922522
 21
478.1129604083
  0
LINE
  5
27C
100
AcDbEntity
  8
0
100
AcDbLine
 62
7
  6
CONTINUOUS
 10
108.9833990707
 20
489.4986900177
 11
108.5943871102
 21
489.4235704427
  0
LINE
  5
27D
100
AcDbEntity
  8
0
100
AcDbLine
 62
7
  6
CONTINUOUS
 10
804.047806296
 20
489.4236765997
 11
803.6586172269
 21
489.4986187339
  0
LINE
  5
27E
100
AcDbEntity
  8
0
100
AcDbLine
 62
7
  6
CONTINUOUS
 10
440.7323922464
 20
478.1129604084
 11
440.7323922464
 21
483.1121988842
  0
LINE
  5
27F
100
AcDbEntity
  8
0
100
AcDbLine
 62
7
  6
CONTINUOUS
 10
440.732392268
 20
809.4687639166
 11
440.732392268
 21
814.4680023925
  0
LINE
  5
280
100
AcDbEntity
  8
0
100
AcDbLine
 62
7
  6
CONTINUOUS
 10
442.310264011
 20
474.4915253638
 11
442.310264011
 21
476.7146113134
  0
LINE
  5
281
100
AcDbEntity
  8
0
100
AcDbLine
 62
7
  6
CONTINUOUS
 10
442.3102774867
 20
815.8663514869
 11
442.3102774867
 21
818.0894374365
  0
LINE
  5
282
100
AcDbEntity
  8
0
100
AcDbLine
 62
7
  6
CONTINUOUS
 10
442.9127320313
 20
815.5254046686
 11
442.9127320313
 21
815.3015450633
  0
LINE
  5
283
100
AcDbEntity
  8
0
100
AcDbLine
 62
7
  6
CONTINUOUS
 10
442.912732051
 20
477.0555581323
 11
442.912732051
 21
477.2794156982
  0
LINE
  5
284
100
AcDbEntity
  8
0
100
AcDbLine
 62
7
  6
CONTINUOUS
 10
804.4216623121
 20
802.7859018139
 11
803.0343220826
 21
802.2112466938
  0
LINE
  5
285
100
AcDbEntity
  8
0
100
AcDbLine
 62
7
  6
CONTINUOUS
 10
804.4985651314
 20
798.6762512668
 11
805.8969142258
 21
799.2554664666
  0
LINE
  5
286
100
AcDbEntity
  8
0
100
AcDbLine
 62
7
  6
CONTINUOUS
 10
803.0343220826
 20
490.3697161071
 11
804.4216623163
 21
489.7950609912
  0
LINE
  5
287
100
AcDbEntity
  8
0
100
AcDbLine
 62
7
  6
CONTINUOUS
 10
805.8969142258
 20
493.3254963431
 11
804.4985651314
 21
493.904711534
  0
LINE
  5
288
100
AcDbEntity
  8
0
100
AcDbLine
 62
7
  6
CONTINUOUS
 10
469.7293562279
 20
815.5254046686
 11
469.7293562279
 21
815.3015471026
  0
LINE
  5
289
100
AcDbEntity
  8
0
100
AcDbLine
 62
7
  6
CONTINUOUS
 10
469.7293562476
 20
477.0555581323
 11
469.7293562476
 21
477.2794177375
  0
LINE
  5
28A
100
AcDbEntity
  8
0
100
AcDbLine
 62
7
  6
CONTINUOUS
 10
470.3318107921
 20
476.714611314
 11
470.3318107921
 21
474.4915253644
  0
LINE
  5
28B
100
AcDbEntity
  8
0
100
AcDbLine
 62
7
  6
CONTINUOUS
 10
470.3318242679
 20
818.089437437
 11
470.3318242679
 21
815.8663514875
  0
LINE
  5
28C
100
AcDbEntity
  8
0
100
AcDbLine
 62
7
  6
CONTINUOUS
 10
471.9096960325
 20
814.4680023925
 11
471.9096960325
 21
809.4687639166
  0
LINE
  5
28D
100
AcDbEntity
  8
0
100
AcDbLine
 62
7
  6
CONTINUOUS
 10
471.9096960108
 20
483.1121988842
 11
471.9096960108
 21
478.1129604084
  0
LINE
  5
28E
100
AcDbEntity
  8
0
100
AcDbLine
 62
7
  6
CONTINUOUS
 10
108.1435231474
 20
493.904711534
 11
106.745174053
 21
493.3254963747
  0
LINE
  5
28F
100
AcDbEntity
  8
0
100
AcDbLine
 62
7
  6
CONTINUOUS
 10
108.2204783074
 20
489.7950090553
 11
109.6077661962
 21
490.3697161071
  0
LINE
  5
290
100
AcDbEntity
  8
0
100
AcDbLine
 62
7
  6
CONTINUOUS
 10
106.745174053
 20
799.2554664301
 11
108.1435231474
 21
798.6762512668
  0
LINE
  5
291
100
AcDbEntity
  8
0
100
AcDbLine
 62
7
  6
CONTINUOUS
 10
109.6077661962
 20
802.2112466938
 11
108.22042598
 21
802.785901827
  0
LINE
  5
292
100
AcDbEntity
  8
0
100
AcDbLine
 62
7
  6
CONTINUOUS
 10
796.6018539837
 20
476.7640862004
 11
796.5528794772
 21
476.7904813452
  0
LINE
  5
293
100
AcDbEntity
  8
0
100
AcDbLine
 62
7
  6
CONTINUOUS
 10
471.9096959859
 20
478.1129604083
 11
471.1804055223
 21
477.0555581323
  0
LINE
  5
294
100
AcDbEntity
  8
0
100
AcDbLine
 62
7
  6
CONTINUOUS
 10
803.6586298609
 20
803.0823315554
 11
804.0477005662
 21
803.1573908853
  0
LINE
  5
295
100
AcDbEntity
  8
0
100
AcDbLine
 62
7
  6
CONTINUOUS
 10
108.5942819723
 20
803.1572861907
 11
108.9834710519
 21
803.082344067
  0
LINE
  5
296
100
AcDbEntity
  8
0
100
AcDbLine
 62
7
  6
CONTINUOUS
 10
471.1804055226
 20
815.5254046686
 11
471.9096960266
 21
814.4680023926
  0
LINE
  5
297
100
AcDbEntity
  8
0
100
AcDbLine
 62
7
  6
CONTINUOUS
 10
467.276911736
 20
481.2334505765
 11
466.4748506371
 21
480.3921185143
  0
LINE
  5
298
100
AcDbEntity
  8
0
100
AcDbLine
 62
7
  6
CONTINUOUS
 10
796.4453644273
 20
819.3038872485
 11
793.837112282
 21
816.6603264783
  0
LINE
  5
299
100
AcDbEntity
  8
0
100
AcDbLine
 62
7
  6
CONTINUOUS
 10
794.6754202198
 20
814.0181924757
 11
795.8574619356
 21
815.2160716026
  0
LINE
  5
29A
100
AcDbEntity
  8
0
100
AcDbLine
 62
7
  6
CONTINUOUS
 10
792.2418094328
 20
813.0037593436
 11
788.7068140058
 21
809.4687639166
  0
LINE
  5
29B
100
AcDbEntity
  8
0
100
AcDbLine
 62
7
  6
CONTINUOUS
 10
795.8888758091
 20
814.3000761612
 11
795.2166301073
 21
813.6278304798
  0
LINE
  5
29C
100
AcDbEntity
  8
0
100
AcDbLine
 62
7
  6
CONTINUOUS
 10
795.5699681225
 20
813.2744924642
 11
796.2422118351
 21
813.9467401539
  0
LINE
  5
29D
100
AcDbEntity
  8
0
100
AcDbLine
 62
7
  6
CONTINUOUS
 10
803.9772755001
 20
806.2116217049
 11
803.3050447095
 21
805.5393948898
  0
LINE
  5
29E
100
AcDbEntity
  8
0
100
AcDbLine
 62
7
  6
CONTINUOUS
 10
803.6583988204
 20
805.1860729705
 11
804.3306389021
 21
805.8583130721
  0
LINE
  5
29F
100
AcDbEntity
  8
0
100
AcDbLine
 62
7
  6
CONTINUOUS
 10
799.4993266556
 20
798.6762512668
 11
803.0343220826
 21
802.2112466938
  0
LINE
  5
2A0
100
AcDbEntity
  8
0
100
AcDbLine
 62
7
  6
CONTINUOUS
 10
805.2466343399
 20
805.8268991951
 11
804.0488486069
 21
804.6449615195
  0
LINE
  5
2A1
100
AcDbEntity
  8
0
100
AcDbLine
 62
7
  6
CONTINUOUS
 10
806.6904381135
 20
803.8058662175
 11
809.3344499874
 21
806.4148016883
  0
LINE
  5
2A2
100
AcDbEntity
  8
0
100
AcDbLine
 62
7
  6
CONTINUOUS
 10
804.0487542502
 20
487.9361000094
 11
805.2466343415
 21
486.7540636043
  0
LINE
  5
2A3
100
AcDbEntity
  8
0
100
AcDbLine
 62
7
  6
CONTINUOUS
 10
809.3344499875
 20
486.1661611125
 11
806.6903342307
 21
488.7751841672
  0
LINE
  5
2A4
100
AcDbEntity
  8
0
100
AcDbLine
 62
7
  6
CONTINUOUS
 10
788.7068140058
 20
483.1121988842
 11
792.2418094328
 21
479.5772034572
  0
LINE
  5
2A5
100
AcDbEntity
  8
0
100
AcDbLine
 62
7
  6
CONTINUOUS
 10
795.216630107
 20
478.9531323213
 11
796.0295228303
 21
478.140239607
  0
LINE
  5
2A6
100
AcDbEntity
  8
0
100
AcDbLine
 62
7
  6
CONTINUOUS
 10
796.3828601071
 20
478.493576876
 11
795.5699563617
 21
479.3064820974
  0
LINE
  5
2A7
100
AcDbEntity
  8
0
100
AcDbLine
 62
7
  6
CONTINUOUS
 10
803.3050552032
 20
487.0415574173
 11
803.9773028929
 21
486.3693137047
  0
LINE
  5
2A8
100
AcDbEntity
  8
0
100
AcDbLine
 62
7
  6
CONTINUOUS
 10
804.3306389001
 20
486.7226497308
 11
803.6584006121
 21
487.3948880385
  0
LINE
  5
2A9
100
AcDbEntity
  8
0
100
AcDbLine
 62
7
  6
CONTINUOUS
 10
803.0343220826
 20
490.369716107
 11
799.4993266556
 21
493.904711534
  0
LINE
  5
2AA
100
AcDbEntity
  8
0
100
AcDbLine
 62
7
  6
CONTINUOUS
 10
793.8364289643
 20
475.9210874422
 11
796.4453644274
 21
473.2770755522
  0
LINE
  5
2AB
100
AcDbEntity
  8
0
100
AcDbLine
 62
7
  6
CONTINUOUS
 10
795.8745988448
 20
477.3475244063
 11
794.6755242434
 21
478.5626769292
  0
LINE
  5
2AC
100
AcDbEntity
  8
0
100
AcDbLine
 62
7
  6
CONTINUOUS
 10
466.4748465356
 20
812.1888327235
 11
467.2769117471
 21
811.3475122517
  0
LINE
  5
2AD
100
AcDbEntity
  8
0
100
AcDbLine
 62
7
  6
CONTINUOUS
 10
442.9127320727
 20
477.0555581323
 11
442.3102631553
 21
476.7146113127
  0
LINE
  5
2AE
100
AcDbEntity
  8
0
100
AcDbLine
 62
7
  6
CONTINUOUS
 10
447.6276428862
 20
473.7214524847
 11
446.9984121325
 21
473.4122171041
  0
LINE
  5
2AF
100
AcDbEntity
  8
0
100
AcDbLine
 62
7
  6
CONTINUOUS
 10
467.2769117382
 20
481.2334505714
 11
471.9096960107
 21
483.1121988909
  0
LINE
  5
2B0
100
AcDbEntity
  8
0
100
AcDbLine
 62
7
  6
CONTINUOUS
 10
448.0988376832
 20
473.8877984181
 11
447.6276428294
 21
473.7214526457
  0
LINE
  5
2B1
100
AcDbEntity
  8
0
100
AcDbLine
 62
7
  6
CONTINUOUS
 10
804.4985651314
 20
798.6762512668
 11
799.4993266556
 21
798.6762512668
  0
LINE
  5
2B2
100
AcDbEntity
  8
0
100
AcDbLine
 62
7
  6
CONTINUOUS
 10
113.1427616232
 20
798.6762512668
 11
108.1435231474
 21
798.6762512668
  0
LINE
  5
2B3
100
AcDbEntity
  8
0
100
AcDbLine
 62
7
  6
CONTINUOUS
 10
808.1200001764
 20
799.2554664266
 11
805.8969142259
 21
799.2554664266
  0
LINE
  5
2B4
100
AcDbEntity
  8
0
100
AcDbLine
 62
7
  6
CONTINUOUS
 10
106.745174053
 20
799.2554664266
 11
104.5220881028
 21
799.2554664266
  0
LINE
  5
2B5
100
AcDbEntity
  8
0
100
AcDbLine
 62
7
  6
CONTINUOUS
 10
123.935274273
 20
809.4687639167
 11
440.7323922662
 21
809.4687639226
  0
LINE
  5
2B6
100
AcDbEntity
  8
0
100
AcDbLine
 62
7
  6
CONTINUOUS
 10
471.9096960128
 20
809.4687639228
 11
788.7068140058
 21
809.4687639166
  0
LINE
  5
2B7
100
AcDbEntity
  8
0
100
AcDbLine
 62
7
  6
CONTINUOUS
 10
447.6276428752
 20
818.8595102849
 11
448.0988377265
 21
818.6931645054
  0
LINE
  5
2B8
100
AcDbEntity
  8
0
100
AcDbLine
 62
7
  6
CONTINUOUS
 10
471.9096960428
 20
809.4687639272
 11
467.276911756
 21
811.3475122341
  0
LINE
  5
2B9
100
AcDbEntity
  8
0
100
AcDbLine
 62
7
  6
CONTINUOUS
 10
446.9984121295
 20
819.1687456976
 11
447.6276428698
 21
818.8595102697
  0
LINE
  5
2BA
100
AcDbEntity
  8
0
100
AcDbLine
 62
7
  6
CONTINUOUS
 10
442.310263211
 20
815.8663514884
 11
442.9127320738
 21
815.5254046686
  0
LINE
  5
2BB
100
AcDbEntity
  8
0
100
AcDbLine
 62
7
  6
CONTINUOUS
 10
107.3954539373
 20
805.8268991967
 11
108.3114493784
 21
805.8583130697
  0
LINE
  5
2BC
100
AcDbEntity
  8
0
100
AcDbLine
 62
7
  6
CONTINUOUS
 10
115.5387821902
 20
815.9673734057
 11
116.0383747666
 21
815.9775106606
  0
LINE
  5
2BD
100
AcDbEntity
  8
0
100
AcDbLine
 62
7
  6
CONTINUOUS
 10
123.935274273
 20
814.4680023925
 11
440.732392293
 21
814.4680023926
  0
LINE
  5
2BE
100
AcDbEntity
  8
0
100
AcDbLine
 62
7
  6
CONTINUOUS
 10
471.9096960266
 20
814.4680023926
 11
788.7068140058
 21
814.4680023925
  0
LINE
  5
2BF
100
AcDbEntity
  8
0
100
AcDbLine
 62
7
  6
CONTINUOUS
 10
441.4616827565
 20
815.5254046686
 11
442.9127320738
 21
815.5254046686
  0
LINE
  5
2C0
100
AcDbEntity
  8
0
100
AcDbLine
 62
7
  6
CONTINUOUS
 10
469.7293562062
 20
815.5254046686
 11
471.1804055226
 21
815.5254046686
  0
LINE
  5
2C1
100
AcDbEntity
  8
0
100
AcDbLine
 62
7
  6
CONTINUOUS
 10
816.0710441394
 20
815.7904814004
 11
816.0239124391
 21
815.7904814004
  0
LINE
  5
2C2
100
AcDbEntity
  8
0
100
AcDbLine
 62
7
  6
CONTINUOUS
 10
96.6181758397
 20
815.7904814004
 11
96.5710441394
 21
815.7904814004
  0
LINE
  5
2C3
100
AcDbEntity
  8
0
100
AcDbLine
 62
7
  6
CONTINUOUS
 10
442.310263211
 20
815.8663514884
 11
123.3560590733
 21
815.8663514868
  0
LINE
  5
2C4
100
AcDbEntity
  8
0
100
AcDbLine
 62
7
  6
CONTINUOUS
 10
470.3318251235
 20
815.8663514881
 11
789.2860291691
 21
815.8663514868
  0
LINE
  5
2C5
100
AcDbEntity
  8
0
100
AcDbLine
 62
7
  6
CONTINUOUS
 10
123.3560590652
 20
818.0894374374
 11
442.3102631529
 21
818.0894374355
  0
LINE
  5
2C6
100
AcDbEntity
  8
0
100
AcDbLine
 62
7
  6
CONTINUOUS
 10
470.3318251231
 20
818.0894374369
 11
789.2860291688
 21
818.089437437
  0
LINE
  5
2C7
100
AcDbEntity
  8
0
100
AcDbLine
 62
7
  6
CONTINUOUS
 10
798.1687469005
 20
822.2904907906
 11
467.0225474792
 21
822.2904907922
  0
LINE
  5
2C8
100
AcDbEntity
  8
0
100
AcDbLine
 62
7
  6
CONTINUOUS
 10
445.6196225939
 20
822.2904907811
 11
114.4733413784
 21
822.2904907905
  0
LINE
  5
2C9
100
AcDbEntity
  8
0
100
AcDbLine
 62
7
  6
CONTINUOUS
 10
106.8210441394
 20
825.9933497001
 11
805.8210441394
 21
825.9933497001
  0
LINE
  5
2CA
100
AcDbEntity
  8
0
100
AcDbLine
 62
7
  6
CONTINUOUS
 10
106.8210441394
 20
826.0404814004
 11
805.8210441394
 21
826.0404814004
  0
LINE
  5
2CB
100
AcDbEntity
  8
0
100
AcDbLine
 62
7
  6
CONTINUOUS
 10
796.6037135092
 20
815.977510512
 11
797.1033060858
 21
815.9673732651
  0
LINE
  5
2CC
100
AcDbEntity
  8
0
100
AcDbLine
 62
7
  6
CONTINUOUS
 10
804.3306389021
 20
805.8583130721
 11
805.2466343399
 21
805.8268991951
  0
LINE
  5
2CD
100
AcDbEntity
  8
0
100
AcDbLine
 62
7
  6
CONTINUOUS
 10
789.2860291691
 20
815.8663514868
 11
788.7068140058
 21
814.4680023925
  0
LINE
  5
2CE
100
AcDbEntity
  8
0
100
AcDbLine
 62
7
  6
CONTINUOUS
 10
788.7068140058
 20
478.1129604084
 11
789.2860292056
 21
476.714611314
  0
LINE
  5
2CF
100
AcDbEntity
  8
0
100
AcDbLine
 62
7
  6
CONTINUOUS
 10
792.2418094328
 20
813.0037593436
 11
792.8164748133
 21
814.391089231
  0
LINE
  5
2D0
100
AcDbEntity
  8
0
100
AcDbLine
 62
7
  6
CONTINUOUS
 10
792.8164645529
 20
478.1898632278
 11
792.2418094328
 21
479.5772034573
  0
LINE
  5
2D1
100
AcDbEntity
  8
0
100
AcDbLine
 62
7
  6
CONTINUOUS
 10
793.1878489737
 20
814.0172435251
 11
793.1128942944
 21
813.6280671218
  0
LINE
  5
2D2
100
AcDbEntity
  8
0
100
AcDbLine
 62
7
  6
CONTINUOUS
 10
793.1129019476
 20
478.9529034071
 11
793.1879551082
 21
478.5638243901
  0
LINE
  5
2D3
100
AcDbEntity
  8
0
100
AcDbLine
 62
7
  6
CONTINUOUS
 10
795.8574619356
 20
815.2160716026
 11
795.8888758091
 21
814.3000761612
  0
LINE
  5
2D4
100
AcDbEntity
  8
0
100
AcDbLine
 62
7
  6
CONTINUOUS
 10
788.7068140058
 20
478.1129604084
 11
788.7068140058
 21
483.1121988842
  0
LINE
  5
2D5
100
AcDbEntity
  8
0
100
AcDbLine
 62
7
  6
CONTINUOUS
 10
788.7068140058
 20
809.4687639166
 11
788.7068140058
 21
814.4680023925
  0
LINE
  5
2D6
100
AcDbEntity
  8
0
100
AcDbLine
 62
7
  6
CONTINUOUS
 10
789.2860291656
 20
474.4915253644
 11
789.2860291656
 21
476.714611314
  0
LINE
  5
2D7
100
AcDbEntity
  8
0
100
AcDbLine
 62
7
  6
CONTINUOUS
 10
789.2860291656
 20
815.8663514875
 11
789.2860291656
 21
818.089437437
  0
LINE
  5
2D8
100
AcDbEntity
  8
0
100
AcDbLine
 62
7
  6
CONTINUOUS
 10
799.4993266556
 20
493.904711534
 11
799.4993266556
 21
798.6762512668
  0
LINE
  5
2D9
100
AcDbEntity
  8
0
100
AcDbLine
 62
7
  6
CONTINUOUS
 10
804.4985651314
 20
798.6762512668
 11
804.4985651314
 21
493.904711534
  0
LINE
  5
2DA
100
AcDbEntity
  8
0
100
AcDbLine
 62
7
  6
CONTINUOUS
 10
805.8210441394
 20
466.5404814004
 11
805.8210441394
 21
466.5876131007
  0
LINE
  5
2DB
100
AcDbEntity
  8
0
100
AcDbLine
 62
7
  6
CONTINUOUS
 10
805.8210441394
 20
825.9933497001
 11
805.8210441394
 21
826.0404814004
  0
LINE
  5
2DC
100
AcDbEntity
  8
0
100
AcDbLine
 62
7
  6
CONTINUOUS
 10
805.8969142258
 20
493.3254963431
 11
805.8969142258
 21
799.2554664666
  0
LINE
  5
2DD
100
AcDbEntity
  8
0
100
AcDbLine
 62
7
  6
CONTINUOUS
 10
808.1200001764
 20
799.2554664746
 11
808.1200001763
 21
493.3254963376
  0
LINE
  5
2DE
100
AcDbEntity
  8
0
100
AcDbLine
 62
7
  6
CONTINUOUS
 10
799.4993266556
 20
493.904711534
 11
788.7068140058
 21
483.1121988842
  0
LINE
  5
2DF
100
AcDbEntity
  8
0
100
AcDbLine
 62
7
  6
CONTINUOUS
 10
794.6755242434
 20
478.5626769292
 11
795.216630107
 21
478.9531323213
  0
LINE
  5
2E0
100
AcDbEntity
  8
0
100
AcDbLine
 62
7
  6
CONTINUOUS
 10
795.2166301073
 20
813.6278304798
 11
794.6754202198
 21
814.0181924757
  0
LINE
  5
2E1
100
AcDbEntity
  8
0
100
AcDbLine
 62
7
  6
CONTINUOUS
 10
788.7068140058
 20
809.4687639166
 11
799.4993266556
 21
798.6762512668
  0
LINE
  5
2E2
100
AcDbEntity
  8
0
100
AcDbLine
 62
7
  6
CONTINUOUS
 10
805.997936145
 20
807.0727433496
 11
806.0080733999
 21
806.5731507733
  0
LINE
  5
2E3
100
AcDbEntity
  8
0
100
AcDbLine
 62
7
  6
CONTINUOUS
 10
812.3210535295
 20
484.4427786394
 11
812.3210535295
 21
808.1381841614
  0
LINE
  5
2E4
100
AcDbEntity
  8
0
100
AcDbLine
 62
7
  6
CONTINUOUS
 10
816.0239124391
 20
815.7904814004
 11
816.0239124391
 21
476.7904814004
  0
LINE
  5
2E5
100
AcDbEntity
  8
0
100
AcDbLine
 62
7
  6
CONTINUOUS
 10
816.0710441394
 20
815.7904814004
 11
816.0710441394
 21
476.7904814004
  0
LINE
  5
2E6
100
AcDbEntity
  8
0
100
AcDbLine
 62
7
  6
CONTINUOUS
 10
806.008073251
 20
486.0078120306
 11
805.9979360041
 21
485.5082194541
  0
LINE
  5
2E7
100
AcDbEntity
  8
0
100
AcDbLine
 62
7
  6
CONTINUOUS
 10
796.0295228303
 20
478.140239607
 11
795.8745988448
 21
477.3475244063
  0
LINE
  5
2E8
100
AcDbEntity
  8
0
100
AcDbLine
 62
7
  6
CONTINUOUS
 10
803.6584006121
 20
487.3948880385
 11
804.0487542502
 21
487.9361000094
  0
LINE
  5
2E9
100
AcDbEntity
  8
0
100
AcDbLine
 62
7
  6
CONTINUOUS
 10
792.8164645529
 20
478.1898632278
 11
793.1879551082
 21
478.5638243901
  0
LINE
  5
2EA
100
AcDbEntity
  8
0
100
AcDbLine
 62
7
  6
CONTINUOUS
 10
803.0343220826
 20
490.3697161071
 11
792.2418094328
 21
479.5772034573
  0
LINE
  5
2EB
100
AcDbEntity
  8
0
100
AcDbLine
 62
7
  6
CONTINUOUS
 10
794.0319327655
 20
479.8840618694
 11
802.7274599446
 21
488.5795887529
  0
LINE
  5
2EC
100
AcDbEntity
  8
0
100
AcDbLine
 62
7
  6
CONTINUOUS
 10
803.6583932185
 20
487.3948954329
 11
803.3050561974
 21
487.0415584117
  0
LINE
  5
2ED
100
AcDbEntity
  8
0
100
AcDbLine
 62
7
  6
CONTINUOUS
 10
795.5699677534
 20
479.3064699677
 11
795.216630107
 21
478.9531323213
  0
LINE
  5
2EE
100
AcDbEntity
  8
0
100
AcDbLine
 62
7
  6
CONTINUOUS
 10
803.9773018551
 20
486.369312754
 11
804.3306388762
 21
486.7226497752
  0
LINE
  5
2EF
100
AcDbEntity
  8
0
100
AcDbLine
 62
7
  6
CONTINUOUS
 10
796.0295228298
 20
478.1402395985
 11
796.3828604762
 21
478.4935772449
  0
LINE
  5
2F0
100
AcDbEntity
  8
0
100
AcDbLine
 62
7
  6
CONTINUOUS
 10
804.047806296
 20
489.4236765997
 11
804.4216623163
 21
489.7950609912
  0
LINE
  5
2F1
100
AcDbEntity
  8
0
100
AcDbLine
 62
7
  6
CONTINUOUS
 10
804.4216623121
 20
802.7859018139
 11
804.0477005662
 21
803.1573908853
  0
LINE
  5
2F2
100
AcDbEntity
  8
0
100
AcDbLine
 62
7
  6
CONTINUOUS
 10
792.2418094328
 20
813.0037593436
 11
803.0343220826
 21
802.2112466938
  0
LINE
  5
2F3
100
AcDbEntity
  8
0
100
AcDbLine
 62
7
  6
CONTINUOUS
 10
802.7274663829
 20
804.0013669512
 11
794.031934946
 21
812.696898865
  0
LINE
  5
2F4
100
AcDbEntity
  8
0
100
AcDbLine
 62
7
  6
CONTINUOUS
 10
795.216630107
 20
813.6278304796
 11
795.5699671282
 21
813.2744934584
  0
LINE
  5
2F5
100
AcDbEntity
  8
0
100
AcDbLine
 62
7
  6
CONTINUOUS
 10
803.3050561971
 20
805.5394043895
 11
803.6583932185
 21
805.186067368
  0
LINE
  5
2F6
100
AcDbEntity
  8
0
100
AcDbLine
 62
7
  6
CONTINUOUS
 10
804.3306389182
 20
805.8583130677
 11
803.9773018968
 21
806.2116500892
  0
LINE
  5
2F7
100
AcDbEntity
  8
0
100
AcDbLine
 62
7
  6
CONTINUOUS
 10
796.2422127858
 20
813.9467391161
 11
795.8888757647
 21
814.3000761372
  0
LINE
  5
2F8
100
AcDbEntity
  8
0
100
AcDbLine
 62
7
  6
CONTINUOUS
 10
792.8164748133
 20
814.391089231
 11
793.1878489737
 21
814.0172435251
  0
LINE
  5
2F9
100
AcDbEntity
  8
0
100
AcDbLine
 62
7
  6
CONTINUOUS
 10
804.0488486069
 20
804.6449615195
 11
803.6583988204
 21
805.1860729705
  0
ARC
  5
2FA
100
AcDbEntity
  8
0
100
AcDbCircle
 62
7
  6
CONTINUOUS
 10
456.2765168876
 20
477.4679132405
 40
12.9225024653
100
AcDbArc
 50
326.2602190188
 51
340.5588170697
  0
ARC
  5
2FB
100
AcDbEntity
  8
0
100
AcDbCircle
 62
7
  6
CONTINUOUS
 10
106.4763064708
 20
476.987079047
 40
10.4305854637
100
AcDbArc
 50
304.2121222648
 51
320.0576570022
  0
ARC
  5
2FC
100
AcDbEntity
  8
0
100
AcDbCircle
 62
7
  6
CONTINUOUS
 10
106.5599251179
 20
476.8760828817
 40
10.2917828182
100
AcDbArc
 50
271.4538417419
 51
304.1745947839
  0
ARC
  5
2FD
100
AcDbEntity
  8
0
100
AcDbCircle
 62
7
  6
CONTINUOUS
 10
106.8210441394
 20
476.7904814004
 40
10.25
100
AcDbArc
 50
180.0
 51
270.0
  0
ARC
  5
2FE
100
AcDbEntity
  8
0
100
AcDbCircle
 62
7
  6
CONTINUOUS
 10
456.2855492865
 20
476.687329034
 40
9.9146819048
100
AcDbArc
 50
326.3953295206
 51
340.7112734105
  0
ARC
  5
2FF
100
AcDbEntity
  8
0
100
AcDbCircle
 62
7
  6
CONTINUOUS
 10
106.8210441394
 20
476.7904814004
 40
9.2192279414
100
AcDbArc
 50
91.1624310513
 51
358.8375689395
  0
ARC
  5
300
100
AcDbEntity
  8
0
100
AcDbCircle
 62
7
  6
CONTINUOUS
 10
106.8210441394
 20
476.7904814004
 40
8.7195325278
100
AcDbArc
 50
91.162430864
 51
358.8375691329
  0
ARC
  5
301
100
AcDbEntity
  8
0
100
AcDbCircle
 62
7
  6
CONTINUOUS
 10
441.0311959033
 20
481.5556799055
 40
7.9999174822
100
AcDbArc
 50
269.9999636087
 51
342.6899706665
  0
ARC
  5
302
100
AcDbEntity
  8
0
100
AcDbCircle
 62
7
  6
CONTINUOUS
 10
123.3583459216
 20
482.4599516204
 40
7.9684265847
100
AcDbArc
 50
235.1502416987
 51
269.983557023
  0
CIRCLE
  5
303
100
AcDbEntity
  8
0
100
AcDbCircle
 62
7
  6
CONTINUOUS
 10
106.8210441394
 20
476.7904814004
 40
6.5
  0
ARC
  5
304
100
AcDbEntity
  8
0
100
AcDbCircle
 62
7
  6
CONTINUOUS
 10
442.9143754052
 20
472.0570595404
 40
5.4982249316
100
AcDbArc
 50
19.4491585475
 51
83.4621838176
  0
ARC
  5
305
100
AcDbEntity
  8
0
100
AcDbCircle
 62
7
  6
CONTINUOUS
 10
441.389687051
 20
482.201714781
 40
5.1525510035
100
AcDbArc
 50
287.1929655431
 51
294.6720079654
  0
ARC
  5
306
100
AcDbEntity
  8
0
100
AcDbCircle
 62
7
  6
CONTINUOUS
 10
441.4268675594
 20
482.0960252469
 40
5.0405873499
100
AcDbArc
 50
270.3957435046
 51
287.1443474969
  0
ARC
  5
307
100
AcDbEntity
  8
0
100
AcDbCircle
 62
7
  6
CONTINUOUS
 10
440.7312577673
 20
483.1138831553
 40
5.0009228901
100
AcDbArc
 50
270.01299784
 51
337.9128094018
  0
ARC
  5
308
100
AcDbEntity
  8
0
100
AcDbCircle
 62
7
  6
CONTINUOUS
 10
123.9356507619
 20
483.1131078086
 40
5.0001474144
100
AcDbArc
 50
225.004314116
 51
269.9956858832
  0
ARC
  5
309
100
AcDbEntity
  8
0
100
AcDbCircle
 62
7
  6
CONTINUOUS
 10
113.1436705475
 20
493.9050880229
 40
5.0001474143
100
AcDbArc
 50
180.0043141139
 51
224.9956858833
  0
ARC
  5
30A
100
AcDbEntity
  8
0
100
AcDbCircle
 62
7
  6
CONTINUOUS
 10
442.914235779
 20
472.0568131148
 40
4.998722902
100
AcDbArc
 50
19.4517506659
 51
90.0172355667
  0
ARC
  5
30B
100
AcDbEntity
  8
0
100
AcDbCircle
 62
7
  6
CONTINUOUS
 10
441.4560693191
 20
482.0628915383
 40
4.9986564867
100
AcDbArc
 50
294.6439234525
 51
340.4735750242
  0
ARC
  5
30C
100
AcDbEntity
  8
0
100
AcDbCircle
 62
7
  6
CONTINUOUS
 10
442.3093624589
 20
471.7344160213
 40
4.9801883845
100
AcDbArc
 50
19.687848908
 51
89.9896377205
  0
ARC
  5
30D
100
AcDbEntity
  8
0
100
AcDbCircle
 62
7
  6
CONTINUOUS
 10
113.5330855475
 20
480.2872124796
 40
4.4554438261
100
AcDbArc
 50
304.2148270049
 51
308.2960542898
  0
ARC
  5
30E
100
AcDbEntity
  8
0
100
AcDbCircle
 62
7
  6
CONTINUOUS
 10
110.2609827176
 20
483.5483676596
 40
4.3820048273
100
AcDbArc
 50
134.1015476884
 51
145.8568278115
  0
ARC
  5
30F
100
AcDbEntity
  8
0
100
AcDbCircle
 62
7
  6
CONTINUOUS
 10
113.61819706
 20
480.1924240023
 40
4.3272991404
100
AcDbArc
 50
308.1999855044
 51
315.8987235248
  0
ARC
  5
310
100
AcDbEntity
  8
0
100
AcDbCircle
 62
7
  6
CONTINUOUS
 10
107.9316403373
 20
488.446642718
 40
1.487612755
100
AcDbArc
 50
315.0083729319
 51
45.0134851087
  0
ARC
  5
311
100
AcDbEntity
  8
0
100
AcDbCircle
 62
7
  6
CONTINUOUS
 10
118.4772069116
 20
477.9011019683
 40
1.4875964715
100
AcDbArc
 50
44.9842931317
 51
134.9923304553
  0
ARC
  5
312
100
AcDbEntity
  8
0
100
AcDbCircle
 62
7
  6
CONTINUOUS
 10
107.8510103585
 20
488.6803590945
 40
1.0511764545
100
AcDbArc
 50
314.942594278
 51
44.9859631428
  0
ARC
  5
313
100
AcDbEntity
  8
0
100
AcDbCircle
 62
7
  6
CONTINUOUS
 10
118.7109272325
 20
477.8211517052
 40
1.0506754745
100
AcDbArc
 50
44.9855178259
 51
135.0847240679
  0
ARC
  5
314
100
AcDbEntity
  8
0
100
AcDbCircle
 62
7
  6
CONTINUOUS
 10
456.2759396234
 20
815.1129290456
 40
12.9231177753
100
AcDbArc
 50
19.4402644997
 51
33.7386014763
  0
ARC
  5
315
100
AcDbEntity
  8
0
100
AcDbCircle
 62
7
  6
CONTINUOUS
 10
107.0176366666
 20
816.1352185863
 40
10.4305818069
100
AcDbArc
 50
214.2118634142
 51
230.0576768658
  0
ARC
  5
316
100
AcDbEntity
  8
0
100
AcDbCircle
 62
7
  6
CONTINUOUS
 10
106.9066710584
 20
816.0516069539
 40
10.2918084135
100
AcDbArc
 50
181.4538745018
 51
214.1742691822
  0
ARC
  5
317
100
AcDbEntity
  8
0
100
AcDbCircle
 62
7
  6
CONTINUOUS
 10
106.8210441394
 20
815.7904814004
 40
10.25
100
AcDbArc
 50
90.0
 51
180.0
  0
ARC
  5
318
100
AcDbEntity
  8
0
100
AcDbCircle
 62
7
  6
CONTINUOUS
 10
456.2854597543
 20
815.8935885857
 40
9.9147808662
100
AcDbArc
 50
19.2888338649
 51
33.6063161277
  0
ARC
  5
319
100
AcDbEntity
  8
0
100
AcDbCircle
 62
7
  6
CONTINUOUS
 10
106.8210441394
 20
815.7904814004
 40
9.2192279414
100
AcDbArc
 50
1.162431079
 51
268.8375689797
  0
ARC
  5
31A
100
AcDbEntity
  8
0
100
AcDbCircle
 62
7
  6
CONTINUOUS
 10
106.8210441394
 20
815.7904814004
 40
8.7195325278
100
AcDbArc
 50
1.162430864
 51
268.8375691334
  0
ARC
  5
31B
100
AcDbEntity
  8
0
100
AcDbCircle
 62
7
  6
CONTINUOUS
 10
112.4905143328
 20
799.2531796196
 40
7.9684265581
100
AcDbArc
 50
145.1502415503
 51
179.983557033
  0
ARC
  5
31C
100
AcDbEntity
  8
0
100
AcDbCircle
 62
7
  6
CONTINUOUS
 10
123.3566606828
 20
810.1306152333
 40
7.9588222268
100
AcDbArc
 50
90.0043310612
 51
124.8771292069
  0
CIRCLE
  5
31D
100
AcDbEntity
  8
0
100
AcDbCircle
 62
7
  6
CONTINUOUS
 10
106.8210441394
 20
815.7904814004
 40
6.5
  0
ARC
  5
31E
100
AcDbEntity
  8
0
100
AcDbCircle
 62
7
  6
CONTINUOUS
 10
442.914136912
 20
820.5241808134
 40
5.4985310516
100
AcDbArc
 50
276.5400715747
 51
340.5489418128
  0
ARC
  5
31F
100
AcDbEntity
  8
0
100
AcDbCircle
 62
7
  6
CONTINUOUS
 10
441.3896654285
 20
810.3791900369
 40
5.15261272
100
AcDbArc
 50
65.3280424908
 51
72.8069929228
  0
ARC
  5
320
100
AcDbEntity
  8
0
100
AcDbCircle
 62
7
  6
CONTINUOUS
 10
441.4268606376
 20
810.4849366961
 40
5.0405882556
100
AcDbArc
 50
72.855573575
 51
89.604177882
  0
ARC
  5
321
100
AcDbEntity
  8
0
100
AcDbCircle
 62
7
  6
CONTINUOUS
 10
440.7312576695
 20
809.4670794545
 40
5.0009230673
100
AcDbArc
 50
22.087192079
 51
89.9870008576
  0
ARC
  5
322
100
AcDbEntity
  8
0
100
AcDbCircle
 62
7
  6
CONTINUOUS
 10
123.9356507624
 20
809.467854991
 40
5.0001474156
100
AcDbArc
 50
90.0043143518
 51
134.9956858771
  0
ARC
  5
323
100
AcDbEntity
  8
0
100
AcDbCircle
 62
7
  6
CONTINUOUS
 10
113.1436705475
 20
798.675874778
 40
5.0001474143
100
AcDbArc
 50
135.004314116
 51
179.9956858832
  0
ARC
  5
324
100
AcDbEntity
  8
0
100
AcDbCircle
 62
7
  6
CONTINUOUS
 10
442.914113558
 20
820.5243345837
 40
4.9988997394
100
AcDbArc
 50
269.9841661626
 51
340.5520584967
  0
ARC
  5
325
100
AcDbEntity
  8
0
100
AcDbCircle
 62
7
  6
CONTINUOUS
 10
441.4560142563
 20
810.518033867
 40
4.9987164365
100
AcDbArc
 50
19.5273667192
 51
65.3555536718
  0
ARC
  5
326
100
AcDbEntity
  8
0
100
AcDbCircle
 62
7
  6
CONTINUOUS
 10
442.3093304734
 20
820.8465697184
 40
4.9802183247
100
AcDbArc
 50
270.0109479133
 51
340.3120276113
  0
ARC
  5
327
100
AcDbEntity
  8
0
100
AcDbCircle
 62
7
  6
CONTINUOUS
 10
113.5330829964
 20
812.2937469594
 40
4.4554480436
100
AcDbArc
 50
51.7039467924
 51
55.785170238
  0
ARC
  5
328
100
AcDbEntity
  8
0
100
AcDbCircle
 62
7
  6
CONTINUOUS
 10
110.2609850801
 20
809.0325973558
 40
4.382008041
100
AcDbArc
 50
214.1431787089
 51
225.8984502447
  0
ARC
  5
329
100
AcDbEntity
  8
0
100
AcDbCircle
 62
7
  6
CONTINUOUS
 10
113.6182021594
 20
812.3885439013
 40
4.3272919461
100
AcDbArc
 50
44.1012748851
 51
51.8000255124
  0
ARC
  5
32A
100
AcDbEntity
  8
0
100
AcDbCircle
 62
7
  6
CONTINUOUS
 10
118.4772073583
 20
814.6798816686
 40
1.4876115122
100
AcDbArc
 50
225.0082247135
 51
315.0114297791
  0
ARC
  5
32B
100
AcDbEntity
  8
0
100
AcDbCircle
 62
7
  6
CONTINUOUS
 10
107.931659277
 20
804.1343179927
 40
1.4876008116
100
AcDbArc
 50
314.9848528715
 51
44.9921999438
  0
ARC
  5
32C
100
AcDbEntity
  8
0
100
AcDbCircle
 62
7
  6
CONTINUOUS
 10
118.7109249572
 20
814.7605217399
 40
1.0511788803
100
AcDbArc
 50
224.9427658955
 51
314.9834987334
  0
ARC
  5
32D
100
AcDbEntity
  8
0
100
AcDbCircle
 62
7
  6
CONTINUOUS
 10
107.8517357022
 20
803.9006014567
 40
1.0506626732
100
AcDbArc
 50
314.984968975
 51
45.0854626783
  0
ARC
  5
32E
100
AcDbEntity
  8
0
100
AcDbCircle
 62
7
  6
CONTINUOUS
 10
456.3210441394
 20
476.7904814004
 40
16.8217174838
100
AcDbArc
 50
22.0741928787
 51
157.9258071218
  0
ARC
  5
32F
100
AcDbEntity
  8
0
100
AcDbCircle
 62
7
  6
CONTINUOUS
 10
456.3656047278
 20
477.4679250532
 40
12.9225367154
100
AcDbArc
 50
199.4412977937
 51
213.7397425946
  0
ARC
  5
330
100
AcDbEntity
  8
0
100
AcDbCircle
 62
7
  6
CONTINUOUS
 10
456.3210441394
 20
476.7904814004
 40
11.822479008
100
AcDbArc
 50
22.0741929075
 51
157.9258072358
  0
ARC
  5
331
100
AcDbEntity
  8
0
100
AcDbCircle
 62
7
  6
CONTINUOUS
 10
456.3210441394
 20
476.7904814004
 40
10.7736519478
100
AcDbArc
 50
19.529754505
 51
160.4699174079
  0
ARC
  5
332
100
AcDbEntity
  8
0
100
AcDbCircle
 62
7
  6
CONTINUOUS
 10
456.3565382591
 20
476.6873286755
 40
9.9146810951
100
AcDbArc
 50
199.2887258713
 51
213.604687545
  0
ARC
  5
333
100
AcDbEntity
  8
0
100
AcDbCircle
 62
7
  6
CONTINUOUS
 10
456.3210441394
 20
476.7904814004
 40
9.2192279414
100
AcDbArc
 50
199.4445453681
 51
340.5554549381
  0
ARC
  5
334
100
AcDbEntity
  8
0
100
AcDbCircle
 62
7
  6
CONTINUOUS
 10
456.3210441394
 20
476.7904814004
 40
8.7195325278
100
AcDbArc
 50
199.4445455508
 51
340.5554544415
  0
CIRCLE
  5
335
100
AcDbEntity
  8
0
100
AcDbCircle
 62
7
  6
CONTINUOUS
 10
456.3210441394
 20
476.7904814004
 40
6.5
  0
ARC
  5
336
100
AcDbEntity
  8
0
100
AcDbCircle
 62
7
  6
CONTINUOUS
 10
469.7279515991
 20
472.056782135
 40
5.4985310337
100
AcDbArc
 50
96.5400767746
 51
160.5489440685
  0
ARC
  5
337
100
AcDbEntity
  8
0
100
AcDbCircle
 62
7
  6
CONTINUOUS
 10
471.2524228924
 20
482.2017728739
 40
5.1526128374
100
AcDbArc
 50
245.3280425764
 51
252.8069928374
  0
ARC
  5
338
100
AcDbEntity
  8
0
100
AcDbCircle
 62
7
  6
CONTINUOUS
 10
471.2152276413
 20
482.0960261048
 40
5.0405882555
100
AcDbArc
 50
252.855573575
 51
269.604177882
  0
ARC
  5
339
100
AcDbEntity
  8
0
100
AcDbCircle
 62
7
  6
CONTINUOUS
 10
469.7279747221
 20
472.0566282164
 40
4.9988997396
100
AcDbArc
 50
89.9841661818
 51
160.5520584902
  0
ARC
  5
33A
100
AcDbEntity
  8
0
100
AcDbCircle
 62
7
  6
CONTINUOUS
 10
471.1860757847
 20
482.062931455
 40
4.9987195055
100
AcDbArc
 50
199.5273456065
 51
245.3555442908
  0
ARC
  5
33B
100
AcDbEntity
  8
0
100
AcDbCircle
 62
7
  6
CONTINUOUS
 10
470.3327578055
 20
471.7343930825
 40
4.9802183247
100
AcDbArc
 50
90.0109479132
 51
160.312026896
  0
ARC
  5
33C
100
AcDbEntity
  8
0
100
AcDbCircle
 62
7
  6
CONTINUOUS
 10
471.9108306093
 20
483.1138833463
 40
5.0009230673
100
AcDbArc
 50
202.087192079
 51
269.9870008576
  0
ARC
  5
33D
100
AcDbEntity
  8
0
100
AcDbCircle
 62
7
  6
CONTINUOUS
 10
805.6244516123
 20
476.4457442146
 40
10.4305818069
100
AcDbArc
 50
34.2118634142
 51
50.0576768658
  0
ARC
  5
33E
100
AcDbEntity
  8
0
100
AcDbCircle
 62
7
  6
CONTINUOUS
 10
805.7354172205
 20
476.5293558469
 40
10.2918084135
100
AcDbArc
 50
1.4538745018
 51
34.1742691822
  0
ARC
  5
33F
100
AcDbEntity
  8
0
100
AcDbCircle
 62
7
  6
CONTINUOUS
 10
805.8210441394
 20
476.7904814004
 40
10.25
100
AcDbArc
 50
270.0
 51
360.0
  0
ARC
  5
340
100
AcDbEntity
  8
0
100
AcDbCircle
 62
7
  6
CONTINUOUS
 10
805.8210441394
 20
476.7904814004
 40
9.2192279414
100
AcDbArc
 50
180.1640414618
 51
88.8375689414
  0
ARC
  5
341
100
AcDbEntity
  8
0
100
AcDbCircle
 62
7
  6
CONTINUOUS
 10
805.8210441394
 20
476.7904814004
 40
8.7195325278
100
AcDbArc
 50
180.164041316
 51
88.8375691329
  0
ARC
  5
342
100
AcDbEntity
  8
0
100
AcDbCircle
 62
7
  6
CONTINUOUS
 10
789.2854275961
 20
482.4503475675
 40
7.9588222268
100
AcDbArc
 50
270.0043310612
 51
304.8771292069
  0
CIRCLE
  5
343
100
AcDbEntity
  8
0
100
AcDbCircle
 62
7
  6
CONTINUOUS
 10
805.8210441394
 20
476.7904814004
 40
6.5
  0
ARC
  5
344
100
AcDbEntity
  8
0
100
AcDbCircle
 62
7
  6
CONTINUOUS
 10
799.1583407359
 20
481.5561818486
 40
5.4310888348
100
AcDbArc
 50
233.3852310738
 51
241.332137471
  0
ARC
  5
345
100
AcDbEntity
  8
0
100
AcDbCircle
 62
7
  6
CONTINUOUS
 10
794.1648809205
 20
477.9010811322
 40
1.4876115121
100
AcDbArc
 50
45.0082247148
 51
135.011429777
  0
ARC
  5
346
100
AcDbEntity
  8
0
100
AcDbCircle
 62
7
  6
CONTINUOUS
 10
793.931166439
 20
477.8204473881
 40
1.0511766097
100
AcDbArc
 50
44.9426030719
 51
134.983862667
  0
ARC
  5
347
100
AcDbEntity
  8
0
100
AcDbCircle
 62
7
  6
CONTINUOUS
 10
800.1604939335
 20
493.3265495043
 40
7.9595063125
100
AcDbArc
 50
325.1231094931
 51
359.992418876
  0
ARC
  5
348
100
AcDbEntity
  8
0
100
AcDbCircle
 62
7
  6
CONTINUOUS
 10
788.7064375165
 20
483.1131078098
 40
5.0001474156
100
AcDbArc
 50
270.0043143518
 51
314.9956858771
  0
ARC
  5
349
100
AcDbEntity
  8
0
100
AcDbCircle
 62
7
  6
CONTINUOUS
 10
799.4984177305
 20
493.9050880232
 40
5.0001474151
100
AcDbArc
 50
315.0043142604
 51
359.9956858794
  0
ARC
  5
34A
100
AcDbEntity
  8
0
100
AcDbCircle
 62
7
  6
CONTINUOUS
 10
802.3811031932
 20
483.5483654398
 40
4.3820080487
100
AcDbArc
 50
34.1431787247
 51
45.8984502414
  0
ARC
  5
34B
100
AcDbEntity
  8
0
100
AcDbCircle
 62
7
  6
CONTINUOUS
 10
804.7104290018
 20
488.4466448081
 40
1.4876008116
100
AcDbArc
 50
134.9848532132
 51
224.9921999702
  0
ARC
  5
34C
100
AcDbEntity
  8
0
100
AcDbCircle
 62
7
  6
CONTINUOUS
 10
804.7903525747
 20
488.6803613439
 40
1.0506626721
100
AcDbArc
 50
134.9849692372
 51
225.0854627498
  0
ARC
  5
34D
100
AcDbEntity
  8
0
100
AcDbCircle
 62
7
  6
CONTINUOUS
 10
471.9108305115
 20
809.4670796456
 40
5.0009228901
100
AcDbArc
 50
90.01299784
 51
157.9128094018
  0
ARC
  5
34E
100
AcDbEntity
  8
0
100
AcDbCircle
 62
7
  6
CONTINUOUS
 10
456.3210441394
 20
815.7904814004
 40
16.8217174838
100
AcDbArc
 50
202.0741928787
 51
337.9258071218
  0
ARC
  5
34F
100
AcDbEntity
  8
0
100
AcDbCircle
 62
7
  6
CONTINUOUS
 10
456.3655764414
 20
815.1130475144
 40
12.9225081133
100
AcDbArc
 50
146.260224836
 51
160.5588201797
  0
ARC
  5
350
100
AcDbEntity
  8
0
100
AcDbCircle
 62
7
  6
CONTINUOUS
 10
456.3210441394
 20
815.7904814004
 40
11.822479008
100
AcDbArc
 50
202.0741929075
 51
337.9258072358
  0
ARC
  5
351
100
AcDbEntity
  8
0
100
AcDbCircle
 62
7
  6
CONTINUOUS
 10
456.3210441394
 20
815.7904814004
 40
10.7736519478
100
AcDbArc
 50
199.5297352053
 51
340.4699092403
  0
ARC
  5
352
100
AcDbEntity
  8
0
100
AcDbCircle
 62
7
  6
CONTINUOUS
 10
456.356540739
 20
815.8936328944
 40
9.9146838293
100
AcDbArc
 50
146.3953205802
 51
160.7112713461
  0
ARC
  5
353
100
AcDbEntity
  8
0
100
AcDbCircle
 62
7
  6
CONTINUOUS
 10
456.3210441394
 20
815.7904814004
 40
9.2192279414
100
AcDbArc
 50
19.444545368
 51
160.5554549381
  0
ARC
  5
354
100
AcDbEntity
  8
0
100
AcDbCircle
 62
7
  6
CONTINUOUS
 10
456.3210441394
 20
815.7904814004
 40
8.7195325278
100
AcDbArc
 50
19.4445455507
 51
160.5554544417
  0
ARC
  5
355
100
AcDbEntity
  8
0
100
AcDbCircle
 62
7
  6
CONTINUOUS
 10
471.6108923755
 20
811.0252828954
 40
7.9999174822
100
AcDbArc
 50
89.9999636087
 51
162.6899706665
  0
CIRCLE
  5
356
100
AcDbEntity
  8
0
100
AcDbCircle
 62
7
  6
CONTINUOUS
 10
456.3210441394
 20
815.7904814004
 40
6.5
  0
ARC
  5
357
100
AcDbEntity
  8
0
100
AcDbCircle
 62
7
  6
CONTINUOUS
 10
469.7277123093
 20
820.5239025424
 40
5.498224301
100
AcDbArc
 50
199.4491534495
 51
263.4621850242
  0
ARC
  5
358
100
AcDbEntity
  8
0
100
AcDbCircle
 62
7
  6
CONTINUOUS
 10
471.2524012881
 20
810.3792478613
 40
5.1525511729
100
AcDbArc
 50
107.1929656618
 51
114.6720078381
  0
ARC
  5
359
100
AcDbEntity
  8
0
100
AcDbCircle
 62
7
  6
CONTINUOUS
 10
471.2152207195
 20
810.484937554
 40
5.0405873499
100
AcDbArc
 50
90.3957435046
 51
107.1443474969
  0
ARC
  5
35A
100
AcDbEntity
  8
0
100
AcDbCircle
 62
7
  6
CONTINUOUS
 10
469.7278524998
 20
820.524149686
 40
4.998722902
100
AcDbArc
 50
199.4517506653
 51
270.017235567
  0
ARC
  5
35B
100
AcDbEntity
  8
0
100
AcDbCircle
 62
7
  6
CONTINUOUS
 10
471.186019522
 20
810.5180704401
 40
4.9986575309
100
AcDbArc
 50
114.6439298139
 51
160.4735858969
  0
ARC
  5
35C
100
AcDbEntity
  8
0
100
AcDbCircle
 62
7
  6
CONTINUOUS
 10
470.3327258199
 20
820.8465467796
 40
4.9801883845
100
AcDbArc
 50
199.6878489093
 51
269.9896377205
  0
ARC
  5
35D
100
AcDbEntity
  8
0
100
AcDbCircle
 62
7
  6
CONTINUOUS
 10
800.1611779251
 20
799.2548648571
 40
7.9588222741
100
AcDbArc
 50
0.004331061
 51
34.877128901
  0
ARC
  5
35E
100
AcDbEntity
  8
0
100
AcDbCircle
 62
7
  6
CONTINUOUS
 10
799.49841773
 20
798.6758747775
 40
5.0001474156
100
AcDbArc
 50
0.0043143518
 51
44.9956858771
  0
ARC
  5
35F
100
AcDbEntity
  8
0
100
AcDbCircle
 62
7
  6
CONTINUOUS
 10
788.7064377105
 20
809.4678554582
 40
5.0001469484
100
AcDbArc
 50
45.0042286899
 51
89.9956881002
  0
ARC
  5
360
100
AcDbEntity
  8
0
100
AcDbCircle
 62
7
  6
CONTINUOUS
 10
802.3811055609
 20
809.0325951423
 40
4.3820048283
100
AcDbArc
 50
314.1015476825
 51
325.8568278042
  0
ARC
  5
361
100
AcDbEntity
  8
0
100
AcDbCircle
 62
7
  6
CONTINUOUS
 10
804.7104479329
 20
804.1343200602
 40
1.4876126913
100
AcDbArc
 50
135.0083719222
 51
225.0116641103
  0
ARC
  5
362
100
AcDbEntity
  8
0
100
AcDbCircle
 62
7
  6
CONTINUOUS
 10
804.7910743902
 20
803.9006026782
 40
1.0511746892
100
AcDbArc
 50
134.9424184841
 51
224.9841928187
  0
ARC
  5
363
100
AcDbEntity
  8
0
100
AcDbCircle
 62
7
  6
CONTINUOUS
 10
806.1657818078
 20
815.5938837542
 40
10.4305854633
100
AcDbArc
 50
124.2121222649
 51
140.057657002
  0
ARC
  5
364
100
AcDbEntity
  8
0
100
AcDbCircle
 62
7
  6
CONTINUOUS
 10
806.0821631609
 20
815.7048799193
 40
10.2917828181
100
AcDbArc
 50
91.4538417417
 51
124.1745947841
  0
ARC
  5
365
100
AcDbEntity
  8
0
100
AcDbCircle
 62
7
  6
CONTINUOUS
 10
805.8210441394
 20
815.7904814004
 40
10.25
100
AcDbArc
 50
0.0
 51
90.0
  0
ARC
  5
366
100
AcDbEntity
  8
0
100
AcDbCircle
 62
7
  6
CONTINUOUS
 10
805.8210441394
 20
815.7904814004
 40
9.2192279414
100
AcDbArc
 50
271.1624310774
 51
178.8375689395
  0
ARC
  5
367
100
AcDbEntity
  8
0
100
AcDbCircle
 62
7
  6
CONTINUOUS
 10
805.8210441394
 20
815.7904814004
 40
8.7195325278
100
AcDbArc
 50
271.162430864
 51
178.8375691329
  0
ARC
  5
368
100
AcDbEntity
  8
0
100
AcDbCircle
 62
7
  6
CONTINUOUS
 10
789.2837423572
 20
810.1210111805
 40
7.9684265847
100
AcDbArc
 50
55.1502416987
 51
89.9835570229
  0
CIRCLE
  5
369
100
AcDbEntity
  8
0
100
AcDbCircle
 62
7
  6
CONTINUOUS
 10
805.8210441394
 20
815.7904814004
 40
6.5
  0
ARC
  5
36A
100
AcDbEntity
  8
0
100
AcDbCircle
 62
7
  6
CONTINUOUS
 10
799.1090027312
 20
812.2937503213
 40
4.4554438261
100
AcDbArc
 50
124.2148270041
 51
128.2960542862
  0
ARC
  5
36B
100
AcDbEntity
  8
0
100
AcDbCircle
 62
7
  6
CONTINUOUS
 10
799.0238912185
 20
812.3885387986
 40
4.3272991402
100
AcDbArc
 50
128.1999854992
 51
135.8987235227
  0
ARC
  5
36C
100
AcDbEntity
  8
0
100
AcDbCircle
 62
7
  6
CONTINUOUS
 10
794.1648813673
 20
814.6798608326
 40
1.4875964716
100
AcDbArc
 50
224.984292911
 51
314.9923304341
  0
ARC
  5
36D
100
AcDbEntity
  8
0
100
AcDbCircle
 62
7
  6
CONTINUOUS
 10
793.9311610463
 20
814.7598110958
 40
1.0506754746
100
AcDbArc
 50
224.9855176087
 51
315.0847240616
  0
SPLINE
  5
36E
100
AcDbEntity
  8
0
100
AcDbSpline
 62
7
  6
CONTINUOUS
 70
0
 71
3
 72
8
 73
4
 74
0
 42
0.0000001
 43
0.0000001
 44
0.0000000001
 40
0.0
 40
0.0
 40
0.0
 40
0.0
 40
1.0
 40
1.0
 40
1.0
 40
1.0
 10
796.0295213381
 20
478.140238115
 30
0.0
 10
796.3807464601
 20
477.7888347917
 30
0.0
 10
796.60033205
 20
477.2608321269
 30
0.0
 10
796.6018517559
 20
476.7640010968
 30
0.0
  0
SPLINE
  5
36F
100
AcDbEntity
  8
0
100
AcDbSpline
 62
7
  6
CONTINUOUS
 70
0
 71
3
 72
9
 73
5
 74
0
 42
0.0000001
 43
0.0000001
 44
0.0000000001
 40
0.0
 40
0.0
 40
0.0
 40
0.0
 40
0.4983987601
 40
1.0
 40
1.0
 40
1.0
 40
1.0
 10
468.4623062315
 20
473.1667737802
 30
0.0
 10
468.5950163471
 20
473.5436212532
 30
0.0
 10
469.1071759944
 20
474.2350036093
 30
0.0
 10
469.9297256989
 20
474.4915285403
 30
0.0
 10
470.3318251253
 20
474.4915433417
 30
0.0
  0
SPLINE
  5
370
100
AcDbEntity
  8
0
100
AcDbSpline
 62
7
  6
CONTINUOUS
 70
0
 71
3
 72
10
 73
6
 74
0
 42
0.0000001
 43
0.0000001
 44
0.0000000001
 40
0.0
 40
0.0
 40
0.0
 40
0.0
 40
0.6735881722
 40
0.8918788428
 40
1.0
 40
1.0
 40
1.0
 40
1.0
 10
467.0224502912
 20
470.2904508435
 30
0.0
 10
466.5072518329
 20
470.6118562941
 30
0.0
 10
465.7764852601
 20
471.005181111
 30
0.0
 10
464.9516038347
 20
471.2773200237
 30
0.0
 10
464.6097658093
 20
471.2709613807
 30
0.0
 10
464.54315179
 20
471.1998067942
 30
0.0
  0
SPLINE
  5
371
100
AcDbEntity
  8
0
100
AcDbSpline
 62
7
  6
CONTINUOUS
 70
0
 71
3
 72
9
 73
5
 74
0
 42
0.0000001
 43
0.0000001
 44
0.0000000001
 40
0.0
 40
0.0
 40
0.0
 40
0.0
 40
0.4605787985
 40
1.0
 40
1.0
 40
1.0
 40
1.0
 10
456.3210441394
 20
466.5876131007
 30
0.0
 10
454.8331156454
 20
466.6399633019
 30
0.0
 10
451.5915575743
 20
467.4734048208
 30
0.0
 10
449.0645403783
 20
469.7480656226
 30
0.0
 10
448.0988430912
 20
471.1999472899
 30
0.0
  0
SPLINE
  5
372
100
AcDbEntity
  8
0
100
AcDbSpline
 62
7
  6
CONTINUOUS
 70
0
 71
3
 72
9
 73
5
 74
0
 42
0.0000001
 43
0.0000001
 44
0.0000000001
 40
0.0
 40
0.0
 40
0.0
 40
0.0
 40
0.5356210396
 40
1.0
 40
1.0
 40
1.0
 40
1.0
 10
464.5432603069
 20
471.1999651936
 30
0.0
 10
463.5842097446
 20
469.7583538559
 30
0.0
 10
461.0638441422
 20
467.4806315336
 30
0.0
 10
457.8213337002
 20
466.6405368737
 30
0.0
 10
456.3210887198
 20
466.5876115557
 30
0.0
  0
SPLINE
  5
373
100
AcDbEntity
  8
0
100
AcDbSpline
 62
7
  6
CONTINUOUS
 70
0
 71
3
 72
9
 73
5
 74
0
 42
0.0000001
 43
0.0000001
 44
0.0000000001
 40
0.0
 40
0.0
 40
0.0
 40
0.0
 40
0.5019379628
 40
1.0
 40
1.0
 40
1.0
 40
1.0
 10
445.6196423813
 20
470.290521206
 30
0.0
 10
447.0251904391
 20
468.9767877311
 30
0.0
 10
450.5826603627
 20
467.1855302839
 30
0.0
 10
454.4122900095
 20
466.6201068673
 30
0.0
 10
456.3210752816
 20
466.5876153344
 30
0.0
  0
SPLINE
  5
374
100
AcDbEntity
  8
0
100
AcDbSpline
 62
7
  6
CONTINUOUS
 70
0
 71
3
 72
9
 73
5
 74
0
 42
0.0000001
 43
0.0000001
 44
0.0000000001
 40
0.0
 40
0.0
 40
0.0
 40
0.0
 40
0.4903983703
 40
1.0
 40
1.0
 40
1.0
 40
1.0
 10
456.3210441394
 20
466.5876131007
 30
0.0
 10
458.200329013
 20
466.6195970601
 30
0.0
 10
462.0272978599
 20
467.1777582996
 30
0.0
 10
465.5961988954
 20
468.9561168732
 30
0.0
 10
467.0224951888
 20
470.290472015
 30
0.0
  0
SPLINE
  5
375
100
AcDbEntity
  8
0
100
AcDbSpline
 62
7
  6
CONTINUOUS
 70
0
 71
3
 72
9
 73
5
 74
0
 42
0.0000001
 43
0.0000001
 44
0.0000000001
 40
0.0
 40
0.0
 40
0.0
 40
0.0
 40
0.5236244801
 40
1.0
 40
1.0
 40
1.0
 40
1.0
 10
798.1687468961
 20
470.290472015
 30
0.0
 10
799.1430688127
 20
469.1266055793
 30
0.0
 10
801.528433737
 20
467.2910218442
 30
0.0
 10
804.4405622669
 20
466.6213295175
 30
0.0
 10
805.8210441394
 20
466.5876131007
 30
0.0
  0
SPLINE
  5
376
100
AcDbEntity
  8
0
100
AcDbSpline
 62
7
  6
CONTINUOUS
 70
0
 71
3
 72
9
 73
5
 74
0
 42
0.0000001
 43
0.0000001
 44
0.0000000001
 40
0.0
 40
0.0
 40
0.0
 40
0.0
 40
0.186559422
 40
1.0
 40
1.0
 40
1.0
 40
1.0
 10
116.7256802021
 20
477.1808242629
 30
0.0
 10
116.7295279574
 20
477.1567439657
 30
0.0
 10
116.7470493083
 20
477.0271815421
 30
0.0
 10
116.7564197923
 20
476.8966403607
 30
0.0
 10
116.7618246484
 20
476.7904504245
 30
0.0
  0
SPLINE
  5
377
100
AcDbEntity
  8
0
100
AcDbSpline
 62
7
  6
CONTINUOUS
 70
0
 71
3
 72
9
 73
5
 74
0
 42
0.0000001
 43
0.0000001
 44
0.0000000001
 40
0.0
 40
0.0
 40
0.0
 40
0.0
 40
0.2010318875
 40
1.0
 40
1.0
 40
1.0
 40
1.0
 10
116.7618246484
 20
476.7904504245
 30
0.0
 10
116.7739854277
 20
476.5515259555
 30
0.0
 10
116.7704326775
 20
475.3606818151
 30
0.0
 10
116.5225249365
 20
474.1703084463
 30
0.0
 10
116.1967238515
 20
473.2770755524
 30
0.0
  0
SPLINE
  5
378
100
AcDbEntity
  8
0
100
AcDbSpline
 62
7
  6
CONTINUOUS
 70
0
 71
3
 72
9
 73
5
 74
0
 42
0.0000001
 43
0.0000001
 44
0.0000000001
 40
0.0
 40
0.0
 40
0.0
 40
0.0
 40
0.5972499533
 40
1.0
 40
1.0
 40
1.0
 40
1.0
 10
103.3076382913
 20
486.1661611126
 30
0.0
 10
104.0490338452
 20
486.4365804819
 30
0.0
 10
105.3487130987
 20
486.7239848615
 30
0.0
 10
106.6858818267
 20
486.7790871685
 30
0.0
 10
107.2113870036
 20
486.6951174716
 30
0.0
  0
SPLINE
  5
379
100
AcDbEntity
  8
0
100
AcDbSpline
 62
7
  6
CONTINUOUS
 70
0
 71
3
 72
8
 73
4
 74
0
 42
0.0000001
 43
0.0000001
 44
0.0000000001
 40
0.0
 40
0.0
 40
0.0
 40
0.0
 40
1.0
 40
1.0
 40
1.0
 40
1.0
 10
116.7845981688
 20
477.3648556158
 30
0.0
 10
116.7443435194
 20
477.3145731532
 30
0.0
 10
116.7155176576
 20
477.2444283944
 30
0.0
 10
116.7256802021
 20
477.1808242629
 30
0.0
  0
SPLINE
  5
37A
100
AcDbEntity
  8
0
100
AcDbSpline
 62
7
  6
CONTINUOUS
 70
0
 71
3
 72
8
 73
4
 74
0
 42
0.0000001
 43
0.0000001
 44
0.0000000001
 40
0.0
 40
0.0
 40
0.0
 40
0.0
 40
1.0
 40
1.0
 40
1.0
 40
1.0
 10
116.038369327
 20
476.6028493871
 30
0.0
 10
116.050691793
 20
477.2107086058
 30
0.0
 10
116.3234337709
 20
477.8508460093
 30
0.0
 10
116.7532164606
 20
478.2808826504
 30
0.0
  0
SPLINE
  5
37B
100
AcDbEntity
  8
0
100
AcDbSpline
 62
7
  6
CONTINUOUS
 70
0
 71
3
 72
8
 73
4
 74
0
 42
0.0000001
 43
0.0000001
 44
0.0000000001
 40
0.0
 40
0.0
 40
0.0
 40
0.0
 40
1.0
 40
1.0
 40
1.0
 40
1.0
 10
115.5387839065
 20
476.6135894809
 30
0.0
 10
115.5536495029
 20
477.3455920519
 30
0.0
 10
115.88220053
 20
478.1164771513
 30
0.0
 10
116.3998764437
 20
478.634222647
 30
0.0
  0
SPLINE
  5
37C
100
AcDbEntity
  8
0
100
AcDbSpline
 62
7
  6
CONTINUOUS
 70
0
 71
3
 72
8
 73
4
 74
0
 42
0.0000001
 43
0.0000001
 44
0.0000000001
 40
0.0
 40
0.0
 40
0.0
 40
0.0
 40
1.0
 40
1.0
 40
1.0
 40
1.0
 10
108.6648127456
 20
486.3693410629
 30
0.0
 10
108.1470619081
 20
485.8516538286
 30
0.0
 10
107.3761657161
 20
485.5231290307
 30
0.0
 10
106.6441521905
 20
485.5082226384
 30
0.0
  0
SPLINE
  5
37D
100
AcDbEntity
  8
0
100
AcDbSpline
 62
7
  6
CONTINUOUS
 70
0
 71
3
 72
8
 73
4
 74
0
 42
0.0000001
 43
0.0000001
 44
0.0000000001
 40
0.0
 40
0.0
 40
0.0
 40
0.0
 40
1.0
 40
1.0
 40
1.0
 40
1.0
 10
108.3114454097
 20
486.7226537031
 30
0.0
 10
107.8815459725
 20
486.2929974478
 30
0.0
 10
107.2416837315
 20
486.0203299496
 30
0.0
 10
106.6340148279
 20
486.0078188566
 30
0.0
  0
SPLINE
  5
37E
100
AcDbEntity
  8
0
100
AcDbSpline
 62
7
  6
CONTINUOUS
 70
0
 71
3
 72
8
 73
4
 74
0
 42
0.0000001
 43
0.0000001
 44
0.0000000001
 40
0.0
 40
0.0
 40
0.0
 40
0.0
 40
1.0
 40
1.0
 40
1.0
 40
1.0
 10
107.2113870036
 20
486.6951174716
 30
0.0
 10
107.275003115
 20
486.6849530153
 30
0.0
 10
107.3451592116
 20
486.713794466
 30
0.0
 10
107.3954488441
 20
486.7540595708
 30
0.0
  0
SPLINE
  5
37F
100
AcDbEntity
  8
0
100
AcDbSpline
 62
7
  6
CONTINUOUS
 70
0
 71
3
 72
9
 73
5
 74
0
 42
0.0000001
 43
0.0000001
 44
0.0000000001
 40
0.0
 40
0.0
 40
0.0
 40
0.0
 40
0.5236244803
 40
1.0
 40
1.0
 40
1.0
 40
1.0
 10
100.3210347493
 20
484.4427786394
 30
0.0
 10
99.1571683139
 20
483.4684567232
 30
0.0
 10
97.3215845818
 20
481.083091799
 30
0.0
 10
96.6518922564
 20
478.1709632714
 30
0.0
 10
96.6181758397
 20
476.7904814004
 30
0.0
  0
SPLINE
  5
380
100
AcDbEntity
  8
0
100
AcDbSpline
 62
7
  6
CONTINUOUS
 70
0
 71
3
 72
8
 73
4
 74
0
 42
0.0000001
 43
0.0000001
 44
0.0000000001
 40
0.0
 40
0.0
 40
0.0
 40
0.0
 40
1.0
 40
1.0
 40
1.0
 40
1.0
 10
106.6340148286
 20
806.5731439144
 30
0.0
 10
107.2416842698
 20
806.5606593553
 30
0.0
 10
107.8815456114
 20
806.2879649817
 30
0.0
 10
108.3114453881
 20
805.8583090775
 30
0.0
  0
SPLINE
  5
381
100
AcDbEntity
  8
0
100
AcDbSpline
 62
7
  6
CONTINUOUS
 70
0
 71
3
 72
8
 73
4
 74
0
 42
0.0000001
 43
0.0000001
 44
0.0000000001
 40
0.0
 40
0.0
 40
0.0
 40
0.0
 40
1.0
 40
1.0
 40
1.0
 40
1.0
 10
107.395434419
 20
805.8269146543
 30
0.0
 10
107.3451481787
 20
805.8671748131
 30
0.0
 10
107.2749974456
 20
805.8960088909
 30
0.0
 10
107.2113870019
 20
805.8858453377
 30
0.0
  0
SPLINE
  5
382
100
AcDbEntity
  8
0
100
AcDbSpline
 62
7
  6
CONTINUOUS
 70
0
 71
3
 72
8
 73
4
 74
0
 42
0.0000001
 43
0.0000001
 44
0.0000000001
 40
0.0
 40
0.0
 40
0.0
 40
0.0
 40
1.0
 40
1.0
 40
1.0
 40
1.0
 10
106.6441522199
 20
807.0727416334
 30
0.0
 10
107.3761546064
 20
807.0578669514
 30
0.0
 10
108.1470451874
 20
806.7293303076
 30
0.0
 10
108.664785386
 20
806.2116490961
 30
0.0
  0
SPLINE
  5
383
100
AcDbEntity
  8
0
100
AcDbSpline
 62
7
  6
CONTINUOUS
 70
0
 71
3
 72
8
 73
4
 74
0
 42
0.0000001
 43
0.0000001
 44
0.0000000001
 40
0.0
 40
0.0
 40
0.0
 40
0.0
 40
1.0
 40
1.0
 40
1.0
 40
1.0
 10
116.3999034571
 20
813.946713139
 30
0.0
 10
115.8822163219
 20
814.4644638559
 30
0.0
 10
115.5536917809
 20
815.2353599793
 30
0.0
 10
115.5387854135
 20
815.9673733501
 30
0.0
  0
SPLINE
  5
384
100
AcDbEntity
  8
0
100
AcDbSpline
 62
7
  6
CONTINUOUS
 70
0
 71
3
 72
9
 73
5
 74
0
 42
0.0000001
 43
0.0000001
 44
0.0000000001
 40
0.0
 40
0.0
 40
0.0
 40
0.0
 40
0.2348949548
 40
1.0
 40
1.0
 40
1.0
 40
1.0
 10
108.9834710519
 20
803.082344067
 30
0.0
 10
109.0566357366
 20
803.1540418617
 30
0.0
 10
109.3680940633
 20
803.4592942147
 30
0.0
 10
109.6786914833
 20
803.7654374343
 30
0.0
 10
109.9146282096
 20
804.0013741725
 30
0.0
  0
SPLINE
  5
385
100
AcDbEntity
  8
0
100
AcDbSpline
 62
7
  6
CONTINUOUS
 70
0
 71
3
 72
9
 73
5
 74
0
 42
0.0000001
 43
0.0000001
 44
0.0000000001
 40
0.0
 40
0.0
 40
0.0
 40
0.0
 40
0.2675222221
 40
1.0
 40
1.0
 40
1.0
 40
1.0
 10
118.6101541142
 20
812.6969000924
 30
0.0
 10
118.6926507143
 20
812.7793966878
 30
0.0
 10
119.0002380004
 20
813.088555841
 30
0.0
 10
119.3056072704
 20
813.3999090222
 30
0.0
 10
119.5291863312
 20
813.6280593938
 30
0.0
  0
SPLINE
  5
386
100
AcDbEntity
  8
0
100
AcDbSpline
 62
7
  6
CONTINUOUS
 70
0
 71
3
 72
9
 73
5
 74
0
 42
0.0000001
 43
0.0000001
 44
0.0000000001
 40
0.0
 40
0.0
 40
0.0
 40
0.0
 40
0.2537411291
 40
1.0
 40
1.0
 40
1.0
 40
1.0
 10
123.356059167
 20
476.7146110961
 30
0.0
 10
123.0277157532
 20
476.7146073701
 30
0.0
 10
121.7365404349
 20
476.8490388834
 30
0.0
 10
120.5047740414
 20
477.5033804466
 30
0.0
 10
119.8256209813
 20
478.1898656798
 30
0.0
  0
SPLINE
  5
387
100
AcDbEntity
  8
0
100
AcDbSpline
 62
7
  6
CONTINUOUS
 70
0
 71
3
 72
9
 73
5
 74
0
 42
0.0000001
 43
0.0000001
 44
0.0000000001
 40
0.0
 40
0.0
 40
0.0
 40
0.0
 40
0.7461624302
 40
1.0
 40
1.0
 40
1.0
 40
1.0
 10
792.8165020672
 20
478.1898967149
 30
0.0
 10
792.1373734736
 20
477.5035108528
 30
0.0
 10
790.9058176318
 20
476.8485062088
 30
0.0
 10
789.614509225
 20
476.7146041766
 30
0.0
 10
789.2860284471
 20
476.7146083171
 30
0.0
  0
SPLINE
  5
388
100
AcDbEntity
  8
0
100
AcDbSpline
 62
7
  6
CONTINUOUS
 70
0
 71
3
 72
9
 73
5
 74
0
 42
0.0000001
 43
0.0000001
 44
0.0000000001
 40
0.0
 40
0.0
 40
0.0
 40
0.0
 40
0.2348949548
 40
1.0
 40
1.0
 40
1.0
 40
1.0
 10
803.6586172269
 20
489.4986187339
 30
0.0
 10
803.5854525422
 20
489.4269209391
 30
0.0
 10
803.2739942156
 20
489.1216685861
 30
0.0
 10
802.9633967955
 20
488.8155253665
 30
0.0
 10
802.7274600692
 20
488.5795886284
 30
0.0
  0
SPLINE
  5
389
100
AcDbEntity
  8
0
100
AcDbSpline
 62
7
  6
CONTINUOUS
 70
0
 71
3
 72
9
 73
5
 74
0
 42
0.0000001
 43
0.0000001
 44
0.0000000001
 40
0.0
 40
0.0
 40
0.0
 40
0.0
 40
0.2675222773
 40
1.0
 40
1.0
 40
1.0
 40
1.0
 10
794.0319341646
 20
479.8840627084
 30
0.0
 10
793.9494375473
 20
479.8015660963
 30
0.0
 10
793.6418502547
 20
479.4924069495
 30
0.0
 10
793.3364809916
 20
479.1810537615
 30
0.0
 10
793.1129019476
 20
478.9529034071
 30
0.0
  0
SPLINE
  5
38A
100
AcDbEntity
  8
0
100
AcDbSpline
 62
7
  6
CONTINUOUS
 70
0
 71
3
 72
9
 73
5
 74
0
 42
0.0000001
 43
0.0000001
 44
0.0000000001
 40
0.0
 40
0.0
 40
0.0
 40
0.0
 40
0.2538460208
 40
1.0
 40
1.0
 40
1.0
 40
1.0
 10
805.8969172212
 20
493.3254971118
 30
0.0
 10
805.8969187433
 20
492.997005353
 30
0.0
 10
805.7630131084
 20
491.7056981291
 30
0.0
 10
805.1080125532
 20
490.4741389122
 30
0.0
 10
804.4216288493
 20
489.7950234991
 30
0.0
  0
SPLINE
  5
38B
100
AcDbEntity
  8
0
100
AcDbSpline
 62
7
  6
CONTINUOUS
 70
0
 71
3
 72
9
 73
5
 74
0
 42
0.0000001
 43
0.0000001
 44
0.0000000001
 40
0.0
 40
0.0
 40
0.0
 40
0.0
 40
0.7461624302
 40
1.0
 40
1.0
 40
1.0
 40
1.0
 10
804.421628825
 20
802.7859393282
 30
0.0
 10
805.1080146871
 20
802.1068107347
 30
0.0
 10
805.7630193311
 20
800.8752548929
 30
0.0
 10
805.8969213632
 20
799.583946486
 30
0.0
 10
805.8969172227
 20
799.2554657081
 30
0.0
  0
SPLINE
  5
38C
100
AcDbEntity
  8
0
100
AcDbSpline
 62
7
  6
CONTINUOUS
 70
0
 71
3
 72
9
 73
5
 74
0
 42
0.0000001
 43
0.0000001
 44
0.0000000001
 40
0.0
 40
0.0
 40
0.0
 40
0.0
 40
0.2349007409
 40
1.0
 40
1.0
 40
1.0
 40
1.0
 10
793.1128942944
 20
813.6280671218
 30
0.0
 10
793.184595081
 20
813.5549001582
 30
0.0
 10
793.4898505642
 20
813.243437757
 30
0.0
 10
793.7959974479
 20
812.9328367827
 30
0.0
 10
794.0319351663
 20
812.6968990852
 30
0.0
  0
SPLINE
  5
38D
100
AcDbEntity
  8
0
100
AcDbSpline
 62
7
  6
CONTINUOUS
 70
0
 71
3
 72
9
 73
5
 74
0
 42
0.0000001
 43
0.0000001
 44
0.0000000001
 40
0.0
 40
0.0
 40
0.0
 40
0.0
 40
0.2675302116
 40
1.0
 40
1.0
 40
1.0
 40
1.0
 10
802.7274661036
 20
804.0013681717
 30
0.0
 10
802.8099655535
 20
803.9188687088
 30
0.0
 10
803.1191239572
 20
803.6112776825
 30
0.0
 10
803.4304902563
 20
803.3059188098
 30
0.0
 10
803.6586298609
 20
803.0823315554
 30
0.0
  0
SPLINE
  5
38E
100
AcDbEntity
  8
0
100
AcDbSpline
 62
7
  6
CONTINUOUS
 70
0
 71
3
 72
9
 73
5
 74
0
 42
0.0000001
 43
0.0000001
 44
0.0000000001
 40
0.0
 40
0.0
 40
0.0
 40
0.0
 40
0.2537411451
 40
1.0
 40
1.0
 40
1.0
 40
1.0
 10
789.2860291119
 20
815.8663517046
 30
0.0
 10
789.6143731208
 20
815.8663554305
 30
0.0
 10
790.9055506827
 20
815.7319234513
 30
0.0
 10
792.1373190499
 20
815.0775795684
 30
0.0
 10
792.8164722442
 20
814.3910921207
 30
0.0
  0
SPLINE
  5
38F
100
AcDbEntity
  8
0
100
AcDbSpline
 62
7
  6
CONTINUOUS
 70
0
 71
3
 72
9
 73
5
 74
0
 42
0.0000001
 43
0.0000001
 44
0.0000000001
 40
0.0
 40
0.0
 40
0.0
 40
0.0
 40
0.746162417
 40
1.0
 40
1.0
 40
1.0
 40
1.0
 10
119.8255817534
 20
814.3910615686
 30
0.0
 10
120.5047104717
 20
815.0774494247
 30
0.0
 10
121.7362680872
 20
815.7324561658
 30
0.0
 10
123.0275785169
 20
815.8663586161
 30
0.0
 10
123.3560598299
 20
815.8663544759
 30
0.0
  0
SPLINE
  5
390
100
AcDbEntity
  8
0
100
AcDbSpline
 62
7
  6
CONTINUOUS
 70
0
 71
3
 72
9
 73
5
 74
0
 42
0.0000001
 43
0.0000001
 44
0.0000000001
 40
0.0
 40
0.0
 40
0.0
 40
0.0
 40
0.3337324111
 40
1.0
 40
1.0
 40
1.0
 40
1.0
 10
119.8256240985
 20
814.3910999481
 30
0.0
 10
119.7726639953
 20
814.3470451025
 30
0.0
 10
119.5313327963
 20
814.3816987144
 30
0.0
 10
119.3608380537
 20
814.4733910859
 30
0.0
 10
119.2411188145
 20
814.5410791578
 30
0.0
  0
SPLINE
  5
391
100
AcDbEntity
  8
0
100
AcDbSpline
 62
7
  6
CONTINUOUS
 70
0
 71
3
 72
9
 73
5
 74
0
 42
0.0000001
 43
0.0000001
 44
0.0000000001
 40
0.0
 40
0.0
 40
0.0
 40
0.0
 40
0.1999958868
 40
1.0
 40
1.0
 40
1.0
 40
1.0
 10
119.2411471763
 20
814.5410973403
 30
0.0
 10
119.1897675329
 20
814.6760809634
 30
0.0
 10
118.9721499577
 20
815.3655371161
 30
0.0
 10
118.8559991696
 20
816.0843363545
 30
0.0
 10
118.8054833665
 20
816.6598643336
 30
0.0
  0
SPLINE
  5
392
100
AcDbEntity
  8
0
100
AcDbSpline
 62
7
  6
CONTINUOUS
 70
0
 71
3
 72
10
 73
6
 74
0
 42
0.0000001
 43
0.0000001
 44
0.0000000001
 40
0.0
 40
0.0
 40
0.0
 40
0.0
 40
0.0734104167
 40
0.2693198862
 40
1.0
 40
1.0
 40
1.0
 40
1.0
 10
119.4541346915
 20
814.0171370098
 30
0.0
 10
119.4419585382
 20
814.0102191156
 30
0.0
 10
119.3995813425
 20
814.0731877276
 30
0.0
 10
119.3443290436
 20
814.2215207311
 30
0.0
 10
119.2813232738
 20
814.4076149884
 30
0.0
 10
119.2411187781
 20
814.5410791215
 30
0.0
  0
SPLINE
  5
393
100
AcDbEntity
  8
0
100
AcDbSpline
 62
7
  6
CONTINUOUS
 70
0
 71
3
 72
10
 73
6
 74
0
 42
0.0000001
 43
0.0000001
 44
0.0000000001
 40
0.0
 40
0.0
 40
0.0
 40
0.0
 40
0.0826093112
 40
0.2822288079
 40
1.0
 40
1.0
 40
1.0
 40
1.0
 10
117.9665660774
 20
814.0182859282
 30
0.0
 10
117.9819908045
 20
814.0152186934
 30
0.0
 10
118.0160816713
 20
814.079249439
 30
0.0
 10
118.0840555448
 20
814.2310436192
 30
0.0
 10
118.1395396676
 20
814.4121441335
 30
0.0
 10
118.1795428736
 20
814.5428030549
 30
0.0
  0
SPLINE
  5
394
100
AcDbEntity
  8
0
100
AcDbSpline
 62
7
  6
CONTINUOUS
 70
0
 71
3
 72
8
 73
4
 74
0
 42
0.0000001
 43
0.0000001
 44
0.0000000001
 40
0.0
 40
0.0
 40
0.0
 40
0.0
 40
1.0
 40
1.0
 40
1.0
 40
1.0
 10
119.2411179803
 20
814.5410741421
 30
0.0
 10
118.9204049554
 20
814.3915441513
 30
0.0
 10
118.4997861623
 20
814.3922691007
 30
0.0
 10
118.1795429359
 20
814.5428026135
 30
0.0
  0
SPLINE
  5
395
100
AcDbEntity
  8
0
100
AcDbSpline
 62
7
  6
CONTINUOUS
 70
0
 71
3
 72
9
 73
5
 74
0
 42
0.0000001
 43
0.0000001
 44
0.0000000001
 40
0.0
 40
0.0
 40
0.0
 40
0.0
 40
0.201145656
 40
1.0
 40
1.0
 40
1.0
 40
1.0
 10
118.1795428736
 20
814.5428030549
 30
0.0
 10
118.2228345232
 20
814.6843607533
 30
0.0
 10
118.4336134919
 20
815.3894684901
 30
0.0
 10
118.6419841619
 20
816.0952916807
 30
0.0
 10
118.8056794284
 20
816.6599449518
 30
0.0
  0
SPLINE
  5
396
100
AcDbEntity
  8
0
100
AcDbSpline
 62
7
  6
CONTINUOUS
 70
0
 71
3
 72
10
 73
6
 74
0
 42
0.0000001
 43
0.0000001
 44
0.0000000001
 40
0.0
 40
0.0
 40
0.0
 40
0.0
 40
0.6631068716
 40
0.8857727444
 40
1.0
 40
1.0
 40
1.0
 40
1.0
 10
444.1796063795
 20
819.4137461853
 30
0.0
 10
444.7904307849
 20
819.2128996017
 30
0.0
 10
445.6489262212
 20
819.0013429653
 30
0.0
 10
446.5892347219
 20
818.9513691514
 30
0.0
 10
446.9467927691
 20
819.0707461454
 30
0.0
 10
446.9984116473
 20
819.1687460368
 30
0.0
  0
SPLINE
  5
397
100
AcDbEntity
  8
0
100
AcDbSpline
 62
7
  6
CONTINUOUS
 70
0
 71
3
 72
9
 73
5
 74
0
 42
0.0000001
 43
0.0000001
 44
0.0000000001
 40
0.0
 40
0.0
 40
0.0
 40
0.0
 40
0.4027500573
 40
1.0
 40
1.0
 40
1.0
 40
1.0
 10
107.2113870019
 20
805.8858453377
 30
0.0
 10
106.6858818114
 20
805.8018756368
 30
0.0
 10
105.3487130819
 20
805.8569779231
 30
0.0
 10
104.049033832
 20
806.1443823238
 30
0.0
 10
103.3076382914
 20
806.4148016884
 30
0.0
  0
SPLINE
  5
398
100
AcDbEntity
  8
0
100
AcDbSpline
 62
7
  6
CONTINUOUS
 70
0
 71
3
 72
9
 73
5
 74
0
 42
0.0000001
 43
0.0000001
 44
0.0000000001
 40
0.0
 40
0.0
 40
0.0
 40
0.0
 40
0.2827441789
 40
1.0
 40
1.0
 40
1.0
 40
1.0
 10
116.1967238516
 20
819.3038872486
 30
0.0
 10
116.3120805227
 20
818.9876195074
 30
0.0
 10
116.6609108877
 20
817.848958863
 30
0.0
 10
116.8052475739
 20
816.643415444
 30
0.0
 10
116.7618378654
 20
815.7905200903
 30
0.0
  0
SPLINE
  5
399
100
AcDbEntity
  8
0
100
AcDbSpline
 62
7
  6
CONTINUOUS
 70
0
 71
3
 72
9
 73
5
 74
0
 42
0.0000001
 43
0.0000001
 44
0.0000000001
 40
0.0
 40
0.0
 40
0.0
 40
0.0
 40
0.3098011317
 40
1.0
 40
1.0
 40
1.0
 40
1.0
 10
116.7618378654
 20
815.7905200903
 30
0.0
 10
116.7597794626
 20
815.7500774742
 30
0.0
 10
116.7516985854
 20
815.6196438633
 30
0.0
 10
116.7399153975
 20
815.4892262036
 30
0.0
 10
116.7256802105
 20
815.4001385363
 30
0.0
  0
SPLINE
  5
39A
100
AcDbEntity
  8
0
100
AcDbSpline
 62
7
  6
CONTINUOUS
 70
0
 71
3
 72
8
 73
4
 74
0
 42
0.0000001
 43
0.0000001
 44
0.0000000001
 40
0.0
 40
0.0
 40
0.0
 40
0.0
 40
1.0
 40
1.0
 40
1.0
 40
1.0
 10
116.7256802105
 20
815.4001385363
 30
0.0
 10
116.7155167558
 20
815.3365286928
 30
0.0
 10
116.7443500429
 20
815.266378526
 30
0.0
 10
116.7846096784
 20
815.2160926459
 30
0.0
  0
SPLINE
  5
39B
100
AcDbEntity
  8
0
100
AcDbSpline
 62
7
  6
CONTINUOUS
 70
0
 71
3
 72
8
 73
4
 74
0
 42
0.0000001
 43
0.0000001
 44
0.0000000001
 40
0.0
 40
0.0
 40
0.0
 40
0.0
 40
1.0
 40
1.0
 40
1.0
 40
1.0
 10
116.7532164421
 20
814.3000801301
 30
0.0
 10
116.323428387
 20
814.7301114246
 30
0.0
 10
116.0507272695
 20
815.3702549024
 30
0.0
 10
116.0383692644
 20
815.9781134108
 30
0.0
  0
SPLINE
  5
39C
100
AcDbEntity
  8
0
100
AcDbSpline
 62
7
  6
CONTINUOUS
 70
0
 71
3
 72
9
 73
5
 74
0
 42
0.0000001
 43
0.0000001
 44
0.0000000001
 40
0.0
 40
0.0
 40
0.0
 40
0.0
 40
0.4983987602
 40
1.0
 40
1.0
 40
1.0
 40
1.0
 10
444.1797817331
 20
819.4141881291
 30
0.0
 10
444.0470716901
 20
819.0373407891
 30
0.0
 10
443.5349117072
 20
818.3459590228
 30
0.0
 10
442.7123624291
 20
818.0894342606
 30
0.0
 10
442.3102631536
 20
818.0894194592
 30
0.0
  0
SPLINE
  5
39D
100
AcDbEntity
  8
0
100
AcDbSpline
 62
7
  6
CONTINUOUS
 70
0
 71
3
 72
10
 73
6
 74
0
 42
0.0000001
 43
0.0000001
 44
0.0000000001
 40
0.0
 40
0.0
 40
0.0
 40
0.0
 40
0.6735881544
 40
0.8918788358
 40
1.0
 40
1.0
 40
1.0
 40
1.0
 10
445.6196377156
 20
822.290512127
 30
0.0
 10
446.1348362093
 20
821.9691066372
 30
0.0
 10
446.8656028461
 20
821.5757817593
 30
0.0
 10
447.6904843541
 20
821.3036427989
 30
0.0
 10
448.0323224294
 20
821.310001401
 30
0.0
 10
448.0989364722
 20
821.3811559888
 30
0.0
  0
SPLINE
  5
39E
100
AcDbEntity
  8
0
100
AcDbSpline
 62
7
  6
CONTINUOUS
 70
0
 71
3
 72
9
 73
5
 74
0
 42
0.0000001
 43
0.0000001
 44
0.0000000001
 40
0.0
 40
0.0
 40
0.0
 40
0.0
 40
0.4605802658
 40
1.0
 40
1.0
 40
1.0
 40
1.0
 10
456.3210441394
 20
825.9933497001
 30
0.0
 10
457.8089350389
 20
825.9410008217
 30
0.0
 10
461.0503913299
 20
825.1075961892
 30
0.0
 10
463.5774007106
 20
822.8330754145
 30
0.0
 10
464.5430883815
 20
821.3812526326
 30
0.0
  0
SPLINE
  5
39F
100
AcDbEntity
  8
0
100
AcDbSpline
 62
7
  6
CONTINUOUS
 70
0
 71
3
 72
9
 73
5
 74
0
 42
0.0000001
 43
0.0000001
 44
0.0000000001
 40
0.0
 40
0.0
 40
0.0
 40
0.0
 40
0.5356210301
 40
1.0
 40
1.0
 40
1.0
 40
1.0
 10
448.0988289099
 20
821.3809990172
 30
0.0
 10
449.0578795257
 20
822.8226099298
 30
0.0
 10
451.5782449179
 20
825.1003315303
 30
0.0
 10
454.8207548025
 20
825.9404259351
 30
0.0
 10
456.3209995591
 20
825.9933512452
 30
0.0
  0
SPLINE
  5
3A0
100
AcDbEntity
  8
0
100
AcDbSpline
 62
7
  6
CONTINUOUS
 70
0
 71
3
 72
9
 73
5
 74
0
 42
0.0000001
 43
0.0000001
 44
0.0000000001
 40
0.0
 40
0.0
 40
0.0
 40
0.0
 40
0.5019379628
 40
1.0
 40
1.0
 40
1.0
 40
1.0
 10
467.0224458975
 20
822.2904415949
 30
0.0
 10
465.6168978397
 20
823.6041750698
 30
0.0
 10
462.0594279162
 20
825.3954325169
 30
0.0
 10
458.2297982694
 20
825.9608559336
 30
0.0
 10
456.3210129972
 20
825.9933474664
 30
0.0
  0
SPLINE
  5
3A1
100
AcDbEntity
  8
0
100
AcDbSpline
 62
7
  6
CONTINUOUS
 70
0
 71
3
 72
9
 73
5
 74
0
 42
0.0000001
 43
0.0000001
 44
0.0000000001
 40
0.0
 40
0.0
 40
0.0
 40
0.0
 40
0.4903983703
 40
1.0
 40
1.0
 40
1.0
 40
1.0
 10
456.3210441394
 20
825.9933497001
 30
0.0
 10
454.4417592659
 20
825.9613657407
 30
0.0
 10
450.6147904189
 20
825.4032045013
 30
0.0
 10
447.0458893835
 20
823.6248459277
 30
0.0
 10
445.6195930901
 20
822.2904907858
 30
0.0
  0
SPLINE
  5
3A2
100
AcDbEntity
  8
0
100
AcDbSpline
 62
7
  6
CONTINUOUS
 70
0
 71
3
 72
9
 73
5
 74
0
 42
0.0000001
 43
0.0000001
 44
0.0000000001
 40
0.0
 40
0.0
 40
0.0
 40
0.0
 40
0.5236244801
 40
1.0
 40
1.0
 40
1.0
 40
1.0
 10
114.4733413827
 20
822.2904907858
 30
0.0
 10
113.4990194661
 20
823.4543572216
 30
0.0
 10
111.1136545419
 20
825.2899409566
 30
0.0
 10
108.201526012
 20
825.9596332834
 30
0.0
 10
106.8210441394
 20
825.9933497001
 30
0.0
  0
SPLINE
  5
3A3
100
AcDbEntity
  8
0
100
AcDbSpline
 62
7
  6
CONTINUOUS
 70
0
 71
3
 72
9
 73
5
 74
0
 42
0.0000001
 43
0.0000001
 44
0.0000000001
 40
0.0
 40
0.0
 40
0.0
 40
0.0
 40
0.186559422
 40
1.0
 40
1.0
 40
1.0
 40
1.0
 10
795.9164080767
 20
815.4001385379
 30
0.0
 10
795.9125603215
 20
815.4242188351
 30
0.0
 10
795.8950389705
 20
815.5537812587
 30
0.0
 10
795.8856684868
 20
815.6843224402
 30
0.0
 10
795.8802636304
 20
815.7905123764
 30
0.0
  0
SPLINE
  5
3A4
100
AcDbEntity
  8
0
100
AcDbSpline
 62
7
  6
CONTINUOUS
 70
0
 71
3
 72
9
 73
5
 74
0
 42
0.0000001
 43
0.0000001
 44
0.0000000001
 40
0.0
 40
0.0
 40
0.0
 40
0.0
 40
0.2010318875
 40
1.0
 40
1.0
 40
1.0
 40
1.0
 10
795.8802636304
 20
815.7905123764
 30
0.0
 10
795.8681028507
 20
816.0294368453
 30
0.0
 10
795.8716556024
 20
817.2202809858
 30
0.0
 10
796.1195633424
 20
818.4106543546
 30
0.0
 10
796.4453644273
 20
819.3038872485
 30
0.0
  0
SPLINE
  5
3A5
100
AcDbEntity
  8
0
100
AcDbSpline
 62
7
  6
CONTINUOUS
 70
0
 71
3
 72
9
 73
5
 74
0
 42
0.0000001
 43
0.0000001
 44
0.0000000001
 40
0.0
 40
0.0
 40
0.0
 40
0.0
 40
0.5972499533
 40
1.0
 40
1.0
 40
1.0
 40
1.0
 10
809.3344499875
 20
806.4148016883
 30
0.0
 10
808.5930544336
 20
806.144382319
 30
0.0
 10
807.2933751801
 20
805.8569779393
 30
0.0
 10
805.9562064521
 20
805.8018756324
 30
0.0
 10
805.4307012752
 20
805.8858453293
 30
0.0
  0
SPLINE
  5
3A6
100
AcDbEntity
  8
0
100
AcDbSpline
 62
7
  6
CONTINUOUS
 70
0
 71
3
 72
8
 73
4
 74
0
 42
0.0000001
 43
0.0000001
 44
0.0000000001
 40
0.0
 40
0.0
 40
0.0
 40
0.0
 40
1.0
 40
1.0
 40
1.0
 40
1.0
 10
795.85749011
 20
815.2161071851
 30
0.0
 10
795.8977447595
 20
815.2663896477
 30
0.0
 10
795.9265706213
 20
815.3365344065
 30
0.0
 10
795.9164080767
 20
815.4001385379
 30
0.0
  0
SPLINE
  5
3A7
100
AcDbEntity
  8
0
100
AcDbSpline
 62
7
  6
CONTINUOUS
 70
0
 71
3
 72
8
 73
4
 74
0
 42
0.0000001
 43
0.0000001
 44
0.0000000001
 40
0.0
 40
0.0
 40
0.0
 40
0.0
 40
1.0
 40
1.0
 40
1.0
 40
1.0
 10
796.6037189518
 20
815.9781134138
 30
0.0
 10
796.591396485
 20
815.370254195
 30
0.0
 10
796.3186553803
 20
814.7301159197
 30
0.0
 10
795.8888718183
 20
814.3000801505
 30
0.0
  0
SPLINE
  5
3A8
100
AcDbEntity
  8
0
100
AcDbSpline
 62
7
  6
CONTINUOUS
 70
0
 71
3
 72
8
 73
4
 74
0
 42
0.0000001
 43
0.0000001
 44
0.0000000001
 40
0.0
 40
0.0
 40
0.0
 40
0.0
 40
1.0
 40
1.0
 40
1.0
 40
1.0
 10
797.1033043724
 20
815.96737332
 30
0.0
 10
797.0884387758
 20
815.235370749
 30
0.0
 10
796.7598877489
 20
814.4644856495
 30
0.0
 10
796.2422118351
 20
813.9467401539
 30
0.0
  0
SPLINE
  5
3A9
100
AcDbEntity
  8
0
100
AcDbSpline
 62
7
  6
CONTINUOUS
 70
0
 71
3
 72
8
 73
4
 74
0
 42
0.0000001
 43
0.0000001
 44
0.0000000001
 40
0.0
 40
0.0
 40
0.0
 40
0.0
 40
1.0
 40
1.0
 40
1.0
 40
1.0
 10
108.0687397737
 20
804.431987002
 30
0.0
 10
108.2192783902
 20
804.1117397157
 30
0.0
 10
108.2199985947
 20
803.6911086114
 30
0.0
 10
108.0704573084
 20
803.3703944036
 30
0.0
  0
SPLINE
  5
3AA
100
AcDbEntity
  8
0
100
AcDbSpline
 62
7
  6
CONTINUOUS
 70
0
 71
3
 72
9
 73
5
 74
0
 42
0.0000001
 43
0.0000001
 44
0.0000000001
 40
0.0
 40
0.0
 40
0.0
 40
0.0
 40
0.2898062907
 40
1.0
 40
1.0
 40
1.0
 40
1.0
 10
105.9509425881
 20
803.8064756689
 30
0.0
 10
106.1565193456
 20
803.8634341082
 30
0.0
 10
106.8624820557
 20
804.0720237045
 30
0.0
 10
107.5670626987
 20
804.2850074603
 30
0.0
 10
108.0687366096
 20
804.4319869112
 30
0.0
  0
SPLINE
  5
3AB
100
AcDbEntity
  8
0
100
AcDbSpline
 62
7
  6
CONTINUOUS
 70
0
 71
3
 72
8
 73
4
 74
0
 42
0.0000001
 43
0.0000001
 44
0.0000000001
 40
0.0
 40
0.0
 40
0.0
 40
0.0
 40
1.0
 40
1.0
 40
1.0
 40
1.0
 10
117.0721201563
 20
479.3064703366
 30
0.0
 10
117.4593629403
 20
479.6937037796
 30
0.0
 10
118.0637422326
 20
479.9206921032
 30
0.0
 10
118.6101533328
 20
479.8840639358
 30
0.0
  0
SPLINE
  5
3AC
100
AcDbEntity
  8
0
100
AcDbSpline
 62
7
  6
CONTINUOUS
 70
0
 71
3
 72
10
 73
6
 74
0
 42
0.0000001
 43
0.0000001
 44
0.0000000001
 40
0.0
 40
0.0
 40
0.0
 40
0.0
 40
0.0734197759
 40
0.2693347089
 40
1.0
 40
1.0
 40
1.0
 40
1.0
 10
108.5943878272
 20
489.4235712214
 30
0.0
 10
108.6013051079
 20
489.411392763
 30
0.0
 10
108.5383298813
 20
489.3690199206
 30
0.0
 10
108.3899984127
 20
489.3137655868
 30
0.0
 10
108.2039069947
 20
489.250762921
 30
0.0
 10
108.0704472853
 20
489.2105564466
 30
0.0
  0
SPLINE
  5
3AD
100
AcDbEntity
  8
0
100
AcDbSpline
 62
7
  6
CONTINUOUS
 70
0
 71
3
 72
8
 73
4
 74
0
 42
0.0000001
 43
0.0000001
 44
0.0000000001
 40
0.0
 40
0.0
 40
0.0
 40
0.0
 40
1.0
 40
1.0
 40
1.0
 40
1.0
 10
803.9772755001
 20
806.2116217049
 30
0.0
 10
804.4950263298
 20
806.7293089526
 30
0.0
 10
805.26592256
 20
807.0578337078
 30
0.0
 10
805.9979360901
 20
807.0727400784
 30
0.0
  0
SPLINE
  5
3AE
100
AcDbEntity
  8
0
100
AcDbSpline
 62
7
  6
CONTINUOUS
 70
0
 71
3
 72
9
 73
5
 74
0
 42
0.0000001
 43
0.0000001
 44
0.0000000001
 40
0.0
 40
0.0
 40
0.0
 40
0.0
 40
0.3337397967
 40
1.0
 40
1.0
 40
1.0
 40
1.0
 10
108.2204328205
 20
489.7950527488
 30
0.0
 10
108.2644821049
 20
489.7420874725
 30
0.0
 10
108.2298225479
 20
489.500768074
 30
0.0
 10
108.1381334729
 20
489.330272469
 30
0.0
 10
108.0704472849
 20
489.210556447
 30
0.0
  0
SPLINE
  5
3AF
100
AcDbEntity
  8
0
100
AcDbSpline
 62
7
  6
CONTINUOUS
 70
0
 71
3
 72
9
 73
5
 74
0
 42
0.0000001
 43
0.0000001
 44
0.0000000001
 40
0.0
 40
0.0
 40
0.0
 40
0.0
 40
0.4984784691
 40
1.0
 40
1.0
 40
1.0
 40
1.0
 10
105.9526875483
 20
488.7756980138
 30
0.0
 10
105.4976503815
 20
489.4358893526
 30
0.0
 10
104.7648521628
 20
490.8988410044
 30
0.0
 10
104.5244161336
 20
492.5187873041
 30
0.0
 10
104.5220881029
 20
493.3254963781
 30
0.0
  0
SPLINE
  5
3B0
100
AcDbEntity
  8
0
100
AcDbSpline
 62
7
  6
CONTINUOUS
 70
0
 71
3
 72
9
 73
5
 74
0
 42
0.0000001
 43
0.0000001
 44
0.0000000001
 40
0.0
 40
0.0
 40
0.0
 40
0.0
 40
0.2012043959
 40
1.0
 40
1.0
 40
1.0
 40
1.0
 10
108.0687242546
 20
488.1489801468
 30
0.0
 10
107.9266916073
 20
488.190726162
 30
0.0
 10
107.22266309
 20
488.4045180358
 30
0.0
 10
106.5181000388
 20
488.6168038045
 30
0.0
 10
105.9522874801
 20
488.7758142274
 30
0.0
  0
SPLINE
  5
3B1
100
AcDbEntity
  8
0
100
AcDbSpline
 62
7
  6
CONTINUOUS
 70
0
 71
3
 72
8
 73
4
 74
0
 42
0.0000001
 43
0.0000001
 44
0.0000000001
 40
0.0
 40
0.0
 40
0.0
 40
0.0
 40
1.0
 40
1.0
 40
1.0
 40
1.0
 10
108.0704523769
 20
489.2105558204
 30
0.0
 10
108.2199865557
 20
488.88984454
 30
0.0
 10
108.2192619169
 20
488.4692218746
 30
0.0
 10
108.0687246407
 20
488.1489802089
 30
0.0
  0
SPLINE
  5
3B2
100
AcDbEntity
  8
0
100
AcDbSpline
 62
7
  6
CONTINUOUS
 70
0
 71
3
 72
9
 73
5
 74
0
 42
0.0000001
 43
0.0000001
 44
0.0000000001
 40
0.0
 40
0.0
 40
0.0
 40
0.0
 40
0.2910571537
 40
1.0
 40
1.0
 40
1.0
 40
1.0
 10
105.9526423422
 20
488.7756979274
 30
0.0
 10
106.1621351047
 20
488.7915022734
 30
0.0
 10
106.8781808334
 20
488.878966371
 30
0.0
 10
107.5921861821
 20
489.0285449708
 30
0.0
 10
108.0704453063
 20
489.210555692
 30
0.0
  0
SPLINE
  5
3B3
100
AcDbEntity
  8
0
100
AcDbSpline
 62
7
  6
CONTINUOUS
 70
0
 71
3
 72
10
 73
6
 74
0
 42
0.0000001
 43
0.0000001
 44
0.0000000001
 40
0.0
 40
0.0
 40
0.0
 40
0.0
 40
0.0825978333
 40
0.282215764
 40
1.0
 40
1.0
 40
1.0
 40
1.0
 10
108.5932402839
 20
487.936000894
 30
0.0
 10
108.5963178037
 20
487.9514213458
 30
0.0
 10
108.5322717451
 20
487.9855192142
 30
0.0
 10
108.3805001452
 20
488.0534768093
 30
0.0
 10
108.1993846772
 20
488.108973312
 30
0.0
 10
108.0687242546
 20
488.1489801468
 30
0.0
  0
SPLINE
  5
3B4
100
AcDbEntity
  8
0
100
AcDbSpline
 62
7
  6
CONTINUOUS
 70
0
 71
3
 72
8
 73
4
 74
0
 42
0.0000001
 43
0.0000001
 44
0.0000000001
 40
0.0
 40
0.0
 40
0.0
 40
0.0
 40
1.0
 40
1.0
 40
1.0
 40
1.0
 10
109.9146218158
 20
488.5795959298
 30
0.0
 10
109.9511847092
 20
488.0331844677
 30
0.0
 10
109.7242778127
 20
487.4288069959
 30
0.0
 10
109.337044949
 20
487.0415692906
 30
0.0
  0
SPLINE
  5
3B5
100
AcDbEntity
  8
0
100
AcDbSpline
 62
7
  6
CONTINUOUS
 70
0
 71
3
 72
8
 73
4
 74
0
 42
0.0000001
 43
0.0000001
 44
0.0000000001
 40
0.0
 40
0.0
 40
0.0
 40
0.0
 40
1.0
 40
1.0
 40
1.0
 40
1.0
 10
805.4307012752
 20
805.8858453293
 30
0.0
 10
805.3670851619
 20
805.8960097859
 30
0.0
 10
805.2969290638
 20
805.8671683321
 30
0.0
 10
805.24663943
 20
805.8269032259
 30
0.0
  0
SPLINE
  5
3B6
100
AcDbEntity
  8
0
100
AcDbSpline
 62
7
  6
CONTINUOUS
 70
0
 71
3
 72
8
 73
4
 74
0
 42
0.0000001
 43
0.0000001
 44
0.0000000001
 40
0.0
 40
0.0
 40
0.0
 40
0.0
 40
1.0
 40
1.0
 40
1.0
 40
1.0
 10
804.3306428691
 20
805.8583090977
 30
0.0
 10
804.7605422986
 20
806.2879653625
 30
0.0
 10
805.4004045485
 20
806.5606329311
 30
0.0
 10
806.008073455
 20
806.5731439443
 30
0.0
  0
SPLINE
  5
3B7
100
AcDbEntity
  8
0
100
AcDbSpline
 62
7
  6
CONTINUOUS
 70
0
 71
3
 72
9
 73
5
 74
0
 42
0.0000001
 43
0.0000001
 44
0.0000000001
 40
0.0
 40
0.0
 40
0.0
 40
0.0
 40
0.5236244803
 40
1.0
 40
1.0
 40
1.0
 40
1.0
 10
812.3210535295
 20
808.1381841614
 30
0.0
 10
813.4849199649
 20
809.1125060777
 30
0.0
 10
815.320503697
 20
811.4978710019
 30
0.0
 10
815.9901960224
 20
814.4099995295
 30
0.0
 10
816.0239124391
 20
815.7904814004
 30
0.0
  0
SPLINE
  5
3B8
100
AcDbEntity
  8
0
100
AcDbSpline
 62
7
  6
CONTINUOUS
 70
0
 71
3
 72
10
 73
6
 74
0
 42
0.0000001
 43
0.0000001
 44
0.0000000001
 40
0.0
 40
0.0
 40
0.0
 40
0.0
 40
0.7175270231
 40
0.9171995363
 40
1.0
 40
1.0
 40
1.0
 40
1.0
 10
118.1795386287
 20
478.0381738706
 30
0.0
 10
118.1394381533
 20
478.1690526358
 30
0.0
 10
118.0818134804
 20
478.3499865804
 30
0.0
 10
118.0202410176
 20
478.5039847341
 30
0.0
 10
117.9818365343
 20
478.5671715806
 30
0.0
 10
117.9666649331
 20
478.5627741788
 30
0.0
  0
SPLINE
  5
3B9
100
AcDbEntity
  8
0
100
AcDbSpline
 62
7
  6
CONTINUOUS
 70
0
 71
3
 72
8
 73
4
 74
0
 42
0.0000001
 43
0.0000001
 44
0.0000000001
 40
0.0
 40
0.0
 40
0.0
 40
0.0
 40
1.0
 40
1.0
 40
1.0
 40
1.0
 10
118.1795385378
 20
478.0381770348
 30
0.0
 10
118.4997858242
 20
478.1887156512
 30
0.0
 10
118.9204169285
 20
478.1894358558
 30
0.0
 10
119.2411311363
 20
478.0398945694
 30
0.0
  0
SPLINE
  5
3BA
100
AcDbEntity
  8
0
100
AcDbSpline
 62
7
  6
CONTINUOUS
 70
0
 71
3
 72
9
 73
5
 74
0
 42
0.0000001
 43
0.0000001
 44
0.0000000001
 40
0.0
 40
0.0
 40
0.0
 40
0.0
 40
0.2898062907
 40
1.0
 40
1.0
 40
1.0
 40
1.0
 10
118.8050498718
 20
475.92037985
 30
0.0
 10
118.7480914321
 20
476.1259566073
 30
0.0
 10
118.5395018347
 20
476.8319193169
 30
0.0
 10
118.3265180794
 20
477.5364999598
 30
0.0
 10
118.1795386287
 20
478.0381738706
 30
0.0
  0
SPLINE
  5
3BB
100
AcDbEntity
  8
0
100
AcDbSpline
 62
7
  6
CONTINUOUS
 70
0
 71
3
 72
9
 73
5
 74
0
 42
0.0000001
 43
0.0000001
 44
0.0000000001
 40
0.0
 40
0.0
 40
0.0
 40
0.0
 40
0.201145656
 40
1.0
 40
1.0
 40
1.0
 40
1.0
 10
794.4625454052
 20
478.038159746
 30
0.0
 10
794.4192537556
 20
477.8966020475
 30
0.0
 10
794.208474787
 20
477.1914943107
 30
0.0
 10
794.000104117
 20
476.4856711202
 30
0.0
 10
793.8364088504
 20
475.9210178491
 30
0.0
  0
SPLINE
  5
3BC
100
AcDbEntity
  8
0
100
AcDbSpline
 62
7
  6
CONTINUOUS
 70
0
 71
3
 72
8
 73
4
 74
0
 42
0.0000001
 43
0.0000001
 44
0.0000000001
 40
0.0
 40
0.0
 40
0.0
 40
0.0
 40
1.0
 40
1.0
 40
1.0
 40
1.0
 10
793.4009702986
 20
478.0398886588
 30
0.0
 10
793.7216833235
 20
478.1894186496
 30
0.0
 10
794.1423021166
 20
478.1886937002
 30
0.0
 10
794.4625453429
 20
478.0381601874
 30
0.0
  0
SPLINE
  5
3BD
100
AcDbEntity
  8
0
100
AcDbSpline
 62
7
  6
CONTINUOUS
 70
0
 71
3
 72
9
 73
5
 74
0
 42
0.0000001
 43
0.0000001
 44
0.0000000001
 40
0.0
 40
0.0
 40
0.0
 40
0.0
 40
0.4027500573
 40
1.0
 40
1.0
 40
1.0
 40
1.0
 10
805.4307012769
 20
486.6951174631
 30
0.0
 10
805.9562064674
 20
486.7790871641
 30
0.0
 10
807.293375197
 20
486.7239848778
 30
0.0
 10
808.5930544469
 20
486.436580477
 30
0.0
 10
809.3344499875
 20
486.1661611125
 30
0.0
  0
SPLINE
  5
3BE
100
AcDbEntity
  8
0
100
AcDbSpline
 62
7
  6
CONTINUOUS
 70
0
 71
3
 72
8
 73
4
 74
0
 42
0.0000001
 43
0.0000001
 44
0.0000000001
 40
0.0
 40
0.0
 40
0.0
 40
0.0
 40
1.0
 40
1.0
 40
1.0
 40
1.0
 10
796.3828601071
 20
478.493576876
 30
0.0
 10
796.8239659454
 20
478.0524252805
 30
0.0
 10
797.0997359065
 20
477.3893644655
 30
0.0
 10
797.1015467305
 20
476.7655168786
 30
0.0
  0
SPLINE
  5
3BF
100
AcDbEntity
  8
0
100
AcDbSpline
 62
7
  6
CONTINUOUS
 70
0
 71
3
 72
8
 73
4
 74
0
 42
0.0000001
 43
0.0000001
 44
0.0000000001
 40
0.0
 40
0.0
 40
0.0
 40
0.0
 40
1.0
 40
1.0
 40
1.0
 40
1.0
 10
805.997936059
 20
485.5082211675
 30
0.0
 10
805.265933488
 20
485.523086764
 30
0.0
 10
804.4950483885
 20
485.8516377909
 30
0.0
 10
803.9773028929
 20
486.3693137047
 30
0.0
  0
SPLINE
  5
3C0
100
AcDbEntity
  8
0
100
AcDbSpline
 62
7
  6
CONTINUOUS
 70
0
 71
3
 72
8
 73
4
 74
0
 42
0.0000001
 43
0.0000001
 44
0.0000000001
 40
0.0
 40
0.0
 40
0.0
 40
0.0
 40
1.0
 40
1.0
 40
1.0
 40
1.0
 10
806.0080734596
 20
486.0078188841
 30
0.0
 10
805.4004038515
 20
486.0202954807
 30
0.0
 10
804.7605467934
 20
486.2930019423
 30
0.0
 10
804.3306428895
 20
486.7226537216
 30
0.0
  0
SPLINE
  5
3C1
100
AcDbEntity
  8
0
100
AcDbSpline
 62
7
  6
CONTINUOUS
 70
0
 71
3
 72
8
 73
4
 74
0
 42
0.0000001
 43
0.0000001
 44
0.0000000001
 40
0.0
 40
0.0
 40
0.0
 40
0.0
 40
1.0
 40
1.0
 40
1.0
 40
1.0
 10
118.6101556102
 20
812.6969010284
 30
0.0
 10
118.0637452053
 20
812.6603362394
 30
0.0
 10
117.4593699437
 20
812.8872478989
 30
0.0
 10
117.0721327046
 20
813.2744799159
 30
0.0
  0
SPLINE
  5
3C2
100
AcDbEntity
  8
0
100
AcDbSpline
 62
7
  6
CONTINUOUS
 70
0
 71
3
 72
8
 73
4
 74
0
 42
0.0000001
 43
0.0000001
 44
0.0000000001
 40
0.0
 40
0.0
 40
0.0
 40
0.0
 40
1.0
 40
1.0
 40
1.0
 40
1.0
 10
109.3370330756
 20
805.5394053835
 30
0.0
 10
109.7242653929
 20
805.1521620113
 30
0.0
 10
109.9512624341
 20
804.5477843696
 30
0.0
 10
109.9146283342
 20
804.001374048
 30
0.0
  0
SPLINE
  5
3C3
100
AcDbEntity
  8
0
100
AcDbSpline
 62
7
  6
CONTINUOUS
 70
0
 71
3
 72
10
 73
6
 74
0
 42
0.0000001
 43
0.0000001
 44
0.0000000001
 40
0.0
 40
0.0
 40
0.0
 40
0.0
 40
0.7175406285
 40
0.9172106957
 40
1.0
 40
1.0
 40
1.0
 40
1.0
 10
108.0687366096
 20
804.4319869112
 30
0.0
 10
108.1996184988
 20
804.4720886058
 30
0.0
 10
108.3805631539
 20
804.5297264317
 30
0.0
 10
108.5345493049
 20
804.5912797466
 30
0.0
 10
108.5977423525
 20
804.6296977763
 30
0.0
 10
108.5933359953
 20
804.644864652
 30
0.0
  0
SPLINE
  5
3C4
100
AcDbEntity
  8
0
100
AcDbSpline
 62
7
  6
CONTINUOUS
 70
0
 71
3
 72
9
 73
5
 74
0
 42
0.0000001
 43
0.0000001
 44
0.0000000001
 40
0.0
 40
0.0
 40
0.0
 40
0.0
 40
0.7357931
 40
1.0
 40
1.0
 40
1.0
 40
1.0
 10
108.0704531696
 20
803.3703939736
 30
0.0
 10
108.2041454635
 20
803.3300962221
 30
0.0
 10
108.3036773978
 20
803.2789541157
 30
0.0
 10
108.6208376365
 20
803.1998152875
 30
0.0
 10
108.5942821759
 20
803.1572857953
 30
0.0
  0
SPLINE
  5
3C5
100
AcDbEntity
  8
0
100
AcDbSpline
 62
7
  6
CONTINUOUS
 70
0
 71
3
 72
9
 73
5
 74
0
 42
0.0000001
 43
0.0000001
 44
0.0000000001
 40
0.0
 40
0.0
 40
0.0
 40
0.0
 40
0.2910539846
 40
1.0
 40
1.0
 40
1.0
 40
1.0
 10
105.9512061319
 20
803.8065495509
 30
0.0
 10
106.1607454617
 20
803.7894713054
 30
0.0
 10
106.8781102705
 20
803.7040887794
 30
0.0
 10
107.586971893
 20
803.5391483782
 30
0.0
 10
108.0704530334
 20
803.3703940388
 30
0.0
  0
SPLINE
  5
3C6
100
AcDbEntity
  8
0
100
AcDbSpline
 62
7
  6
CONTINUOUS
 70
0
 71
3
 72
9
 73
5
 74
0
 42
0.0000001
 43
0.0000001
 44
0.0000000001
 40
0.0
 40
0.0
 40
0.0
 40
0.0
 40
0.6662632385
 40
1.0
 40
1.0
 40
1.0
 40
1.0
 10
108.070453106
 20
803.3703939103
 30
0.0
 10
108.1381382513
 20
803.2506786193
 30
0.0
 10
108.2298267757
 20
803.080186478
 30
0.0
 10
108.2644798183
 20
802.8388659327
 30
0.0
 10
108.2204281667
 20
802.7859045973
 30
0.0
  0
SPLINE
  5
3C7
100
AcDbEntity
  8
0
100
AcDbSpline
 62
7
  6
CONTINUOUS
 70
0
 71
3
 72
9
 73
5
 74
0
 42
0.0000001
 43
0.0000001
 44
0.0000000001
 40
0.0
 40
0.0
 40
0.0
 40
0.0
 40
0.2537411291
 40
1.0
 40
1.0
 40
1.0
 40
1.0
 10
106.7451738351
 20
799.2554663729
 30
0.0
 10
106.7451701091
 20
799.5838097866
 30
0.0
 10
106.8796016224
 20
800.8749851049
 30
0.0
 10
107.5339431856
 20
802.1067514985
 30
0.0
 10
108.2204284188
 20
802.7859045585
 30
0.0
  0
SPLINE
  5
3C8
100
AcDbEntity
  8
0
100
AcDbSpline
 62
7
  6
CONTINUOUS
 70
0
 71
3
 72
9
 73
5
 74
0
 42
0.0000001
 43
0.0000001
 44
0.0000000001
 40
0.0
 40
0.0
 40
0.0
 40
0.0
 40
0.746273459
 40
1.0
 40
1.0
 40
1.0
 40
1.0
 10
108.220434087
 20
489.7950523507
 30
0.0
 10
107.5339646757
 20
490.4742526343
 30
0.0
 10
106.8795673305
 20
491.7059806241
 30
0.0
 10
106.7451550698
 20
492.9971708903
 30
0.0
 10
106.7451736413
 20
493.3254964766
 30
0.0
  0
SPLINE
  5
3C9
100
AcDbEntity
  8
0
100
AcDbSpline
 62
7
  6
CONTINUOUS
 70
0
 71
3
 72
9
 73
5
 74
0
 42
0.0000001
 43
0.0000001
 44
0.0000000001
 40
0.0
 40
0.0
 40
0.0
 40
0.0
 40
0.2349007409
 40
1.0
 40
1.0
 40
1.0
 40
1.0
 10
119.5291939844
 20
478.9528956791
 30
0.0
 10
119.4574931978
 20
479.0260626427
 30
0.0
 10
119.1522377146
 20
479.3375250439
 30
0.0
 10
118.846090831
 20
479.6481260182
 30
0.0
 10
118.6101531126
 20
479.8840637156
 30
0.0
  0
SPLINE
  5
3CA
100
AcDbEntity
  8
0
100
AcDbSpline
 62
7
  6
CONTINUOUS
 70
0
 71
3
 72
9
 73
5
 74
0
 42
0.0000001
 43
0.0000001
 44
0.0000000001
 40
0.0
 40
0.0
 40
0.0
 40
0.0
 40
0.2675290096
 40
1.0
 40
1.0
 40
1.0
 40
1.0
 10
109.9146221753
 20
488.5795946292
 30
0.0
 10
109.832117829
 20
488.662098988
 30
0.0
 10
109.5229390896
 20
488.96970904
 30
0.0
 10
109.2115568389
 20
489.2750914129
 30
0.0
 10
108.9833990707
 20
489.4986900177
 30
0.0
  0
SPLINE
  5
3CB
100
AcDbEntity
  8
0
100
AcDbSpline
 62
7
  6
CONTINUOUS
 70
0
 71
3
 72
9
 73
5
 74
0
 42
0.0000001
 43
0.0000001
 44
0.0000000001
 40
0.0
 40
0.0
 40
0.0
 40
0.0
 40
0.7357930695
 40
1.0
 40
1.0
 40
1.0
 40
1.0
 10
119.2411315662
 20
478.0398904305
 30
0.0
 10
119.2814293155
 20
478.1735827216
 30
0.0
 10
119.3325715467
 20
478.2731146078
 30
0.0
 10
119.4117101892
 20
478.590274939
 30
0.0
 10
119.4542396942
 20
478.5637194863
 30
0.0
  0
SPLINE
  5
3CC
100
AcDbEntity
  8
0
100
AcDbSpline
 62
7
  6
CONTINUOUS
 70
0
 71
3
 72
9
 73
5
 74
0
 42
0.0000001
 43
0.0000001
 44
0.0000000001
 40
0.0
 40
0.0
 40
0.0
 40
0.0
 40
0.2910539846
 40
1.0
 40
1.0
 40
1.0
 40
1.0
 10
118.8049759921
 20
475.9206433859
 30
0.0
 10
118.8220542358
 20
476.1301827165
 30
0.0
 10
118.9074367575
 20
476.8475475281
 30
0.0
 10
119.0723771614
 20
477.5564091525
 30
0.0
 10
119.2411315011
 20
478.0398902944
 30
0.0
  0
SPLINE
  5
3CD
100
AcDbEntity
  8
0
100
AcDbSpline
 62
7
  6
CONTINUOUS
 70
0
 71
3
 72
9
 73
5
 74
0
 42
0.0000001
 43
0.0000001
 44
0.0000000001
 40
0.0
 40
0.0
 40
0.0
 40
0.0
 40
0.666263234
 40
1.0
 40
1.0
 40
1.0
 40
1.0
 10
119.2411316296
 20
478.039890367
 30
0.0
 10
119.3608469187
 20
478.1075755112
 30
0.0
 10
119.5313390606
 20
478.1992640337
 30
0.0
 10
119.7726595988
 20
478.2339170802
 30
0.0
 10
119.8256209374
 20
478.189865432
 30
0.0
  0
SPLINE
  5
3CE
100
AcDbEntity
  8
0
100
AcDbSpline
 62
7
  6
CONTINUOUS
 70
0
 71
3
 72
9
 73
5
 74
0
 42
0.0000001
 43
0.0000001
 44
0.0000000001
 40
0.0
 40
0.0
 40
0.0
 40
0.0
 40
0.5015655296
 40
1.0
 40
1.0
 40
1.0
 40
1.0
 10
442.310263156
 20
474.491533662
 30
0.0
 10
442.7123359732
 20
474.4915231467
 30
0.0
 10
443.5348850927
 20
474.2350090806
 30
0.0
 10
444.047066651
 20
473.5436247005
 30
0.0
 10
444.1797811423
 20
473.1667462934
 30
0.0
  0
SPLINE
  5
3CF
100
AcDbEntity
  8
0
100
AcDbSpline
 62
7
  6
CONTINUOUS
 70
0
 71
3
 72
10
 73
6
 74
0
 42
0.0000001
 43
0.0000001
 44
0.0000000001
 40
0.0
 40
0.0
 40
0.0
 40
0.0
 40
0.1081212178
 40
0.3264119215
 40
1.0
 40
1.0
 40
1.0
 40
1.0
 10
448.0989200712
 20
471.1998315059
 30
0.0
 10
448.0323062422
 20
471.2709864694
 30
0.0
 10
447.6904678213
 20
471.2773465882
 30
0.0
 10
446.8655846454
 20
471.0052100966
 30
0.0
 10
446.1348162371
 20
470.6118872501
 30
0.0
 10
445.6196164317
 20
470.290483052
 30
0.0
  0
SPLINE
  5
3D0
100
AcDbEntity
  8
0
100
AcDbSpline
 62
7
  6
CONTINUOUS
 70
0
 71
3
 72
10
 73
6
 74
0
 42
0.0000001
 43
0.0000001
 44
0.0000000001
 40
0.0
 40
0.0
 40
0.0
 40
0.0
 40
0.1142272525
 40
0.3368931242
 40
1.0
 40
1.0
 40
1.0
 40
1.0
 10
446.9984116342
 20
473.4122168078
 30
0.0
 10
446.9467927655
 20
473.5102167011
 30
0.0
 10
446.5892347179
 20
473.6295937055
 30
0.0
 10
445.6489262196
 20
473.5796198755
 30
0.0
 10
444.7904307791
 20
473.3680632317
 30
0.0
 10
444.1796063712
 20
473.1672166389
 30
0.0
  0
SPLINE
  5
3D1
100
AcDbEntity
  8
0
100
AcDbSpline
 62
7
  6
CONTINUOUS
 70
0
 71
3
 72
10
 73
6
 74
0
 42
0.0000001
 43
0.0000001
 44
0.0000000001
 40
0.0
 40
0.0
 40
0.0
 40
0.0
 40
0.6631068718
 40
0.8857727445
 40
1.0
 40
1.0
 40
1.0
 40
1.0
 10
468.4624819076
 20
473.1672166391
 30
0.0
 10
467.8516575066
 20
473.3680632294
 30
0.0
 10
466.9931620757
 20
473.5796198756
 30
0.0
 10
466.0528535792
 20
473.6295937016
 30
0.0
 10
465.6952955316
 20
473.510216713
 30
0.0
 10
465.6436766525
 20
473.4122168226
 30
0.0
  0
SPLINE
  5
3D2
100
AcDbEntity
  8
0
100
AcDbSpline
 62
7
  6
CONTINUOUS
 70
0
 71
3
 72
9
 73
5
 74
0
 42
0.0000001
 43
0.0000001
 44
0.0000000001
 40
0.0
 40
0.0
 40
0.0
 40
0.0
 40
0.3337324655
 40
1.0
 40
1.0
 40
1.0
 40
1.0
 10
792.8164641803
 20
478.1898628528
 30
0.0
 10
792.8694243395
 20
478.233917647
 30
0.0
 10
793.1107554431
 20
478.1992640913
 30
0.0
 10
793.2812502369
 20
478.1075717083
 30
0.0
 10
793.4009694644
 20
478.0398836431
 30
0.0
  0
SPLINE
  5
3D3
100
AcDbEntity
  8
0
100
AcDbSpline
 62
7
  6
CONTINUOUS
 70
0
 71
3
 72
9
 73
5
 74
0
 42
0.0000001
 43
0.0000001
 44
0.0000000001
 40
0.0
 40
0.0
 40
0.0
 40
0.0
 40
0.1999958868
 40
1.0
 40
1.0
 40
1.0
 40
1.0
 10
793.4009411026
 20
478.0398654606
 30
0.0
 10
793.452320746
 20
477.9048818375
 30
0.0
 10
793.6699383212
 20
477.2154256848
 30
0.0
 10
793.7860891093
 20
476.4966264464
 30
0.0
 10
793.8366049124
 20
475.9210984673
 30
0.0
  0
SPLINE
  5
3D4
100
AcDbEntity
  8
0
100
AcDbSpline
 62
7
  6
CONTINUOUS
 70
0
 71
3
 72
10
 73
6
 74
0
 42
0.0000001
 43
0.0000001
 44
0.0000000001
 40
0.0
 40
0.0
 40
0.0
 40
0.0
 40
0.0734104164
 40
0.2693198866
 40
1.0
 40
1.0
 40
1.0
 40
1.0
 10
793.1879535876
 20
478.5638257913
 30
0.0
 10
793.2001297401
 20
478.5707436867
 30
0.0
 10
793.2425069378
 20
478.5077750723
 30
0.0
 10
793.2977592326
 20
478.3594420713
 30
0.0
 10
793.3607650053
 20
478.1733478125
 30
0.0
 10
793.4009695008
 20
478.0398836794
 30
0.0
  0
SPLINE
  5
3D5
100
AcDbEntity
  8
0
100
AcDbSpline
 62
7
  6
CONTINUOUS
 70
0
 71
3
 72
10
 73
6
 74
0
 42
0.0000001
 43
0.0000001
 44
0.0000000001
 40
0.0
 40
0.0
 40
0.0
 40
0.0
 40
0.0825976974
 40
0.2822149712
 40
1.0
 40
1.0
 40
1.0
 40
1.0
 10
794.6755246175
 20
478.5626775281
 30
0.0
 10
794.6601041367
 20
478.5657551006
 30
0.0
 10
794.6260051074
 20
478.5017101727
 30
0.0
 10
794.5580430918
 20
478.3499389284
 30
0.0
 10
794.5025495509
 20
478.1688217372
 30
0.0
 10
794.4625454052
 20
478.038159746
 30
0.0
  0
SPLINE
  5
3D6
100
AcDbEntity
  8
0
100
AcDbSpline
 62
7
  6
CONTINUOUS
 70
0
 71
3
 72
8
 73
4
 74
0
 42
0.0000001
 43
0.0000001
 44
0.0000000001
 40
0.0
 40
0.0
 40
0.0
 40
0.0
 40
1.0
 40
1.0
 40
1.0
 40
1.0
 10
794.0319327655
 20
479.8840618694
 30
0.0
 10
794.5783434918
 20
479.920626636
 30
0.0
 10
795.1827188969
 20
479.69371434
 30
0.0
 10
795.5699563617
 20
479.3064820974
 30
0.0
  0
SPLINE
  5
3D7
100
AcDbEntity
  8
0
100
AcDbSpline
 62
7
  6
CONTINUOUS
 70
0
 71
3
 72
9
 73
5
 74
0
 42
0.0000001
 43
0.0000001
 44
0.0000000001
 40
0.0
 40
0.0
 40
0.0
 40
0.0
 40
0.2827448021
 40
1.0
 40
1.0
 40
1.0
 40
1.0
 10
796.4453644273
 20
473.2770755523
 30
0.0
 10
796.330007595
 20
473.5933437353
 30
0.0
 10
795.9811756927
 20
474.7320032755
 30
0.0
 10
795.8368506052
 20
475.9375469744
 30
0.0
 10
795.8802606317
 20
476.7904408792
 30
0.0
  0
SPLINE
  5
3D8
100
AcDbEntity
  8
0
100
AcDbSpline
 62
7
  6
CONTINUOUS
 70
0
 71
3
 72
9
 73
5
 74
0
 42
0.0000001
 43
0.0000001
 44
0.0000000001
 40
0.0
 40
0.0
 40
0.0
 40
0.0
 40
0.3159510434
 40
1.0
 40
1.0
 40
1.0
 40
1.0
 10
795.8802606317
 20
476.7904408792
 30
0.0
 10
795.8824466372
 20
476.8333901927
 30
0.0
 10
795.890981065
 20
476.9691888818
 30
0.0
 10
795.9032055519
 20
477.1050770098
 30
0.0
 10
795.919066315
 20
477.1968237961
 30
0.0
  0
SPLINE
  5
3D9
100
AcDbEntity
  8
0
100
AcDbSpline
 62
7
  6
CONTINUOUS
 70
0
 71
3
 72
8
 73
4
 74
0
 42
0.0000001
 43
0.0000001
 44
0.0000000001
 40
0.0
 40
0.0
 40
0.0
 40
0.0
 40
1.0
 40
1.0
 40
1.0
 40
1.0
 10
803.3050552032
 20
487.0415574173
 30
0.0
 10
802.9178228859
 20
487.4288007896
 30
0.0
 10
802.6908258447
 20
488.0331784313
 30
0.0
 10
802.7274599446
 20
488.5795887529
 30
0.0
  0
SPLINE
  5
3DA
100
AcDbEntity
  8
0
100
AcDbSpline
 62
7
  6
CONTINUOUS
 70
0
 71
3
 72
10
 73
6
 74
0
 42
0.0000001
 43
0.0000001
 44
0.0000000001
 40
0.0
 40
0.0
 40
0.0
 40
0.0
 40
0.7175398961
 40
0.9172106362
 40
1.0
 40
1.0
 40
1.0
 40
1.0
 10
804.5733625812
 20
488.1489791461
 30
0.0
 10
804.4424782414
 20
488.1088763079
 30
0.0
 10
804.2615317297
 20
488.0512345269
 30
0.0
 10
804.1075390228
 20
487.9896855351
 30
0.0
 10
804.0443456942
 20
487.9512654948
 30
0.0
 10
804.0487521375
 20
487.9360982937
 30
0.0
  0
SPLINE
  5
3DB
100
AcDbEntity
  8
0
100
AcDbSpline
 62
7
  6
CONTINUOUS
 70
0
 71
3
 72
9
 73
5
 74
0
 42
0.0000001
 43
0.0000001
 44
0.0000000001
 40
0.0
 40
0.0
 40
0.0
 40
0.0
 40
0.7357979637
 40
1.0
 40
1.0
 40
1.0
 40
1.0
 10
804.571640104
 20
489.2105580609
 30
0.0
 10
804.4379450981
 20
489.2508568947
 30
0.0
 10
804.3384196729
 20
489.3020105591
 30
0.0
 10
804.0212485406
 20
489.381149324
 30
0.0
 10
804.0478058883
 20
489.4236773904
 30
0.0
  0
SPLINE
  5
3DC
100
AcDbEntity
  8
0
100
AcDbSpline
 62
7
  6
CONTINUOUS
 70
0
 71
3
 72
9
 73
5
 74
0
 42
0.0000001
 43
0.0000001
 44
0.0000000001
 40
0.0
 40
0.0
 40
0.0
 40
0.0
 40
0.2910405777
 40
1.0
 40
1.0
 40
1.0
 40
1.0
 10
806.6903337533
 20
488.7751841683
 30
0.0
 10
806.4808494426
 20
488.7920264142
 30
0.0
 10
805.7636102236
 20
488.8767693105
 30
0.0
 10
805.0550347708
 20
489.0420012351
 30
0.0
 10
804.5716400986
 20
489.2105580752
 30
0.0
  0
SPLINE
  5
3DD
100
AcDbEntity
  8
0
100
AcDbSpline
 62
7
  6
CONTINUOUS
 70
0
 71
3
 72
9
 73
5
 74
0
 42
0.0000001
 43
0.0000001
 44
0.0000000001
 40
0.0
 40
0.0
 40
0.0
 40
0.0
 40
0.6662673124
 40
1.0
 40
1.0
 40
1.0
 40
1.0
 10
804.5716401057
 20
489.2105580627
 30
0.0
 10
804.5039524735
 20
489.3302767984
 30
0.0
 10
804.412260595
 20
489.5007710296
 30
0.0
 10
804.3776076844
 20
489.742101027
 30
0.0
 10
804.4216623172
 20
489.7950609921
 30
0.0
  0
SPLINE
  5
3DE
100
AcDbEntity
  8
0
100
AcDbSpline
 62
7
  6
CONTINUOUS
 70
0
 71
3
 72
9
 73
5
 74
0
 42
0.0000001
 43
0.0000001
 44
0.0000000001
 40
0.0
 40
0.0
 40
0.0
 40
0.0
 40
0.3337324667
 40
1.0
 40
1.0
 40
1.0
 40
1.0
 10
804.4216626871
 20
802.7859014413
 30
0.0
 10
804.3776078938
 20
802.8388615994
 30
0.0
 10
804.4122614461
 20
803.0801926968
 30
0.0
 10
804.5039538263
 20
803.2506874873
 30
0.0
 10
804.5716418892
 20
803.3704067119
 30
0.0
  0
SPLINE
  5
3DF
100
AcDbEntity
  8
0
100
AcDbSpline
 62
7
  6
CONTINUOUS
 70
0
 71
3
 72
9
 73
5
 74
0
 42
0.0000001
 43
0.0000001
 44
0.0000000001
 40
0.0
 40
0.0
 40
0.0
 40
0.0
 40
0.1999958855
 40
1.0
 40
1.0
 40
1.0
 40
1.0
 10
804.5716600715
 20
803.3703783505
 30
0.0
 10
804.7066436949
 20
803.4217579952
 30
0.0
 10
805.3960998544
 20
803.6393755771
 30
0.0
 10
806.114899101
 20
803.7555263694
 30
0.0
 10
806.6904270876
 20
803.8060421749
 30
0.0
  0
SPLINE
  5
3E0
100
AcDbEntity
  8
0
100
AcDbSpline
 62
7
  6
CONTINUOUS
 70
0
 71
3
 72
10
 73
6
 74
0
 42
0.0000001
 43
0.0000001
 44
0.0000000001
 40
0.0
 40
0.0
 40
0.0
 40
0.0
 40
0.0734094927
 40
0.2693210523
 40
1.0
 40
1.0
 40
1.0
 40
1.0
 10
804.0477001577
 20
803.1573904418
 30
0.0
 10
804.0407786843
 20
803.1695643549
 30
0.0
 10
804.1037547172
 20
803.2119472451
 30
0.0
 10
804.2520781966
 20
803.2671897666
 30
0.0
 10
804.438177959
 20
803.3302023238
 30
0.0
 10
804.5716418528
 20
803.3704067482
 30
0.0
  0
SPLINE
  5
3E1
100
AcDbEntity
  8
0
100
AcDbSpline
 62
7
  6
CONTINUOUS
 70
0
 71
3
 72
10
 73
6
 74
0
 42
0.0000001
 43
0.0000001
 44
0.0000000001
 40
0.0
 40
0.0
 40
0.0
 40
0.0
 40
0.0825975426
 40
0.2822147514
 40
1.0
 40
1.0
 40
1.0
 40
1.0
 10
804.0488479915
 20
804.6449619039
 30
0.0
 10
804.0457703758
 20
804.6295414613
 30
0.0
 10
804.1098153191
 20
804.5954424039
 30
0.0
 10
804.2615864658
 20
804.5274804435
 30
0.0
 10
804.4427037511
 20
804.4719868394
 30
0.0
 10
804.5733657864
 20
804.4319826796
 30
0.0
  0
SPLINE
  5
3E2
100
AcDbEntity
  8
0
100
AcDbSpline
 62
7
  6
CONTINUOUS
 70
0
 71
3
 72
8
 73
4
 74
0
 42
0.0000001
 43
0.0000001
 44
0.0000000001
 40
0.0
 40
0.0
 40
0.0
 40
0.0
 40
1.0
 40
1.0
 40
1.0
 40
1.0
 10
802.7274663829
 20
804.0013669512
 30
0.0
 10
802.6909034874
 20
804.547778991
 30
0.0
 10
802.9178114382
 20
805.1521567768
 30
0.0
 10
803.3050447095
 20
805.5393948898
 30
0.0
  0
SPLINE
  5
3E3
100
AcDbEntity
  8
0
100
AcDbSpline
 62
7
  6
CONTINUOUS
 70
0
 71
3
 72
8
 73
4
 74
0
 42
0.0000001
 43
0.0000001
 44
0.0000000001
 40
0.0
 40
0.0
 40
0.0
 40
0.0
 40
1.0
 40
1.0
 40
1.0
 40
1.0
 10
795.919066315
 20
477.1968237961
 30
0.0
 10
795.9279805115
 20
477.2484326198
 30
0.0
 10
795.9067239808
 20
477.3061542404
 30
0.0
 10
795.8746022242
 20
477.3475200032
 30
0.0
  0
SPLINE
  5
3E4
100
AcDbEntity
  8
0
100
AcDbSpline
 62
7
  6
CONTINUOUS
 70
0
 71
3
 72
8
 73
4
 74
0
 42
0.0000001
 43
0.0000001
 44
0.0000000001
 40
0.0
 40
0.0
 40
0.0
 40
0.0
 40
1.0
 40
1.0
 40
1.0
 40
1.0
 10
795.5699681225
 20
813.2744924642
 30
0.0
 10
795.1827253386
 20
812.8872590212
 30
0.0
 10
794.5783460462
 20
812.6602706977
 30
0.0
 10
794.031934946
 20
812.696898865
 30
0.0
  0
SPLINE
  5
3E5
100
AcDbEntity
  8
0
100
AcDbSpline
 62
7
  6
CONTINUOUS
 70
0
 71
3
 72
10
 73
6
 74
0
 42
0.0000001
 43
0.0000001
 44
0.0000000001
 40
0.0
 40
0.0
 40
0.0
 40
0.0
 40
0.7175270231
 40
0.9171995363
 40
1.0
 40
1.0
 40
1.0
 40
1.0
 10
794.4625496502
 20
814.5427889303
 30
0.0
 10
794.5026501256
 20
814.4119101651
 30
0.0
 10
794.5602747984
 20
814.2309762205
 30
0.0
 10
794.6218472613
 20
814.0769780667
 30
0.0
 10
794.6602517445
 20
814.0137912203
 30
0.0
 10
794.6754233457
 20
814.0181886221
 30
0.0
  0
SPLINE
  5
3E6
100
AcDbEntity
  8
0
100
AcDbSpline
 62
7
  6
CONTINUOUS
 70
0
 71
3
 72
9
 73
5
 74
0
 42
0.0000001
 43
0.0000001
 44
0.0000000001
 40
0.0
 40
0.0
 40
0.0
 40
0.0
 40
0.7357931427
 40
1.0
 40
1.0
 40
1.0
 40
1.0
 10
793.4009567127
 20
814.5410723704
 30
0.0
 10
793.3606589591
 20
814.4073800652
 30
0.0
 10
793.3095167711
 20
814.3078481989
 30
0.0
 10
793.230378054
 20
813.9906878528
 30
0.0
 10
793.1878485736
 20
814.0172433191
 30
0.0
  0
SPLINE
  5
3E7
100
AcDbEntity
  8
0
100
AcDbSpline
 62
7
  6
CONTINUOUS
 70
0
 71
3
 72
9
 73
5
 74
0
 42
0.0000001
 43
0.0000001
 44
0.0000000001
 40
0.0
 40
0.0
 40
0.0
 40
0.0
 40
0.2910539846
 40
1.0
 40
1.0
 40
1.0
 40
1.0
 10
793.8371122867
 20
816.660319415
 30
0.0
 10
793.820034043
 20
816.4507800844
 30
0.0
 10
793.7346515213
 20
815.7334152728
 30
0.0
 10
793.5697111175
 20
815.0245536484
 30
0.0
 10
793.4009567778
 20
814.5410725065
 30
0.0
  0
SPLINE
  5
3E8
100
AcDbEntity
  8
0
100
AcDbSpline
 62
7
  6
CONTINUOUS
 70
0
 71
3
 72
9
 73
5
 74
0
 42
0.0000001
 43
0.0000001
 44
0.0000000001
 40
0.0
 40
0.0
 40
0.0
 40
0.0
 40
0.6662632758
 40
1.0
 40
1.0
 40
1.0
 40
1.0
 10
793.4009566492
 20
814.5410724338
 30
0.0
 10
793.2812413443
 20
814.4733872807
 30
0.0
 10
793.1107492155
 20
814.3816987459
 30
0.0
 10
792.8694286092
 20
814.3470457184
 30
0.0
 10
792.8164673036
 20
814.3910974003
 30
0.0
  0
SPLINE
  5
3E9
100
AcDbEntity
  8
0
100
AcDbSpline
 62
7
  6
CONTINUOUS
 70
0
 71
3
 72
9
 73
5
 74
0
 42
0.0000001
 43
0.0000001
 44
0.0000000001
 40
0.0
 40
0.0
 40
0.0
 40
0.0
 40
0.501565523
 40
1.0
 40
1.0
 40
1.0
 40
1.0
 10
470.3318251228
 20
818.0894291389
 30
0.0
 10
469.9297768258
 20
818.0894396535
 30
0.0
 10
469.1072803726
 20
818.3459204276
 30
0.0
 10
468.5950941269
 20
819.037226379
 30
0.0
 10
468.4623582328
 20
819.4140714254
 30
0.0
  0
SPLINE
  5
3EA
100
AcDbEntity
  8
0
100
AcDbSpline
 62
7
  6
CONTINUOUS
 70
0
 71
3
 72
10
 73
6
 74
0
 42
0.0000001
 43
0.0000001
 44
0.0000000001
 40
0.0
 40
0.0
 40
0.0
 40
0.0
 40
0.108122401
 40
0.3264152443
 40
1.0
 40
1.0
 40
1.0
 40
1.0
 10
464.5431711301
 20
821.3811281734
 30
0.0
 10
464.60978938
 20
821.3099726274
 30
0.0
 10
464.9516387344
 20
821.3036203746
 30
0.0
 10
465.7765400066
 20
821.5757675037
 30
0.0
 10
466.5073232487
 20
821.9691037445
 30
0.0
 10
467.0225314073
 20
822.2905169054
 30
0.0
  0
SPLINE
  5
3EB
100
AcDbEntity
  8
0
100
AcDbSpline
 62
7
  6
CONTINUOUS
 70
0
 71
3
 72
10
 73
6
 74
0
 42
0.0000001
 43
0.0000001
 44
0.0000000001
 40
0.0
 40
0.0
 40
0.0
 40
0.0
 40
0.1142272525
 40
0.3368931242
 40
1.0
 40
1.0
 40
1.0
 40
1.0
 10
465.6436766478
 20
819.1687459844
 30
0.0
 10
465.6952955166
 20
819.0707460914
 30
0.0
 10
466.0528535642
 20
818.9513690877
 30
0.0
 10
466.9931620619
 20
819.0013429195
 30
0.0
 10
467.8516575017
 20
819.2128995647
 30
0.0
 10
468.4624819089
 20
819.4137461585
 30
0.0
  0
SPLINE
  5
3EC
100
AcDbEntity
  8
0
100
AcDbSpline
 62
7
  6
CONTINUOUS
 70
0
 71
3
 72
9
 73
5
 74
0
 42
0.0000001
 43
0.0000001
 44
0.0000000001
 40
0.0
 40
0.0
 40
0.0
 40
0.0
 40
0.2898062907
 40
1.0
 40
1.0
 40
1.0
 40
1.0
 10
793.8370384071
 20
816.6605829509
 30
0.0
 10
793.8939968467
 20
816.4550061936
 30
0.0
 10
794.1025864441
 20
815.749043484
 30
0.0
 10
794.3155701994
 20
815.0444628411
 30
0.0
 10
794.4625496502
 20
814.5427889303
 30
0.0
  0
SPLINE
  5
3ED
100
AcDbEntity
  8
0
100
AcDbSpline
 62
7
  6
CONTINUOUS
 70
0
 71
3
 72
8
 73
4
 74
0
 42
0.0000001
 43
0.0000001
 44
0.0000000001
 40
0.0
 40
0.0
 40
0.0
 40
0.0
 40
1.0
 40
1.0
 40
1.0
 40
1.0
 10
794.462549741
 20
814.5427857661
 30
0.0
 10
794.1423024547
 20
814.3922471497
 30
0.0
 10
793.7216713504
 20
814.3915269451
 30
0.0
 10
793.4009571426
 20
814.5410682315
 30
0.0
  0
SPLINE
  5
3EE
100
AcDbEntity
  8
0
100
AcDbSpline
 62
7
  6
CONTINUOUS
 70
0
 71
3
 72
8
 73
4
 74
0
 42
0.0000001
 43
0.0000001
 44
0.0000000001
 40
0.0
 40
0.0
 40
0.0
 40
0.0
 40
1.0
 40
1.0
 40
1.0
 40
1.0
 10
805.246653853
 20
486.754048154
 30
0.0
 10
805.2969400958
 20
486.7137879937
 30
0.0
 10
805.3670908304
 20
486.6849539096
 30
0.0
 10
805.4307012769
 20
486.6951174631
 30
0.0
  0
SPLINE
  5
3EF
100
AcDbEntity
  8
0
100
AcDbSpline
 62
7
  6
CONTINUOUS
 70
0
 71
3
 72
8
 73
4
 74
0
 42
0.0000001
 43
0.0000001
 44
0.0000000001
 40
0.0
 40
0.0
 40
0.0
 40
0.0
 40
1.0
 40
1.0
 40
1.0
 40
1.0
 10
804.5733619485
 20
488.1489791554
 30
0.0
 10
804.4228248827
 20
488.4692218978
 30
0.0
 10
804.4221005786
 20
488.8898452649
 30
0.0
 10
804.5716349693
 20
489.2105574229
 30
0.0
  0
SPLINE
  5
3F0
100
AcDbEntity
  8
0
100
AcDbSpline
 62
7
  6
CONTINUOUS
 70
0
 71
3
 72
9
 73
5
 74
0
 42
0.0000001
 43
0.0000001
 44
0.0000000001
 40
0.0
 40
0.0
 40
0.0
 40
0.0
 40
0.2898272659
 40
1.0
 40
1.0
 40
1.0
 40
1.0
 10
806.6904154995
 20
488.7752076607
 30
0.0
 10
806.485577332
 20
488.7157702488
 30
0.0
 10
805.7794387725
 20
488.5085764441
 30
0.0
 10
805.0731362054
 20
488.3018278473
 30
0.0
 10
804.5733625812
 20
488.1489791461
 30
0.0
  0
SPLINE
  5
3F1
100
AcDbEntity
  8
0
100
AcDbSpline
 62
7
  6
CONTINUOUS
 70
0
 71
3
 72
8
 73
4
 74
0
 42
0.0000001
 43
0.0000001
 44
0.0000000001
 40
0.0
 40
0.0
 40
0.0
 40
0.0
 40
1.0
 40
1.0
 40
1.0
 40
1.0
 10
804.5716368736
 20
803.3704075462
 30
0.0
 10
804.422106877
 20
803.6911205782
 30
0.0
 10
804.4228318263
 20
804.1117393838
 30
0.0
 10
804.573365345
 20
804.4319826172
 30
0.0
  0
SPLINE
  5
3F2
100
AcDbEntity
  8
0
100
AcDbSpline
 62
7
  6
CONTINUOUS
 70
0
 71
3
 72
9
 73
5
 74
0
 42
0.0000001
 43
0.0000001
 44
0.0000000001
 40
0.0
 40
0.0
 40
0.0
 40
0.0
 40
0.2011456549
 40
1.0
 40
1.0
 40
1.0
 40
1.0
 10
804.5733657864
 20
804.4319826796
 30
0.0
 10
804.7149234843
 20
804.3886910292
 30
0.0
 10
805.4200312232
 20
804.1779120567
 30
0.0
 10
806.1258544149
 20
803.9695413795
 30
0.0
 10
806.6905076883
 20
803.8058461089
 30
0.0
  0
ELLIPSE
  5
3F3
100
AcDbEntity
  8
0
100
AcDbEllipse
 62
7
  6
CONTINUOUS
 10
106.8210441394
 20
476.6970952444
 30
0.0
 11
-0.0
 21
9.9803607982
 31
0.0
 40
0.9999562224
 41
-2.2677999052
 42
-1.9205591022
  0
ELLIPSE
  5
3F4
100
AcDbEntity
  8
0
100
AcDbEllipse
 62
7
  6
CONTINUOUS
 10
106.7276579834
 20
476.7904814004
 30
0.0
 11
9.9803607982
 21
0.0
 31
0.0
 40
0.9999562224
 41
1.9205591022
 42
2.2677999052
  0
ELLIPSE
  5
3F5
100
AcDbEntity
  8
0
100
AcDbEllipse
 62
7
  6
CONTINUOUS
 10
106.7276579834
 20
815.7904814004
 30
0.0
 11
9.9803607982
 21
-0.0
 31
0.0
 40
0.9999562224
 41
-2.2677999052
 42
-1.9205591022
  0
ELLIPSE
  5
3F6
100
AcDbEntity
  8
0
100
AcDbEllipse
 62
7
  6
CONTINUOUS
 10
106.8210441394
 20
815.8838675564
 30
0.0
 11
0.0
 21
9.9803607982
 31
0.0
 40
0.9999562224
 41
-1.2210335514
 42
-0.8737927484
  0
ELLIPSE
  5
3F7
100
AcDbEntity
  8
0
100
AcDbEllipse
 62
7
  6
CONTINUOUS
 10
805.8210441394
 20
815.8838675564
 30
0.0
 11
0.0
 21
9.9803607982
 31
0.0
 40
0.9999562224
 41
0.8737927484
 42
1.2210335514
  0
ELLIPSE
  5
3F8
100
AcDbEntity
  8
0
100
AcDbEllipse
 62
7
  6
CONTINUOUS
 10
805.9144302954
 20
815.7904814004
 30
0.0
 11
9.9803607982
 21
0.0
 31
0.0
 40
0.9999562224
 41
-1.2210335514
 42
-0.8737927484
  0
ELLIPSE
  5
3F9
100
AcDbEntity
  8
0
100
AcDbEllipse
 62
7
  6
CONTINUOUS
 10
805.9144302954
 20
476.7904814004
 30
0.0
 11
9.9803607982
 21
0.0
 31
0.0
 40
0.9999562224
 41
0.8737927484
 42
1.2210335514
  0
ELLIPSE
  5
3FA
100
AcDbEntity
  8
0
100
AcDbEllipse
 62
7
  6
CONTINUOUS
 10
805.8210441394
 20
476.6970952444
 30
0.0
 11
-0.0
 21
9.9803607982
 31
0.0
 40
0.9999562224
 41
-4.362626205
 42
-4.015385402
  0
ENDSEC
  0
SECTION
  2
OBJECTS
  0
DICTIONARY
  5
C
100
AcDbDictionary
280
0
281
1
  3
ACAD_GROUP
350
D
  3
ACAD_MLINESTYLE
350
17
  3
ACAD_LAYOUT
350
1A
  3
ACAD_PLOTSETTINGS
350
19
  3
ACAD_PLOTSTYLENAME
350
E
  0
DICTIONARY
  5
D
102
{ACAD_REACTORS
330
C
102
}
100
AcDbDictionary
280
0
281
1
  0
ACDBDICTIONARYWDFLT
  5
E
102
{ACAD_REACTORS
330
C
102
}
100
AcDbDictionary
281
1
  3
Normal
350
F
100
AcDbDictionaryWithDefault
340
F
  0
DICTIONARY
  5
17
102
{ACAD_REACTORS
330
C
102
}
100
AcDbDictionary
280
0
281
1
  3
Standard
350
18
  0
DICTIONARY
  5
19
102
{ACAD_REACTORS
330
C
102
}
100
AcDbDictionary
281
1
  0
DICTIONARY
  5
1A
102
{ACAD_REACTORS
330
C
102
}
100
AcDbDictionary
281
1
  3
Model
350
3FB
  3
Layout1
350
3FC
  0
ACDBPLACEHOLDER
  5
F
102
{ACAD_REACTORS
330
E
102
}
  0
MLINESTYLE
  5
18
102
{ACAD_REACTORS
330
17
102
}
100
AcDbMlineStyle
  2
STANDARD
 70
0
  3

 62
256
 51
90.0
 52
90.0
 71
2
 49
0.5
 62
256
  6
BYLAYER
 49
-0.5
 62
256
  6
BYLAYER
  0
LAYOUT
  5
3FB
102
{ACAD_REACTORS
330
1A
102
}
100
AcDbPlotSettings
  1

  2
none_device
  4

  6

 40
0.0
 41
0.0
 42
0.0
 43
0.0
 44
210.0
 45
297.0
 46
0.0
 47
0.0
 48
0.0
 49
0.0
140
0.0
141
0.0
142
1.0
143
1.0
 70
1024
 72
1
 73
0
 74
0
  7

 75
0
147
1.0
148
0.0
149
0.0
100
AcDbLayout
  1
Model
 70
0
 71
0
 10
0.0
 20
0.0
 11
210.0
 21
297.0
 12
0.0
 22
0.0
 32
0.0
 14
0.0
 24
0.0
 34
0.0
 15
0.0
 25
0.0
 35
0.0
146
0.0
 13
0.0
 23
0.0
 33
0.0
 16
1.0
 26
0.0
 36
0.0
 17
0.0
 27
1.0
 37
0.0
 76
0
330
210
345
0
346
0
  0
LAYOUT
  5
3FC
102
{ACAD_REACTORS
330
1A
102
}
100
AcDbPlotSettings
  1

  2
none_device
  4

  6

 40
0.0
 41
0.0
 42
0.0
 43
0.0
 44
210.0
 45
297.0
 46
0.0
 47
0.0
 48
0.0
 49
0.0
140
0.0
141
0.0
142
1.0
143
1.0
 70
0
 72
1
 73
0
 74
0
  7

 75
0
147
1.0
148
0.0
149
0.0
100
AcDbLayout
  1
Layout1
 70
0
 71
1
 10
0.0
 20
0.0
 11
210.0
 21
297.0
 12
0.0
 22
0.0
 32
0.0
 14
0.0
 24
0.0
 34
0.0
 15
0.0
 25
0.0
 35
0.0
146
0.0
 13
0.0
 23
0.0
 33
0.0
 16
1.0
 26
0.0
 36
0.0
 17
0.0
 27
1.0
 37
0.0
 76
0
330
211
345
0
346
0
  0
ENDSEC
  0
EOF
