999
DXF file: C:\Users\sesa63760\Dev\_Creo\CAD\MCADUE0002396_3D-CAD\drw0001_6.dxf
999
Pro/ENGINEER 2019471 by Parametric Technology Corporation
  0
SECTION
  2
HEADER
  9
$ACADVER
  1
AC1024
  9
$DWGCODEPAGE
  3
ANSI_1252
  9
$EXTMAX
 10
678.6431470127
 20
959.7953079179
 30
0.0
  9
$EXTMIN
 10
0.0
 20
0.0
 30
0.0
  9
$LIMMIN
 10
0.0
 20
0.0
  9
$LIMMAX
 10
678.6431470127
 20
959.7953079179
  9
$VIEWCTR
 10
339.3215735063
 20
479.8976539589
  9
$VIEWSIZE
 40
959.7953079179
  9
$CLAYER
  8
0
  9
$LTSCALE
 40
62.5644348865
  9
$CELTYPE
  6
BYLAYER
  9
$DIMSCALE
 40
1.0
  9
$DIMASZ
 40
8.0790850835
  9
$DIMEXO
 40
1.0
  9
$DIMDLI
 40
43.2263368307
  9
$DIMEXE
 40
1.0
  9
$DIMCEN
 40
10.2378166178
  9
$DIMLFAC
 40
1.0
  9
$DIMBLK
  1
_FILLED
  9
$DIMALT
 70
0
  9
$DIMALTF
 40
0.0393700787
  9
$DIMTXT
 40
11.3107191169
  9
$DIMTOL
 70
1
  9
$DIMLIM
 70
0
  9
$DIMTFAC
 40
1.0
  9
$DIMTP
 40
0.01
  9
$DIMTM
 40
0.01
  9
$DIMGAP
 40
0.625
  9
$DIMDSEP
 70
46
  9
$AUNITS
 70
0
  9
$PDMODE
 70
3
  9
$PDSIZE
 40
0.3125
  9
$HANDSEED
  5
434
  9
$TILEMODE
 70
1
  9
$MEASUREMENT
 70
1
  9
$INSUNITS
 70
4
  0
ENDSEC
  0
SECTION
  2
CLASSES
  0
CLASS
  1
ACDBDICTIONARYWDFLT
  2
AcDbDictionaryWithDefault
  3
AutoCAD 2000
 90
0
 91
1
280
0
281
0
  0
CLASS
  1
ACDBPLACEHOLDER
  2
AcDbPlaceHolder
  3
AutoCAD 2000
 90
0
 91
1
280
0
281
0
  0
CLASS
  1
LAYOUT
  2
AcDbLayout
  3
AutoCAD 2000
 90
0
 91
0
280
0
281
0
  0
ENDSEC
  0
SECTION
  2
TABLES
  0
TABLE
  2
VPORT
  5
8
100
AcDbSymbolTable
 70
2
  0
VPORT
  5
1F4
100
AcDbSymbolTableRecord
100
AcDbViewportTableRecord
  2
*ACTIVE
 70
0
 10
0.0
 20
0.0
 11
1.0
 21
1.0
 12
339.3215735063
 22
479.8976539589
 13
0.0
 23
0.0
 14
1.0
 24
1.0
 15
0.0
 25
0.0
 16
0.0
 26
0.0
 36
1.0
 17
0.0
 27
0.0
 37
0.0
 40
959.7953079179
 41
0.7070707071
 42
50.0
 43
0.0
 44
0.0
 50
0.0
 51
0.0
 71
0
 72
100
 73
1
 74
1
 75
0
 76
0
 77
0
 78
0
  0
ENDTAB
  0
TABLE
  2
LTYPE
  5
5
100
AcDbSymbolTable
 70
6
  0
LTYPE
  5
14
100
AcDbSymbolTableRecord
100
AcDbLinetypeTableRecord
  2
BYBLOCK
 70
0
  3

 72
65
 73
0
 40
0.0
  0
LTYPE
  5
15
100
AcDbSymbolTableRecord
100
AcDbLinetypeTableRecord
  2
BYLAYER
 70
0
  3

 72
65
 73
0
 40
0.0
  0
LTYPE
  5
16
100
AcDbSymbolTableRecord
100
AcDbLinetypeTableRecord
  2
CONTINUOUS
 70
64
  3
Solid line
 72
65
 73
0
 40
0.0
  0
LTYPE
  5
1F5
100
AcDbSymbolTableRecord
100
AcDbLinetypeTableRecord
  2
CENTER
 70
64
  3
____ _ ____ _ ____ _ ____ _ ____ _ ____ _ ____
 72
65
 73
4
 40
0.6
 49
0.375
 74
0
 49
-0.075
 74
0
 49
0.075
 74
0
 49
-0.075
 74
0
  0
LTYPE
  5
1F6
100
AcDbSymbolTableRecord
100
AcDbLinetypeTableRecord
  2
HIDDEN
 70
64
  3
- - - - - - - - - - - - - - - - - - - -
 72
65
 73
2
 40
0.2
 49
0.1
 74
0
 49
-0.1
 74
0
  0
LTYPE
  5
1F7
100
AcDbSymbolTableRecord
100
AcDbLinetypeTableRecord
  2
PHANTOM
 70
64
  3
_____ _ _ _____ _ _ _____ _ _ _____
 72
65
 73
6
 40
0.8
 49
0.45
 74
0
 49
-0.05
 74
0
 49
0.1
 74
0
 49
-0.05
 74
0
 49
0.1
 74
0
 49
-0.05
 74
0
  0
LTYPE
  5
1F8
100
AcDbSymbolTableRecord
100
AcDbLinetypeTableRecord
  2
DOT
 70
64
  3
. . . . . . . . . . . . . . . . . . . .
 72
65
 73
2
 40
0.2
 49
0.1
 74
0
 49
-0.1
 74
0
  0
LTYPE
  5
1F9
100
AcDbSymbolTableRecord
100
AcDbLinetypeTableRecord
  2
DASHED
 70
64
  3
- - - - - - - - - - - - - - - - - - - -
 72
65
 73
2
 40
0.2
 49
0.1
 74
0
 49
-0.1
 74
0
  0
ENDTAB
  0
TABLE
  2
LAYER
  5
2
100
AcDbSymbolTable
 70
36
  0
LAYER
  5
10
100
AcDbSymbolTableRecord
100
AcDbLayerTableRecord
  2
0
 70
0
 62
7
  6
CONTINUOUS
370
-3
390
F
  0
LAYER
  5
1FA
100
AcDbSymbolTableRecord
100
AcDbLayerTableRecord
  2
DEFAULT_1
 70
0
 62
7
  6
CENTER
370
-3
390
F
  0
LAYER
  5
1FB
100
AcDbSymbolTableRecord
100
AcDbLayerTableRecord
  2
DEFAULT_2
 70
0
 62
8
  6
HIDDEN
370
-3
390
F
  0
LAYER
  5
1FC
100
AcDbSymbolTableRecord
100
AcDbLayerTableRecord
  2
DEFAULT_3
 70
0
 62
7
  6
PHANTOM
370
-3
390
F
  0
LAYER
  5
1FD
100
AcDbSymbolTableRecord
100
AcDbLayerTableRecord
  2
00_COMPONENTS
 70
0
 62
7
  6
CONTINUOUS
370
-3
390
F
  0
LAYER
  5
1FE
100
AcDbSymbolTableRecord
100
AcDbLayerTableRecord
  2
01_1_DEFAULT_DATUMS
 70
0
 62
7
  6
CONTINUOUS
370
-3
390
F
  0
LAYER
  5
1FF
100
AcDbSymbolTableRecord
100
AcDbLayerTableRecord
  2
01_PLANES
 70
0
 62
7
  6
CONTINUOUS
370
-3
390
F
  0
LAYER
  5
200
100
AcDbSymbolTableRecord
100
AcDbLayerTableRecord
  2
02_COORD_SYS
 70
0
 62
7
  6
CONTINUOUS
370
-3
390
F
  0
LAYER
  5
201
100
AcDbSymbolTableRecord
100
AcDbLayerTableRecord
  2
03_AXES
 70
0
 62
7
  6
CONTINUOUS
370
-3
390
F
  0
LAYER
  5
202
100
AcDbSymbolTableRecord
100
AcDbLayerTableRecord
  2
04_POINTS
 70
0
 62
7
  6
CONTINUOUS
370
-3
390
F
  0
LAYER
  5
203
100
AcDbSymbolTableRecord
100
AcDbLayerTableRecord
  2
05_CURVES
 70
0
 62
7
  6
CONTINUOUS
370
-3
390
F
  0
LAYER
  5
204
100
AcDbSymbolTableRecord
100
AcDbLayerTableRecord
  2
06_SURFS
 70
0
 62
7
  6
CONTINUOUS
370
-3
390
F
  0
LAYER
  5
205
100
AcDbSymbolTableRecord
100
AcDbLayerTableRecord
  2
07_COSMETICS
 70
0
 62
7
  6
CONTINUOUS
370
-3
390
F
  0
LAYER
  5
206
100
AcDbSymbolTableRecord
100
AcDbLayerTableRecord
  2
10_NOTES
 70
0
 62
7
  6
CONTINUOUS
370
-3
390
F
  0
LAYER
  5
207
100
AcDbSymbolTableRecord
100
AcDbLayerTableRecord
  2
11_NOTES_PUB
 70
0
 62
7
  6
CONTINUOUS
370
-3
390
F
  0
LAYER
  5
208
100
AcDbSymbolTableRecord
100
AcDbLayerTableRecord
  2
13_REF_GTOL
 70
0
 62
7
  6
CONTINUOUS
370
-3
390
F
  0
LAYER
  5
209
100
AcDbSymbolTableRecord
100
AcDbLayerTableRecord
  2
16_MISC
 70
0
 62
7
  6
CONTINUOUS
370
-3
390
F
  0
LAYER
  5
20A
100
AcDbSymbolTableRecord
100
AcDbLayerTableRecord
  2
17_NO_PRINT
 70
0
 62
7
  6
CONTINUOUS
370
-3
390
F
  0
LAYER
  5
20B
100
AcDbSymbolTableRecord
100
AcDbLayerTableRecord
  2
18_DATUM_CAMS_JOINTS
 70
0
 62
7
  6
CONTINUOUS
370
-3
390
F
  0
LAYER
  5
20C
100
AcDbSymbolTableRecord
100
AcDbLayerTableRecord
  2
19_DATUM_FUNCTIONAL
 70
0
 62
7
  6
CONTINUOUS
370
-3
390
F
  0
LAYER
  5
20D
100
AcDbSymbolTableRecord
100
AcDbLayerTableRecord
  2
20_DATUM_KINEMATIC_SCHEME
 70
0
 62
7
  6
CONTINUOUS
370
-3
390
F
  0
ENDTAB
  0
TABLE
  2
STYLE
  5
3
100
AcDbSymbolTable
 70
1
  0
STYLE
  5
11
100
AcDbSymbolTableRecord
100
AcDbTextStyleTableRecord
  2
STANDARD
 70
0
 40
0.0
 41
0.8
 50
0.0
 71
0
 42
0.2
  3
txt
  4

  0
STYLE
  5
20E
100
AcDbSymbolTableRecord
100
AcDbTextStyleTableRecord
  2
TEXTSTYLE_1
 70
0
 40
0.0
 41
0.8
 50
0.0
 71
0
 42
0.2
  3
gdt
  4

  0
ENDTAB
  0
TABLE
  2
VIEW
  5
6
100
AcDbSymbolTable
 70
0
  0
ENDTAB
  0
TABLE
  2
UCS
  5
7
100
AcDbSymbolTable
 70
0
  0
ENDTAB
  0
TABLE
  2
APPID
  5
9
100
AcDbSymbolTable
 70
1
  0
APPID
  5
20F
100
AcDbSymbolTableRecord
100
AcDbRegAppTableRecord
  2
ACAD
 70
0
  0
ENDTAB
  0
TABLE
  2
BLOCK_RECORD
  5
1
100
AcDbSymbolTable
 70
0
  0
BLOCK_RECORD
  5
210
100
AcDbSymbolTableRecord
100
AcDbBlockTableRecord
  2
*Model_Space
  0
BLOCK_RECORD
  5
211
100
AcDbSymbolTableRecord
100
AcDbBlockTableRecord
  2
*Paper_Space
  0
BLOCK_RECORD
  5
212
100
AcDbSymbolTableRecord
100
AcDbBlockTableRecord
  2
_FILLED
  0
ENDTAB
  0
TABLE
  2
DIMSTYLE
  5
A
100
AcDbSymbolTable
 70
1
100
AcDbDimStyleTable
 71
0
  0
DIMSTYLE
105
213
100
AcDbSymbolTableRecord
100
AcDbDimStyleTableRecord
  2
STANDARD
 70
0
  3

  4

 40
1.0
 41
8.0790850835
 42
1.0
 43
0.38
 44
1.0
 45
0.0
 46
0.0
 47
0.01
 48
0.01
140
11.3107191169
141
0.09
142
0.0
143
25.4
144
1.0
145
0.0
146
1.0
147
0.625
 71
1
 72
0
 73
0
 74
0
 75
0
 76
0
 77
1
 78
8
 79
2
170
0
171
1
172
0
173
0
174
0
175
0
176
0
177
0
178
0
270
2
179
2
271
2
272
2
273
2
274
2
275
0
280
0
281
0
282
0
283
1
284
8
285
0
286
0
287
3
288
0
340
11
278
46
341
212
342
212
343
212
344
212
  0
ENDTAB
  0
ENDSEC
  0
SECTION
  2
BLOCKS
  0
BLOCK
  5
20
100
AcDbEntity
  8
0
100
AcDbBlockBegin
  2
*Model_Space
 70
0
 10
0.0
 20
0.0
 30
0.0
  3
*Model_Space
  1

  0
ENDBLK
  5
21
100
AcDbEntity
  8
0
100
AcDbBlockEnd
  0
BLOCK
  5
1C
100
AcDbEntity
  8
0
100
AcDbBlockBegin
  2
*Paper_Space
 70
0
 10
0.0
 20
0.0
 30
0.0
  3
*Paper_Space
  1

  0
ENDBLK
  5
1D
100
AcDbEntity
  8
0
100
AcDbBlockEnd
  0
BLOCK
  5
214
100
AcDbEntity
  8
0
100
AcDbBlockBegin
  2
_FILLED
 70
64
 10
0.0
 20
0.0
  3
_FILLED
  1

  0
SOLID
  5
215
100
AcDbEntity
  8
0
  6
BYBLOCK
 62
0
100
AcDbTrace
 10
0.0
 20
0.0
 11
-1.0
 21
0.25
 12
-1.0
 22
-0.25
 13
-1.0
 23
-0.25
  0
ENDBLK
  5
216
100
AcDbEntity
  8
0
  6
BYBLOCK
 62
0
100
AcDbBlockEnd
  0
ENDSEC
  0
SECTION
  2
ENTITIES
  0
LINE
  5
217
100
AcDbEntity
  8
0
100
AcDbLine
 62
7
  6
CONTINUOUS
 10
527.6609601773
 20
80.0012887142
 11
527.6667439321
 21
80.0025037106
  0
LINE
  5
218
100
AcDbEntity
  8
0
100
AcDbLine
 62
7
  6
CONTINUOUS
 10
484.1609601773
 20
80.0012887142
 11
484.1667439321
 21
80.0025037106
  0
LINE
  5
219
100
AcDbEntity
  8
0
100
AcDbLine
 62
7
  6
CONTINUOUS
 10
527.6599855555
 20
79.9979480539
 11
527.6657646802
 21
79.9991358822
  0
LINE
  5
21A
100
AcDbEntity
  8
0
100
AcDbLine
 62
7
  6
CONTINUOUS
 10
484.1599855555
 20
79.9979480539
 11
484.1657646802
 21
79.9991358822
  0
LINE
  5
21B
100
AcDbEntity
  8
0
100
AcDbLine
 62
7
  6
CONTINUOUS
 10
527.6623752581
 20
79.9935571194
 11
527.6667393657
 21
79.9944381953
  0
LINE
  5
21C
100
AcDbEntity
  8
0
100
AcDbLine
 62
7
  6
CONTINUOUS
 10
484.1623752581
 20
79.9935571194
 11
484.1667393657
 21
79.9944381953
  0
LINE
  5
21D
100
AcDbEntity
  8
0
100
AcDbLine
 62
7
  6
CONTINUOUS
 10
527.6626082419
 20
79.9943476099
 11
527.6669660075
 21
79.995209104
  0
LINE
  5
21E
100
AcDbEntity
  8
0
100
AcDbLine
 62
7
  6
CONTINUOUS
 10
484.1626082419
 20
79.9943476099
 11
484.1669660075
 21
79.995209104
  0
LWPOLYLINE
  5
21F
100
AcDbEntity
  8
0
100
AcDbPolyline
 62
7
  6
CONTINUOUS
 90
3
 70
0
 10
529.3908762129
 20
80.3316130965
 10
529.4206842492
 20
80.3346855864
 10
529.4517253539
 20
80.3428782738
  0
LINE
  5
220
100
AcDbEntity
  8
0
100
AcDbLine
 62
7
  6
CONTINUOUS
 10
148.8351914318
 20
83.497653959
 11
146.3777352989
 21
83.8167445041
  0
LINE
  5
221
100
AcDbEntity
  8
0
100
AcDbLine
 62
7
  6
CONTINUOUS
 10
365.9206841679
 20
80.3346855718
 11
365.9517253539
 21
80.3428782738
  0
LINE
  5
222
100
AcDbEntity
  8
0
100
AcDbLine
 62
7
  6
CONTINUOUS
 10
364.1609601773
 20
80.0012887142
 11
364.1667439321
 21
80.0025037106
  0
LINE
  5
223
100
AcDbEntity
  8
0
100
AcDbLine
 62
7
  6
CONTINUOUS
 10
320.6609601773
 20
80.0012887142
 11
320.6667439321
 21
80.0025037106
  0
LINE
  5
224
100
AcDbEntity
  8
0
100
AcDbLine
 62
7
  6
CONTINUOUS
 10
364.1599855555
 20
79.9979480539
 11
364.1657646802
 21
79.9991358822
  0
LINE
  5
225
100
AcDbEntity
  8
0
100
AcDbLine
 62
7
  6
CONTINUOUS
 10
320.6599855555
 20
79.9979480539
 11
320.6657646802
 21
79.9991358822
  0
LINE
  5
226
100
AcDbEntity
  8
0
100
AcDbLine
 62
7
  6
CONTINUOUS
 10
364.1623752581
 20
79.9935571194
 11
364.1667393657
 21
79.9944381953
  0
LINE
  5
227
100
AcDbEntity
  8
0
100
AcDbLine
 62
7
  6
CONTINUOUS
 10
320.6623752581
 20
79.9935571194
 11
320.6667393657
 21
79.9944381953
  0
LINE
  5
228
100
AcDbEntity
  8
0
100
AcDbLine
 62
7
  6
CONTINUOUS
 10
364.1626082419
 20
79.9943476099
 11
364.1669660075
 21
79.995209104
  0
LINE
  5
229
100
AcDbEntity
  8
0
100
AcDbLine
 62
7
  6
CONTINUOUS
 10
320.6626082419
 20
79.9943476099
 11
320.6669660075
 21
79.995209104
  0
LWPOLYLINE
  5
22A
100
AcDbEntity
  8
0
100
AcDbPolyline
 62
7
  6
CONTINUOUS
 90
3
 70
0
 10
485.8908762129
 20
80.3316130965
 10
485.920684249
 20
80.3346855863
 10
485.9517253539
 20
80.3428782738
  0
LINE
  5
22B
100
AcDbEntity
  8
0
100
AcDbLine
 62
7
  6
CONTINUOUS
 10
365.8908762129
 20
80.3316130965
 11
365.9206842417
 21
80.334685585
  0
LINE
  5
22C
100
AcDbEntity
  8
0
100
AcDbLine
 62
7
  6
CONTINUOUS
 10
322.3908762129
 20
80.3316130965
 11
322.4206842502
 21
80.3346855865
  0
LINE
  5
22D
100
AcDbEntity
  8
0
100
AcDbLine
 62
7
  6
CONTINUOUS
 10
529.3613299792
 20
80.3307677726
 11
529.3908762129
 21
80.3316130965
  0
LINE
  5
22E
100
AcDbEntity
  8
0
100
AcDbLine
 62
7
  6
CONTINUOUS
 10
529.4517336857
 20
80.3428798695
 11
529.3956827304
 21
80.3412732496
  0
LINE
  5
22F
100
AcDbEntity
  8
0
100
AcDbLine
 62
7
  6
CONTINUOUS
 10
529.4517352647
 20
80.342879377
 11
529.3956827304
 21
80.3412732496
  0
LINE
  5
230
100
AcDbEntity
  8
0
100
AcDbLine
 62
7
  6
CONTINUOUS
 10
485.8613299793
 20
80.3307677726
 11
485.8908762129
 21
80.3316130965
  0
LINE
  5
231
100
AcDbEntity
  8
0
100
AcDbLine
 62
7
  6
CONTINUOUS
 10
485.9517336857
 20
80.3428798695
 11
485.8956827304
 21
80.3412732496
  0
LINE
  5
232
100
AcDbEntity
  8
0
100
AcDbLine
 62
7
  6
CONTINUOUS
 10
365.8613300275
 20
80.3307677874
 11
365.8908762129
 21
80.3316130965
  0
LINE
  5
233
100
AcDbEntity
  8
0
100
AcDbLine
 62
7
  6
CONTINUOUS
 10
365.9517336857
 20
80.3428798695
 11
365.8956827304
 21
80.3412732496
  0
LINE
  5
234
100
AcDbEntity
  8
0
100
AcDbLine
 62
7
  6
CONTINUOUS
 10
322.3613300275
 20
80.3307677874
 11
322.3908762129
 21
80.3316130965
  0
LINE
  5
235
100
AcDbEntity
  8
0
100
AcDbLine
 62
7
  6
CONTINUOUS
 10
322.4517352647
 20
80.342879377
 11
322.3956827304
 21
80.3412732496
  0
LINE
  5
236
100
AcDbEntity
  8
0
100
AcDbLine
 62
7
  6
CONTINUOUS
 10
526.3304880432
 20
80.3298854031
 11
526.6674862898
 21
80.331341524
  0
LINE
  5
237
100
AcDbEntity
  8
0
100
AcDbLine
 62
7
  6
CONTINUOUS
 10
482.8304880432
 20
80.3298854031
 11
483.1674862898
 21
80.331341524
  0
LINE
  5
238
100
AcDbEntity
  8
0
100
AcDbLine
 62
7
  6
CONTINUOUS
 10
362.8304880432
 20
80.3298854031
 11
363.1691914839
 21
80.3313433939
  0
LINE
  5
239
100
AcDbEntity
  8
0
100
AcDbLine
 62
7
  6
CONTINUOUS
 10
526.5639561311
 20
80.3309796838
 11
526.8454880428
 21
80.3315367159
  0
LINE
  5
23A
100
AcDbEntity
  8
0
100
AcDbLine
 62
7
  6
CONTINUOUS
 10
483.0639561311
 20
80.3309796838
 11
483.3454880428
 21
80.3315367159
  0
LINE
  5
23B
100
AcDbEntity
  8
0
100
AcDbLine
 62
7
  6
CONTINUOUS
 10
319.3304880432
 20
80.3298854031
 11
319.8454880428
 21
80.3315367159
  0
LINE
  5
23C
100
AcDbEntity
  8
0
100
AcDbLine
 62
7
  6
CONTINUOUS
 10
193.8454880432
 20
80.2976539589
 11
180.8454880432
 21
80.2976539589
  0
LINE
  5
23D
100
AcDbEntity
  8
0
100
AcDbLine
 62
7
  6
CONTINUOUS
 10
175.5454880432
 20
80.4976539589
 11
546.1454880432
 21
80.4976539589
  0
LINE
  5
23E
100
AcDbEntity
  8
0
100
AcDbLine
 62
7
  6
CONTINUOUS
 10
164.2351914318
 20
81.9976539589
 11
148.8351914318
 21
81.9976539589
  0
LINE
  5
23F
100
AcDbEntity
  8
0
100
AcDbLine
 62
7
  6
CONTINUOUS
 10
175.5454880432
 20
81.9976539589
 11
546.1454880432
 21
81.9976539589
  0
LINE
  5
240
100
AcDbEntity
  8
0
100
AcDbLine
 62
7
  6
CONTINUOUS
 10
164.2351914318
 20
83.4976539589
 11
148.8351914318
 21
83.4976539589
  0
LINE
  5
241
100
AcDbEntity
  8
0
100
AcDbLine
 62
7
  6
CONTINUOUS
 10
363.1674862898
 20
80.331341524
 11
363.5218695068
 21
80.33134345
  0
LINE
  5
242
100
AcDbEntity
  8
0
100
AcDbLine
 62
7
  6
CONTINUOUS
 10
483.3454880432
 20
80.3315366943
 11
483.7281986781
 21
80.3306295552
  0
LINE
  5
243
100
AcDbEntity
  8
0
100
AcDbLine
 62
7
  6
CONTINUOUS
 10
526.8454880432
 20
80.3315366943
 11
527.2281986781
 21
80.3306295552
  0
LINE
  5
244
100
AcDbEntity
  8
0
100
AcDbLine
 62
7
  6
CONTINUOUS
 10
319.8454880432
 20
80.3315366943
 11
320.3604880432
 21
80.3298852748
  0
LINE
  5
245
100
AcDbEntity
  8
0
100
AcDbLine
 62
7
  6
CONTINUOUS
 10
363.5206025988
 20
80.3313478335
 11
363.8604880432
 21
80.3298852748
  0
LINE
  5
246
100
AcDbEntity
  8
0
100
AcDbLine
 62
7
  6
CONTINUOUS
 10
483.6276077427
 20
80.3309775978
 11
483.8604880432
 21
80.3298852748
  0
LINE
  5
247
100
AcDbEntity
  8
0
100
AcDbLine
 62
7
  6
CONTINUOUS
 10
527.1276077358
 20
80.3309775978
 11
527.3604880432
 21
80.3298852748
  0
LINE
  5
248
100
AcDbEntity
  8
0
100
AcDbLine
 62
7
  6
CONTINUOUS
 10
317.3000998189
 20
80.3316130995
 11
317.3330752392
 21
80.3306696532
  0
LINE
  5
249
100
AcDbEntity
  8
0
100
AcDbLine
 62
7
  6
CONTINUOUS
 10
317.2952934206
 20
80.3412732273
 11
317.2392407982
 21
80.3428793852
  0
LINE
  5
24A
100
AcDbEntity
  8
0
100
AcDbLine
 62
7
  6
CONTINUOUS
 10
360.8000998189
 20
80.3316130995
 11
360.8330752392
 21
80.3306696532
  0
LINE
  5
24B
100
AcDbEntity
  8
0
100
AcDbLine
 62
7
  6
CONTINUOUS
 10
360.7952934206
 20
80.3412732273
 11
360.7392466706
 21
80.3428783668
  0
LINE
  5
24C
100
AcDbEntity
  8
0
100
AcDbLine
 62
7
  6
CONTINUOUS
 10
480.8000998189
 20
80.3316130995
 11
480.8330751736
 21
80.3306696716
  0
LINE
  5
24D
100
AcDbEntity
  8
0
100
AcDbLine
 62
7
  6
CONTINUOUS
 10
480.7952934206
 20
80.3412732273
 11
480.7392466706
 21
80.3428783668
  0
LINE
  5
24E
100
AcDbEntity
  8
0
100
AcDbLine
 62
7
  6
CONTINUOUS
 10
480.7952934206
 20
80.3412732273
 11
480.7392407982
 21
80.3428793852
  0
LINE
  5
24F
100
AcDbEntity
  8
0
100
AcDbLine
 62
7
  6
CONTINUOUS
 10
524.3000998189
 20
80.3316130995
 11
524.3330751736
 21
80.3306696716
  0
LINE
  5
250
100
AcDbEntity
  8
0
100
AcDbLine
 62
7
  6
CONTINUOUS
 10
524.2952934206
 20
80.3412732273
 11
524.2392466706
 21
80.3428783668
  0
LINE
  5
251
100
AcDbEntity
  8
0
100
AcDbLine
 62
7
  6
CONTINUOUS
 10
524.2952934206
 20
80.3412732273
 11
524.2392407982
 21
80.3428793852
  0
LINE
  5
252
100
AcDbEntity
  8
0
100
AcDbLine
 62
7
  6
CONTINUOUS
 10
319.1928959677
 20
79.9681578163
 11
319.1842198359
 21
79.9688884762
  0
LINE
  5
253
100
AcDbEntity
  8
0
100
AcDbLine
 62
7
  6
CONTINUOUS
 10
362.6928959677
 20
79.9681578163
 11
362.6842198359
 21
79.9688884762
  0
LINE
  5
254
100
AcDbEntity
  8
0
100
AcDbLine
 62
7
  6
CONTINUOUS
 10
482.6928959677
 20
79.9681578163
 11
482.6842198359
 21
79.9688884762
  0
LINE
  5
255
100
AcDbEntity
  8
0
100
AcDbLine
 62
7
  6
CONTINUOUS
 10
317.2702918745
 20
80.3346855769
 11
317.3000998189
 21
80.3316130995
  0
LINE
  5
256
100
AcDbEntity
  8
0
100
AcDbLine
 62
7
  6
CONTINUOUS
 10
360.7702921678
 20
80.3346855242
 11
360.8000998189
 21
80.3316130995
  0
LINE
  5
257
100
AcDbEntity
  8
0
100
AcDbLine
 62
7
  6
CONTINUOUS
 10
319.0275360008
 20
79.9945120585
 11
319.0239887491
 21
79.9952133207
  0
LINE
  5
258
100
AcDbEntity
  8
0
100
AcDbLine
 62
7
  6
CONTINUOUS
 10
362.5275360008
 20
79.9945120585
 11
362.5239887491
 21
79.9952133207
  0
LINE
  5
259
100
AcDbEntity
  8
0
100
AcDbLine
 62
7
  6
CONTINUOUS
 10
319.0277678635
 20
79.9937249946
 11
319.0242153571
 21
79.9944425178
  0
LINE
  5
25A
100
AcDbEntity
  8
0
100
AcDbLine
 62
7
  6
CONTINUOUS
 10
362.5277678635
 20
79.9937249946
 11
362.5242153571
 21
79.9944425178
  0
LINE
  5
25B
100
AcDbEntity
  8
0
100
AcDbLine
 62
7
  6
CONTINUOUS
 10
317.2392507023
 20
80.3428782767
 11
317.2702921859
 21
80.334685521
  0
LINE
  5
25C
100
AcDbEntity
  8
0
100
AcDbLine
 62
7
  6
CONTINUOUS
 10
322.4206841812
 20
80.3346855742
 11
322.4517253539
 21
80.3428782738
  0
LINE
  5
25D
100
AcDbEntity
  8
0
100
AcDbLine
 62
7
  6
CONTINUOUS
 10
549.5454880432
 20
95.9976539589
 11
549.3454880432
 21
95.9976539589
  0
LINE
  5
25E
100
AcDbEntity
  8
0
100
AcDbLine
 62
7
  6
CONTINUOUS
 10
549.5454880432
 20
108.9976539589
 11
549.3454880432
 21
108.9976539589
  0
LINE
  5
25F
100
AcDbEntity
  8
0
100
AcDbLine
 62
7
  6
CONTINUOUS
 10
526.1928959677
 20
79.9681578163
 11
526.1842198359
 21
79.9688884762
  0
LINE
  5
260
100
AcDbEntity
  8
0
100
AcDbLine
 62
7
  6
CONTINUOUS
 10
480.7702918298
 20
80.3346855849
 11
480.8000998189
 21
80.3316130995
  0
LINE
  5
261
100
AcDbEntity
  8
0
100
AcDbLine
 62
7
  6
CONTINUOUS
 10
524.2702918664
 20
80.3346855783
 11
524.3000998189
 21
80.3316130995
  0
LINE
  5
262
100
AcDbEntity
  8
0
100
AcDbLine
 62
7
  6
CONTINUOUS
 10
170.6403346538
 20
132.1565439667
 11
170.1454879384
 21
132.2201783081
  0
LINE
  5
263
100
AcDbEntity
  8
0
100
AcDbLine
 62
7
  6
CONTINUOUS
 10
170.8454880432
 20
131.9467108564
 11
170.3172037719
 21
132.022180038
  0
LINE
  5
264
100
AcDbEntity
  8
0
100
AcDbLine
 62
7
  6
CONTINUOUS
 10
170.6403346539
 20
132.1565468011
 11
170.8454880432
 21
132.127239174
  0
LINE
  5
265
100
AcDbEntity
  8
0
100
AcDbLine
 62
7
  6
CONTINUOUS
 10
482.5275360008
 20
79.9945120585
 11
482.5239887491
 21
79.9952133207
  0
LINE
  5
266
100
AcDbEntity
  8
0
100
AcDbLine
 62
7
  6
CONTINUOUS
 10
526.0275360008
 20
79.9945120585
 11
526.0239887491
 21
79.9952133207
  0
LINE
  5
267
100
AcDbEntity
  8
0
100
AcDbLine
 62
7
  6
CONTINUOUS
 10
482.5277678635
 20
79.9937249946
 11
482.5242153571
 21
79.9944425178
  0
LINE
  5
268
100
AcDbEntity
  8
0
100
AcDbLine
 62
7
  6
CONTINUOUS
 10
526.0277678635
 20
79.9937249946
 11
526.0242153571
 21
79.9944425178
  0
LINE
  5
269
100
AcDbEntity
  8
0
100
AcDbLine
 62
7
  6
CONTINUOUS
 10
360.7392507023
 20
80.3428782767
 11
360.7702921678
 21
80.3346855242
  0
LINE
  5
26A
100
AcDbEntity
  8
0
100
AcDbLine
 62
7
  6
CONTINUOUS
 10
169.9638700524
 20
100.0347143176
 11
165.8351914318
 21
99.232180491
  0
LINE
  5
26B
100
AcDbEntity
  8
0
100
AcDbLine
 62
7
  6
CONTINUOUS
 10
165.8351914318
 20
100.7046212662
 11
169.9638700524
 21
101.5071550928
  0
LINE
  5
26C
100
AcDbEntity
  8
0
100
AcDbLine
 62
7
  6
CONTINUOUS
 10
165.8351914318
 20
124.4976539589
 11
172.3454880432
 21
124.4976539589
  0
LINE
  5
26D
100
AcDbEntity
  8
0
100
AcDbLine
 62
7
  6
CONTINUOUS
 10
172.3454880432
 20
126.4976539589
 11
171.8454880432
 21
126.4976539589
  0
LINE
  5
26E
100
AcDbEntity
  8
0
100
AcDbLine
 62
7
  6
CONTINUOUS
 10
170.1454880432
 20
159.5936336258
 11
170.6403346538
 21
159.5370814044
  0
LINE
  5
26F
100
AcDbEntity
  8
0
100
AcDbLine
 62
7
  6
CONTINUOUS
 10
170.8454882125
 20
159.1467108322
 11
170.4889195007
 21
159.1976492196
  0
LINE
  5
270
100
AcDbEntity
  8
0
100
AcDbLine
 62
7
  6
CONTINUOUS
 10
170.6403344081
 20
159.5370842224
 11
170.8454880432
 21
159.5077674917
  0
LINE
  5
271
100
AcDbEntity
  8
0
100
AcDbLine
 62
7
  6
CONTINUOUS
 10
480.7392507023
 20
80.3428782767
 11
480.7702918564
 21
80.3346855801
  0
LINE
  5
272
100
AcDbEntity
  8
0
100
AcDbLine
 62
7
  6
CONTINUOUS
 10
524.2392507023
 20
80.3428782767
 11
524.2702918664
 21
80.3346855783
  0
LINE
  5
273
100
AcDbEntity
  8
0
100
AcDbLine
 62
7
  6
CONTINUOUS
 10
170.8454880432
 20
139.6680687439
 11
170.6403346539
 21
139.6387611168
  0
LINE
  5
274
100
AcDbEntity
  8
0
100
AcDbLine
 62
7
  6
CONTINUOUS
 10
170.3172037719
 20
139.7731278799
 11
170.8454880432
 21
139.8485970615
  0
LINE
  5
275
100
AcDbEntity
  8
0
100
AcDbLine
 62
7
  6
CONTINUOUS
 10
170.6403346538
 20
139.6387637103
 11
170.1454879385
 21
139.5751294442
  0
LINE
  5
276
100
AcDbEntity
  8
0
100
AcDbLine
 62
7
  6
CONTINUOUS
 10
171.8454880432
 20
172.4976539589
 11
172.3454880432
 21
172.4976539589
  0
LINE
  5
277
100
AcDbEntity
  8
0
100
AcDbLine
 62
7
  6
CONTINUOUS
 10
165.8351914318
 20
174.4976539589
 11
172.3454880432
 21
174.4976539589
  0
LINE
  5
278
100
AcDbEntity
  8
0
100
AcDbLine
 62
7
  6
CONTINUOUS
 10
170.8454880432
 20
166.6875404262
 11
170.640334408
 21
166.6582236957
  0
LINE
  5
279
100
AcDbEntity
  8
0
100
AcDbLine
 62
7
  6
CONTINUOUS
 10
170.4889195007
 20
166.9976586983
 11
170.8454882124
 21
167.0485970857
  0
LINE
  5
27A
100
AcDbEntity
  8
0
100
AcDbLine
 62
7
  6
CONTINUOUS
 10
170.6403346538
 20
166.6582280935
 11
170.1454880432
 21
166.6016757954
  0
LINE
  5
27B
100
AcDbEntity
  8
0
100
AcDbLine
 62
7
  6
CONTINUOUS
 10
169.9638700524
 20
860.9605936003
 11
169.6776565593
 21
859.4881528251
  0
LINE
  5
27C
100
AcDbEntity
  8
0
100
AcDbLine
 62
7
  6
CONTINUOUS
 10
169.9638700524
 20
100.0347143176
 11
169.6776565593
 21
101.5071550928
  0
LWPOLYLINE
  5
27D
100
AcDbEntity
  8
0
100
AcDbPolyline
 62
7
  6
CONTINUOUS
 90
3
 70
0
 10
140.1763499289
 20
458.7366486909
 10
140.2212256811
 20
458.2658409426
 10
140.2351911206
 20
457.9460870591
  0
LWPOLYLINE
  5
27E
100
AcDbEntity
  8
0
100
AcDbPolyline
 62
7
  6
CONTINUOUS
 90
3
 70
0
 10
139.8456313794
 20
458.9031006495
 10
139.9321930644
 20
457.9106977993
 10
140.0437724124
 20
457.1512326609
  0
LWPOLYLINE
  5
27F
100
AcDbEntity
  8
0
100
AcDbPolyline
 62
7
  6
CONTINUOUS
 90
3
 70
0
 10
139.8456978936
 20
457.473316241
 10
139.8783076617
 20
457.0516582355
 10
140.0287748703
 20
456.0987838882
  0
LINE
  5
280
100
AcDbEntity
  8
0
100
AcDbLine
 62
7
  6
CONTINUOUS
 10
139.845635074
 20
458.903019779
 11
139.8457123347
 21
458.9023938288
  0
LWPOLYLINE
  5
281
100
AcDbEntity
  8
0
100
AcDbPolyline
 62
7
  6
CONTINUOUS
 90
4
 70
0
 10
140.031249377
 20
460.9562911527
 10
140.0742335586
 20
459.9509395768
 10
140.1084448521
 20
459.4622798095
 10
140.1763526956
 20
458.7365616003
  0
LINE
  5
282
100
AcDbEntity
  8
0
100
AcDbLine
 62
7
  6
CONTINUOUS
 10
139.8454358519
 20
458.914299204
 11
139.8456312681
 21
458.9031030889
  0
LINE
  5
283
100
AcDbEntity
  8
0
100
AcDbLine
 62
7
  6
CONTINUOUS
 10
140.2351914316
 20
493.4480496686
 11
140.2351911336
 21
493.4493440134
  0
LINE
  5
284
100
AcDbEntity
  8
0
100
AcDbLine
 62
7
  6
CONTINUOUS
 10
139.8454247297
 20
493.9117089775
 11
139.8454247297
 21
484.1855147212
  0
LINE
  5
285
100
AcDbEntity
  8
0
100
AcDbLine
 62
7
  6
CONTINUOUS
 10
139.8454247297
 20
476.8097931967
 11
139.8454247297
 21
458.9121900029
  0
LINE
  5
286
100
AcDbEntity
  8
0
100
AcDbLine
 62
7
  6
CONTINUOUS
 10
139.8454247297
 20
458.9031006495
 11
139.8454247297
 21
457.4835989404
  0
LINE
  5
287
100
AcDbEntity
  8
0
100
AcDbLine
 62
7
  6
CONTINUOUS
 10
139.8549161064
 20
492.4831552101
 11
139.8549161064
 21
484.0586422127
  0
LINE
  5
288
100
AcDbEntity
  8
0
100
AcDbLine
 62
7
  6
CONTINUOUS
 10
139.8549165123
 20
476.9366690362
 11
139.8549165123
 21
458.9121760443
  0
LINE
  5
289
100
AcDbEntity
  8
0
100
AcDbLine
 62
7
  6
CONTINUOUS
 10
139.854916816
 20
458.7966460015
 11
139.854916816
 21
457.4836017638
  0
LINE
  5
28A
100
AcDbEntity
  8
0
100
AcDbLine
 62
7
  6
CONTINUOUS
 10
139.8549172363
 20
493.9116404352
 11
139.8549172363
 21
492.6416249241
  0
LINE
  5
28B
100
AcDbEntity
  8
0
100
AcDbLine
 62
7
  6
CONTINUOUS
 10
143.6955932669
 20
460.4672345111
 11
143.6955932669
 21
490.9280734068
  0
LINE
  5
28C
100
AcDbEntity
  8
0
100
AcDbLine
 62
7
  6
CONTINUOUS
 10
144.2541242398
 20
500.4972214385
 11
144.2541242398
 21
497.6479895158
  0
LINE
  5
28D
100
AcDbEntity
  8
0
100
AcDbLine
 62
7
  6
CONTINUOUS
 10
144.2541242398
 20
453.7473220534
 11
144.2541242398
 21
450.8980864794
  0
LINE
  5
28E
100
AcDbEntity
  8
0
100
AcDbLine
 62
7
  6
CONTINUOUS
 10
144.9965761479
 20
450.72693905
 11
144.9965761479
 21
453.5957826902
  0
LINE
  5
28F
100
AcDbEntity
  8
0
100
AcDbLine
 62
7
  6
CONTINUOUS
 10
144.9965761479
 20
497.7995253855
 11
144.9965761479
 21
500.6683688679
  0
LINE
  5
290
100
AcDbEntity
  8
0
100
AcDbLine
 62
7
  6
CONTINUOUS
 10
145.8351914318
 20
875.9976539589
 11
145.8351914318
 21
84.9976539589
  0
LINE
  5
291
100
AcDbEntity
  8
0
100
AcDbLine
 62
7
  6
CONTINUOUS
 10
146.3777352989
 20
83.8167445041
 11
146.3777352989
 21
877.1785634137
  0
LINE
  5
292
100
AcDbEntity
  8
0
100
AcDbLine
 62
7
  6
CONTINUOUS
 10
148.8351914318
 20
81.9976539589
 11
148.8351914318
 21
83.4976539589
  0
LINE
  5
293
100
AcDbEntity
  8
0
100
AcDbLine
 62
7
  6
CONTINUOUS
 10
148.8351914318
 20
877.4976539589
 11
148.8351914318
 21
878.9976539589
  0
LINE
  5
294
100
AcDbEntity
  8
0
100
AcDbLine
 62
7
  6
CONTINUOUS
 10
151.9415118327
 20
877.4976539589
 11
151.9415118327
 21
83.4976539589
  0
LINE
  5
295
100
AcDbEntity
  8
0
100
AcDbLine
 62
7
  6
CONTINUOUS
 10
153.1702398991
 20
83.4976539589
 11
153.1702398991
 21
81.9976539589
  0
LINE
  5
296
100
AcDbEntity
  8
0
100
AcDbLine
 62
7
  6
CONTINUOUS
 10
153.1702398991
 20
877.4976539589
 11
153.1702398991
 21
878.9976539589
  0
LINE
  5
297
100
AcDbEntity
  8
0
100
AcDbLine
 62
7
  6
CONTINUOUS
 10
154.3989679655
 20
81.9976539589
 11
154.3989679655
 21
878.9976539589
  0
LINE
  5
298
100
AcDbEntity
  8
0
100
AcDbLine
 62
7
  6
CONTINUOUS
 10
164.2351914318
 20
878.9976539589
 11
164.2351914318
 21
81.9976539589
  0
LINE
  5
299
100
AcDbEntity
  8
0
100
AcDbLine
 62
7
  6
CONTINUOUS
 10
165.8351914318
 20
876.5051930923
 11
165.8351914318
 21
84.4901148256
  0
LINE
  5
29A
100
AcDbEntity
  8
0
100
AcDbLine
 62
7
  6
CONTINUOUS
 10
140.2351911635
 20
457.9460507748
 11
140.2351914316
 21
457.9472775402
  0
LINE
  5
29B
100
AcDbEntity
  8
0
100
AcDbLine
 62
7
  6
CONTINUOUS
 10
140.2351914318
 20
495.4483932152
 11
140.2351913278
 21
495.4480429147
  0
LWPOLYLINE
  5
29C
100
AcDbEntity
  8
0
100
AcDbPolyline
 62
7
  6
CONTINUOUS
 90
3
 70
0
 10
140.0312593808
 20
490.4390071204
 10
139.8679979917
 20
475.7041881814
 10
140.0312592994
 20
460.9562994918
  0
LWPOLYLINE
  5
29D
100
AcDbEntity
  8
0
100
AcDbPolyline
 62
7
  6
CONTINUOUS
 90
3
 70
0
 10
140.2351938135
 20
493.449289636
 10
140.2214615143
 20
493.1326571836
 10
140.1763490322
 20
492.6586564079
  0
LWPOLYLINE
  5
29E
100
AcDbEntity
  8
0
100
AcDbPolyline
 62
7
  6
CONTINUOUS
 90
9
 70
0
 10
140.2351794526
 20
495.447697915
 10
140.2328404254
 20
495.3975213092
 10
140.2100515592
 20
495.2121819435
 10
140.1579097864
 20
494.898916061
 10
140.1207724083
 20
494.6892515513
 10
140.0316114579
 20
494.1701491928
 10
139.9378637409
 20
493.529612395
 10
139.8635338885
 20
492.7909727344
 10
139.846541077
 20
492.4964454464
  0
LINE
  5
29F
100
AcDbEntity
  8
0
100
AcDbLine
 62
7
  6
CONTINUOUS
 10
139.8457079679
 20
493.9222121933
 11
139.8456891874
 21
493.921990667
  0
LWPOLYLINE
  5
2A0
100
AcDbEntity
  8
0
100
AcDbPolyline
 62
7
  6
CONTINUOUS
 90
4
 70
0
 10
140.1763530337
 20
492.6587492829
 10
140.1090695742
 20
491.9409180824
 10
140.0747401984
 20
491.452643917
 10
140.0312493208
 20
490.4390161075
  0
LWPOLYLINE
  5
2A1
100
AcDbEntity
  8
0
100
AcDbPolyline
 62
7
  6
CONTINUOUS
 90
3
 70
0
 10
140.0292510018
 20
495.298767852
 10
139.8790164295
 20
494.3505600982
 10
139.8456950269
 20
493.9219780106
  0
LINE
  5
2A2
100
AcDbEntity
  8
0
100
AcDbLine
 62
7
  6
CONTINUOUS
 10
140.1128787875
 20
495.6586406853
 11
140.0292510018
 21
495.298767852
  0
LINE
  5
2A3
100
AcDbEntity
  8
0
100
AcDbLine
 62
7
  6
CONTINUOUS
 10
140.2270444412
 20
496.0731838621
 11
140.1128787875
 21
495.6586406853
  0
LINE
  5
2A4
100
AcDbEntity
  8
0
100
AcDbLine
 62
7
  6
CONTINUOUS
 10
140.2279239358
 20
496.0730100554
 11
140.2428216848
 21
496.1253170224
  0
LINE
  5
2A5
100
AcDbEntity
  8
0
100
AcDbLine
 62
7
  6
CONTINUOUS
 10
140.228424721
 20
496.0780235518
 11
140.2270444412
 21
496.0731838621
  0
LINE
  5
2A6
100
AcDbEntity
  8
0
100
AcDbLine
 62
7
  6
CONTINUOUS
 10
140.228424721
 20
496.0780235518
 11
140.2462065451
 21
496.1364679146
  0
LINE
  5
2A7
100
AcDbEntity
  8
0
100
AcDbLine
 62
7
  6
CONTINUOUS
 10
140.246233588
 20
455.2587920025
 11
140.2249214953
 21
455.3298407221
  0
LINE
  5
2A8
100
AcDbEntity
  8
0
100
AcDbLine
 62
7
  6
CONTINUOUS
 10
140.1131152429
 20
455.7357968928
 11
140.228031433
 21
455.3185554713
  0
LINE
  5
2A9
100
AcDbEntity
  8
0
100
AcDbLine
 62
7
  6
CONTINUOUS
 10
140.0287748703
 20
456.0987838882
 11
140.1131152429
 21
455.7357968928
  0
LWPOLYLINE
  5
2AA
100
AcDbEntity
  8
0
100
AcDbPolyline
 62
7
  6
CONTINUOUS
 90
4
 70
0
 10
140.0437724124
 20
457.1512326609
 10
140.1957882507
 20
456.2742088742
 10
140.2260752001
 20
456.0652474931
 10
140.235181845
 20
455.9475363042
  0
LINE
  5
2AB
100
AcDbEntity
  8
0
100
AcDbLine
 62
7
  6
CONTINUOUS
 10
169.6546790478
 20
836.4976539589
 11
169.6546790478
 21
786.4976539589
  0
LINE
  5
2AC
100
AcDbEntity
  8
0
100
AcDbLine
 62
7
  6
CONTINUOUS
 10
169.6546790478
 20
561.4976539589
 11
169.6546790478
 21
511.4976539589
  0
LINE
  5
2AD
100
AcDbEntity
  8
0
100
AcDbLine
 62
7
  6
CONTINUOUS
 10
169.6546790478
 20
174.4976539589
 11
169.6546790478
 21
124.4976539589
  0
LINE
  5
2AE
100
AcDbEntity
  8
0
100
AcDbLine
 62
7
  6
CONTINUOUS
 10
169.9638700524
 20
859.4881528251
 11
169.9638700524
 21
836.4976539589
  0
LINE
  5
2AF
100
AcDbEntity
  8
0
100
AcDbLine
 62
7
  6
CONTINUOUS
 10
169.9638700524
 20
786.4976539589
 11
169.9638700524
 21
561.4976539589
  0
LINE
  5
2B0
100
AcDbEntity
  8
0
100
AcDbLine
 62
7
  6
CONTINUOUS
 10
169.9638700524
 20
511.4976539589
 11
169.9638700524
 21
174.4976539589
  0
LINE
  5
2B1
100
AcDbEntity
  8
0
100
AcDbLine
 62
7
  6
CONTINUOUS
 10
169.9638700524
 20
124.4976539589
 11
169.9638700524
 21
101.5071550928
  0
LINE
  5
2B2
100
AcDbEntity
  8
0
100
AcDbLine
 62
7
  6
CONTINUOUS
 10
170.1454880432
 20
828.6016789008
 11
170.1454880432
 21
821.593629017
  0
LINE
  5
2B3
100
AcDbEntity
  8
0
100
AcDbLine
 62
7
  6
CONTINUOUS
 10
170.1454880432
 20
801.5751379812
 11
170.1454880432
 21
794.2201699367
  0
LINE
  5
2B4
100
AcDbEntity
  8
0
100
AcDbLine
 62
7
  6
CONTINUOUS
 10
170.1454880432
 20
553.6016789008
 11
170.1454880432
 21
546.593629017
  0
LINE
  5
2B5
100
AcDbEntity
  8
0
100
AcDbLine
 62
7
  6
CONTINUOUS
 10
170.1454880432
 20
526.5751379812
 11
170.1454880432
 21
519.2201699367
  0
LINE
  5
2B6
100
AcDbEntity
  8
0
100
AcDbLine
 62
7
  6
CONTINUOUS
 10
170.1454880432
 20
166.6016789008
 11
170.1454880432
 21
159.593629017
  0
LINE
  5
2B7
100
AcDbEntity
  8
0
100
AcDbLine
 62
7
  6
CONTINUOUS
 10
170.1454880432
 20
139.5751379812
 11
170.1454880432
 21
132.2201699367
  0
LINE
  5
2B8
100
AcDbEntity
  8
0
100
AcDbLine
 62
7
  6
CONTINUOUS
 10
170.6403346539
 20
132.1565468011
 11
170.6403346539
 21
139.6387611168
  0
LINE
  5
2B9
100
AcDbEntity
  8
0
100
AcDbLine
 62
7
  6
CONTINUOUS
 10
170.6403344081
 20
159.5370842224
 11
170.640334408
 21
166.6582236957
  0
LINE
  5
2BA
100
AcDbEntity
  8
0
100
AcDbLine
 62
7
  6
CONTINUOUS
 10
170.6403346539
 20
519.1565468011
 11
170.6403346539
 21
526.6387611168
  0
LINE
  5
2BB
100
AcDbEntity
  8
0
100
AcDbLine
 62
7
  6
CONTINUOUS
 10
170.6403344081
 20
546.5370842224
 11
170.640334408
 21
553.6582236957
  0
LINE
  5
2BC
100
AcDbEntity
  8
0
100
AcDbLine
 62
7
  6
CONTINUOUS
 10
170.6403346539
 20
794.1565468011
 11
170.6403346539
 21
801.6387611168
  0
LINE
  5
2BD
100
AcDbEntity
  8
0
100
AcDbLine
 62
7
  6
CONTINUOUS
 10
170.6403344081
 20
821.5370842224
 11
170.640334408
 21
828.6582236957
  0
LINE
  5
2BE
100
AcDbEntity
  8
0
100
AcDbLine
 62
7
  6
CONTINUOUS
 10
170.8454880432
 20
124.4976539589
 11
170.8454880432
 21
174.4976539589
  0
LINE
  5
2BF
100
AcDbEntity
  8
0
100
AcDbLine
 62
7
  6
CONTINUOUS
 10
170.8454880432
 20
511.4976539589
 11
170.8454880432
 21
561.4976539589
  0
LINE
  5
2C0
100
AcDbEntity
  8
0
100
AcDbLine
 62
7
  6
CONTINUOUS
 10
170.8454880432
 20
786.4976539589
 11
170.8454880432
 21
836.4976539589
  0
LINE
  5
2C1
100
AcDbEntity
  8
0
100
AcDbLine
 62
7
  6
CONTINUOUS
 10
171.8454880432
 20
126.4976539589
 11
171.8454880432
 21
172.4976539589
  0
LINE
  5
2C2
100
AcDbEntity
  8
0
100
AcDbLine
 62
7
  6
CONTINUOUS
 10
171.8454880432
 20
513.4976539589
 11
171.8454880432
 21
559.4976539589
  0
LINE
  5
2C3
100
AcDbEntity
  8
0
100
AcDbLine
 62
7
  6
CONTINUOUS
 10
171.8454880432
 20
788.4976539589
 11
171.8454880432
 21
834.4976539589
  0
LINE
  5
2C4
100
AcDbEntity
  8
0
100
AcDbLine
 62
7
  6
CONTINUOUS
 10
172.3454880432
 20
877.2976539589
 11
172.3454880432
 21
83.6976539589
  0
LINE
  5
2C5
100
AcDbEntity
  8
0
100
AcDbLine
 62
7
  6
CONTINUOUS
 10
175.5454880432
 20
80.4976539589
 11
175.5454880432
 21
880.4976539589
  0
LINE
  5
2C6
100
AcDbEntity
  8
0
100
AcDbLine
 62
7
  6
CONTINUOUS
 10
180.8454880432
 20
80.2976539589
 11
180.8454880432
 21
80.4976539589
  0
LINE
  5
2C7
100
AcDbEntity
  8
0
100
AcDbLine
 62
7
  6
CONTINUOUS
 10
193.8454880432
 20
80.2976539589
 11
193.8454880432
 21
80.4976539589
  0
LINE
  5
2C8
100
AcDbEntity
  8
0
100
AcDbLine
 62
7
  6
CONTINUOUS
 10
144.9965761479
 20
450.72693905
 11
144.2541298557
 21
450.8980839835
  0
LINE
  5
2C9
100
AcDbEntity
  8
0
100
AcDbLine
 62
7
  6
CONTINUOUS
 10
320.6667439321
 20
80.0025037106
 11
320.6677674417
 21
79.9688840542
  0
LINE
  5
2CA
100
AcDbEntity
  8
0
100
AcDbLine
 62
7
  6
CONTINUOUS
 10
144.9965761479
 20
450.72693905
 11
145.8351914318
 21
450.6976539589
  0
LINE
  5
2CB
100
AcDbEntity
  8
0
100
AcDbLine
 62
7
  6
CONTINUOUS
 10
319.3304880432
 20
79.9735530695
 11
319.3304880432
 21
80.3412746809
  0
LINE
  5
2CC
100
AcDbEntity
  8
0
100
AcDbLine
 62
7
  6
CONTINUOUS
 10
319.8454880428
 20
80.3315367159
 11
319.8454880424
 21
80.3428791253
  0
LINE
  5
2CD
100
AcDbEntity
  8
0
100
AcDbLine
 62
7
  6
CONTINUOUS
 10
320.3604880432
 20
80.3412746203
 11
320.3604880432
 21
79.9735530695
  0
LINE
  5
2CE
100
AcDbEntity
  8
0
100
AcDbLine
 62
7
  6
CONTINUOUS
 10
319.023317815
 20
79.9731748638
 11
319.0231903402
 21
79.9681578163
  0
LINE
  5
2CF
100
AcDbEntity
  8
0
100
AcDbLine
 62
7
  6
CONTINUOUS
 10
319.0239887491
 20
79.9952133207
 11
319.023317815
 21
79.9731748638
  0
LINE
  5
2D0
100
AcDbEntity
  8
0
100
AcDbLine
 62
7
  6
CONTINUOUS
 10
139.854916816
 20
457.4835989404
 11
139.8454247297
 21
457.4835989404
  0
LINE
  5
2D1
100
AcDbEntity
  8
0
100
AcDbLine
 62
7
  6
CONTINUOUS
 10
139.8454247297
 20
458.9121900029
 11
139.8549165123
 21
458.9121900029
  0
LINE
  5
2D2
100
AcDbEntity
  8
0
100
AcDbLine
 62
7
  6
CONTINUOUS
 10
364.1667439321
 20
80.0025037106
 11
364.1677674417
 21
79.9688840542
  0
LINE
  5
2D3
100
AcDbEntity
  8
0
100
AcDbLine
 62
7
  6
CONTINUOUS
 10
362.8304880432
 20
79.9735530695
 11
362.8304880432
 21
80.3412746809
  0
LINE
  5
2D4
100
AcDbEntity
  8
0
100
AcDbLine
 62
7
  6
CONTINUOUS
 10
363.3454880428
 20
80.3315367159
 11
363.3454880424
 21
80.3428791253
  0
LINE
  5
2D5
100
AcDbEntity
  8
0
100
AcDbLine
 62
7
  6
CONTINUOUS
 10
363.8604880432
 20
80.3412746203
 11
363.8604880432
 21
79.9735530695
  0
LINE
  5
2D6
100
AcDbEntity
  8
0
100
AcDbLine
 62
7
  6
CONTINUOUS
 10
362.523317815
 20
79.9731748638
 11
362.5231903402
 21
79.9681578163
  0
LINE
  5
2D7
100
AcDbEntity
  8
0
100
AcDbLine
 62
7
  6
CONTINUOUS
 10
362.5239887491
 20
79.9952133207
 11
362.523317815
 21
79.9731748638
  0
LINE
  5
2D8
100
AcDbEntity
  8
0
100
AcDbLine
 62
7
  6
CONTINUOUS
 10
145.8351914318
 20
500.6976539589
 11
144.9965761479
 21
500.6683688679
  0
LINE
  5
2D9
100
AcDbEntity
  8
0
100
AcDbLine
 62
7
  6
CONTINUOUS
 10
139.8549161065
 20
492.4831179149
 11
139.8454247297
 21
492.4831179149
  0
LINE
  5
2DA
100
AcDbEntity
  8
0
100
AcDbLine
 62
7
  6
CONTINUOUS
 10
139.8454247297
 20
493.9117089775
 11
139.8549172363
 21
493.9117089775
  0
LINE
  5
2DB
100
AcDbEntity
  8
0
100
AcDbLine
 62
7
  6
CONTINUOUS
 10
165.8351914318
 20
511.4976539589
 11
172.3454880432
 21
511.4976539589
  0
LINE
  5
2DC
100
AcDbEntity
  8
0
100
AcDbLine
 62
7
  6
CONTINUOUS
 10
172.3454880432
 20
513.4976539589
 11
171.8454880432
 21
513.4976539589
  0
LINE
  5
2DD
100
AcDbEntity
  8
0
100
AcDbLine
 62
7
  6
CONTINUOUS
 10
170.6403346538
 20
519.1565439667
 11
170.1454879384
 21
519.2201783081
  0
LINE
  5
2DE
100
AcDbEntity
  8
0
100
AcDbLine
 62
7
  6
CONTINUOUS
 10
170.8454880432
 20
518.9467108564
 11
170.3172037719
 21
519.022180038
  0
LINE
  5
2DF
100
AcDbEntity
  8
0
100
AcDbLine
 62
7
  6
CONTINUOUS
 10
170.6403346539
 20
519.1565468011
 11
170.8454880432
 21
519.127239174
  0
LINE
  5
2E0
100
AcDbEntity
  8
0
100
AcDbLine
 62
7
  6
CONTINUOUS
 10
170.1454880432
 20
546.5936336258
 11
170.6403346538
 21
546.5370814044
  0
LINE
  5
2E1
100
AcDbEntity
  8
0
100
AcDbLine
 62
7
  6
CONTINUOUS
 10
170.8454882125
 20
546.1467108322
 11
170.4889195007
 21
546.1976492196
  0
LINE
  5
2E2
100
AcDbEntity
  8
0
100
AcDbLine
 62
7
  6
CONTINUOUS
 10
170.6403344081
 20
546.5370842224
 11
170.8454880432
 21
546.5077674917
  0
LINE
  5
2E3
100
AcDbEntity
  8
0
100
AcDbLine
 62
7
  6
CONTINUOUS
 10
144.9965761479
 20
500.6683688679
 11
144.2541298557
 21
500.4972239344
  0
LINE
  5
2E4
100
AcDbEntity
  8
0
100
AcDbLine
 62
7
  6
CONTINUOUS
 10
170.8454880432
 20
526.6680687439
 11
170.6403346539
 21
526.6387611168
  0
LINE
  5
2E5
100
AcDbEntity
  8
0
100
AcDbLine
 62
7
  6
CONTINUOUS
 10
170.3172037719
 20
526.7731278799
 11
170.8454880432
 21
526.8485970615
  0
LINE
  5
2E6
100
AcDbEntity
  8
0
100
AcDbLine
 62
7
  6
CONTINUOUS
 10
170.6403346538
 20
526.6387637103
 11
170.1454880432
 21
526.5751294943
  0
LINE
  5
2E7
100
AcDbEntity
  8
0
100
AcDbLine
 62
7
  6
CONTINUOUS
 10
170.6403346538
 20
553.6582280935
 11
170.1454880432
 21
553.6016757954
  0
LINE
  5
2E8
100
AcDbEntity
  8
0
100
AcDbLine
 62
7
  6
CONTINUOUS
 10
171.8454880432
 20
559.4976539589
 11
172.3454880432
 21
559.4976539589
  0
LINE
  5
2E9
100
AcDbEntity
  8
0
100
AcDbLine
 62
7
  6
CONTINUOUS
 10
165.8351914318
 20
561.4976539589
 11
172.3454880432
 21
561.4976539589
  0
LINE
  5
2EA
100
AcDbEntity
  8
0
100
AcDbLine
 62
7
  6
CONTINUOUS
 10
170.8454880432
 20
553.6875404262
 11
170.640334408
 21
553.6582236957
  0
LINE
  5
2EB
100
AcDbEntity
  8
0
100
AcDbLine
 62
7
  6
CONTINUOUS
 10
170.4889195007
 20
553.9976586983
 11
170.8454882124
 21
554.0485970857
  0
LINE
  5
2EC
100
AcDbEntity
  8
0
100
AcDbLine
 62
7
  6
CONTINUOUS
 10
484.1667439321
 20
80.0025037106
 11
484.1677674417
 21
79.9688840542
  0
LINE
  5
2ED
100
AcDbEntity
  8
0
100
AcDbLine
 62
7
  6
CONTINUOUS
 10
482.8304880432
 20
79.9735530695
 11
482.8304880432
 21
80.3412746809
  0
LINE
  5
2EE
100
AcDbEntity
  8
0
100
AcDbLine
 62
7
  6
CONTINUOUS
 10
483.3454880428
 20
80.3315367159
 11
483.3454880424
 21
80.3428791253
  0
LINE
  5
2EF
100
AcDbEntity
  8
0
100
AcDbLine
 62
7
  6
CONTINUOUS
 10
483.8604880432
 20
80.3412746203
 11
483.8604880432
 21
79.9735530695
  0
LINE
  5
2F0
100
AcDbEntity
  8
0
100
AcDbLine
 62
7
  6
CONTINUOUS
 10
482.523317815
 20
79.9731748638
 11
482.5231903402
 21
79.9681578163
  0
LINE
  5
2F1
100
AcDbEntity
  8
0
100
AcDbLine
 62
7
  6
CONTINUOUS
 10
482.5239887491
 20
79.9952133207
 11
482.523317815
 21
79.9731748638
  0
LINE
  5
2F2
100
AcDbEntity
  8
0
100
AcDbLine
 62
7
  6
CONTINUOUS
 10
527.6667439321
 20
80.0025037106
 11
527.6677674417
 21
79.9688840542
  0
LINE
  5
2F3
100
AcDbEntity
  8
0
100
AcDbLine
 62
7
  6
CONTINUOUS
 10
526.3304880432
 20
79.9735530695
 11
526.3304880432
 21
80.3412746809
  0
LINE
  5
2F4
100
AcDbEntity
  8
0
100
AcDbLine
 62
7
  6
CONTINUOUS
 10
526.8454880428
 20
80.3315367159
 11
526.8454880424
 21
80.3428791253
  0
LINE
  5
2F5
100
AcDbEntity
  8
0
100
AcDbLine
 62
7
  6
CONTINUOUS
 10
527.3604880432
 20
80.3412746203
 11
527.3604880432
 21
79.9735530695
  0
LINE
  5
2F6
100
AcDbEntity
  8
0
100
AcDbLine
 62
7
  6
CONTINUOUS
 10
546.1454880432
 20
880.4976539589
 11
546.1454880432
 21
80.4976539589
  0
LINE
  5
2F7
100
AcDbEntity
  8
0
100
AcDbLine
 62
7
  6
CONTINUOUS
 10
549.3454880432
 20
83.6976539589
 11
549.3454880432
 21
877.2976539589
  0
LINE
  5
2F8
100
AcDbEntity
  8
0
100
AcDbLine
 62
7
  6
CONTINUOUS
 10
549.5454880432
 20
864.9976539589
 11
549.5454880432
 21
851.9976539589
  0
LINE
  5
2F9
100
AcDbEntity
  8
0
100
AcDbLine
 62
7
  6
CONTINUOUS
 10
549.5454880432
 20
108.9976539589
 11
549.5454880432
 21
95.9976539589
  0
LINE
  5
2FA
100
AcDbEntity
  8
0
100
AcDbLine
 62
7
  6
CONTINUOUS
 10
526.023317815
 20
79.9731748638
 11
526.0231903402
 21
79.9681578163
  0
LINE
  5
2FB
100
AcDbEntity
  8
0
100
AcDbLine
 62
7
  6
CONTINUOUS
 10
526.0239887491
 20
79.9952133207
 11
526.023317815
 21
79.9731748638
  0
LINE
  5
2FC
100
AcDbEntity
  8
0
100
AcDbLine
 62
7
  6
CONTINUOUS
 10
147.0280788127
 20
83.7323000807
 11
146.3777352989
 21
83.2769246499
  0
LINE
  5
2FD
100
AcDbEntity
  8
0
100
AcDbLine
 62
7
  6
CONTINUOUS
 10
147.0280788127
 20
877.2630078372
 11
146.3777352989
 21
877.718383268
  0
LINE
  5
2FE
100
AcDbEntity
  8
0
100
AcDbLine
 62
7
  6
CONTINUOUS
 10
320.5618593768
 20
79.9804705556
 11
320.555508407
 21
79.9731748638
  0
LINE
  5
2FF
100
AcDbEntity
  8
0
100
AcDbLine
 62
7
  6
CONTINUOUS
 10
364.0618593768
 20
79.9804705556
 11
364.055508407
 21
79.9731748638
  0
LINE
  5
300
100
AcDbEntity
  8
0
100
AcDbLine
 62
7
  6
CONTINUOUS
 10
170.6403346538
 20
794.1565439667
 11
170.1454879384
 21
794.2201783081
  0
LINE
  5
301
100
AcDbEntity
  8
0
100
AcDbLine
 62
7
  6
CONTINUOUS
 10
170.8454880432
 20
793.9467108564
 11
170.3172037719
 21
794.022180038
  0
LINE
  5
302
100
AcDbEntity
  8
0
100
AcDbLine
 62
7
  6
CONTINUOUS
 10
170.6403346539
 20
794.1565468011
 11
170.8454880432
 21
794.127239174
  0
LINE
  5
303
100
AcDbEntity
  8
0
100
AcDbLine
 62
7
  6
CONTINUOUS
 10
165.8351914318
 20
786.4976539589
 11
172.3454880432
 21
786.4976539589
  0
LINE
  5
304
100
AcDbEntity
  8
0
100
AcDbLine
 62
7
  6
CONTINUOUS
 10
172.3454880432
 20
788.4976539589
 11
171.8454880432
 21
788.4976539589
  0
LINE
  5
305
100
AcDbEntity
  8
0
100
AcDbLine
 62
7
  6
CONTINUOUS
 10
170.1454880432
 20
821.5936336258
 11
170.6403346538
 21
821.5370814044
  0
LINE
  5
306
100
AcDbEntity
  8
0
100
AcDbLine
 62
7
  6
CONTINUOUS
 10
170.8454882125
 20
821.1467108322
 11
170.4889195007
 21
821.1976492196
  0
LINE
  5
307
100
AcDbEntity
  8
0
100
AcDbLine
 62
7
  6
CONTINUOUS
 10
170.6403344081
 20
821.5370842224
 11
170.8454880432
 21
821.5077674917
  0
LINE
  5
308
100
AcDbEntity
  8
0
100
AcDbLine
 62
7
  6
CONTINUOUS
 10
170.8454880432
 20
801.6680687439
 11
170.6403346539
 21
801.6387611168
  0
LINE
  5
309
100
AcDbEntity
  8
0
100
AcDbLine
 62
7
  6
CONTINUOUS
 10
170.3172037719
 20
801.7731278799
 11
170.8454880432
 21
801.8485970615
  0
LINE
  5
30A
100
AcDbEntity
  8
0
100
AcDbLine
 62
7
  6
CONTINUOUS
 10
170.6403346538
 20
801.6387637103
 11
170.1454880432
 21
801.5751294943
  0
LINE
  5
30B
100
AcDbEntity
  8
0
100
AcDbLine
 62
7
  6
CONTINUOUS
 10
171.8454880432
 20
834.4976539589
 11
172.3454880432
 21
834.4976539589
  0
LINE
  5
30C
100
AcDbEntity
  8
0
100
AcDbLine
 62
7
  6
CONTINUOUS
 10
165.8351914318
 20
836.4976539589
 11
172.3454880432
 21
836.4976539589
  0
LINE
  5
30D
100
AcDbEntity
  8
0
100
AcDbLine
 62
7
  6
CONTINUOUS
 10
169.9638700524
 20
859.4881528251
 11
165.8351914318
 21
860.2906866517
  0
LINE
  5
30E
100
AcDbEntity
  8
0
100
AcDbLine
 62
7
  6
CONTINUOUS
 10
165.8351914318
 20
861.7631274269
 11
169.9638700524
 21
860.9605936003
  0
LINE
  5
30F
100
AcDbEntity
  8
0
100
AcDbLine
 62
7
  6
CONTINUOUS
 10
484.0618593768
 20
79.9804705556
 11
484.055508407
 21
79.9731748638
  0
LINE
  5
310
100
AcDbEntity
  8
0
100
AcDbLine
 62
7
  6
CONTINUOUS
 10
170.8454880432
 20
828.6875404262
 11
170.640334408
 21
828.6582236957
  0
LINE
  5
311
100
AcDbEntity
  8
0
100
AcDbLine
 62
7
  6
CONTINUOUS
 10
170.4889195007
 20
828.9976586983
 11
170.8454882124
 21
829.0485970857
  0
LINE
  5
312
100
AcDbEntity
  8
0
100
AcDbLine
 62
7
  6
CONTINUOUS
 10
170.6403346538
 20
828.6582280935
 11
170.1454880432
 21
828.6016757954
  0
LINE
  5
313
100
AcDbEntity
  8
0
100
AcDbLine
 62
7
  6
CONTINUOUS
 10
549.5454880432
 20
851.9976539589
 11
549.3454880432
 21
851.9976539589
  0
LINE
  5
314
100
AcDbEntity
  8
0
100
AcDbLine
 62
7
  6
CONTINUOUS
 10
549.5454880432
 20
864.9976539589
 11
549.3454880432
 21
864.9976539589
  0
LINE
  5
315
100
AcDbEntity
  8
0
100
AcDbLine
 62
7
  6
CONTINUOUS
 10
527.5618593768
 20
79.9804705556
 11
527.555508407
 21
79.9731748638
  0
LINE
  5
316
100
AcDbEntity
  8
0
100
AcDbLine
 62
7
  6
CONTINUOUS
 10
148.8351914321
 20
877.4976539589
 11
146.3777352989
 21
877.1785634137
  0
LINE
  5
317
100
AcDbEntity
  8
0
100
AcDbLine
 62
7
  6
CONTINUOUS
 10
148.8351914317
 20
877.4976539589
 11
164.2351914318
 21
877.4976539589
  0
LINE
  5
318
100
AcDbEntity
  8
0
100
AcDbLine
 62
7
  6
CONTINUOUS
 10
148.8351914318
 20
878.9976539589
 11
164.2351914318
 21
878.9976539589
  0
LINE
  5
319
100
AcDbEntity
  8
0
100
AcDbLine
 62
7
  6
CONTINUOUS
 10
175.5454880432
 20
878.9976539589
 11
546.1454880432
 21
878.9976539589
  0
LINE
  5
31A
100
AcDbEntity
  8
0
100
AcDbLine
 62
7
  6
CONTINUOUS
 10
175.5454880432
 20
880.4976539589
 11
546.1454880432
 21
880.4976539589
  0
ARC
  5
31B
100
AcDbEntity
  8
0
100
AcDbCircle
 62
7
  6
CONTINUOUS
 10
225.4438027032
 20
157.7705294801
 40
79.0166707963
100
AcDbArc
 50
225.5029059467
 51
225.7892259894
  0
ARC
  5
31C
100
AcDbEntity
  8
0
100
AcDbCircle
 62
7
  6
CONTINUOUS
 10
192.8999715419
 20
124.6161186334
 40
32.5590071632
100
AcDbArc
 50
225.2150983917
 51
225.4607154195
  0
ARC
  5
31D
100
AcDbEntity
  8
0
100
AcDbCircle
 62
7
  6
CONTINUOUS
 10
187.3454880432
 20
100.9226539589
 40
21.625
100
AcDbArc
 50
252.5076754749
 51
287.4923245251
  0
ARC
  5
31E
100
AcDbEntity
  8
0
100
AcDbCircle
 62
7
  6
CONTINUOUS
 10
161.0654982879
 20
92.5941535478
 40
9.6229660799
100
AcDbArc
 50
292.6295431767
 51
294.1191828801
  0
ARC
  5
31F
100
AcDbEntity
  8
0
100
AcDbCircle
 62
7
  6
CONTINUOUS
 10
162.383360785
 20
89.639078545
 40
6.3873523859
100
AcDbArc
 50
294.1617061407
 51
295.3947833514
  0
ARC
  5
320
100
AcDbEntity
  8
0
100
AcDbCircle
 62
7
  6
CONTINUOUS
 10
175.5454880432
 20
83.6976539589
 40
3.2
100
AcDbArc
 50
180.0
 51
270.0
  0
ARC
  5
321
100
AcDbEntity
  8
0
100
AcDbCircle
 62
7
  6
CONTINUOUS
 10
148.8351914318
 20
84.9976539589
 40
3.0
100
AcDbArc
 50
180.0
 51
270.0
  0
ARC
  5
322
100
AcDbEntity
  8
0
100
AcDbCircle
 62
7
  6
CONTINUOUS
 10
170.3454880432
 20
98.0714599507
 40
2.0
100
AcDbArc
 50
0.0
 51
101.0
  0
ARC
  5
323
100
AcDbEntity
  8
0
100
AcDbCircle
 62
7
  6
CONTINUOUS
 10
164.2351914318
 20
83.5976539589
 40
1.6
100
AcDbArc
 50
270.0
 51
20.8818871871
  0
ARC
  5
324
100
AcDbEntity
  8
0
100
AcDbCircle
 62
7
  6
CONTINUOUS
 10
170.5454880432
 20
166.6016789008
 40
0.4
100
AcDbArc
 50
98.1301023541
 51
179.9999999969
  0
ARC
  5
325
100
AcDbEntity
  8
0
100
AcDbCircle
 62
7
  6
CONTINUOUS
 10
170.5454880432
 20
159.5936290171
 40
0.4
100
AcDbArc
 50
180.000000004
 51
261.8698976458
  0
ARC
  5
326
100
AcDbEntity
  8
0
100
AcDbCircle
 62
7
  6
CONTINUOUS
 10
170.3454880432
 20
132.2201699367
 40
0.2
100
AcDbArc
 50
180.0
 51
261.8698976463
  0
ARC
  5
327
100
AcDbEntity
  8
0
100
AcDbCircle
 62
7
  6
CONTINUOUS
 10
170.3454880432
 20
139.5751379811
 40
0.2
100
AcDbArc
 50
98.1301023542
 51
179.9999999997
  0
ARC
  5
328
100
AcDbEntity
  8
0
100
AcDbCircle
 62
7
  6
CONTINUOUS
 10
363.3445858406
 20
-1.9921721888
 40
82.3350510358
100
AcDbArc
 50
89.9993721702
 51
90.3577555984
  0
ARC
  5
329
100
AcDbEntity
  8
0
100
AcDbCircle
 62
7
  6
CONTINUOUS
 10
319.8445858406
 20
-1.99217218
 40
82.335051027
100
AcDbArc
 50
89.9993721702
 51
90.3577555984
  0
ARC
  5
32A
100
AcDbEntity
  8
0
100
AcDbCircle
 62
7
  6
CONTINUOUS
 10
319.8493694715
 20
-1.0777164414
 40
81.420595376
100
AcDbArc
 50
89.6403228299
 51
90.0027313662
  0
ARC
  5
32B
100
AcDbEntity
  8
0
100
AcDbCircle
 62
7
  6
CONTINUOUS
 10
363.3493694715
 20
-1.0777164284
 40
81.420595363
100
AcDbArc
 50
89.6403228299
 51
90.0027313662
  0
ARC
  5
32C
100
AcDbEntity
  8
0
100
AcDbCircle
 62
7
  6
CONTINUOUS
 10
319.6074461038
 20
85.1302365109
 40
5.239105277
100
AcDbArc
 50
279.8833851312
 51
281.5896292503
  0
ARC
  5
32D
100
AcDbEntity
  8
0
100
AcDbCircle
 62
7
  6
CONTINUOUS
 10
320.0629650908
 20
85.1265279243
 40
5.236153093
100
AcDbArc
 50
258.5973976249
 51
259.797169323
  0
ARC
  5
32E
100
AcDbEntity
  8
0
100
AcDbCircle
 62
7
  6
CONTINUOUS
 10
319.6281340747
 20
85.1258702682
 40
5.2354840351
100
AcDbArc
 50
280.2027798984
 51
281.3934058788
  0
ARC
  5
32F
100
AcDbEntity
  8
0
100
AcDbCircle
 62
7
  6
CONTINUOUS
 10
319.107286192
 20
83.9067642501
 40
3.939539219
100
AcDbArc
 50
272.5799537913
 51
273.2479371576
  0
ARC
  5
330
100
AcDbEntity
  8
0
100
AcDbCircle
 62
7
  6
CONTINUOUS
 10
320.5836898944
 20
83.9067642501
 40
3.939539219
100
AcDbArc
 50
266.7520628424
 51
267.4200462087
  0
ARC
  5
331
100
AcDbEntity
  8
0
100
AcDbCircle
 62
7
  6
CONTINUOUS
 10
319.1076186558
 20
83.8994107982
 40
3.9321782554
100
AcDbArc
 50
271.9111198324
 51
272.5799374355
  0
ARC
  5
332
100
AcDbEntity
  8
0
100
AcDbCircle
 62
7
  6
CONTINUOUS
 10
320.5833574305
 20
83.8994107983
 40
3.9321782554
100
AcDbArc
 50
267.4200625645
 51
268.0888801676
  0
ARC
  5
333
100
AcDbEntity
  8
0
100
AcDbCircle
 62
7
  6
CONTINUOUS
 10
319.1078375473
 20
83.8928846837
 40
3.9256484711
100
AcDbArc
 50
271.2415451736
 51
271.9111033495
  0
ARC
  5
334
100
AcDbEntity
  8
0
100
AcDbCircle
 62
7
  6
CONTINUOUS
 10
320.5831385391
 20
83.8928846838
 40
3.9256484711
100
AcDbArc
 50
268.0888966505
 51
268.7584548264
  0
ARC
  5
335
100
AcDbEntity
  8
0
100
AcDbCircle
 62
7
  6
CONTINUOUS
 10
320.583054744
 20
83.8729258843
 40
3.9056872644
100
AcDbArc
 50
271.2430871638
 51
271.9149246955
  0
ARC
  5
336
100
AcDbEntity
  8
0
100
AcDbCircle
 62
7
  6
CONTINUOUS
 10
319.1079213424
 20
83.8729258837
 40
3.9056872639
100
AcDbArc
 50
268.0850753046
 51
268.7569128362
  0
ARC
  5
337
100
AcDbEntity
  8
0
100
AcDbCircle
 62
7
  6
CONTINUOUS
 10
320.5831189662
 20
83.8709705109
 40
3.903730837
100
AcDbArc
 50
271.9149416245
 51
272.5870044794
  0
ARC
  5
338
100
AcDbEntity
  8
0
100
AcDbCircle
 62
7
  6
CONTINUOUS
 10
319.1078571201
 20
83.8709705107
 40
3.9037308368
100
AcDbArc
 50
267.4129955209
 51
268.0850583758
  0
ARC
  5
339
100
AcDbEntity
  8
0
100
AcDbCircle
 62
7
  6
CONTINUOUS
 10
320.583168521
 20
83.869848151
 40
3.9026073843
100
AcDbArc
 50
272.5870214371
 51
273.2592123877
  0
ARC
  5
33A
100
AcDbEntity
  8
0
100
AcDbCircle
 62
7
  6
CONTINUOUS
 10
319.1078075654
 20
83.8698481516
 40
3.9026073848
100
AcDbArc
 50
266.7407876123
 51
267.412978563
  0
ARC
  5
33B
100
AcDbEntity
  8
0
100
AcDbCircle
 62
7
  6
CONTINUOUS
 10
320.0501430745
 20
82.9620388093
 40
3.0562125657
100
AcDbArc
 50
281.6590954441
 51
284.1908795641
  0
ARC
  5
33C
100
AcDbEntity
  8
0
100
AcDbCircle
 62
7
  6
CONTINUOUS
 10
319.8454880432
 20
87.7484352089
 40
7.8338714079
100
AcDbArc
 50
277.035724314
 51
288.9979892965
  0
ARC
  5
33D
100
AcDbEntity
  8
0
100
AcDbCircle
 62
7
  6
CONTINUOUS
 10
319.8454880432
 20
87.7484352089
 40
7.8338714079
100
AcDbArc
 50
251.0020095898
 51
262.964275686
  0
ARC
  5
33E
100
AcDbEntity
  8
0
100
AcDbCircle
 62
7
  6
CONTINUOUS
 10
319.8458777994
 20
87.7737880895
 40
7.832895329
100
AcDbArc
 50
264.7963671124
 51
265.1543539026
  0
ARC
  5
33F
100
AcDbEntity
  8
0
100
AcDbCircle
 62
7
  6
CONTINUOUS
 10
319.8450983679
 20
87.7737871613
 40
7.8328943973
100
AcDbArc
 50
274.8452631519
 51
275.2036329137
  0
ARC
  5
340
100
AcDbEntity
  8
0
100
AcDbCircle
 62
7
  6
CONTINUOUS
 10
320.1397521179
 20
85.4963834199
 40
5.6138913381
100
AcDbArc
 50
254.0857846258
 51
258.5384622195
  0
ARC
  5
341
100
AcDbEntity
  8
0
100
AcDbCircle
 62
7
  6
CONTINUOUS
 10
363.1074461038
 20
85.130236511
 40
5.2391052771
100
AcDbArc
 50
279.8833851312
 51
281.5896292503
  0
ARC
  5
342
100
AcDbEntity
  8
0
100
AcDbCircle
 62
7
  6
CONTINUOUS
 10
363.5629650907
 20
85.1265279241
 40
5.2361530928
100
AcDbArc
 50
258.5973976249
 51
259.797169323
  0
ARC
  5
343
100
AcDbEntity
  8
0
100
AcDbCircle
 62
7
  6
CONTINUOUS
 10
363.1281340748
 20
85.1258702678
 40
5.2354840347
100
AcDbArc
 50
280.2027798984
 51
281.3934058789
  0
ARC
  5
344
100
AcDbEntity
  8
0
100
AcDbCircle
 62
7
  6
CONTINUOUS
 10
362.6072861919
 20
83.9067642503
 40
3.9395392192
100
AcDbArc
 50
272.5799537913
 51
273.2479371575
  0
ARC
  5
345
100
AcDbEntity
  8
0
100
AcDbCircle
 62
7
  6
CONTINUOUS
 10
364.0836898944
 20
83.9067642503
 40
3.9395392192
100
AcDbArc
 50
266.7520628425
 51
267.4200462087
  0
ARC
  5
346
100
AcDbEntity
  8
0
100
AcDbCircle
 62
7
  6
CONTINUOUS
 10
362.6076186558
 20
83.8994107994
 40
3.9321782565
100
AcDbArc
 50
271.9111198325
 51
272.5799374354
  0
ARC
  5
347
100
AcDbEntity
  8
0
100
AcDbCircle
 62
7
  6
CONTINUOUS
 10
364.0833574305
 20
83.8994107983
 40
3.9321782554
100
AcDbArc
 50
267.4200625645
 51
268.0888801676
  0
ARC
  5
348
100
AcDbEntity
  8
0
100
AcDbCircle
 62
7
  6
CONTINUOUS
 10
362.6078375473
 20
83.8928846836
 40
3.925648471
100
AcDbArc
 50
271.2415451736
 51
271.9111033495
  0
ARC
  5
349
100
AcDbEntity
  8
0
100
AcDbCircle
 62
7
  6
CONTINUOUS
 10
364.0831385391
 20
83.8928846838
 40
3.9256484711
100
AcDbArc
 50
268.0888966505
 51
268.7584548264
  0
ARC
  5
34A
100
AcDbEntity
  8
0
100
AcDbCircle
 62
7
  6
CONTINUOUS
 10
364.083054744
 20
83.8729258843
 40
3.9056872644
100
AcDbArc
 50
271.2430871638
 51
271.9149246955
  0
ARC
  5
34B
100
AcDbEntity
  8
0
100
AcDbCircle
 62
7
  6
CONTINUOUS
 10
362.6079213424
 20
83.8729258835
 40
3.9056872637
100
AcDbArc
 50
268.0850753046
 51
268.7569128362
  0
ARC
  5
34C
100
AcDbEntity
  8
0
100
AcDbCircle
 62
7
  6
CONTINUOUS
 10
364.0831189663
 20
83.8709705109
 40
3.9037308369
100
AcDbArc
 50
271.9149416245
 51
272.5870044794
  0
ARC
  5
34D
100
AcDbEntity
  8
0
100
AcDbCircle
 62
7
  6
CONTINUOUS
 10
362.6078571201
 20
83.870970511
 40
3.9037308371
100
AcDbArc
 50
267.4129955209
 51
268.0850583757
  0
ARC
  5
34E
100
AcDbEntity
  8
0
100
AcDbCircle
 62
7
  6
CONTINUOUS
 10
364.083168521
 20
83.8698481509
 40
3.9026073841
100
AcDbArc
 50
272.5870214371
 51
273.2592123877
  0
ARC
  5
34F
100
AcDbEntity
  8
0
100
AcDbCircle
 62
7
  6
CONTINUOUS
 10
362.6078075654
 20
83.869848152
 40
3.9026073852
100
AcDbArc
 50
266.7407876124
 51
267.412978563
  0
ARC
  5
350
100
AcDbEntity
  8
0
100
AcDbCircle
 62
7
  6
CONTINUOUS
 10
363.5501430745
 20
82.9620388094
 40
3.0562125658
100
AcDbArc
 50
281.6590954441
 51
284.1908795641
  0
ARC
  5
351
100
AcDbEntity
  8
0
100
AcDbCircle
 62
7
  6
CONTINUOUS
 10
363.3454880432
 20
87.7484352089
 40
7.8338714079
100
AcDbArc
 50
277.035724314
 51
288.9979892965
  0
ARC
  5
352
100
AcDbEntity
  8
0
100
AcDbCircle
 62
7
  6
CONTINUOUS
 10
363.3454880432
 20
87.7484352089
 40
7.8338714079
100
AcDbArc
 50
251.0020095898
 51
262.964275686
  0
ARC
  5
353
100
AcDbEntity
  8
0
100
AcDbCircle
 62
7
  6
CONTINUOUS
 10
363.3458777993
 20
87.7737880883
 40
7.8328953278
100
AcDbArc
 50
264.7963671124
 51
265.1543539026
  0
ARC
  5
354
100
AcDbEntity
  8
0
100
AcDbCircle
 62
7
  6
CONTINUOUS
 10
363.345098368
 20
87.7737871608
 40
7.8328943968
100
AcDbArc
 50
274.8452631519
 51
275.2036329137
  0
ARC
  5
355
100
AcDbEntity
  8
0
100
AcDbCircle
 62
7
  6
CONTINUOUS
 10
363.6397521179
 20
85.49638342
 40
5.6138913381
100
AcDbArc
 50
254.0857846258
 51
258.5384622195
  0
ARC
  5
356
100
AcDbEntity
  8
0
100
AcDbCircle
 62
7
  6
CONTINUOUS
 10
159.5706266592
 20
460.4393497655
 40
19.8006532344
100
AcDbArc
 50
188.1777670225
 51
189.148059155
  0
ARC
  5
357
100
AcDbEntity
  8
0
100
AcDbCircle
 62
7
  6
CONTINUOUS
 10
159.5449164047
 20
490.9563623793
 40
19.7751893843
100
AcDbArc
 50
171.0656012535
 51
171.4078976026
  0
ARC
  5
358
100
AcDbEntity
  8
0
100
AcDbCircle
 62
7
  6
CONTINUOUS
 10
156.0198985057
 20
459.9241640268
 40
16.2127488671
100
AcDbArc
 50
186.7994402624
 51
188.1605413588
  0
ARC
  5
359
100
AcDbEntity
  8
0
100
AcDbCircle
 62
7
  6
CONTINUOUS
 10
149.9543415276
 20
458.223444925
 40
10.1506871988
100
AcDbArc
 50
196.409501821
 51
196.6348783087
  0
ARC
  5
35A
100
AcDbEntity
  8
0
100
AcDbCircle
 62
7
  6
CONTINUOUS
 10
149.9475218606
 20
458.2221322367
 40
10.1437745031
100
AcDbArc
 50
194.6766649776
 51
196.4132712086
  0
ARC
  5
35B
100
AcDbEntity
  8
0
100
AcDbCircle
 62
7
  6
CONTINUOUS
 10
149.8660175047
 20
493.1959558903
 40
10.0591573394
100
AcDbArc
 50
163.6196972603
 51
165.2776142871
  0
ARC
  5
35C
100
AcDbEntity
  8
0
100
AcDbCircle
 62
7
  6
CONTINUOUS
 10
149.7300878698
 20
458.1641169768
 40
9.9187362379
100
AcDbArc
 50
193.7055984664
 51
194.6707016467
  0
ARC
  5
35D
100
AcDbEntity
  8
0
100
AcDbCircle
 62
7
  6
CONTINUOUS
 10
149.6652199684
 20
493.2474768959
 40
9.8518590196
100
AcDbArc
 50
165.2706333419
 51
166.6206309292
  0
ARC
  5
35E
100
AcDbEntity
  8
0
100
AcDbCircle
 62
7
  6
CONTINUOUS
 10
149.5934425082
 20
458.1305470655
 40
9.7780279005
100
AcDbArc
 50
193.1536759141
 51
193.7042024951
  0
ARC
  5
35F
100
AcDbEntity
  8
0
100
AcDbCircle
 62
7
  6
CONTINUOUS
 10
149.5184805138
 20
458.1129915322
 40
9.7010376671
100
AcDbArc
 50
192.7195274725
 51
193.1534614768
  0
ARC
  5
360
100
AcDbEntity
  8
0
100
AcDbCircle
 62
7
  6
CONTINUOUS
 10
149.4597506104
 20
493.3199012055
 40
9.6344271157
100
AcDbArc
 50
163.2021622051
 51
163.6292341738
  0
ARC
  5
361
100
AcDbEntity
  8
0
100
AcDbCircle
 62
7
  6
CONTINUOUS
 10
149.4209393697
 20
493.3048588697
 40
9.6009303503
100
AcDbArc
 50
166.6164453836
 51
168.6569868987
  0
ARC
  5
362
100
AcDbEntity
  8
0
100
AcDbCircle
 62
7
  6
CONTINUOUS
 10
149.4187969966
 20
458.0905826513
 40
9.5988664701
100
AcDbArc
 50
191.6944932466
 51
192.7200600722
  0
ARC
  5
363
100
AcDbEntity
  8
0
100
AcDbCircle
 62
7
  6
CONTINUOUS
 10
149.0005099991
 20
493.3867535777
 40
9.1726061852
100
AcDbArc
 50
168.6420210486
 51
171.4701723517
  0
ARC
  5
364
100
AcDbEntity
  8
0
100
AcDbCircle
 62
7
  6
CONTINUOUS
 10
148.9741923569
 20
458.0012858038
 40
9.1453913311
100
AcDbArc
 50
186.3228792131
 51
191.7112525844
  0
ARC
  5
365
100
AcDbEntity
  8
0
100
AcDbCircle
 62
7
  6
CONTINUOUS
 10
148.3089014257
 20
493.4808488224
 40
8.4746963938
100
AcDbArc
 50
171.4057560823
 51
177.0147553652
  0
ARC
  5
366
100
AcDbEntity
  8
0
100
AcDbCircle
 62
7
  6
CONTINUOUS
 10
148.2294074269
 20
457.9098259996
 40
8.3950690022
100
AcDbArc
 50
182.9821828452
 51
186.2622779299
  0
ARC
  5
367
100
AcDbEntity
  8
0
100
AcDbCircle
 62
7
  6
CONTINUOUS
 10
147.2760247651
 20
493.6976539589
 40
7.4408333333
100
AcDbArc
 50
113.9615779875
 51
160.8665539308
  0
ARC
  5
368
100
AcDbEntity
  8
0
100
AcDbCircle
 62
7
  6
CONTINUOUS
 10
147.2760247651
 20
457.6976539589
 40
7.4408333333
100
AcDbArc
 50
199.1332403461
 51
246.0384220125
  0
ARC
  5
369
100
AcDbEntity
  8
0
100
AcDbCircle
 62
7
  6
CONTINUOUS
 10
146.768791744
 20
459.2638022293
 40
6.9325063895
100
AcDbArc
 50
182.9883228451
 51
183.9853216069
  0
ARC
  5
36A
100
AcDbEntity
  8
0
100
AcDbCircle
 62
7
  6
CONTINUOUS
 10
146.4012999736
 20
492.1563708536
 40
6.564209048
100
AcDbArc
 50
176.7429793677
 51
176.9380018614
  0
ARC
  5
36B
100
AcDbEntity
  8
0
100
AcDbCircle
 62
7
  6
CONTINUOUS
 10
139.0747325478
 20
495.5386977022
 40
1.1722029704
100
AcDbArc
 50
355.4081062117
 51
356.6269698207
  0
ARC
  5
36C
100
AcDbEntity
  8
0
100
AcDbCircle
 62
7
  6
CONTINUOUS
 10
140.7042416981
 20
484.1859859929
 40
0.8588193317
100
AcDbArc
 50
180.0314521563
 51
188.5271966373
  0
ARC
  5
36D
100
AcDbEntity
  8
0
100
AcDbCircle
 62
7
  6
CONTINUOUS
 10
140.7042410489
 20
476.8093220091
 40
0.8588186817
100
AcDbArc
 50
171.4726178972
 51
179.9685535
  0
ARC
  5
36E
100
AcDbEntity
  8
0
100
AcDbCircle
 62
7
  6
CONTINUOUS
 10
170.5454880432
 20
553.6016789008
 40
0.4
100
AcDbArc
 50
98.1301023541
 51
179.9999999969
  0
ARC
  5
36F
100
AcDbEntity
  8
0
100
AcDbCircle
 62
7
  6
CONTINUOUS
 10
170.5454880432
 20
546.5936290171
 40
0.4
100
AcDbArc
 50
180.000000004
 51
261.8698976458
  0
ARC
  5
370
100
AcDbEntity
  8
0
100
AcDbCircle
 62
7
  6
CONTINUOUS
 10
140.0454247296
 20
457.4835989404
 40
0.2
100
AcDbArc
 50
179.9999999995
 51
182.946654331
  0
ARC
  5
371
100
AcDbEntity
  8
0
100
AcDbCircle
 62
7
  6
CONTINUOUS
 10
140.0454247297
 20
492.4831179149
 40
0.2
100
AcDbArc
 50
176.1534866752
 51
179.9999999999
  0
ARC
  5
372
100
AcDbEntity
  8
0
100
AcDbCircle
 62
7
  6
CONTINUOUS
 10
140.0454247297
 20
493.9117089775
 40
0.2
100
AcDbArc
 50
177.0561874911
 51
179.9999999999
  0
ARC
  5
373
100
AcDbEntity
  8
0
100
AcDbCircle
 62
7
  6
CONTINUOUS
 10
170.3454880432
 20
519.2201699367
 40
0.2
100
AcDbArc
 50
180.0
 51
261.8698976463
  0
ARC
  5
374
100
AcDbEntity
  8
0
100
AcDbCircle
 62
7
  6
CONTINUOUS
 10
170.3454880432
 20
526.5751379811
 40
0.2
100
AcDbArc
 50
98.1301023542
 51
179.9999999997
  0
ARC
  5
375
100
AcDbEntity
  8
0
100
AcDbCircle
 62
7
  6
CONTINUOUS
 10
161.0801479419
 20
868.4339973623
 40
9.5870034427
100
AcDbArc
 50
65.8552866801
 51
67.3618883025
  0
ARC
  5
376
100
AcDbEntity
  8
0
100
AcDbCircle
 62
7
  6
CONTINUOUS
 10
162.4125157149
 20
871.4177417584
 40
6.3192976152
100
AcDbArc
 50
64.5582790656
 51
65.8129176701
  0
ARC
  5
377
100
AcDbEntity
  8
0
100
AcDbCircle
 62
7
  6
CONTINUOUS
 10
175.5454880432
 20
877.2976539589
 40
3.2
100
AcDbArc
 50
90.0
 51
180.0
  0
ARC
  5
378
100
AcDbEntity
  8
0
100
AcDbCircle
 62
7
  6
CONTINUOUS
 10
148.8351914318
 20
875.9976539589
 40
3.0
100
AcDbArc
 50
90.0
 51
180.0
  0
ARC
  5
379
100
AcDbEntity
  8
0
100
AcDbCircle
 62
7
  6
CONTINUOUS
 10
148.0689881148
 20
875.5608824489
 40
2.3349944209
100
AcDbArc
 50
145.4044537981
 51
148.3844325298
  0
ARC
  5
37A
100
AcDbEntity
  8
0
100
AcDbCircle
 62
7
  6
CONTINUOUS
 10
170.3454880432
 20
862.9238479671
 40
2.0
100
AcDbArc
 50
258.9999999987
 51
360.0
  0
ARC
  5
37B
100
AcDbEntity
  8
0
100
AcDbCircle
 62
7
  6
CONTINUOUS
 10
164.2351914318
 20
877.3976539589
 40
1.6
100
AcDbArc
 50
338.9564598546
 51
90.0
  0
ARC
  5
37C
100
AcDbEntity
  8
0
100
AcDbCircle
 62
7
  6
CONTINUOUS
 10
170.5454880432
 20
828.6016789008
 40
0.4
100
AcDbArc
 50
98.1301023541
 51
179.9999999969
  0
ARC
  5
37D
100
AcDbEntity
  8
0
100
AcDbCircle
 62
7
  6
CONTINUOUS
 10
170.5454880432
 20
821.5936290171
 40
0.4
100
AcDbArc
 50
180.000000004
 51
261.8698976458
  0
ARC
  5
37E
100
AcDbEntity
  8
0
100
AcDbCircle
 62
7
  6
CONTINUOUS
 10
170.3454880432
 20
794.2201699367
 40
0.2
100
AcDbArc
 50
180.0
 51
261.8698976463
  0
ARC
  5
37F
100
AcDbEntity
  8
0
100
AcDbCircle
 62
7
  6
CONTINUOUS
 10
170.3454880432
 20
801.5751379811
 40
0.2
100
AcDbArc
 50
98.1301023542
 51
179.9999999997
  0
ARC
  5
380
100
AcDbEntity
  8
0
100
AcDbCircle
 62
7
  6
CONTINUOUS
 10
225.4004556077
 20
803.2691858215
 40
78.9546145651
100
AcDbArc
 50
134.2106977812
 51
134.497459099
  0
ARC
  5
381
100
AcDbEntity
  8
0
100
AcDbCircle
 62
7
  6
CONTINUOUS
 10
192.8921367841
 20
836.3871055035
 40
32.547869403
100
AcDbArc
 50
134.539752868
 51
134.7849294023
  0
ARC
  5
382
100
AcDbEntity
  8
0
100
AcDbCircle
 62
7
  6
CONTINUOUS
 10
483.3445858406
 20
-1.9921721845
 40
82.3350510314
100
AcDbArc
 50
89.9993721702
 51
90.3577555984
  0
ARC
  5
383
100
AcDbEntity
  8
0
100
AcDbCircle
 62
7
  6
CONTINUOUS
 10
483.3493694715
 20
-1.0777164502
 40
81.4205953847
100
AcDbArc
 50
89.6403228299
 51
90.0027313662
  0
ARC
  5
384
100
AcDbEntity
  8
0
100
AcDbCircle
 62
7
  6
CONTINUOUS
 10
483.3454880432
 20
87.7484352089
 40
7.8338714079
100
AcDbArc
 50
277.035724314
 51
288.9979892965
  0
ARC
  5
385
100
AcDbEntity
  8
0
100
AcDbCircle
 62
7
  6
CONTINUOUS
 10
483.3454880432
 20
87.7484352089
 40
7.8338714079
100
AcDbArc
 50
251.0020095898
 51
262.964275686
  0
ARC
  5
386
100
AcDbEntity
  8
0
100
AcDbCircle
 62
7
  6
CONTINUOUS
 10
483.3458777988
 20
87.7737880826
 40
7.8328953221
100
AcDbArc
 50
264.7963671122
 51
265.1543539026
  0
ARC
  5
387
100
AcDbEntity
  8
0
100
AcDbCircle
 62
7
  6
CONTINUOUS
 10
483.3450983676
 20
87.7737871647
 40
7.8328944007
100
AcDbArc
 50
274.845263152
 51
275.2036329137
  0
ARC
  5
388
100
AcDbEntity
  8
0
100
AcDbCircle
 62
7
  6
CONTINUOUS
 10
483.6397521179
 20
85.49638342
 40
5.6138913382
100
AcDbArc
 50
254.0857846258
 51
258.5384622195
  0
ARC
  5
389
100
AcDbEntity
  8
0
100
AcDbCircle
 62
7
  6
CONTINUOUS
 10
483.1074461039
 20
85.1302365107
 40
5.2391052768
100
AcDbArc
 50
279.8833851311
 51
281.5896292504
  0
ARC
  5
38A
100
AcDbEntity
  8
0
100
AcDbCircle
 62
7
  6
CONTINUOUS
 10
483.5629650908
 20
85.1265279245
 40
5.2361530932
100
AcDbArc
 50
258.597397625
 51
259.7971693229
  0
ARC
  5
38B
100
AcDbEntity
  8
0
100
AcDbCircle
 62
7
  6
CONTINUOUS
 10
483.1281340746
 20
85.1258702683
 40
5.2354840353
100
AcDbArc
 50
280.2027798985
 51
281.3934058788
  0
ARC
  5
38C
100
AcDbEntity
  8
0
100
AcDbCircle
 62
7
  6
CONTINUOUS
 10
482.6072861919
 20
83.9067642504
 40
3.9395392193
100
AcDbArc
 50
272.5799537911
 51
273.2479371575
  0
ARC
  5
38D
100
AcDbEntity
  8
0
100
AcDbCircle
 62
7
  6
CONTINUOUS
 10
484.0836898944
 20
83.9067642499
 40
3.9395392187
100
AcDbArc
 50
266.7520628424
 51
267.4200462087
  0
ARC
  5
38E
100
AcDbEntity
  8
0
100
AcDbCircle
 62
7
  6
CONTINUOUS
 10
482.6076186558
 20
83.8994107994
 40
3.9321782565
100
AcDbArc
 50
271.9111198324
 51
272.5799374353
  0
ARC
  5
38F
100
AcDbEntity
  8
0
100
AcDbCircle
 62
7
  6
CONTINUOUS
 10
484.0833574305
 20
83.8994107983
 40
3.9321782554
100
AcDbArc
 50
267.4200625645
 51
268.0888801676
  0
ARC
  5
390
100
AcDbEntity
  8
0
100
AcDbCircle
 62
7
  6
CONTINUOUS
 10
482.6078375473
 20
83.8928846836
 40
3.9256484709
100
AcDbArc
 50
271.2415451735
 51
271.9111033493
  0
ARC
  5
391
100
AcDbEntity
  8
0
100
AcDbCircle
 62
7
  6
CONTINUOUS
 10
484.0831385391
 20
83.8928846837
 40
3.9256484711
100
AcDbArc
 50
268.0888966505
 51
268.7584548264
  0
ARC
  5
392
100
AcDbEntity
  8
0
100
AcDbCircle
 62
7
  6
CONTINUOUS
 10
484.083054744
 20
83.8729258841
 40
3.9056872642
100
AcDbArc
 50
271.2430871638
 51
271.9149246956
  0
ARC
  5
393
100
AcDbEntity
  8
0
100
AcDbCircle
 62
7
  6
CONTINUOUS
 10
482.6079213424
 20
83.872925884
 40
3.9056872641
100
AcDbArc
 50
268.0850753046
 51
268.7569128362
  0
ARC
  5
394
100
AcDbEntity
  8
0
100
AcDbCircle
 62
7
  6
CONTINUOUS
 10
484.0831189663
 20
83.8709705109
 40
3.9037308369
100
AcDbArc
 50
271.9149416244
 51
272.5870044793
  0
ARC
  5
395
100
AcDbEntity
  8
0
100
AcDbCircle
 62
7
  6
CONTINUOUS
 10
482.6078571201
 20
83.8709705109
 40
3.9037308369
100
AcDbArc
 50
267.4129955208
 51
268.0850583757
  0
ARC
  5
396
100
AcDbEntity
  8
0
100
AcDbCircle
 62
7
  6
CONTINUOUS
 10
484.083168521
 20
83.8698481514
 40
3.9026073846
100
AcDbArc
 50
272.5870214372
 51
273.2592123877
  0
ARC
  5
397
100
AcDbEntity
  8
0
100
AcDbCircle
 62
7
  6
CONTINUOUS
 10
482.6078075654
 20
83.8698481513
 40
3.9026073845
100
AcDbArc
 50
266.7407876124
 51
267.4129785631
  0
ARC
  5
398
100
AcDbEntity
  8
0
100
AcDbCircle
 62
7
  6
CONTINUOUS
 10
483.5501430745
 20
82.9620388094
 40
3.0562125658
100
AcDbArc
 50
281.6590954441
 51
284.1908795641
  0
ARC
  5
399
100
AcDbEntity
  8
0
100
AcDbCircle
 62
7
  6
CONTINUOUS
 10
526.8445858406
 20
-1.9921721845
 40
82.3350510314
100
AcDbArc
 50
89.9993721702
 51
90.3577555984
  0
ARC
  5
39A
100
AcDbEntity
  8
0
100
AcDbCircle
 62
7
  6
CONTINUOUS
 10
526.8493694715
 20
-1.0777164373
 40
81.4205953719
100
AcDbArc
 50
89.6403228299
 51
90.0027313662
  0
ARC
  5
39B
100
AcDbEntity
  8
0
100
AcDbCircle
 62
7
  6
CONTINUOUS
 10
528.9204880432
 20
102.4976539589
 40
21.625
100
AcDbArc
 50
342.5076754749
 51
17.4923245251
  0
ARC
  5
39C
100
AcDbEntity
  8
0
100
AcDbCircle
 62
7
  6
CONTINUOUS
 10
526.8454880432
 20
87.7484352089
 40
7.8338714079
100
AcDbArc
 50
277.035724314
 51
288.9979892965
  0
ARC
  5
39D
100
AcDbEntity
  8
0
100
AcDbCircle
 62
7
  6
CONTINUOUS
 10
526.8454880432
 20
87.7484352089
 40
7.8338714079
100
AcDbArc
 50
251.0020095898
 51
262.964275686
  0
ARC
  5
39E
100
AcDbEntity
  8
0
100
AcDbCircle
 62
7
  6
CONTINUOUS
 10
526.8458777987
 20
87.7737880818
 40
7.8328953213
100
AcDbArc
 50
264.7963671121
 51
265.1543539026
  0
ARC
  5
39F
100
AcDbEntity
  8
0
100
AcDbCircle
 62
7
  6
CONTINUOUS
 10
526.8450983683
 20
87.773787157
 40
7.8328943929
100
AcDbArc
 50
274.8452631519
 51
275.2036329139
  0
ARC
  5
3A0
100
AcDbEntity
  8
0
100
AcDbCircle
 62
7
  6
CONTINUOUS
 10
527.1397521179
 20
85.49638342
 40
5.6138913381
100
AcDbArc
 50
254.0857846258
 51
258.5384622195
  0
ARC
  5
3A1
100
AcDbEntity
  8
0
100
AcDbCircle
 62
7
  6
CONTINUOUS
 10
526.6074461038
 20
85.130236511
 40
5.2391052771
100
AcDbArc
 50
279.8833851312
 51
281.5896292503
  0
ARC
  5
3A2
100
AcDbEntity
  8
0
100
AcDbCircle
 62
7
  6
CONTINUOUS
 10
527.0629650907
 20
85.1265279239
 40
5.2361530927
100
AcDbArc
 50
258.5973976249
 51
259.797169323
  0
ARC
  5
3A3
100
AcDbEntity
  8
0
100
AcDbCircle
 62
7
  6
CONTINUOUS
 10
526.6281340747
 20
85.1258702678
 40
5.2354840348
100
AcDbArc
 50
280.2027798984
 51
281.3934058788
  0
ARC
  5
3A4
100
AcDbEntity
  8
0
100
AcDbCircle
 62
7
  6
CONTINUOUS
 10
526.1072861919
 20
83.9067642517
 40
3.9395392206
100
AcDbArc
 50
272.5799537912
 51
273.2479371573
  0
ARC
  5
3A5
100
AcDbEntity
  8
0
100
AcDbCircle
 62
7
  6
CONTINUOUS
 10
527.5836898944
 20
83.9067642499
 40
3.9395392187
100
AcDbArc
 50
266.7520628424
 51
267.4200462087
  0
ARC
  5
3A6
100
AcDbEntity
  8
0
100
AcDbCircle
 62
7
  6
CONTINUOUS
 10
526.1076186558
 20
83.8994107991
 40
3.9321782562
100
AcDbArc
 50
271.9111198323
 51
272.5799374354
  0
ARC
  5
3A7
100
AcDbEntity
  8
0
100
AcDbCircle
 62
7
  6
CONTINUOUS
 10
527.5833574305
 20
83.8994107984
 40
3.9321782555
100
AcDbArc
 50
267.4200625645
 51
268.0888801676
  0
ARC
  5
3A8
100
AcDbEntity
  8
0
100
AcDbCircle
 62
7
  6
CONTINUOUS
 10
526.1078375473
 20
83.8928846834
 40
3.9256484707
100
AcDbArc
 50
271.2415451735
 51
271.9111033493
  0
ARC
  5
3A9
100
AcDbEntity
  8
0
100
AcDbCircle
 62
7
  6
CONTINUOUS
 10
527.5831385391
 20
83.8928846837
 40
3.925648471
100
AcDbArc
 50
268.0888966505
 51
268.7584548265
  0
ARC
  5
3AA
100
AcDbEntity
  8
0
100
AcDbCircle
 62
7
  6
CONTINUOUS
 10
527.583054744
 20
83.8729258841
 40
3.9056872642
100
AcDbArc
 50
271.2430871638
 51
271.9149246956
  0
ARC
  5
3AB
100
AcDbEntity
  8
0
100
AcDbCircle
 62
7
  6
CONTINUOUS
 10
526.1079213424
 20
83.872925884
 40
3.9056872642
100
AcDbArc
 50
268.0850753046
 51
268.7569128362
  0
ARC
  5
3AC
100
AcDbEntity
  8
0
100
AcDbCircle
 62
7
  6
CONTINUOUS
 10
527.5831189663
 20
83.8709705109
 40
3.9037308369
100
AcDbArc
 50
271.9149416244
 51
272.5870044793
  0
ARC
  5
3AD
100
AcDbEntity
  8
0
100
AcDbCircle
 62
7
  6
CONTINUOUS
 10
526.1078571201
 20
83.8709705109
 40
3.9037308369
100
AcDbArc
 50
267.4129955208
 51
268.0850583757
  0
ARC
  5
3AE
100
AcDbEntity
  8
0
100
AcDbCircle
 62
7
  6
CONTINUOUS
 10
527.583168521
 20
83.8698481514
 40
3.9026073846
100
AcDbArc
 50
272.5870214372
 51
273.2592123877
  0
ARC
  5
3AF
100
AcDbEntity
  8
0
100
AcDbCircle
 62
7
  6
CONTINUOUS
 10
526.1078075654
 20
83.8698481513
 40
3.9026073845
100
AcDbArc
 50
266.7407876124
 51
267.4129785631
  0
ARC
  5
3B0
100
AcDbEntity
  8
0
100
AcDbCircle
 62
7
  6
CONTINUOUS
 10
546.1454880432
 20
83.6976539589
 40
3.2
100
AcDbArc
 50
270.0
 51
360.0
  0
ARC
  5
3B1
100
AcDbEntity
  8
0
100
AcDbCircle
 62
7
  6
CONTINUOUS
 10
527.0501430745
 20
82.9620388094
 40
3.0562125658
100
AcDbArc
 50
281.6590954441
 51
284.1908795641
  0
ARC
  5
3B2
100
AcDbEntity
  8
0
100
AcDbCircle
 62
7
  6
CONTINUOUS
 10
731.1263181607
 20
475.4337102967
 40
591.2753873192
100
AcDbArc
 50
178.5451805088
 51
178.6757795803
  0
ARC
  5
3B3
100
AcDbEntity
  8
0
100
AcDbCircle
 62
7
  6
CONTINUOUS
 10
730.8085559644
 20
475.9542065412
 40
590.9575399034
100
AcDbArc
 50
181.3243780831
 51
181.4548851459
  0
ARC
  5
3B4
100
AcDbEntity
  8
0
100
AcDbCircle
 62
7
  6
CONTINUOUS
 10
528.9204880432
 20
858.4976539589
 40
21.625
100
AcDbArc
 50
342.5076754749
 51
17.4923245251
  0
ARC
  5
3B5
100
AcDbEntity
  8
0
100
AcDbCircle
 62
7
  6
CONTINUOUS
 10
546.1454880432
 20
877.2976539589
 40
3.2
100
AcDbArc
 50
0.0
 51
90.0
  0
SPLINE
  5
3B6
100
AcDbEntity
  8
0
100
AcDbSpline
 62
7
  6
CONTINUOUS
 70
0
 71
3
 72
9
 73
5
 74
0
 42
0.0000001
 43
0.0000001
 44
0.0000000001
 40
0.0
 40
0.0
 40
0.0
 40
0.0
 40
0.24494781
 40
1.0
 40
1.0
 40
1.0
 40
1.0
 10
527.6657646802
 20
79.9991358822
 30
0.0
 10
527.7128402645
 20
80.0088386721
 30
0.0
 10
527.9044890896
 20
80.0510317202
 30
0.0
 10
528.0938952164
 20
80.1032722327
 30
0.0
 10
528.2352525241
 20
80.1476539589
 30
0.0
  0
LINE
  5
3B7
100
AcDbEntity
  8
0
100
AcDbLine
 62
7
  6
CONTINUOUS
 10
527.4980801187
 20
79.9681578163
 11
527.5023499605
 21
79.9685214102
  0
LINE
  5
3B8
100
AcDbEntity
  8
0
100
AcDbLine
 62
7
  6
CONTINUOUS
 10
527.5023499605
 20
79.9685214102
 11
527.5067040877
 21
79.9688840542
  0
SPLINE
  5
3B9
100
AcDbEntity
  8
0
100
AcDbSpline
 62
7
  6
CONTINUOUS
 70
0
 71
3
 72
9
 73
5
 74
0
 42
0.0000001
 43
0.0000001
 44
0.0000000001
 40
0.0
 40
0.0
 40
0.0
 40
0.0
 40
0.2461010597
 40
1.0
 40
1.0
 40
1.0
 40
1.0
 10
525.6004353335
 20
80.0976539589
 30
0.0
 10
525.6342423863
 20
80.0847603271
 30
0.0
 10
525.7726515495
 20
80.0351176893
 30
0.0
 10
525.9149479979
 20
79.9964446697
 30
0.0
 10
526.023317815
 20
79.9731748638
 30
0.0
  0
SPLINE
  5
3BA
100
AcDbEntity
  8
0
100
AcDbSpline
 62
7
  6
CONTINUOUS
 70
0
 71
3
 72
9
 73
5
 74
0
 42
0.0000001
 43
0.0000001
 44
0.0000000001
 40
0.0
 40
0.0
 40
0.0
 40
0.0
 40
0.2542301673
 40
1.0
 40
1.0
 40
1.0
 40
1.0
 10
527.7993829519
 20
79.9990884464
 30
0.0
 10
527.8372382364
 20
80.0086672657
 30
0.0
 10
527.9853838476
 20
80.0492489752
 30
0.0
 10
528.1303222161
 20
80.1017141145
 30
0.0
 10
528.2352525241
 20
80.1476539589
 30
0.0
  0
SPLINE
  5
3BB
100
AcDbEntity
  8
0
100
AcDbSpline
 62
7
  6
CONTINUOUS
 70
0
 71
3
 72
9
 73
5
 74
0
 42
0.0000001
 43
0.0000001
 44
0.0000000001
 40
0.0
 40
0.0
 40
0.0
 40
0.0
 40
0.24494781
 40
1.0
 40
1.0
 40
1.0
 40
1.0
 10
320.6657646802
 20
79.9991358822
 30
0.0
 10
320.7128402645
 20
80.0088386721
 30
0.0
 10
320.9044890896
 20
80.0510317202
 30
0.0
 10
321.0938952164
 20
80.1032722327
 30
0.0
 10
321.2352525241
 20
80.1476539589
 30
0.0
  0
LINE
  5
3BC
100
AcDbEntity
  8
0
100
AcDbLine
 62
7
  6
CONTINUOUS
 10
320.4980801187
 20
79.9681578163
 11
320.5023499605
 21
79.9685214102
  0
LINE
  5
3BD
100
AcDbEntity
  8
0
100
AcDbLine
 62
7
  6
CONTINUOUS
 10
320.5023499605
 20
79.9685214102
 11
320.5067040877
 21
79.9688840542
  0
SPLINE
  5
3BE
100
AcDbEntity
  8
0
100
AcDbSpline
 62
7
  6
CONTINUOUS
 70
0
 71
3
 72
9
 73
5
 74
0
 42
0.0000001
 43
0.0000001
 44
0.0000000001
 40
0.0
 40
0.0
 40
0.0
 40
0.0
 40
0.2461010597
 40
1.0
 40
1.0
 40
1.0
 40
1.0
 10
318.6004353335
 20
80.0976539589
 30
0.0
 10
318.6342423863
 20
80.0847603271
 30
0.0
 10
318.7726515495
 20
80.0351176893
 30
0.0
 10
318.9149479979
 20
79.9964446697
 30
0.0
 10
319.023317815
 20
79.9731748638
 30
0.0
  0
SPLINE
  5
3BF
100
AcDbEntity
  8
0
100
AcDbSpline
 62
7
  6
CONTINUOUS
 70
0
 71
3
 72
9
 73
5
 74
0
 42
0.0000001
 43
0.0000001
 44
0.0000000001
 40
0.0
 40
0.0
 40
0.0
 40
0.0
 40
0.2542301673
 40
1.0
 40
1.0
 40
1.0
 40
1.0
 10
320.7993829519
 20
79.9990884464
 30
0.0
 10
320.8372382364
 20
80.0086672657
 30
0.0
 10
320.9853838476
 20
80.0492489752
 30
0.0
 10
321.1303222161
 20
80.1017141145
 30
0.0
 10
321.2352525241
 20
80.1476539589
 30
0.0
  0
SPLINE
  5
3C0
100
AcDbEntity
  8
0
100
AcDbSpline
 62
7
  6
CONTINUOUS
 70
0
 71
3
 72
9
 73
5
 74
0
 42
0.0000001
 43
0.0000001
 44
0.0000000001
 40
0.0
 40
0.0
 40
0.0
 40
0.0
 40
0.24494781
 40
1.0
 40
1.0
 40
1.0
 40
1.0
 10
364.1657646802
 20
79.9991358822
 30
0.0
 10
364.2128402645
 20
80.0088386721
 30
0.0
 10
364.4044890896
 20
80.0510317202
 30
0.0
 10
364.5938952164
 20
80.1032722327
 30
0.0
 10
364.7352525241
 20
80.1476539589
 30
0.0
  0
LINE
  5
3C1
100
AcDbEntity
  8
0
100
AcDbLine
 62
7
  6
CONTINUOUS
 10
363.9980801187
 20
79.9681578163
 11
364.0023499605
 21
79.9685214102
  0
LINE
  5
3C2
100
AcDbEntity
  8
0
100
AcDbLine
 62
7
  6
CONTINUOUS
 10
364.0023499605
 20
79.9685214102
 11
364.0067040877
 21
79.9688840542
  0
SPLINE
  5
3C3
100
AcDbEntity
  8
0
100
AcDbSpline
 62
7
  6
CONTINUOUS
 70
0
 71
3
 72
9
 73
5
 74
0
 42
0.0000001
 43
0.0000001
 44
0.0000000001
 40
0.0
 40
0.0
 40
0.0
 40
0.0
 40
0.2461010597
 40
1.0
 40
1.0
 40
1.0
 40
1.0
 10
362.1004353335
 20
80.0976539589
 30
0.0
 10
362.1342423863
 20
80.0847603271
 30
0.0
 10
362.2726515495
 20
80.0351176893
 30
0.0
 10
362.4149479979
 20
79.9964446697
 30
0.0
 10
362.523317815
 20
79.9731748638
 30
0.0
  0
SPLINE
  5
3C4
100
AcDbEntity
  8
0
100
AcDbSpline
 62
7
  6
CONTINUOUS
 70
0
 71
3
 72
9
 73
5
 74
0
 42
0.0000001
 43
0.0000001
 44
0.0000000001
 40
0.0
 40
0.0
 40
0.0
 40
0.0
 40
0.2542301673
 40
1.0
 40
1.0
 40
1.0
 40
1.0
 10
364.2993829519
 20
79.9990884464
 30
0.0
 10
364.3372382364
 20
80.0086672657
 30
0.0
 10
364.4853838476
 20
80.0492489752
 30
0.0
 10
364.6303222161
 20
80.1017141145
 30
0.0
 10
364.7352525241
 20
80.1476539589
 30
0.0
  0
SPLINE
  5
3C5
100
AcDbEntity
  8
0
100
AcDbSpline
 62
7
  6
CONTINUOUS
 70
0
 71
3
 72
9
 73
5
 74
0
 42
0.0000001
 43
0.0000001
 44
0.0000000001
 40
0.0
 40
0.0
 40
0.0
 40
0.0
 40
0.24494781
 40
1.0
 40
1.0
 40
1.0
 40
1.0
 10
484.1657646802
 20
79.9991358822
 30
0.0
 10
484.2128402645
 20
80.0088386721
 30
0.0
 10
484.4044890896
 20
80.0510317202
 30
0.0
 10
484.5938952164
 20
80.1032722327
 30
0.0
 10
484.7352525241
 20
80.1476539589
 30
0.0
  0
LINE
  5
3C6
100
AcDbEntity
  8
0
100
AcDbLine
 62
7
  6
CONTINUOUS
 10
483.9980801187
 20
79.9681578163
 11
484.0023499605
 21
79.9685214102
  0
LINE
  5
3C7
100
AcDbEntity
  8
0
100
AcDbLine
 62
7
  6
CONTINUOUS
 10
484.0023499605
 20
79.9685214102
 11
484.0067040877
 21
79.9688840542
  0
SPLINE
  5
3C8
100
AcDbEntity
  8
0
100
AcDbSpline
 62
7
  6
CONTINUOUS
 70
0
 71
3
 72
9
 73
5
 74
0
 42
0.0000001
 43
0.0000001
 44
0.0000000001
 40
0.0
 40
0.0
 40
0.0
 40
0.0
 40
0.2461010597
 40
1.0
 40
1.0
 40
1.0
 40
1.0
 10
482.1004353335
 20
80.0976539589
 30
0.0
 10
482.1342423863
 20
80.0847603271
 30
0.0
 10
482.2726515495
 20
80.0351176893
 30
0.0
 10
482.4149479979
 20
79.9964446697
 30
0.0
 10
482.523317815
 20
79.9731748638
 30
0.0
  0
SPLINE
  5
3C9
100
AcDbEntity
  8
0
100
AcDbSpline
 62
7
  6
CONTINUOUS
 70
0
 71
3
 72
9
 73
5
 74
0
 42
0.0000001
 43
0.0000001
 44
0.0000000001
 40
0.0
 40
0.0
 40
0.0
 40
0.0
 40
0.2542301673
 40
1.0
 40
1.0
 40
1.0
 40
1.0
 10
484.2993829519
 20
79.9990884464
 30
0.0
 10
484.3372382364
 20
80.0086672657
 30
0.0
 10
484.4853838476
 20
80.0492489752
 30
0.0
 10
484.6303222161
 20
80.1017141145
 30
0.0
 10
484.7352525241
 20
80.1476539589
 30
0.0
  0
SPLINE
  5
3CA
100
AcDbEntity
  8
0
100
AcDbSpline
 62
7
  6
CONTINUOUS
 70
0
 71
3
 72
11
 73
7
 74
0
 42
0.0000001
 43
0.0000001
 44
0.0000000001
 40
0.0
 40
0.0
 40
0.0
 40
0.0
 40
0.2326896511
 40
0.4776530726
 40
0.7341269886
 40
1.0
 40
1.0
 40
1.0
 40
1.0
 10
145.8351925643
 20
495.3759743083
 30
0.0
 10
145.4813748562
 20
495.1889679339
 30
0.0
 10
144.8326124498
 20
494.6493984149
 30
0.0
 10
144.1643132689
 20
493.559472349
 30
0.0
 10
143.7751750473
 20
492.2865738425
 30
0.0
 10
143.6955926963
 20
491.3853422125
 30
0.0
 10
143.6955921448
 20
490.9280729751
 30
0.0
  0
SPLINE
  5
3CB
100
AcDbEntity
  8
0
100
AcDbSpline
 62
7
  6
CONTINUOUS
 70
0
 71
3
 72
11
 73
7
 74
0
 42
0.0000001
 43
0.0000001
 44
0.0000000001
 40
0.0
 40
0.0
 40
0.0
 40
0.0
 40
0.2658730155
 40
0.5223469296
 40
0.7673103493
 40
1.0
 40
1.0
 40
1.0
 40
1.0
 10
143.6955921496
 20
460.4672349429
 30
0.0
 10
143.6955926972
 20
460.0099656984
 30
0.0
 10
143.7751750485
 20
459.1087340639
 30
0.0
 10
144.1643132741
 20
457.835835558
 30
0.0
 10
144.8326124533
 20
456.7459094995
 30
0.0
 10
145.4813748572
 20
456.206339984
 30
0.0
 10
145.8351925644
 20
456.0193336095
 30
0.0
  0
SPLINE
  5
3CC
100
AcDbEntity
  8
0
100
AcDbSpline
 62
7
  6
CONTINUOUS
 70
0
 71
3
 72
8
 73
4
 74
0
 42
0.0000001
 43
0.0000001
 44
0.0000000001
 40
0.0
 40
0.0
 40
0.0
 40
0.0
 40
1.0
 40
1.0
 40
1.0
 40
1.0
 10
140.1763855768
 20
458.7365645032
 30
0.0
 10
140.1774899051
 20
458.7266425588
 30
0.0
 10
140.1802868529
 20
458.7167842573
 30
0.0
 10
140.1845077678
 20
458.7077372468
 30
0.0
  0
SPLINE
  5
3CD
100
AcDbEntity
  8
0
100
AcDbSpline
 62
7
  6
CONTINUOUS
 70
0
 71
3
 72
9
 73
5
 74
0
 42
0.0000001
 43
0.0000001
 44
0.0000000001
 40
0.0
 40
0.0
 40
0.0
 40
0.0
 40
0.1465409028
 40
1.0
 40
1.0
 40
1.0
 40
1.0
 10
140.0313864765
 20
460.9562940933
 30
0.0
 10
140.0314120204
 20
460.9556904609
 30
0.0
 10
140.0334943669
 20
460.9518162226
 30
0.0
 10
140.0381482707
 20
460.9508988418
 30
0.0
 10
140.041524841
 20
460.9499088039
 30
0.0
  0
SPLINE
  5
3CE
100
AcDbEntity
  8
0
100
AcDbSpline
 62
7
  6
CONTINUOUS
 70
0
 71
3
 72
13
 73
9
 74
0
 42
0.0000001
 43
0.0000001
 44
0.0000000001
 40
0.0
 40
0.0
 40
0.0
 40
0.0
 40
0.3374163894
 40
0.619423243
 40
0.7355866321
 40
0.8351096955
 40
0.9210541938
 40
1.0
 40
1.0
 40
1.0
 40
1.0
 10
145.8351917809
 20
454.0378227296
 30
0.0
 10
145.7218769366
 20
454.0241496487
 30
0.0
 10
145.5149126271
 20
453.9901450988
 30
0.0
 10
145.2758356373
 20
453.9127586355
 30
0.0
 10
145.1307396199
 20
453.8258536167
 30
0.0
 10
145.054661178
 20
453.7563969229
 30
0.0
 10
145.0073331993
 20
453.6787375251
 30
0.0
 10
144.9966027315
 20
453.6224871273
 30
0.0
 10
144.9965946894
 20
453.5957823765
 30
0.0
  0
SPLINE
  5
3CF
100
AcDbEntity
  8
0
100
AcDbSpline
 62
7
  6
CONTINUOUS
 70
0
 71
3
 72
13
 73
9
 74
0
 42
0.0000001
 43
0.0000001
 44
0.0000000001
 40
0.0
 40
0.0
 40
0.0
 40
0.0
 40
0.315993033
 40
0.598206668
 40
0.7207611451
 40
0.8283429394
 40
0.9205824822
 40
1.0
 40
1.0
 40
1.0
 40
1.0
 10
145.8351892555
 20
454.7978216465
 30
0.0
 10
145.6378641016
 20
454.7358603583
 30
0.0
 10
145.2667929006
 20
454.6086939763
 30
0.0
 10
144.845235286
 20
454.3913333516
 30
0.0
 10
144.571388888
 20
454.1968393477
 30
0.0
 10
144.4157591196
 20
454.0530709936
 30
0.0
 10
144.3069054599
 20
453.9042923578
 30
0.0
 10
144.2657852722
 20
453.7980188307
 30
0.0
 10
144.2540352477
 20
453.7473837025
 30
0.0
  0
SPLINE
  5
3D0
100
AcDbEntity
  8
0
100
AcDbSpline
 62
7
  6
CONTINUOUS
 70
0
 71
3
 72
8
 73
4
 74
0
 42
0.0000001
 43
0.0000001
 44
0.0000000001
 40
0.0
 40
0.0
 40
0.0
 40
0.0
 40
1.0
 40
1.0
 40
1.0
 40
1.0
 10
144.2541310813
 20
453.7473459961
 30
0.0
 10
144.4891771602
 20
453.654872207
 30
0.0
 10
144.7441142287
 20
453.6036400266
 30
0.0
 10
144.9965761569
 20
453.5958274897
 30
0.0
  0
SPLINE
  5
3D1
100
AcDbEntity
  8
0
100
AcDbSpline
 62
7
  6
CONTINUOUS
 70
0
 71
3
 72
13
 73
9
 74
0
 42
0.0000001
 43
0.0000001
 44
0.0000000001
 40
0.0
 40
0.0
 40
0.0
 40
0.0
 40
0.0789458318
 40
0.1648902597
 40
0.2644132581
 40
0.3805766068
 40
0.6625834592
 40
1.0
 40
1.0
 40
1.0
 40
1.0
 10
144.9965947603
 20
497.7995256948
 30
0.0
 10
144.9966028113
 20
497.7728209316
 30
0.0
 10
145.0073332471
 20
497.7165705446
 30
0.0
 10
145.0546611174
 20
497.6389111122
 30
0.0
 10
145.1307394588
 20
497.5694543723
 30
0.0
 10
145.275835397
 20
497.4825492396
 30
0.0
 10
145.5149124717
 20
497.4051627479
 30
0.0
 10
145.7218768644
 20
497.3711582312
 30
0.0
 10
145.8351917773
 20
497.3574851585
 30
0.0
  0
SPLINE
  5
3D2
100
AcDbEntity
  8
0
100
AcDbSpline
 62
7
  6
CONTINUOUS
 70
0
 71
3
 72
8
 73
4
 74
0
 42
0.0000001
 43
0.0000001
 44
0.0000000001
 40
0.0
 40
0.0
 40
0.0
 40
0.0
 40
1.0
 40
1.0
 40
1.0
 40
1.0
 10
144.9965761574
 20
497.7994829065
 30
0.0
 10
144.7441143413
 20
497.7916709576
 30
0.0
 10
144.4891772694
 20
497.7404393551
 30
0.0
 10
144.2541311477
 20
497.6479660303
 30
0.0
  0
SPLINE
  5
3D3
100
AcDbEntity
  8
0
100
AcDbSpline
 62
7
  6
CONTINUOUS
 70
0
 71
3
 72
9
 73
5
 74
0
 42
0.0000001
 43
0.0000001
 44
0.0000000001
 40
0.0
 40
0.0
 40
0.0
 40
0.0
 40
0.1465930325
 40
1.0
 40
1.0
 40
1.0
 40
1.0
 10
140.0313762954
 20
490.4390126327
 30
0.0
 10
140.0314001953
 20
490.4396160665
 30
0.0
 10
140.0334713078
 20
490.4434931876
 30
0.0
 10
140.0381253319
 20
490.4444114175
 30
0.0
 10
140.0414986554
 20
490.4454018178
 30
0.0
  0
SPLINE
  5
3D4
100
AcDbEntity
  8
0
100
AcDbSpline
 62
7
  6
CONTINUOUS
 70
0
 71
3
 72
8
 73
4
 74
0
 42
0.0000001
 43
0.0000001
 44
0.0000000001
 40
0.0
 40
0.0
 40
0.0
 40
0.0
 40
1.0
 40
1.0
 40
1.0
 40
1.0
 10
140.1763920276
 20
492.6587438201
 30
0.0
 10
140.177504752
 20
492.6686707547
 30
0.0
 10
140.1803117081
 20
492.678532728
 30
0.0
 10
140.1845434067
 20
492.6875812037
 30
0.0
  0
SPLINE
  5
3D5
100
AcDbEntity
  8
0
100
AcDbSpline
 62
7
  6
CONTINUOUS
 70
0
 71
3
 72
19
 73
15
 74
0
 42
0.0000001
 43
0.0000001
 44
0.0000000001
 40
0.0
 40
0.0
 40
0.0
 40
0.0
 40
0.0559344706
 40
0.1041633602
 40
0.1438036924
 40
0.173953977
 40
0.1947029697
 40
0.2104750156
 40
0.2323498237
 40
0.2677251673
 40
0.3849537178
 40
0.5579433345
 40
0.7691105412
 40
1.0
 40
1.0
 40
1.0
 40
1.0
 10
140.2351790778
 20
493.4492181616
 30
0.0
 10
140.2351614129
 20
493.4807020886
 30
0.0
 10
140.2341319573
 20
493.5393836801
 30
0.0
 10
140.2284493314
 20
493.6200322322
 30
0.0
 10
140.2185966284
 20
493.6862283427
 30
0.0
 10
140.204205209
 20
493.7344095349
 30
0.0
 10
140.1847858518
 20
493.7695311463
 30
0.0
 10
140.1483593049
 20
493.7768191607
 30
0.0
 10
140.115126765
 20
493.7470224628
 30
0.0
 10
140.0621743684
 20
493.6659745021
 30
0.0
 10
139.9985211134
 20
493.4906875823
 30
0.0
 10
139.9332070613
 20
493.2170351697
 30
0.0
 10
139.8821499762
 20
492.873787889
 30
0.0
 10
139.8624131017
 20
492.6256982075
 30
0.0
 10
139.8555810399
 20
492.4959167646
 30
0.0
  0
LINE
  5
3D6
100
AcDbEntity
  8
0
100
AcDbLine
 62
7
  6
CONTINUOUS
 10
139.8555810399
 20
492.4959167646
 11
139.8549209212
 21
492.4831567592
  0
SPLINE
  5
3D7
100
AcDbEntity
  8
0
100
AcDbSpline
 62
7
  6
CONTINUOUS
 70
0
 71
3
 72
19
 73
15
 74
0
 42
0.0000001
 43
0.0000001
 44
0.0000000001
 40
0.0
 40
0.0
 40
0.0
 40
0.0
 40
0.2304920367
 40
0.4416349561
 40
0.6150568716
 40
0.7329200168
 40
0.7686128065
 40
0.7906857318
 40
0.8064077037
 40
0.8269395045
 40
0.8568531129
 40
0.8962667268
 40
0.9442778989
 40
1.0
 40
1.0
 40
1.0
 40
1.0
 10
139.8549160067
 20
458.9121755148
 30
0.0
 10
139.861558631
 20
458.7816198043
 30
0.0
 10
139.8809844479
 20
458.5318458692
 30
0.0
 10
139.9317309085
 20
458.1858846934
 30
0.0
 10
139.9970808278
 20
457.9094239455
 30
0.0
 10
140.0609132374
 20
457.7318844302
 30
0.0
 10
140.1142457256
 20
457.6494240129
 30
0.0
 10
140.1474239143
 20
457.6188102454
 30
0.0
 10
140.1842749017
 20
457.6252512312
 30
0.0
 10
140.2040211992
 20
457.6603567164
 30
0.0
 10
140.218467079
 20
457.7084782613
 30
0.0
 10
140.2284124076
 20
457.7748015781
 30
0.0
 10
140.2341265963
 20
457.8556860279
 30
0.0
 10
140.235162335
 20
457.914571642
 30
0.0
 10
140.2351788327
 20
457.9461746763
 30
0.0
  0
LINE
  5
3D8
100
AcDbEntity
  8
0
100
AcDbLine
 62
7
  6
CONTINUOUS
 10
139.8549171071
 20
457.4836018319
 11
139.8554284083
 21
457.4740108744
  0
SPLINE
  5
3D9
100
AcDbEntity
  8
0
100
AcDbSpline
 62
7
  6
CONTINUOUS
 70
0
 71
3
 72
22
 73
18
 74
0
 42
0.0000001
 43
0.0000001
 44
0.0000000001
 40
0.0
 40
0.0
 40
0.0
 40
0.0
 40
0.2287957801
 40
0.4408343531
 40
0.6262668036
 40
0.7058899621
 40
0.7752617503
 40
0.8335720123
 40
0.8801915935
 40
0.9149779136
 40
0.9380766415
 40
0.9507227464
 40
0.9548573763
 40
0.9596285742
 40
0.9662541776
 40
0.9751432442
 40
1.0
 40
1.0
 40
1.0
 40
1.0
 10
139.8554284083
 20
457.4740108744
 30
0.0
 10
139.8626143483
 20
457.3410362988
 30
0.0
 10
139.8841405191
 20
457.0851815526
 30
0.0
 10
139.9353288129
 20
456.7240826561
 30
0.0
 10
139.991439221
 20
456.4518990247
 30
0.0
 10
140.0408059409
 20
456.2635576603
 30
0.0
 10
140.0756576404
 20
456.1480515477
 30
0.0
 10
140.1090056055
 20
456.0520755573
 30
0.0
 10
140.1395196419
 20
455.9769906961
 30
0.0
 10
140.1666502031
 20
455.9216134885
 30
0.0
 10
140.1884464605
 20
455.8884862797
 30
0.0
 10
140.2065174185
 20
455.8698795011
 30
0.0
 10
140.2199916952
 20
455.8715624864
 30
0.0
 10
140.2259850346
 20
455.8790838978
 30
0.0
 10
140.2300470148
 20
455.8901426256
 30
0.0
 10
140.2344089285
 20
455.913354054
 30
0.0
 10
140.2349559348
 20
455.9330575686
 30
0.0
 10
140.2349702969
 20
455.9475252205
 30
0.0
  0
SPLINE
  5
3DA
100
AcDbEntity
  8
0
100
AcDbSpline
 62
7
  6
CONTINUOUS
 70
0
 71
3
 72
8
 73
4
 74
0
 42
0.0000001
 43
0.0000001
 44
0.0000000001
 40
0.0
 40
0.0
 40
0.0
 40
0.0
 40
1.0
 40
1.0
 40
1.0
 40
1.0
 10
139.8457086323
 20
457.4730573893
 30
0.0
 10
139.8456837195
 20
457.4756907884
 30
0.0
 10
139.8476849633
 20
457.47815727
 30
0.0
 10
139.8496608192
 20
457.4798983631
 30
0.0
  0
SPLINE
  5
3DB
100
AcDbEntity
  8
0
100
AcDbSpline
 62
7
  6
CONTINUOUS
 70
0
 71
3
 72
9
 73
5
 74
0
 42
0.0000001
 43
0.0000001
 44
0.0000000001
 40
0.0
 40
0.0
 40
0.0
 40
0.0
 40
0.4659638678
 40
1.0
 40
1.0
 40
1.0
 40
1.0
 10
139.8496608192
 20
457.4798983631
 30
0.0
 10
139.8504125271
 20
457.4805607562
 30
0.0
 10
139.8521214274
 20
457.481874284
 30
0.0
 10
139.8539439353
 20
457.4830197485
 30
0.0
 10
139.8549365394
 20
457.4835970589
 30
0.0
  0
SPLINE
  5
3DC
100
AcDbEntity
  8
0
100
AcDbSpline
 62
7
  6
CONTINUOUS
 70
0
 71
3
 72
10
 73
6
 74
0
 42
0.0000001
 43
0.0000001
 44
0.0000000001
 40
0.0
 40
0.0
 40
0.0
 40
0.0
 40
0.5882057838
 40
0.8245687294
 40
1.0
 40
1.0
 40
1.0
 40
1.0
 10
139.8457073523
 20
457.4730690771
 30
0.0
 10
139.8617378367
 20
457.175754815
 30
0.0
 10
139.9097964814
 20
456.7591590006
 30
0.0
 10
140.0246009315
 20
456.2659036119
 30
0.0
 10
140.0874560348
 20
456.0667180912
 30
0.0
 10
140.1198855054
 20
455.9840490916
 30
0.0
  0
SPLINE
  5
3DD
100
AcDbEntity
  8
0
100
AcDbSpline
 62
7
  6
CONTINUOUS
 70
0
 71
3
 72
17
 73
13
 74
0
 42
0.0000001
 43
0.0000001
 44
0.0000000001
 40
0.0
 40
0.0
 40
0.0
 40
0.0
 40
0.4122314761
 40
0.5323277877
 40
0.5723605059
 40
0.6010923309
 40
0.6228429769
 40
0.6457244881
 40
0.67659351
 40
0.7181913287
 40
0.8360420512
 40
1.0
 40
1.0
 40
1.0
 40
1.0
 10
140.1198855054
 20
455.9840490916
 30
0.0
 10
140.1369989263
 20
455.9404236683
 30
0.0
 10
140.1606073843
 20
455.8845305639
 30
0.0
 10
140.1958914365
 20
455.8292356175
 30
0.0
 10
140.2111819771
 20
455.8140865934
 30
0.0
 10
140.2201399528
 20
455.8085691736
 30
0.0
 10
140.2291126554
 20
455.8084464109
 30
0.0
 10
140.2358728159
 20
455.8146118035
 30
0.0
 10
140.2403087611
 20
455.8245908115
 30
0.0
 10
140.245234751
 20
455.8457444053
 30
0.0
 10
140.2469104739
 20
455.8826627392
 30
0.0
 10
140.2456397482
 20
455.9146574294
 30
0.0
 10
140.2444273838
 20
455.9332565075
 30
0.0
  0
SPLINE
  5
3DE
100
AcDbEntity
  8
0
100
AcDbSpline
 62
7
  6
CONTINUOUS
 70
0
 71
3
 72
9
 73
5
 74
0
 42
0.0000001
 43
0.0000001
 44
0.0000000001
 40
0.0
 40
0.0
 40
0.0
 40
0.0
 40
0.2298783597
 40
1.0
 40
1.0
 40
1.0
 40
1.0
 10
140.2444273838
 20
455.9332565075
 30
0.0
 10
140.2440534155
 20
455.9389936143
 30
0.0
 10
140.2422315206
 20
455.9639380554
 30
0.0
 10
140.2397375508
 20
455.9888298907
 30
0.0
 10
140.2375905969
 20
456.0079706832
 30
0.0
  0
SPLINE
  5
3DF
100
AcDbEntity
  8
0
100
AcDbSpline
 62
7
  6
CONTINUOUS
 70
0
 71
3
 72
8
 73
4
 74
0
 42
0.0000001
 43
0.0000001
 44
0.0000000001
 40
0.0
 40
0.0
 40
0.0
 40
0.0
 40
1.0
 40
1.0
 40
1.0
 40
1.0
 10
139.8457063356
 20
458.9024759746
 30
0.0
 10
139.8459182579
 20
458.9049874474
 30
0.0
 10
139.8479247731
 20
458.9071821082
 30
0.0
 10
139.8498649992
 20
458.9087908124
 30
0.0
  0
SPLINE
  5
3E0
100
AcDbEntity
  8
0
100
AcDbSpline
 62
7
  6
CONTINUOUS
 70
0
 71
3
 72
9
 73
5
 74
0
 42
0.0000001
 43
0.0000001
 44
0.0000000001
 40
0.0
 40
0.0
 40
0.0
 40
0.0
 40
0.4672657458
 40
1.0
 40
1.0
 40
1.0
 40
1.0
 10
139.8498649992
 20
458.9087908124
 30
0.0
 10
139.8505964186
 20
458.9093972559
 30
0.0
 10
139.8522414272
 20
458.910599508
 30
0.0
 10
139.8539827375
 20
458.9116532869
 30
0.0
 10
139.8549269914
 20
458.9121841558
 30
0.0
  0
SPLINE
  5
3E1
100
AcDbEntity
  8
0
100
AcDbSpline
 62
7
  6
CONTINUOUS
 70
0
 71
3
 72
9
 73
5
 74
0
 42
0.0000001
 43
0.0000001
 44
0.0000000001
 40
0.0
 40
0.0
 40
0.0
 40
0.0
 40
0.2547728448
 40
1.0
 40
1.0
 40
1.0
 40
1.0
 10
139.8530489302
 20
458.781986732
 30
0.0
 10
139.855010401
 20
458.7538713646
 30
0.0
 10
139.8634063735
 20
458.6435675237
 30
0.0
 10
139.874677192
 20
458.5334741239
 30
0.0
 10
139.884980067
 20
458.451681288
 30
0.0
  0
SPLINE
  5
3E2
100
AcDbEntity
  8
0
100
AcDbSpline
 62
7
  6
CONTINUOUS
 70
0
 71
3
 72
20
 73
16
 74
0
 42
0.0000001
 43
0.0000001
 44
0.0000000001
 40
0.0
 40
0.0
 40
0.0
 40
0.0
 40
0.2411792923
 40
0.3489059645
 40
0.4451320938
 40
0.5277042302
 40
0.5951556385
 40
0.6468027227
 40
0.6832050903
 40
0.7070003522
 40
0.725303787
 40
0.748357471
 40
0.7806180739
 40
0.8736137277
 40
1.0
 40
1.0
 40
1.0
 40
1.0
 10
139.884980067
 20
458.451681288
 30
0.0
 10
139.8984026648
 20
458.3451214835
 30
0.0
 10
139.9223902542
 20
458.1914254971
 30
0.0
 10
139.9650458648
 20
457.9977841105
 30
0.0
 10
139.9983059445
 20
457.87455643
 30
0.0
 10
140.0329070917
 20
457.7703730778
 30
0.0
 10
140.0673114164
 20
457.6874416848
 30
0.0
 10
140.1005428986
 20
457.6261126955
 30
0.0
 10
140.1308490449
 20
457.5870894878
 30
0.0
 10
140.1613661338
 20
457.5653546096
 30
0.0
 10
140.1927365682
 20
457.5724487167
 30
0.0
 10
140.2117549438
 20
457.6012891245
 30
0.0
 10
140.2332684442
 20
457.6633980852
 30
0.0
 10
140.2453712549
 20
457.7762098324
 30
0.0
 10
140.2467546094
 20
457.8735939857
 30
0.0
 10
140.245954706
 20
457.9298705787
 30
0.0
  0
SPLINE
  5
3E3
100
AcDbEntity
  8
0
100
AcDbSpline
 62
7
  6
CONTINUOUS
 70
0
 71
3
 72
9
 73
5
 74
0
 42
0.0000001
 43
0.0000001
 44
0.0000000001
 40
0.0
 40
0.0
 40
0.0
 40
0.0
 40
0.4547549367
 40
1.0
 40
1.0
 40
1.0
 40
1.0
 10
140.245954706
 20
457.9298705787
 30
0.0
 10
140.244272779
 20
458.0482012594
 30
0.0
 10
140.2271331282
 20
458.3081223791
 30
0.0
 10
140.2003005668
 20
458.5669447075
 30
0.0
 10
140.1845140872
 20
458.7079550185
 30
0.0
  0
LINE
  5
3E4
100
AcDbEntity
  8
0
100
AcDbLine
 62
7
  6
CONTINUOUS
 10
140.1845082914
 20
458.7077324861
 11
140.1819326365
 21
458.7324294107
  0
SPLINE
  5
3E5
100
AcDbEntity
  8
0
100
AcDbSpline
 62
7
  6
CONTINUOUS
 70
0
 71
3
 72
9
 73
5
 74
0
 42
0.0000001
 43
0.0000001
 44
0.0000000001
 40
0.0
 40
0.0
 40
0.0
 40
0.0
 40
0.2231731647
 40
1.0
 40
1.0
 40
1.0
 40
1.0
 10
140.1819326365
 20
458.7324294107
 30
0.0
 10
140.164874963
 20
458.8968595738
 30
0.0
 10
140.0962186545
 20
459.6344219492
 30
0.0
 10
140.055659448
 20
460.3746551333
 30
0.0
 10
140.0414985425
 20
460.9499050323
 30
0.0
  0
SPLINE
  5
3E6
100
AcDbEntity
  8
0
100
AcDbSpline
 62
7
  6
CONTINUOUS
 70
0
 71
3
 72
9
 73
5
 74
0
 42
0.0000001
 43
0.0000001
 44
0.0000000001
 40
0.0
 40
0.0
 40
0.0
 40
0.0
 40
0.4996316054
 40
1.0
 40
1.0
 40
1.0
 40
1.0
 10
140.0088809872
 20
462.2955823227
 30
0.0
 10
139.9586246252
 20
464.4718170397
 30
0.0
 10
139.8874755258
 20
468.8282308697
 30
0.0
 10
139.8709035275
 20
473.1851148963
 30
0.0
 10
139.8700933377
 20
475.3651397499
 30
0.0
  0
LINE
  5
3E7
100
AcDbEntity
  8
0
100
AcDbLine
 62
7
  6
CONTINUOUS
 10
139.8700933377
 20
475.3651397499
 11
139.8701022709
 21
476.0533491802
  0
SPLINE
  5
3E8
100
AcDbEntity
  8
0
100
AcDbSpline
 62
7
  6
CONTINUOUS
 70
0
 71
3
 72
9
 73
5
 74
0
 42
0.0000001
 43
0.0000001
 44
0.0000000001
 40
0.0
 40
0.0
 40
0.0
 40
0.0
 40
0.5003685183
 40
1.0
 40
1.0
 40
1.0
 40
1.0
 10
139.8701022709
 20
476.0533491802
 30
0.0
 10
139.870968158
 20
478.2292294185
 30
0.0
 10
139.8876253696
 20
482.5778286803
 30
0.0
 10
139.9586885779
 20
486.9259578227
 30
0.0
 10
140.0088430726
 20
489.0980542226
 30
0.0
  0
SPLINE
  5
3E9
100
AcDbEntity
  8
0
100
AcDbSpline
 62
7
  6
CONTINUOUS
 70
0
 71
3
 72
9
 73
5
 74
0
 42
0.0000001
 43
0.0000001
 44
0.0000000001
 40
0.0
 40
0.0
 40
0.0
 40
0.0
 40
0.2675382686
 40
1.0
 40
1.0
 40
1.0
 40
1.0
 10
140.041498603
 20
490.4453996466
 30
0.0
 10
140.046377409
 20
490.6435253584
 30
0.0
 10
140.0730129992
 20
491.3838352693
 30
0.0
 10
140.1259461523
 20
492.1232747334
 30
0.0
 10
140.1819424864
 20
492.6629671762
 30
0.0
  0
LINE
  5
3EA
100
AcDbEntity
  8
0
100
AcDbLine
 62
7
  6
CONTINUOUS
 10
140.1819424864
 20
492.6629671762
 11
140.1845090475
 21
492.6875724998
  0
SPLINE
  5
3EB
100
AcDbEntity
  8
0
100
AcDbSpline
 62
7
  6
CONTINUOUS
 70
0
 71
3
 72
8
 73
4
 74
0
 42
0.0000001
 43
0.0000001
 44
0.0000000001
 40
0.0
 40
0.0
 40
0.0
 40
0.0
 40
1.0
 40
1.0
 40
1.0
 40
1.0
 10
139.8549154497
 20
492.4831457335
 30
0.0
 10
139.8517624017
 20
492.4847540139
 30
0.0
 10
139.8481173844
 20
492.4867049415
 30
0.0
 10
139.8467955699
 20
492.4899883976
 30
0.0
  0
SPLINE
  5
3EC
100
AcDbEntity
  8
0
100
AcDbSpline
 62
7
  6
CONTINUOUS
 70
0
 71
3
 72
9
 73
5
 74
0
 42
0.0000001
 43
0.0000001
 44
0.0000000001
 40
0.0
 40
0.0
 40
0.0
 40
0.0
 40
0.4163070998
 40
1.0
 40
1.0
 40
1.0
 40
1.0
 10
139.8467955699
 20
492.4899883976
 30
0.0
 10
139.8464523412
 20
492.4908409957
 30
0.0
 10
139.8459939324
 20
492.4930292851
 30
0.0
 10
139.8459439585
 20
492.4952404391
 30
0.0
 10
139.8459661232
 20
492.4965288819
 30
0.0
  0
LINE
  5
3ED
100
AcDbEntity
  8
0
100
AcDbLine
 62
7
  6
CONTINUOUS
 10
139.8549172363
 20
493.9116404352
 11
139.8554572706
 21
493.9211314226
  0
SPLINE
  5
3EE
100
AcDbEntity
  8
0
100
AcDbSpline
 62
7
  6
CONTINUOUS
 70
0
 71
3
 72
22
 73
18
 74
0
 42
0.0000001
 43
0.0000001
 44
0.0000000001
 40
0.0
 40
0.0
 40
0.0
 40
0.0
 40
0.2275280217
 40
0.4392228533
 40
0.6246196734
 40
0.7044357445
 40
0.774130133
 40
0.8328149753
 40
0.8797339176
 40
0.914670416
 40
0.9379402084
 40
0.9506991
 40
0.954858283
 40
0.9596230095
 40
0.9662353111
 40
0.9751199403
 40
1.0
 40
1.0
 40
1.0
 40
1.0
 10
139.8554572706
 20
493.9211314226
 30
0.0
 10
139.8630570371
 20
494.0533487895
 30
0.0
 10
139.8836376827
 20
494.308325857
 30
0.0
 10
139.9347111125
 20
494.6685178439
 30
0.0
 10
139.9908806672
 20
494.9405780839
 30
0.0
 10
140.0401462856
 20
495.1292404879
 30
0.0
 10
140.0750154938
 20
495.2452881868
 30
0.0
 10
140.1084450225
 20
495.3418511518
 30
0.0
 10
140.1390697955
 20
495.4174209618
 30
0.0
 10
140.1663476417
 20
495.4731129162
 30
0.0
 10
140.1883089935
 20
495.506477366
 30
0.0
 10
140.2063422777
 20
495.5252690529
 30
0.0
 10
140.2199172272
 20
495.5238378095
 30
0.0
 10
140.226054134
 20
495.5164168007
 30
0.0
 10
140.2301838167
 20
495.5053866746
 30
0.0
 10
140.2346376316
 20
495.482190931
 30
0.0
 10
140.2351861202
 20
495.4624680195
 30
0.0
 10
140.235190028
 20
495.4479862623
 30
0.0
  0
SPLINE
  5
3EF
100
AcDbEntity
  8
0
100
AcDbSpline
 62
7
  6
CONTINUOUS
 70
0
 71
3
 72
8
 73
4
 74
0
 42
0.0000001
 43
0.0000001
 44
0.0000000001
 40
0.0
 40
0.0
 40
0.0
 40
0.0
 40
1.0
 40
1.0
 40
1.0
 40
1.0
 10
139.8549343141
 20
493.9117211341
 30
0.0
 10
139.8518546906
 20
493.9135141931
 30
0.0
 10
139.8486736917
 20
493.9156371801
 30
0.0
 10
139.8468180995
 20
493.9186795342
 30
0.0
  0
SPLINE
  5
3F0
100
AcDbEntity
  8
0
100
AcDbSpline
 62
7
  6
CONTINUOUS
 70
0
 71
3
 72
9
 73
5
 74
0
 42
0.0000001
 43
0.0000001
 44
0.0000000001
 40
0.0
 40
0.0
 40
0.0
 40
0.0
 40
0.5249061456
 40
1.0
 40
1.0
 40
1.0
 40
1.0
 10
139.8468180995
 20
493.9186795342
 30
0.0
 10
139.8464780072
 20
493.9192371358
 30
0.0
 10
139.8459314166
 20
493.9203702097
 30
0.0
 10
139.8457234468
 20
493.9216200197
 30
0.0
 10
139.8457247328
 20
493.9222111703
 30
0.0
  0
LINE
  5
3F1
100
AcDbEntity
  8
0
100
AcDbLine
 62
7
  6
CONTINUOUS
 10
140.2151514858
 20
496.0327554013
 11
140.215923311
 21
496.035383245
  0
SPLINE
  5
3F2
100
AcDbEntity
  8
0
100
AcDbSpline
 62
7
  6
CONTINUOUS
 70
0
 71
3
 72
13
 73
9
 74
0
 42
0.0000001
 43
0.0000001
 44
0.0000000001
 40
0.0
 40
0.0
 40
0.0
 40
0.0
 40
0.0668747794
 40
0.1557425269
 40
0.266147988
 40
0.3950621846
 40
0.6906954169
 40
1.0
 40
1.0
 40
1.0
 40
1.0
 10
140.0415005797
 20
490.4454043771
 30
0.0
 10
140.1145277493
 20
490.4840375747
 30
0.0
 10
140.2941694255
 20
490.5553922675
 30
0.0
 10
140.6108830556
 20
490.6444294825
 30
0.0
 10
141.0084856287
 20
490.7254089941
 30
0.0
 10
141.6621713909
 20
490.8238488655
 30
0.0
 10
142.5662076359
 20
490.9023161161
 30
0.0
 10
143.3134883876
 20
490.9257173059
 30
0.0
 10
143.6955933507
 20
490.9280764918
 30
0.0
  0
SPLINE
  5
3F3
100
AcDbEntity
  8
0
100
AcDbSpline
 62
7
  6
CONTINUOUS
 70
0
 71
3
 72
11
 73
7
 74
0
 42
0.0000001
 43
0.0000001
 44
0.0000000001
 40
0.0
 40
0.0
 40
0.0
 40
0.0
 40
0.2505213961
 40
0.5008388189
 40
0.7507467996
 40
1.0
 40
1.0
 40
1.0
 40
1.0
 10
144.2541242398
 20
497.6479971979
 30
0.0
 10
143.7572832448
 20
497.4100523734
 30
0.0
 10
142.8170612878
 20
496.8146548955
 30
0.0
 10
141.644383631
 20
495.6352866613
 30
0.0
 10
140.7437369455
 20
494.2419735255
 30
0.0
 10
140.3372291166
 20
493.2138648919
 30
0.0
 10
140.1845304816
 20
492.6874741973
 30
0.0
  0
SPLINE
  5
3F4
100
AcDbEntity
  8
0
100
AcDbSpline
 62
7
  6
CONTINUOUS
 70
0
 71
3
 72
11
 73
7
 74
0
 42
0.0000001
 43
0.0000001
 44
0.0000000001
 40
0.0
 40
0.0
 40
0.0
 40
0.0
 40
0.3165921547
 40
0.5993387307
 40
0.8293111222
 40
1.0
 40
1.0
 40
1.0
 40
1.0
 10
145.835192241
 20
496.5974587962
 30
0.0
 10
145.6369788439
 20
496.656476482
 30
0.0
 10
145.2673124592
 20
496.7879439849
 30
0.0
 10
144.7827489989
 20
497.0366518419
 30
0.0
 10
144.4265796119
 20
497.30676597
 30
0.0
 10
144.2740325925
 20
497.5382514555
 30
0.0
 10
144.2540291207
 20
497.6479445622
 30
0.0
  0
SPLINE
  5
3F5
100
AcDbEntity
  8
0
100
AcDbSpline
 62
7
  6
CONTINUOUS
 70
0
 71
3
 72
11
 73
7
 74
0
 42
0.0000001
 43
0.0000001
 44
0.0000000001
 40
0.0
 40
0.0
 40
0.0
 40
0.0
 40
0.2492555445
 40
0.4991632616
 40
0.7494800664
 40
1.0
 40
1.0
 40
1.0
 40
1.0
 10
140.1845140872
 20
458.7079550185
 30
0.0
 10
140.3372131056
 20
458.1815488287
 30
0.0
 10
140.7436852474
 20
457.153399581
 30
0.0
 10
141.644356547
 20
455.7600594006
 30
0.0
 10
142.8170409948
 20
454.5806649748
 30
0.0
 10
143.7572772366
 20
453.9852596238
 30
0.0
 10
144.2541242398
 20
453.7473119078
 30
0.0
  0
SPLINE
  5
3F6
100
AcDbEntity
  8
0
100
AcDbSpline
 62
7
  6
CONTINUOUS
 70
0
 71
3
 72
13
 73
9
 74
0
 42
0.0000001
 43
0.0000001
 44
0.0000000001
 40
0.0
 40
0.0
 40
0.0
 40
0.0
 40
0.3093058691
 40
0.6049393327
 40
0.7338532599
 40
0.8442583041
 40
0.9331255999
 40
1.0
 40
1.0
 40
1.0
 40
1.0
 10
143.6955933507
 20
460.4672327126
 30
0.0
 10
143.3134867872
 20
460.4695919732
 30
0.0
 10
142.5662041405
 20
460.492993423
 30
0.0
 10
141.6621663607
 20
460.5714612241
 30
0.0
 10
141.0084811961
 20
460.6699014406
 30
0.0
 10
140.6108800508
 20
460.7508809744
 30
0.0
 10
140.29416796
 20
460.839918015
 30
0.0
 10
140.1145272933
 20
460.9112724539
 30
0.0
 10
140.0415005419
 20
460.9499054454
 30
0.0
  0
SPLINE
  5
3F7
100
AcDbEntity
  8
0
100
AcDbSpline
 62
7
  6
CONTINUOUS
 70
0
 71
3
 72
21
 73
17
 74
0
 42
0.0000001
 43
0.0000001
 44
0.0000000001
 40
0.0
 40
0.0
 40
0.0
 40
0.0
 40
0.230900123
 40
0.4407748903
 40
0.5321911296
 40
0.6111887189
 40
0.6756014983
 40
0.7242557017
 40
0.7574097505
 40
0.7778201163
 40
0.7940359687
 40
0.8168113553
 40
0.8492583441
 40
0.8912158494
 40
0.941778239
 40
1.0
 40
1.0
 40
1.0
 40
1.0
 10
139.8476939854
 20
492.5293171995
 30
0.0
 10
139.8553587031
 20
492.6640042199
 30
0.0
 10
139.877609542
 20
492.9207433324
 30
0.0
 10
139.9260938199
 20
493.2282987186
 30
0.0
 10
139.9766298215
 20
493.4447242972
 30
0.0
 10
140.0155566494
 20
493.5764702417
 30
0.0
 10
140.0548842544
 20
493.6814480165
 30
0.0
 10
140.0936690331
 20
493.758530048
 30
0.0
 10
140.1277674245
 20
493.8062899118
 30
0.0
 10
140.1648156939
 20
493.8324103807
 30
0.0
 10
140.2007405126
 20
493.8166130642
 30
0.0
 10
140.2186211412
 20
493.7771180732
 30
0.0
 10
140.233028514
 20
493.7225709306
 30
0.0
 10
140.2418055544
 20
493.6497200007
 30
0.0
 10
140.2463535109
 20
493.5618213428
 30
0.0
 10
140.246439696
 20
493.4982148064
 30
0.0
 10
140.2459422037
 20
493.4642019929
 30
0.0
  0
SPLINE
  5
3F8
100
AcDbEntity
  8
0
100
AcDbSpline
 62
7
  6
CONTINUOUS
 70
0
 71
3
 72
9
 73
5
 74
0
 42
0.0000001
 43
0.0000001
 44
0.0000000001
 40
0.0
 40
0.0
 40
0.0
 40
0.0
 40
0.4549295942
 40
1.0
 40
1.0
 40
1.0
 40
1.0
 10
140.2459422037
 20
493.4642019929
 30
0.0
 10
140.2442137814
 20
493.3460323011
 30
0.0
 10
140.2270604714
 20
493.0865682234
 30
0.0
 10
140.2002834702
 20
492.8281944597
 30
0.0
 10
140.1845304816
 20
492.6874741973
 30
0.0
  0
SPLINE
  5
3F9
100
AcDbEntity
  8
0
100
AcDbSpline
 62
7
  6
CONTINUOUS
 70
0
 71
3
 72
10
 73
6
 74
0
 42
0.0000001
 43
0.0000001
 44
0.0000000001
 40
0.0
 40
0.0
 40
0.0
 40
0.0
 40
0.5934766702
 40
0.8288330473
 40
1.0
 40
1.0
 40
1.0
 40
1.0
 10
139.845705367
 20
493.9222006523
 30
0.0
 10
139.8621686317
 20
494.2266033053
 30
0.0
 10
139.9116390151
 20
494.6516154838
 30
0.0
 10
140.0306032109
 20
495.1515597205
 30
0.0
 10
140.0949737857
 20
495.3507137109
 30
0.0
 10
140.1282161821
 20
495.4321094752
 30
0.0
  0
SPLINE
  5
3FA
100
AcDbEntity
  8
0
100
AcDbSpline
 62
7
  6
CONTINUOUS
 70
0
 71
3
 72
15
 73
11
 74
0
 42
0.0000001
 43
0.0000001
 44
0.0000000001
 40
0.0
 40
0.0
 40
0.0
 40
0.0
 40
0.242676267
 40
0.4299464613
 40
0.5630021006
 40
0.6456619563
 40
0.693602823
 40
0.7537471529
 40
0.8546114821
 40
1.0
 40
1.0
 40
1.0
 40
1.0
 10
140.1282161821
 20
495.4321094752
 30
0.0
 10
140.1366677581
 20
495.4528036057
 30
0.0
 10
140.1525190265
 20
495.4890284588
 30
0.0
 10
140.1760177952
 20
495.53560879
 30
0.0
 10
140.1969273626
 20
495.5658455071
 30
0.0
 10
140.2127993101
 20
495.5853734978
 30
0.0
 10
140.2332857649
 20
495.5874976341
 30
0.0
 10
140.2422280023
 20
495.5669222012
 30
0.0
 10
140.2459017716
 20
495.5401914603
 30
0.0
 10
140.2463985676
 20
495.5170279322
 30
0.0
 10
140.2462051003
 20
495.5036372779
 30
0.0
  0
SPLINE
  5
3FB
100
AcDbEntity
  8
0
100
AcDbSpline
 62
7
  6
CONTINUOUS
 70
0
 71
3
 72
8
 73
4
 74
0
 42
0.0000001
 43
0.0000001
 44
0.0000000001
 40
0.0
 40
0.0
 40
0.0
 40
0.0
 40
1.0
 40
1.0
 40
1.0
 40
1.0
 10
140.2462051003
 20
495.5036372779
 30
0.0
 10
140.2460416978
 20
495.4923275256
 30
0.0
 10
140.2455642445
 20
495.4810210965
 30
0.0
 10
140.2449048332
 20
495.4697294016
 30
0.0
  0
SPLINE
  5
3FC
100
AcDbEntity
  8
0
100
AcDbSpline
 62
7
  6
CONTINUOUS
 70
0
 71
3
 72
9
 73
5
 74
0
 42
0.0000001
 43
0.0000001
 44
0.0000000001
 40
0.0
 40
0.0
 40
0.0
 40
0.0
 40
0.1994564276
 40
1.0
 40
1.0
 40
1.0
 40
1.0
 10
140.2431729988
 20
495.444853595
 30
0.0
 10
140.24126034
 20
495.4208776357
 30
0.0
 10
140.2285763176
 20
495.3009246999
 30
0.0
 10
140.2088934318
 20
495.1818662229
 30
0.0
 10
140.1927364753
 20
495.0866916378
 30
0.0
  0
SPLINE
  5
3FD
100
AcDbEntity
  8
0
100
AcDbSpline
 62
7
  6
CONTINUOUS
 70
0
 71
3
 72
9
 73
5
 74
0
 42
0.0000001
 43
0.0000001
 44
0.0000000001
 40
0.0
 40
0.0
 40
0.0
 40
0.0
 40
0.2120324989
 40
1.0
 40
1.0
 40
1.0
 40
1.0
 10
140.1927364753
 20
495.0866916378
 30
0.0
 10
140.1800216636
 20
495.0117934391
 30
0.0
 10
140.1173024826
 20
494.6590337945
 30
0.0
 10
140.0534971264
 20
494.306418213
 30
0.0
 10
140.0096632685
 20
494.0275185278
 30
0.0
  0
SPLINE
  5
3FE
100
AcDbEntity
  8
0
100
AcDbSpline
 62
7
  6
CONTINUOUS
 70
0
 71
3
 72
9
 73
5
 74
0
 42
0.0000001
 43
0.0000001
 44
0.0000000001
 40
0.0
 40
0.0
 40
0.0
 40
0.0
 40
0.2366782082
 40
1.0
 40
1.0
 40
1.0
 40
1.0
 10
139.9916642975
 20
493.9107569396
 30
0.0
 10
139.9752100385
 20
493.8018251269
 30
0.0
 10
139.9097396696
 20
493.3410093565
 30
0.0
 10
139.864196434
 20
492.8770263168
 30
0.0
 10
139.8471766185
 20
492.5221278475
 30
0.0
  0
LINE
  5
3FF
100
AcDbEntity
  8
0
100
AcDbLine
 62
7
  6
CONTINUOUS
 10
139.8471766185
 20
492.5221278475
 11
139.846462523
 21
492.5070080188
  0
SPLINE
  5
400
100
AcDbEntity
  8
0
100
AcDbSpline
 62
7
  6
CONTINUOUS
 70
0
 71
3
 72
10
 73
6
 74
0
 42
0.0000001
 43
0.0000001
 44
0.0000000001
 40
0.0
 40
0.0
 40
0.0
 40
0.0
 40
0.1798988083
 40
0.4131742219
 40
1.0
 40
1.0
 40
1.0
 40
1.0
 10
140.2375905969
 20
456.0079706832
 30
0.0
 10
140.2288914034
 20
456.0855268208
 30
0.0
 10
140.2014349376
 20
456.2627514226
 30
0.0
 10
140.1256606087
 20
456.6898470669
 30
0.0
 10
140.0622532818
 20
457.0399766162
 30
0.0
 10
140.0218219345
 20
457.2913182626
 30
0.0
  0
SPLINE
  5
401
100
AcDbEntity
  8
0
100
AcDbSpline
 62
7
  6
CONTINUOUS
 70
0
 71
3
 72
9
 73
5
 74
0
 42
0.0000001
 43
0.0000001
 44
0.0000000001
 40
0.0
 40
0.0
 40
0.0
 40
0.0
 40
0.2436295146
 40
1.0
 40
1.0
 40
1.0
 40
1.0
 10
139.9211793363
 20
458.0046674964
 30
0.0
 10
139.912554403
 20
458.0773270877
 30
0.0
 10
139.879379443
 20
458.3758178164
 30
0.0
 10
139.8560989484
 20
458.6754692554
 30
0.0
 10
139.8457123131
 20
458.9023938276
 30
0.0
  0
SPLINE
  5
402
100
AcDbEntity
  8
0
100
AcDbSpline
 62
7
  6
CONTINUOUS
 70
0
 71
3
 72
10
 73
6
 74
0
 42
0.0000001
 43
0.0000001
 44
0.0000000001
 40
0.0
 40
0.0
 40
0.0
 40
0.0
 40
0.5419698467
 40
0.7805528233
 40
1.0
 40
1.0
 40
1.0
 40
1.0
 10
170.640334654
 20
801.6387611168
 30
0.0
 10
170.637521841
 20
801.6841679561
 30
0.0
 10
170.6505115134
 20
801.754088904
 30
0.0
 10
170.7072273694
 20
801.8186073809
 30
0.0
 10
170.7443300875
 20
801.834145925
 30
0.0
 10
170.7625657217
 20
801.8367510156
 30
0.0
  0
SPLINE
  5
403
100
AcDbEntity
  8
0
100
AcDbSpline
 62
7
  6
CONTINUOUS
 70
0
 71
3
 72
10
 73
6
 74
0
 42
0.0000001
 43
0.0000001
 44
0.0000000001
 40
0.0
 40
0.0
 40
0.0
 40
0.0
 40
0.5387353084
 40
0.7794365932
 40
1.0
 40
1.0
 40
1.0
 40
1.0
 10
170.6403349048
 20
828.6582283008
 30
0.0
 10
170.6351896881
 20
828.7415553428
 30
0.0
 10
170.6563988209
 20
828.8688547201
 30
0.0
 10
170.7499417932
 20
828.9954937833
 30
0.0
 10
170.8129974438
 20
829.0343274894
 30
0.0
 10
170.8454876446
 20
829.0449411589
 30
0.0
  0
SPLINE
  5
404
100
AcDbEntity
  8
0
100
AcDbSpline
 62
7
  6
CONTINUOUS
 70
0
 71
3
 72
18
 73
14
 74
0
 42
0.0000001
 43
0.0000001
 44
0.0000000001
 40
0.0
 40
0.0
 40
0.0
 40
0.0
 40
0.1722219703
 40
0.3395918043
 40
0.4987198594
 40
0.6462293412
 40
0.7774242527
 40
0.8349183432
 40
0.8856911018
 40
0.9286210358
 40
0.9625655256
 40
0.9865194118
 40
1.0
 40
1.0
 40
1.0
 40
1.0
 10
171.8454880432
 20
834.4976539589
 30
0.0
 10
171.8454880432
 20
834.6272812153
 30
0.0
 10
171.8030433033
 20
834.8837006414
 30
0.0
 10
171.6561449464
 20
835.2308265181
 30
0.0
 10
171.4782545916
 20
835.5405706424
 30
0.0
 10
171.296291622
 20
835.8154388738
 30
0.0
 10
171.1501944712
 20
836.022078681
 30
0.0
 10
171.0454131936
 20
836.1687027221
 30
0.0
 10
170.9795296533
 20
836.2615557965
 30
0.0
 10
170.9251122823
 20
836.340570085
 30
0.0
 10
170.8833170466
 20
836.404372215
 30
0.0
 10
170.8575435038
 20
836.4506914456
 30
0.0
 10
170.8454880432
 20
836.4774823248
 30
0.0
 10
170.8454880432
 20
836.4876288332
 30
0.0
  0
SPLINE
  5
405
100
AcDbEntity
  8
0
100
AcDbSpline
 62
7
  6
CONTINUOUS
 70
0
 71
3
 72
10
 73
6
 74
0
 42
0.0000001
 43
0.0000001
 44
0.0000000001
 40
0.0
 40
0.0
 40
0.0
 40
0.0
 40
0.2204560372
 40
0.4611377528
 40
1.0
 40
1.0
 40
1.0
 40
1.0
 10
170.8454876444
 20
821.150366759
 30
0.0
 10
170.8130134035
 20
821.1609752143
 30
0.0
 10
170.7499880417
 20
821.1998098903
 30
0.0
 10
170.6563788566
 20
821.3263953368
 30
0.0
 10
170.6351887052
 20
821.4537332981
 30
0.0
 10
170.6403349048
 20
821.5370796172
 30
0.0
  0
SPLINE
  5
406
100
AcDbEntity
  8
0
100
AcDbSpline
 62
7
  6
CONTINUOUS
 70
0
 71
3
 72
18
 73
14
 74
0
 42
0.0000001
 43
0.0000001
 44
0.0000000001
 40
0.0
 40
0.0
 40
0.0
 40
0.0
 40
0.013480559
 40
0.0374344094
 40
0.0713789535
 40
0.1143088996
 40
0.1650816936
 40
0.2225758179
 40
0.3537708712
 40
0.5012804324
 40
0.6604085233
 40
0.827778376
 40
1.0
 40
1.0
 40
1.0
 40
1.0
 10
170.8454880432
 20
786.5076790847
 30
0.0
 10
170.8454880432
 20
786.5178255711
 30
0.0
 10
170.8575434682
 20
786.5446164079
 30
0.0
 10
170.8833170102
 20
786.5909356322
 30
0.0
 10
170.9251122466
 20
786.6547377888
 30
0.0
 10
170.9795296663
 20
786.7337521371
 30
0.0
 10
171.04541324
 20
786.8266052625
 30
0.0
 10
171.1501946149
 20
786.9732294293
 30
0.0
 10
171.296291863
 20
787.1798694017
 30
0.0
 10
171.4782549932
 20
787.454737761
 30
0.0
 10
171.6561452474
 20
787.7644820627
 30
0.0
 10
171.8030433858
 20
788.1116077905
 30
0.0
 10
171.8454880432
 20
788.3680269633
 30
0.0
 10
171.8454880432
 20
788.4976539589
 30
0.0
  0
SPLINE
  5
407
100
AcDbEntity
  8
0
100
AcDbSpline
 62
7
  6
CONTINUOUS
 70
0
 71
3
 72
10
 73
6
 74
0
 42
0.0000001
 43
0.0000001
 44
0.0000000001
 40
0.0
 40
0.0
 40
0.0
 40
0.0
 40
0.2193660506
 40
0.4578346352
 40
1.0
 40
1.0
 40
1.0
 40
1.0
 10
170.7625657216
 20
793.9585569023
 30
0.0
 10
170.7443369124
 20
793.9611610179
 30
0.0
 10
170.7072487188
 20
793.9766865403
 30
0.0
 10
170.6505198897
 20
794.0411920143
 30
0.0
 10
170.637520839
 20
794.1111237896
 30
0.0
 10
170.6403346539
 20
794.1565468011
 30
0.0
  0
SPLINE
  5
408
100
AcDbEntity
  8
0
100
AcDbSpline
 62
7
  6
CONTINUOUS
 70
0
 71
3
 72
10
 73
6
 74
0
 42
0.0000001
 43
0.0000001
 44
0.0000000001
 40
0.0
 40
0.0
 40
0.0
 40
0.0
 40
0.5419698467
 40
0.7805528233
 40
1.0
 40
1.0
 40
1.0
 40
1.0
 10
170.640334654
 20
139.6387611168
 30
0.0
 10
170.637521841
 20
139.6841679561
 30
0.0
 10
170.6505115134
 20
139.754088904
 30
0.0
 10
170.7072273694
 20
139.8186073809
 30
0.0
 10
170.7443300875
 20
139.834145925
 30
0.0
 10
170.7625657217
 20
139.8367510156
 30
0.0
  0
SPLINE
  5
409
100
AcDbEntity
  8
0
100
AcDbSpline
 62
7
  6
CONTINUOUS
 70
0
 71
3
 72
10
 73
6
 74
0
 42
0.0000001
 43
0.0000001
 44
0.0000000001
 40
0.0
 40
0.0
 40
0.0
 40
0.0
 40
0.5387353084
 40
0.7794365932
 40
1.0
 40
1.0
 40
1.0
 40
1.0
 10
170.6403349048
 20
166.6582283008
 30
0.0
 10
170.6351896881
 20
166.7415553428
 30
0.0
 10
170.6563988209
 20
166.8688547201
 30
0.0
 10
170.7499417932
 20
166.9954937833
 30
0.0
 10
170.8129974438
 20
167.0343274894
 30
0.0
 10
170.8454876446
 20
167.0449411589
 30
0.0
  0
SPLINE
  5
40A
100
AcDbEntity
  8
0
100
AcDbSpline
 62
7
  6
CONTINUOUS
 70
0
 71
3
 72
18
 73
14
 74
0
 42
0.0000001
 43
0.0000001
 44
0.0000000001
 40
0.0
 40
0.0
 40
0.0
 40
0.0
 40
0.1722219703
 40
0.3395918043
 40
0.4987198594
 40
0.6462293412
 40
0.7774242527
 40
0.8349183432
 40
0.8856911018
 40
0.9286210358
 40
0.9625655256
 40
0.9865194118
 40
1.0
 40
1.0
 40
1.0
 40
1.0
 10
171.8454880432
 20
172.4976539589
 30
0.0
 10
171.8454880432
 20
172.6272812153
 30
0.0
 10
171.8030433033
 20
172.8837006414
 30
0.0
 10
171.6561449464
 20
173.2308265181
 30
0.0
 10
171.4782545916
 20
173.5405706424
 30
0.0
 10
171.296291622
 20
173.8154388738
 30
0.0
 10
171.1501944712
 20
174.022078681
 30
0.0
 10
171.0454131936
 20
174.1687027221
 30
0.0
 10
170.9795296533
 20
174.2615557965
 30
0.0
 10
170.9251122823
 20
174.340570085
 30
0.0
 10
170.8833170466
 20
174.404372215
 30
0.0
 10
170.8575435038
 20
174.4506914456
 30
0.0
 10
170.8454880432
 20
174.4774823248
 30
0.0
 10
170.8454880432
 20
174.4876288332
 30
0.0
  0
SPLINE
  5
40B
100
AcDbEntity
  8
0
100
AcDbSpline
 62
7
  6
CONTINUOUS
 70
0
 71
3
 72
10
 73
6
 74
0
 42
0.0000001
 43
0.0000001
 44
0.0000000001
 40
0.0
 40
0.0
 40
0.0
 40
0.0
 40
0.2204560372
 40
0.4611377528
 40
1.0
 40
1.0
 40
1.0
 40
1.0
 10
170.8454876444
 20
159.150366759
 30
0.0
 10
170.8130134035
 20
159.1609752143
 30
0.0
 10
170.7499880417
 20
159.1998098903
 30
0.0
 10
170.6563788566
 20
159.3263953368
 30
0.0
 10
170.6351887052
 20
159.4537332981
 30
0.0
 10
170.6403349048
 20
159.5370796172
 30
0.0
  0
SPLINE
  5
40C
100
AcDbEntity
  8
0
100
AcDbSpline
 62
7
  6
CONTINUOUS
 70
0
 71
3
 72
18
 73
14
 74
0
 42
0.0000001
 43
0.0000001
 44
0.0000000001
 40
0.0
 40
0.0
 40
0.0
 40
0.0
 40
0.013480559
 40
0.0374344094
 40
0.0713789535
 40
0.1143088996
 40
0.1650816936
 40
0.2225758179
 40
0.3537708712
 40
0.5012804324
 40
0.6604085233
 40
0.827778376
 40
1.0
 40
1.0
 40
1.0
 40
1.0
 10
170.8454880432
 20
124.5076790847
 30
0.0
 10
170.8454880432
 20
124.5178255711
 30
0.0
 10
170.8575434682
 20
124.5446164079
 30
0.0
 10
170.8833170102
 20
124.5909356322
 30
0.0
 10
170.9251122466
 20
124.6547377888
 30
0.0
 10
170.9795296663
 20
124.7337521371
 30
0.0
 10
171.04541324
 20
124.8266052625
 30
0.0
 10
171.1501946149
 20
124.9732294293
 30
0.0
 10
171.296291863
 20
125.1798694017
 30
0.0
 10
171.4782549932
 20
125.454737761
 30
0.0
 10
171.6561452474
 20
125.7644820627
 30
0.0
 10
171.8030433858
 20
126.1116077905
 30
0.0
 10
171.8454880432
 20
126.3680269633
 30
0.0
 10
171.8454880432
 20
126.4976539589
 30
0.0
  0
SPLINE
  5
40D
100
AcDbEntity
  8
0
100
AcDbSpline
 62
7
  6
CONTINUOUS
 70
0
 71
3
 72
10
 73
6
 74
0
 42
0.0000001
 43
0.0000001
 44
0.0000000001
 40
0.0
 40
0.0
 40
0.0
 40
0.0
 40
0.2193660506
 40
0.4578346352
 40
1.0
 40
1.0
 40
1.0
 40
1.0
 10
170.7625657216
 20
131.9585569023
 30
0.0
 10
170.7443369124
 20
131.9611610179
 30
0.0
 10
170.7072487188
 20
131.9766865403
 30
0.0
 10
170.6505198897
 20
132.0411920143
 30
0.0
 10
170.637520839
 20
132.1111237896
 30
0.0
 10
170.6403346539
 20
132.1565468011
 30
0.0
  0
SPLINE
  5
40E
100
AcDbEntity
  8
0
100
AcDbSpline
 62
7
  6
CONTINUOUS
 70
0
 71
3
 72
10
 73
6
 74
0
 42
0.0000001
 43
0.0000001
 44
0.0000000001
 40
0.0
 40
0.0
 40
0.0
 40
0.0
 40
0.5419698467
 40
0.7805528233
 40
1.0
 40
1.0
 40
1.0
 40
1.0
 10
170.640334654
 20
526.6387611168
 30
0.0
 10
170.637521841
 20
526.6841679561
 30
0.0
 10
170.6505115134
 20
526.754088904
 30
0.0
 10
170.7072273694
 20
526.8186073809
 30
0.0
 10
170.7443300875
 20
526.834145925
 30
0.0
 10
170.7625657217
 20
526.8367510156
 30
0.0
  0
SPLINE
  5
40F
100
AcDbEntity
  8
0
100
AcDbSpline
 62
7
  6
CONTINUOUS
 70
0
 71
3
 72
10
 73
6
 74
0
 42
0.0000001
 43
0.0000001
 44
0.0000000001
 40
0.0
 40
0.0
 40
0.0
 40
0.0
 40
0.5387353084
 40
0.7794365932
 40
1.0
 40
1.0
 40
1.0
 40
1.0
 10
170.6403349048
 20
553.6582283008
 30
0.0
 10
170.6351896881
 20
553.7415553428
 30
0.0
 10
170.6563988209
 20
553.8688547201
 30
0.0
 10
170.7499417932
 20
553.9954937833
 30
0.0
 10
170.8129974438
 20
554.0343274894
 30
0.0
 10
170.8454876446
 20
554.0449411589
 30
0.0
  0
SPLINE
  5
410
100
AcDbEntity
  8
0
100
AcDbSpline
 62
7
  6
CONTINUOUS
 70
0
 71
3
 72
18
 73
14
 74
0
 42
0.0000001
 43
0.0000001
 44
0.0000000001
 40
0.0
 40
0.0
 40
0.0
 40
0.0
 40
0.1722219703
 40
0.3395918043
 40
0.4987198594
 40
0.6462293412
 40
0.7774242527
 40
0.8349183432
 40
0.8856911018
 40
0.9286210358
 40
0.9625655256
 40
0.9865194118
 40
1.0
 40
1.0
 40
1.0
 40
1.0
 10
171.8454880432
 20
559.4976539589
 30
0.0
 10
171.8454880432
 20
559.6272812153
 30
0.0
 10
171.8030433033
 20
559.8837006414
 30
0.0
 10
171.6561449464
 20
560.2308265181
 30
0.0
 10
171.4782545916
 20
560.5405706424
 30
0.0
 10
171.296291622
 20
560.8154388738
 30
0.0
 10
171.1501944712
 20
561.022078681
 30
0.0
 10
171.0454131936
 20
561.1687027221
 30
0.0
 10
170.9795296533
 20
561.2615557965
 30
0.0
 10
170.9251122823
 20
561.340570085
 30
0.0
 10
170.8833170466
 20
561.404372215
 30
0.0
 10
170.8575435038
 20
561.4506914456
 30
0.0
 10
170.8454880432
 20
561.4774823248
 30
0.0
 10
170.8454880432
 20
561.4876288332
 30
0.0
  0
SPLINE
  5
411
100
AcDbEntity
  8
0
100
AcDbSpline
 62
7
  6
CONTINUOUS
 70
0
 71
3
 72
10
 73
6
 74
0
 42
0.0000001
 43
0.0000001
 44
0.0000000001
 40
0.0
 40
0.0
 40
0.0
 40
0.0
 40
0.2204560372
 40
0.4611377528
 40
1.0
 40
1.0
 40
1.0
 40
1.0
 10
170.8454876444
 20
546.150366759
 30
0.0
 10
170.8130134035
 20
546.1609752143
 30
0.0
 10
170.7499880417
 20
546.1998098903
 30
0.0
 10
170.6563788566
 20
546.3263953368
 30
0.0
 10
170.6351887052
 20
546.4537332981
 30
0.0
 10
170.6403349048
 20
546.5370796172
 30
0.0
  0
SPLINE
  5
412
100
AcDbEntity
  8
0
100
AcDbSpline
 62
7
  6
CONTINUOUS
 70
0
 71
3
 72
18
 73
14
 74
0
 42
0.0000001
 43
0.0000001
 44
0.0000000001
 40
0.0
 40
0.0
 40
0.0
 40
0.0
 40
0.013480559
 40
0.0374344094
 40
0.0713789535
 40
0.1143088996
 40
0.1650816936
 40
0.2225758179
 40
0.3537708712
 40
0.5012804324
 40
0.6604085233
 40
0.827778376
 40
1.0
 40
1.0
 40
1.0
 40
1.0
 10
170.8454880432
 20
511.5076790847
 30
0.0
 10
170.8454880432
 20
511.5178255711
 30
0.0
 10
170.8575434682
 20
511.5446164079
 30
0.0
 10
170.8833170102
 20
511.5909356322
 30
0.0
 10
170.9251122466
 20
511.6547377888
 30
0.0
 10
170.9795296663
 20
511.7337521371
 30
0.0
 10
171.04541324
 20
511.8266052625
 30
0.0
 10
171.1501946149
 20
511.9732294293
 30
0.0
 10
171.296291863
 20
512.1798694017
 30
0.0
 10
171.4782549932
 20
512.454737761
 30
0.0
 10
171.6561452474
 20
512.7644820627
 30
0.0
 10
171.8030433858
 20
513.1116077905
 30
0.0
 10
171.8454880432
 20
513.3680269633
 30
0.0
 10
171.8454880432
 20
513.4976539589
 30
0.0
  0
SPLINE
  5
413
100
AcDbEntity
  8
0
100
AcDbSpline
 62
7
  6
CONTINUOUS
 70
0
 71
3
 72
10
 73
6
 74
0
 42
0.0000001
 43
0.0000001
 44
0.0000000001
 40
0.0
 40
0.0
 40
0.0
 40
0.0
 40
0.2193660506
 40
0.4578346352
 40
1.0
 40
1.0
 40
1.0
 40
1.0
 10
170.7625657216
 20
518.9585569023
 30
0.0
 10
170.7443369124
 20
518.9611610179
 30
0.0
 10
170.7072487188
 20
518.9766865403
 30
0.0
 10
170.6505198897
 20
519.0411920143
 30
0.0
 10
170.637520839
 20
519.1111237896
 30
0.0
 10
170.6403346539
 20
519.1565468011
 30
0.0
  0
SPLINE
  5
414
100
AcDbEntity
  8
0
100
AcDbSpline
 62
7
  6
CONTINUOUS
 70
0
 71
3
 72
9
 73
5
 74
0
 42
0.0000001
 43
0.0000001
 44
0.0000000001
 40
0.0
 40
0.0
 40
0.0
 40
0.0
 40
0.2067651614
 40
1.0
 40
1.0
 40
1.0
 40
1.0
 10
165.8351874167
 20
84.4901324502
 30
0.0
 10
165.8351607646
 20
84.4614987776
 30
0.0
 10
165.8086093539
 20
84.3223803147
 30
0.0
 10
165.697463654
 20
84.2187250571
 30
0.0
 10
165.6106026417
 20
84.1514771886
 30
0.0
  0
SPLINE
  5
415
100
AcDbEntity
  8
0
100
AcDbSpline
 62
7
  6
CONTINUOUS
 70
0
 71
3
 72
9
 73
5
 74
0
 42
0.0000001
 43
0.0000001
 44
0.0000000001
 40
0.0
 40
0.0
 40
0.0
 40
0.0
 40
0.2163110978
 40
1.0
 40
1.0
 40
1.0
 40
1.0
 10
165.6106026417
 20
84.1514771886
 30
0.0
 10
165.5784146321
 20
84.1265572046
 30
0.0
 10
165.4239737754
 20
84.0186421976
 30
0.0
 10
165.2557956519
 20
83.9322192505
 30
0.0
 10
165.1225952834
 20
83.868908282
 30
0.0
  0
SPLINE
  5
416
100
AcDbEntity
  8
0
100
AcDbSpline
 62
7
  6
CONTINUOUS
 70
0
 71
3
 72
8
 73
4
 74
0
 42
0.0000001
 43
0.0000001
 44
0.0000000001
 40
0.0
 40
0.0
 40
0.0
 40
0.0
 40
1.0
 40
1.0
 40
1.0
 40
1.0
 10
164.7681394801
 20
83.71204094
 30
0.0
 10
164.591487106
 20
83.6381484893
 30
0.0
 10
164.4132917535
 20
83.5679848265
 30
0.0
 10
164.2351914318
 20
83.4976539589
 30
0.0
  0
SPLINE
  5
417
100
AcDbEntity
  8
0
100
AcDbSpline
 62
7
  6
CONTINUOUS
 70
0
 71
3
 72
9
 73
5
 74
0
 42
0.0000001
 43
0.0000001
 44
0.0000000001
 40
0.0
 40
0.0
 40
0.0
 40
0.0
 40
0.2078431797
 40
1.0
 40
1.0
 40
1.0
 40
1.0
 10
165.8351875228
 20
876.5051760767
 30
0.0
 10
165.8351622031
 20
876.533269302
 30
0.0
 10
165.8098486749
 20
876.6690633792
 30
0.0
 10
165.7027344795
 20
876.7713852378
 30
0.0
 10
165.6186051095
 20
876.8376176191
 30
0.0
  0
SPLINE
  5
418
100
AcDbEntity
  8
0
100
AcDbSpline
 62
7
  6
CONTINUOUS
 70
0
 71
3
 72
9
 73
5
 74
0
 42
0.0000001
 43
0.0000001
 44
0.0000000001
 40
0.0
 40
0.0
 40
0.0
 40
0.0
 40
0.2154853524
 40
1.0
 40
1.0
 40
1.0
 40
1.0
 10
165.6186051095
 20
876.8376176191
 30
0.0
 10
165.5864618003
 20
876.8629230256
 30
0.0
 10
165.4313080978
 20
876.9727414654
 30
0.0
 10
165.2617023013
 20
877.060161639
 30
0.0
 10
165.1272404663
 20
877.1242110585
 30
0.0
  0
SPLINE
  5
419
100
AcDbEntity
  8
0
100
AcDbSpline
 62
7
  6
CONTINUOUS
 70
0
 71
3
 72
8
 73
4
 74
0
 42
0.0000001
 43
0.0000001
 44
0.0000000001
 40
0.0
 40
0.0
 40
0.0
 40
0.0
 40
1.0
 40
1.0
 40
1.0
 40
1.0
 10
164.7702750481
 20
877.282364271
 30
0.0
 10
164.5929223953
 20
877.3565850042
 30
0.0
 10
164.4140104665
 20
877.4270392755
 30
0.0
 10
164.2351914318
 20
877.4976539589
 30
0.0
  0
SPLINE
  5
41A
100
AcDbEntity
  8
0
100
AcDbSpline
 62
7
  6
CONTINUOUS
 70
0
 71
3
 72
8
 73
4
 74
0
 42
0.0000001
 43
0.0000001
 44
0.0000000001
 40
0.0
 40
0.0
 40
0.0
 40
0.0
 40
1.0
 40
1.0
 40
1.0
 40
1.0
 10
146.3777352989
 20
877.1785634137
 30
0.0
 10
146.2952516925
 20
877.0858961642
 30
0.0
 10
146.2172470126
 20
876.9888081661
 30
0.0
 10
146.1468662248
 20
876.8866450164
 30
0.0
  0
SPLINE
  5
41B
100
AcDbEntity
  8
0
100
AcDbSpline
 62
7
  6
CONTINUOUS
 70
0
 71
3
 72
8
 73
4
 74
0
 42
0.0000001
 43
0.0000001
 44
0.0000000001
 40
0.0
 40
0.0
 40
0.0
 40
0.0
 40
1.0
 40
1.0
 40
1.0
 40
1.0
 10
146.0805429794
 20
876.7849269289
 30
0.0
 10
146.0047327674
 20
876.6616157723
 30
0.0
 10
145.9404911775
 20
876.529406603
 30
0.0
 10
145.8971696338
 20
876.3912904439
 30
0.0
  0
SPLINE
  5
41C
100
AcDbEntity
  8
0
100
AcDbSpline
 62
7
  6
CONTINUOUS
 70
0
 71
3
 72
8
 73
4
 74
0
 42
0.0000001
 43
0.0000001
 44
0.0000000001
 40
0.0
 40
0.0
 40
0.0
 40
0.0
 40
1.0
 40
1.0
 40
1.0
 40
1.0
 10
145.8971696338
 20
876.3912904439
 30
0.0
 10
145.857416237
 20
876.2645501202
 30
0.0
 10
145.8351914318
 20
876.1304825786
 30
0.0
 10
145.8351914318
 20
875.9976539589
 30
0.0
  0
SPLINE
  5
41D
100
AcDbEntity
  8
0
100
AcDbSpline
 62
7
  6
CONTINUOUS
 70
0
 71
3
 72
9
 73
5
 74
0
 42
0.0000001
 43
0.0000001
 44
0.0000000001
 40
0.0
 40
0.0
 40
0.0
 40
0.0
 40
0.2345617759
 40
1.0
 40
1.0
 40
1.0
 40
1.0
 10
145.8351914318
 20
84.9976539589
 30
0.0
 10
145.8351914318
 20
84.9233020327
 30
0.0
 10
145.8637199302
 20
84.6058452391
 30
0.0
 10
146.0092184618
 20
84.3084692612
 30
0.0
 10
146.1468662248
 20
84.1086629015
 30
0.0
  0
SPLINE
  5
41E
100
AcDbEntity
  8
0
100
AcDbSpline
 62
7
  6
CONTINUOUS
 70
0
 71
3
 72
8
 73
4
 74
0
 42
0.0000001
 43
0.0000001
 44
0.0000000001
 40
0.0
 40
0.0
 40
0.0
 40
0.0
 40
1.0
 40
1.0
 40
1.0
 40
1.0
 10
146.1468662248
 20
84.1086629015
 30
0.0
 10
146.2172470126
 20
84.0064997518
 30
0.0
 10
146.2952516925
 20
83.9094117537
 30
0.0
 10
146.3777352989
 20
83.8167445041
 30
0.0
  0
SPLINE
  5
41F
100
AcDbEntity
  8
0
100
AcDbSpline
 62
7
  6
CONTINUOUS
 70
0
 71
3
 72
8
 73
4
 74
0
 42
0.0000001
 43
0.0000001
 44
0.0000000001
 40
0.0
 40
0.0
 40
0.0
 40
0.0
 40
1.0
 40
1.0
 40
1.0
 40
1.0
 10
170.3454860741
 20
101.132999799
 30
0.0
 10
170.4676717903
 20
101.0139319562
 30
0.0
 10
170.5898608766
 20
100.8948617115
 30
0.0
 10
170.7110326836
 20
100.774762196
 30
0.0
  0
SPLINE
  5
420
100
AcDbEntity
  8
0
100
AcDbSpline
 62
7
  6
CONTINUOUS
 70
0
 71
3
 72
8
 73
4
 74
0
 42
0.0000001
 43
0.0000001
 44
0.0000000001
 40
0.0
 40
0.0
 40
0.0
 40
0.0
 40
1.0
 40
1.0
 40
1.0
 40
1.0
 10
170.7110326836
 20
100.774762196
 30
0.0
 10
170.8479209655
 20
100.639085286
 30
0.0
 10
170.9835710608
 20
100.5020977842
 30
0.0
 10
171.1160709932
 20
100.3621320972
 30
0.0
  0
SPLINE
  5
421
100
AcDbEntity
  8
0
100
AcDbSpline
 62
7
  6
CONTINUOUS
 70
0
 71
3
 72
9
 73
5
 74
0
 42
0.0000001
 43
0.0000001
 44
0.0000000001
 40
0.0
 40
0.0
 40
0.0
 40
0.0
 40
0.2668621916
 40
1.0
 40
1.0
 40
1.0
 40
1.0
 10
171.1160709932
 20
100.3621320972
 30
0.0
 10
171.205041179
 20
100.2681488555
 30
0.0
 10
171.5324734997
 20
99.911079303
 30
0.0
 10
171.8347712795
 20
99.5257219649
 30
0.0
 10
172.0101535892
 20
99.2164503418
 30
0.0
  0
SPLINE
  5
422
100
AcDbEntity
  8
0
100
AcDbSpline
 62
7
  6
CONTINUOUS
 70
0
 71
3
 72
9
 73
5
 74
0
 42
0.0000001
 43
0.0000001
 44
0.0000000001
 40
0.0
 40
0.0
 40
0.0
 40
0.0
 40
0.2674041233
 40
1.0
 40
1.0
 40
1.0
 40
1.0
 10
172.0101535892
 20
99.2164503418
 30
0.0
 10
172.0629223501
 20
99.1233971693
 30
0.0
 10
172.2438001233
 20
98.7671805961
 30
0.0
 10
172.3454880432
 20
98.3645321171
 30
0.0
 10
172.3454880432
 20
98.0714599507
 30
0.0
  0
SPLINE
  5
423
100
AcDbEntity
  8
0
100
AcDbSpline
 62
7
  6
CONTINUOUS
 70
0
 71
3
 72
9
 73
5
 74
0
 42
0.0000001
 43
0.0000001
 44
0.0000000001
 40
0.0
 40
0.0
 40
0.0
 40
0.0
 40
0.2379629566
 40
1.0
 40
1.0
 40
1.0
 40
1.0
 10
172.3454880432
 20
862.9238479671
 30
0.0
 10
172.3454880432
 20
862.8285675493
 30
0.0
 10
172.3139202491
 20
862.4279157089
 30
0.0
 10
172.1606491622
 20
862.0442370884
 30
0.0
 10
172.0101350569
 20
861.7788249714
 30
0.0
  0
SPLINE
  5
424
100
AcDbEntity
  8
0
100
AcDbSpline
 62
7
  6
CONTINUOUS
 70
0
 71
3
 72
9
 73
5
 74
0
 42
0.0000001
 43
0.0000001
 44
0.0000000001
 40
0.0
 40
0.0
 40
0.0
 40
0.0
 40
0.2284809131
 40
1.0
 40
1.0
 40
1.0
 40
1.0
 10
172.0101350569
 20
861.7788249714
 30
0.0
 10
171.9337564702
 20
861.644141233
 30
0.0
 10
171.5584355711
 20
861.0777845515
 30
0.0
 10
171.0823685306
 20
860.5885954252
 30
0.0
 10
170.7110315842
 20
860.220544616
 30
0.0
  0
SPLINE
  5
425
100
AcDbEntity
  8
0
100
AcDbSpline
 62
7
  6
CONTINUOUS
 70
0
 71
3
 72
8
 73
4
 74
0
 42
0.0000001
 43
0.0000001
 44
0.0000000001
 40
0.0
 40
0.0
 40
0.0
 40
0.0
 40
1.0
 40
1.0
 40
1.0
 40
1.0
 10
170.7110315842
 20
860.220544616
 30
0.0
 10
170.5898601387
 20
860.1004454743
 30
0.0
 10
170.4676714225
 20
859.9813755948
 30
0.0
 10
170.3454860769
 20
859.8623081165
 30
0.0
  0
SPLINE
  5
426
100
AcDbEntity
  8
0
100
AcDbSpline
 62
7
  6
CONTINUOUS
 70
0
 71
3
 72
9
 73
5
 74
0
 42
0.0000001
 43
0.0000001
 44
0.0000000001
 40
0.0
 40
0.0
 40
0.0
 40
0.0
 40
0.3684262578
 40
1.0
 40
1.0
 40
1.0
 40
1.0
 10
172.3454880432
 20
83.6976539589
 30
0.0
 10
172.3454880432
 20
83.5161158414
 30
0.0
 10
172.7259791943
 20
83.0921566476
 30
0.0
 10
173.1603024714
 20
82.9002278634
 30
0.0
 10
173.4442797277
 20
82.7729363489
 30
0.0
  0
SPLINE
  5
427
100
AcDbEntity
  8
0
100
AcDbSpline
 62
7
  6
CONTINUOUS
 70
0
 71
3
 72
9
 73
5
 74
0
 42
0.0000001
 43
0.0000001
 44
0.0000000001
 40
0.0
 40
0.0
 40
0.0
 40
0.0
 40
0.2312197016
 40
1.0
 40
1.0
 40
1.0
 40
1.0
 10
173.4442797277
 20
82.7729363489
 30
0.0
 10
173.5216446371
 20
82.7382578798
 30
0.0
 10
173.8585909671
 20
82.593514602
 30
0.0
 10
174.2021725474
 20
82.4648033685
 30
0.0
 10
174.4674679408
 20
82.369513543
 30
0.0
  0
SPLINE
  5
428
100
AcDbEntity
  8
0
100
AcDbSpline
 62
7
  6
CONTINUOUS
 70
0
 71
3
 72
8
 73
4
 74
0
 42
0.0000001
 43
0.0000001
 44
0.0000000001
 40
0.0
 40
0.0
 40
0.0
 40
0.0
 40
1.0
 40
1.0
 40
1.0
 40
1.0
 10
174.4674679408
 20
82.369513543
 30
0.0
 10
174.825209088
 20
82.2410186942
 30
0.0
 10
175.1854061285
 20
82.1194351943
 30
0.0
 10
175.5454880432
 20
81.9976539589
 30
0.0
  0
SPLINE
  5
429
100
AcDbEntity
  8
0
100
AcDbSpline
 62
7
  6
CONTINUOUS
 70
0
 71
3
 72
8
 73
4
 74
0
 42
0.0000001
 43
0.0000001
 44
0.0000000001
 40
0.0
 40
0.0
 40
0.0
 40
0.0
 40
1.0
 40
1.0
 40
1.0
 40
1.0
 10
175.5454880432
 20
878.9976539589
 30
0.0
 10
175.1854095893
 20
878.875873894
 30
0.0
 10
174.8252160138
 20
878.7542915597
 30
0.0
 10
174.4674782559
 20
878.6257980822
 30
0.0
  0
SPLINE
  5
42A
100
AcDbEntity
  8
0
100
AcDbSpline
 62
7
  6
CONTINUOUS
 70
0
 71
3
 72
9
 73
5
 74
0
 42
0.0000001
 43
0.0000001
 44
0.0000000001
 40
0.0
 40
0.0
 40
0.0
 40
0.0
 40
0.2783451033
 40
1.0
 40
1.0
 40
1.0
 40
1.0
 10
174.4674782559
 20
878.6257980822
 30
0.0
 10
174.3369997424
 20
878.5789323612
 30
0.0
 10
173.869925367
 20
878.4066263576
 30
0.0
 10
173.4068403464
 20
878.2182631188
 30
0.0
 10
173.0889638158
 20
878.0504644865
 30
0.0
  0
SPLINE
  5
42B
100
AcDbEntity
  8
0
100
AcDbSpline
 62
7
  6
CONTINUOUS
 70
0
 71
3
 72
9
 73
5
 74
0
 42
0.0000001
 43
0.0000001
 44
0.0000000001
 40
0.0
 40
0.0
 40
0.0
 40
0.0
 40
0.3430032484
 40
1.0
 40
1.0
 40
1.0
 40
1.0
 10
173.0889638158
 20
878.0504644865
 30
0.0
 10
172.9801238718
 20
877.9930107522
 30
0.0
 10
172.6823928212
 20
877.823044716
 30
0.0
 10
172.3454880432
 20
877.5333917631
 30
0.0
 10
172.3454880432
 20
877.2976539589
 30
0.0
  0
SPLINE
  5
42C
100
AcDbEntity
  8
0
100
AcDbSpline
 62
7
  6
CONTINUOUS
 70
0
 71
3
 72
9
 73
5
 74
0
 42
0.0000001
 43
0.0000001
 44
0.0000000001
 40
0.0
 40
0.0
 40
0.0
 40
0.0
 40
0.3684262578
 40
1.0
 40
1.0
 40
1.0
 40
1.0
 10
549.3454880432
 20
877.2976539589
 30
0.0
 10
549.3454880432
 20
877.4791920765
 30
0.0
 10
548.9649968921
 20
877.9031512703
 30
0.0
 10
548.5306736149
 20
878.0950800545
 30
0.0
 10
548.2466963587
 20
878.222371569
 30
0.0
  0
SPLINE
  5
42D
100
AcDbEntity
  8
0
100
AcDbSpline
 62
7
  6
CONTINUOUS
 70
0
 71
3
 72
9
 73
5
 74
0
 42
0.0000001
 43
0.0000001
 44
0.0000000001
 40
0.0
 40
0.0
 40
0.0
 40
0.0
 40
0.2312197016
 40
1.0
 40
1.0
 40
1.0
 40
1.0
 10
548.2466963587
 20
878.222371569
 30
0.0
 10
548.1693314493
 20
878.2570500381
 30
0.0
 10
547.8323851193
 20
878.4017933159
 30
0.0
 10
547.488803539
 20
878.5305045494
 30
0.0
 10
547.2235081456
 20
878.6257943749
 30
0.0
  0
SPLINE
  5
42E
100
AcDbEntity
  8
0
100
AcDbSpline
 62
7
  6
CONTINUOUS
 70
0
 71
3
 72
8
 73
4
 74
0
 42
0.0000001
 43
0.0000001
 44
0.0000000001
 40
0.0
 40
0.0
 40
0.0
 40
0.0
 40
1.0
 40
1.0
 40
1.0
 40
1.0
 10
547.2235081456
 20
878.6257943749
 30
0.0
 10
546.8657669983
 20
878.7542892237
 30
0.0
 10
546.5055699579
 20
878.8758727236
 30
0.0
 10
546.1454880432
 20
878.9976539589
 30
0.0
  0
SPLINE
  5
42F
100
AcDbEntity
  8
0
100
AcDbSpline
 62
7
  6
CONTINUOUS
 70
0
 71
3
 72
8
 73
4
 74
0
 42
0.0000001
 43
0.0000001
 44
0.0000000001
 40
0.0
 40
0.0
 40
0.0
 40
0.0
 40
1.0
 40
1.0
 40
1.0
 40
1.0
 10
546.1454880432
 20
81.9976539589
 30
0.0
 10
546.5055664971
 20
82.1194340238
 30
0.0
 10
546.8657600726
 20
82.2410163582
 30
0.0
 10
547.2234978305
 20
82.3695098357
 30
0.0
  0
SPLINE
  5
430
100
AcDbEntity
  8
0
100
AcDbSpline
 62
7
  6
CONTINUOUS
 70
0
 71
3
 72
9
 73
5
 74
0
 42
0.0000001
 43
0.0000001
 44
0.0000000001
 40
0.0
 40
0.0
 40
0.0
 40
0.0
 40
0.2783451033
 40
1.0
 40
1.0
 40
1.0
 40
1.0
 10
547.2234978305
 20
82.3695098357
 30
0.0
 10
547.353976344
 20
82.4163755567
 30
0.0
 10
547.8210507193
 20
82.5886815603
 30
0.0
 10
548.28413574
 20
82.7770447991
 30
0.0
 10
548.6020122706
 20
82.9448434314
 30
0.0
  0
SPLINE
  5
431
100
AcDbEntity
  8
0
100
AcDbSpline
 62
7
  6
CONTINUOUS
 70
0
 71
3
 72
9
 73
5
 74
0
 42
0.0000001
 43
0.0000001
 44
0.0000000001
 40
0.0
 40
0.0
 40
0.0
 40
0.0
 40
0.3430032484
 40
1.0
 40
1.0
 40
1.0
 40
1.0
 10
548.6020122706
 20
82.9448434314
 30
0.0
 10
548.7108522146
 20
83.0022971657
 30
0.0
 10
549.0085832652
 20
83.1722632019
 30
0.0
 10
549.3454880432
 20
83.4619161548
 30
0.0
 10
549.3454880432
 20
83.6976539589
 30
0.0
  0
ENDSEC
  0
SECTION
  2
OBJECTS
  0
DICTIONARY
  5
C
100
AcDbDictionary
280
0
281
1
  3
ACAD_GROUP
350
D
  3
ACAD_MLINESTYLE
350
17
  3
ACAD_LAYOUT
350
1A
  3
ACAD_PLOTSETTINGS
350
19
  3
ACAD_PLOTSTYLENAME
350
E
  0
DICTIONARY
  5
D
102
{ACAD_REACTORS
330
C
102
}
100
AcDbDictionary
280
0
281
1
  0
ACDBDICTIONARYWDFLT
  5
E
102
{ACAD_REACTORS
330
C
102
}
100
AcDbDictionary
281
1
  3
Normal
350
F
100
AcDbDictionaryWithDefault
340
F
  0
DICTIONARY
  5
17
102
{ACAD_REACTORS
330
C
102
}
100
AcDbDictionary
280
0
281
1
  3
Standard
350
18
  0
DICTIONARY
  5
19
102
{ACAD_REACTORS
330
C
102
}
100
AcDbDictionary
281
1
  0
DICTIONARY
  5
1A
102
{ACAD_REACTORS
330
C
102
}
100
AcDbDictionary
281
1
  3
Model
350
432
  3
Layout1
350
433
  0
ACDBPLACEHOLDER
  5
F
102
{ACAD_REACTORS
330
E
102
}
  0
MLINESTYLE
  5
18
102
{ACAD_REACTORS
330
17
102
}
100
AcDbMlineStyle
  2
STANDARD
 70
0
  3

 62
256
 51
90.0
 52
90.0
 71
2
 49
0.5
 62
256
  6
BYLAYER
 49
-0.5
 62
256
  6
BYLAYER
  0
LAYOUT
  5
432
102
{ACAD_REACTORS
330
1A
102
}
100
AcDbPlotSettings
  1

  2
none_device
  4

  6

 40
0.0
 41
0.0
 42
0.0
 43
0.0
 44
210.0
 45
297.0
 46
0.0
 47
0.0
 48
0.0
 49
0.0
140
0.0
141
0.0
142
1.0
143
1.0
 70
1024
 72
1
 73
0
 74
0
  7

 75
0
147
1.0
148
0.0
149
0.0
100
AcDbLayout
  1
Model
 70
0
 71
0
 10
0.0
 20
0.0
 11
210.0
 21
297.0
 12
0.0
 22
0.0
 32
0.0
 14
0.0
 24
0.0
 34
0.0
 15
0.0
 25
0.0
 35
0.0
146
0.0
 13
0.0
 23
0.0
 33
0.0
 16
1.0
 26
0.0
 36
0.0
 17
0.0
 27
1.0
 37
0.0
 76
0
330
210
345
0
346
0
  0
LAYOUT
  5
433
102
{ACAD_REACTORS
330
1A
102
}
100
AcDbPlotSettings
  1

  2
none_device
  4

  6

 40
0.0
 41
0.0
 42
0.0
 43
0.0
 44
210.0
 45
297.0
 46
0.0
 47
0.0
 48
0.0
 49
0.0
140
0.0
141
0.0
142
1.0
143
1.0
 70
0
 72
1
 73
0
 74
0
  7

 75
0
147
1.0
148
0.0
149
0.0
100
AcDbLayout
  1
Layout1
 70
0
 71
1
 10
0.0
 20
0.0
 11
210.0
 21
297.0
 12
0.0
 22
0.0
 32
0.0
 14
0.0
 24
0.0
 34
0.0
 15
0.0
 25
0.0
 35
0.0
146
0.0
 13
0.0
 23
0.0
 33
0.0
 16
1.0
 26
0.0
 36
0.0
 17
0.0
 27
1.0
 37
0.0
 76
0
330
211
345
0
346
0
  0
ENDSEC
  0
EOF
