999
DXF file: C:\Users\sesa63760\Dev\_Creo\CAD\MCADID0005629_3D-CAD\mcadid0005629_3d-simplified_1.dxf
999
Pro/ENGINEER 2019471 by Parametric Technology Corporation
  0
SECTION
  2
HEADER
  9
$ACADVER
  1
AC1024
  9
$DWGCODEPAGE
  3
ANSI_1252
  9
$EXTMAX
 10
78.5734072893
 20
111.125247452
 30
0.0
  9
$EXTMIN
 10
0.0
 20
0.0
 30
0.0
  9
$LIMMIN
 10
0.0
 20
0.0
  9
$LIMMAX
 10
78.5734072893
 20
111.125247452
  9
$VIEWCTR
 10
39.2867036446
 20
55.562623726
  9
$VIEWSIZE
 40
111.125247452
  9
$CLAYER
  8
0
  9
$LTSCALE
 40
7.2437198339
  9
$CELTYPE
  6
BYLAYER
  9
$DIMSCALE
 40
1.0
  9
$DIMASZ
 40
0.9353977058
  9
$DIMEXO
 40
1.0
  9
$DIMDLI
 40
5.0047518852
  9
$DIMEXE
 40
1.0
  9
$DIMCEN
 40
1.1853359728
  9
$DIMLFAC
 40
1.0
  9
$DIMBLK
  1
_FILLED
  9
$DIMALT
 70
0
  9
$DIMALTF
 40
0.0393700787
  9
$DIMTXT
 40
1.3095567882
  9
$DIMTOL
 70
1
  9
$DIMLIM
 70
0
  9
$DIMTFAC
 40
1.0
  9
$DIMTP
 40
0.01
  9
$DIMTM
 40
0.01
  9
$DIMGAP
 40
0.625
  9
$DIMDSEP
 70
46
  9
$AUNITS
 70
0
  9
$PDMODE
 70
3
  9
$PDSIZE
 40
0.3125
  9
$HANDSEED
  5
333
  9
$TILEMODE
 70
1
  9
$MEASUREMENT
 70
1
  9
$INSUNITS
 70
4
  0
ENDSEC
  0
SECTION
  2
CLASSES
  0
CLASS
  1
ACDBDICTIONARYWDFLT
  2
AcDbDictionaryWithDefault
  3
AutoCAD 2000
 90
0
 91
1
280
0
281
0
  0
CLASS
  1
ACDBPLACEHOLDER
  2
AcDbPlaceHolder
  3
AutoCAD 2000
 90
0
 91
1
280
0
281
0
  0
CLASS
  1
LAYOUT
  2
AcDbLayout
  3
AutoCAD 2000
 90
0
 91
0
280
0
281
0
  0
ENDSEC
  0
SECTION
  2
TABLES
  0
TABLE
  2
VPORT
  5
8
100
AcDbSymbolTable
 70
2
  0
VPORT
  5
1F4
100
AcDbSymbolTableRecord
100
AcDbViewportTableRecord
  2
*ACTIVE
 70
0
 10
0.0
 20
0.0
 11
1.0
 21
1.0
 12
39.2867036446
 22
55.562623726
 13
0.0
 23
0.0
 14
1.0
 24
1.0
 15
0.0
 25
0.0
 16
0.0
 26
0.0
 36
1.0
 17
0.0
 27
0.0
 37
0.0
 40
111.125247452
 41
0.7070707071
 42
50.0
 43
0.0
 44
0.0
 50
0.0
 51
0.0
 71
0
 72
100
 73
1
 74
1
 75
0
 76
0
 77
0
 78
0
  0
ENDTAB
  0
TABLE
  2
LTYPE
  5
5
100
AcDbSymbolTable
 70
6
  0
LTYPE
  5
14
100
AcDbSymbolTableRecord
100
AcDbLinetypeTableRecord
  2
BYBLOCK
 70
0
  3

 72
65
 73
0
 40
0.0
  0
LTYPE
  5
15
100
AcDbSymbolTableRecord
100
AcDbLinetypeTableRecord
  2
BYLAYER
 70
0
  3

 72
65
 73
0
 40
0.0
  0
LTYPE
  5
16
100
AcDbSymbolTableRecord
100
AcDbLinetypeTableRecord
  2
CONTINUOUS
 70
64
  3
Solid line
 72
65
 73
0
 40
0.0
  0
LTYPE
  5
1F5
100
AcDbSymbolTableRecord
100
AcDbLinetypeTableRecord
  2
CENTER
 70
64
  3
____ _ ____ _ ____ _ ____ _ ____ _ ____ _ ____
 72
65
 73
4
 40
0.6
 49
0.375
 74
0
 49
-0.075
 74
0
 49
0.075
 74
0
 49
-0.075
 74
0
  0
LTYPE
  5
1F6
100
AcDbSymbolTableRecord
100
AcDbLinetypeTableRecord
  2
HIDDEN
 70
64
  3
- - - - - - - - - - - - - - - - - - - -
 72
65
 73
2
 40
0.2
 49
0.1
 74
0
 49
-0.1
 74
0
  0
LTYPE
  5
1F7
100
AcDbSymbolTableRecord
100
AcDbLinetypeTableRecord
  2
PHANTOM
 70
64
  3
_____ _ _ _____ _ _ _____ _ _ _____
 72
65
 73
6
 40
0.8
 49
0.45
 74
0
 49
-0.05
 74
0
 49
0.1
 74
0
 49
-0.05
 74
0
 49
0.1
 74
0
 49
-0.05
 74
0
  0
LTYPE
  5
1F8
100
AcDbSymbolTableRecord
100
AcDbLinetypeTableRecord
  2
DOT
 70
64
  3
. . . . . . . . . . . . . . . . . . . .
 72
65
 73
2
 40
0.2
 49
0.1
 74
0
 49
-0.1
 74
0
  0
LTYPE
  5
1F9
100
AcDbSymbolTableRecord
100
AcDbLinetypeTableRecord
  2
DASHED
 70
64
  3
- - - - - - - - - - - - - - - - - - - -
 72
65
 73
2
 40
0.2
 49
0.1
 74
0
 49
-0.1
 74
0
  0
ENDTAB
  0
TABLE
  2
LAYER
  5
2
100
AcDbSymbolTable
 70
36
  0
LAYER
  5
10
100
AcDbSymbolTableRecord
100
AcDbLayerTableRecord
  2
0
 70
0
 62
7
  6
CONTINUOUS
370
-3
390
F
  0
LAYER
  5
1FA
100
AcDbSymbolTableRecord
100
AcDbLayerTableRecord
  2
DEFAULT_1
 70
0
 62
7
  6
CENTER
370
-3
390
F
  0
LAYER
  5
1FB
100
AcDbSymbolTableRecord
100
AcDbLayerTableRecord
  2
DEFAULT_2
 70
0
 62
7
  6
HIDDEN
370
-3
390
F
  0
LAYER
  5
1FC
100
AcDbSymbolTableRecord
100
AcDbLayerTableRecord
  2
DEFAULT_3
 70
0
 62
7
  6
PHANTOM
370
-3
390
F
  0
LAYER
  5
1FD
100
AcDbSymbolTableRecord
100
AcDbLayerTableRecord
  2
00_COMPONENTS
 70
0
 62
7
  6
CONTINUOUS
370
-3
390
F
  0
LAYER
  5
1FE
100
AcDbSymbolTableRecord
100
AcDbLayerTableRecord
  2
00_COMPONENTS_1
 70
0
 62
7
  6
CONTINUOUS
370
-3
390
F
  0
LAYER
  5
1FF
100
AcDbSymbolTableRecord
100
AcDbLayerTableRecord
  2
00_COMPONENTS_2
 70
0
 62
7
  6
CONTINUOUS
370
-3
390
F
  0
LAYER
  5
200
100
AcDbSymbolTableRecord
100
AcDbLayerTableRecord
  2
00_COMPONENTS_3
 70
0
 62
7
  6
CONTINUOUS
370
-3
390
F
  0
LAYER
  5
201
100
AcDbSymbolTableRecord
100
AcDbLayerTableRecord
  2
00_COMPONENTS_4
 70
0
 62
7
  6
CONTINUOUS
370
-3
390
F
  0
LAYER
  5
202
100
AcDbSymbolTableRecord
100
AcDbLayerTableRecord
  2
01_1_DEFAULT_DATUMS
 70
0
 62
7
  6
CONTINUOUS
370
-3
390
F
  0
LAYER
  5
203
100
AcDbSymbolTableRecord
100
AcDbLayerTableRecord
  2
01_PLANES
 70
0
 62
7
  6
CONTINUOUS
370
-3
390
F
  0
LAYER
  5
204
100
AcDbSymbolTableRecord
100
AcDbLayerTableRecord
  2
02_COORD_SYS
 70
0
 62
7
  6
CONTINUOUS
370
-3
390
F
  0
LAYER
  5
205
100
AcDbSymbolTableRecord
100
AcDbLayerTableRecord
  2
03_AXES
 70
0
 62
7
  6
CONTINUOUS
370
-3
390
F
  0
LAYER
  5
206
100
AcDbSymbolTableRecord
100
AcDbLayerTableRecord
  2
03_AXES_3
 70
0
 62
7
  6
CONTINUOUS
370
-3
390
F
  0
LAYER
  5
207
100
AcDbSymbolTableRecord
100
AcDbLayerTableRecord
  2
03_AXES_4
 70
0
 62
7
  6
CONTINUOUS
370
-3
390
F
  0
LAYER
  5
208
100
AcDbSymbolTableRecord
100
AcDbLayerTableRecord
  2
04_POINTS
 70
0
 62
7
  6
CONTINUOUS
370
-3
390
F
  0
LAYER
  5
209
100
AcDbSymbolTableRecord
100
AcDbLayerTableRecord
  2
05_CURVES
 70
0
 62
7
  6
CONTINUOUS
370
-3
390
F
  0
LAYER
  5
20A
100
AcDbSymbolTableRecord
100
AcDbLayerTableRecord
  2
06_SURFS
 70
0
 62
7
  6
CONTINUOUS
370
-3
390
F
  0
LAYER
  5
20B
100
AcDbSymbolTableRecord
100
AcDbLayerTableRecord
  2
07_COSMETICS
 70
0
 62
7
  6
CONTINUOUS
370
-3
390
F
  0
LAYER
  5
20C
100
AcDbSymbolTableRecord
100
AcDbLayerTableRecord
  2
10_NOTES
 70
0
 62
7
  6
CONTINUOUS
370
-3
390
F
  0
LAYER
  5
20D
100
AcDbSymbolTableRecord
100
AcDbLayerTableRecord
  2
11_NOTES_PUB
 70
0
 62
7
  6
CONTINUOUS
370
-3
390
F
  0
LAYER
  5
20E
100
AcDbSymbolTableRecord
100
AcDbLayerTableRecord
  2
13_REF_GTOL
 70
0
 62
7
  6
CONTINUOUS
370
-3
390
F
  0
LAYER
  5
20F
100
AcDbSymbolTableRecord
100
AcDbLayerTableRecord
  2
16_MISC
 70
0
 62
7
  6
CONTINUOUS
370
-3
390
F
  0
LAYER
  5
210
100
AcDbSymbolTableRecord
100
AcDbLayerTableRecord
  2
17_NO_PRINT
 70
0
 62
7
  6
CONTINUOUS
370
-3
390
F
  0
LAYER
  5
211
100
AcDbSymbolTableRecord
100
AcDbLayerTableRecord
  2
18_DATUM_CAMS_JOINTS
 70
0
 62
7
  6
CONTINUOUS
370
-3
390
F
  0
LAYER
  5
212
100
AcDbSymbolTableRecord
100
AcDbLayerTableRecord
  2
19_DATUM_FUNCTIONAL
 70
0
 62
7
  6
CONTINUOUS
370
-3
390
F
  0
LAYER
  5
213
100
AcDbSymbolTableRecord
100
AcDbLayerTableRecord
  2
20_DATUM_KINEMATIC_SCHEME
 70
0
 62
7
  6
CONTINUOUS
370
-3
390
F
  0
LAYER
  5
214
100
AcDbSymbolTableRecord
100
AcDbLayerTableRecord
  2
INTFCLR_28850
 70
0
 62
7
  6
CONTINUOUS
370
-3
390
F
  0
LAYER
  5
215
100
AcDbSymbolTableRecord
100
AcDbLayerTableRecord
  2
INTFCLR_64252
 70
0
 62
7
  6
CONTINUOUS
370
-3
390
F
  0
LAYER
  5
216
100
AcDbSymbolTableRecord
100
AcDbLayerTableRecord
  2
INTFCLR_8
 70
0
 62
7
  6
CONTINUOUS
370
-3
390
F
  0
LAYER
  5
217
100
AcDbSymbolTableRecord
100
AcDbLayerTableRecord
  2
INTFCLR_93932
 70
0
 62
7
  6
CONTINUOUS
370
-3
390
F
  0
LAYER
  5
218
100
AcDbSymbolTableRecord
100
AcDbLayerTableRecord
  2
INTF_BLANK
 70
0
 62
7
  6
CONTINUOUS
370
-3
390
F
  0
LAYER
  5
219
100
AcDbSymbolTableRecord
100
AcDbLayerTableRecord
  2
SHELL13
 70
0
 62
7
  6
CONTINUOUS
370
-3
390
F
  0
LAYER
  5
21A
100
AcDbSymbolTableRecord
100
AcDbLayerTableRecord
  2
SHELL33
 70
0
 62
7
  6
CONTINUOUS
370
-3
390
F
  0
LAYER
  5
21B
100
AcDbSymbolTableRecord
100
AcDbLayerTableRecord
  2
SHELL8
 70
0
 62
7
  6
CONTINUOUS
370
-3
390
F
  0
LAYER
  5
21C
100
AcDbSymbolTableRecord
100
AcDbLayerTableRecord
  2
_BLACK_HOLE
 70
0
 62
7
  6
CONTINUOUS
370
-3
390
F
  0
ENDTAB
  0
TABLE
  2
STYLE
  5
3
100
AcDbSymbolTable
 70
1
  0
STYLE
  5
11
100
AcDbSymbolTableRecord
100
AcDbTextStyleTableRecord
  2
STANDARD
 70
0
 40
0.0
 41
1.0
 50
0.0
 71
0
 42
0.2
  3
ARIAL.TTF
  4

  0
STYLE
  5
21D
100
AcDbSymbolTableRecord
100
AcDbTextStyleTableRecord
  2
TEXTSTYLE_1
 70
0
 40
0.0
 41
0.8
 50
0.0
 71
0
 42
0.2
  3
gdt
  4

  0
ENDTAB
  0
TABLE
  2
VIEW
  5
6
100
AcDbSymbolTable
 70
0
  0
ENDTAB
  0
TABLE
  2
UCS
  5
7
100
AcDbSymbolTable
 70
0
  0
ENDTAB
  0
TABLE
  2
APPID
  5
9
100
AcDbSymbolTable
 70
1
  0
APPID
  5
21E
100
AcDbSymbolTableRecord
100
AcDbRegAppTableRecord
  2
ACAD
 70
0
  0
ENDTAB
  0
TABLE
  2
BLOCK_RECORD
  5
1
100
AcDbSymbolTable
 70
0
  0
BLOCK_RECORD
  5
21F
100
AcDbSymbolTableRecord
100
AcDbBlockTableRecord
  2
*Model_Space
  0
BLOCK_RECORD
  5
220
100
AcDbSymbolTableRecord
100
AcDbBlockTableRecord
  2
*Paper_Space
  0
BLOCK_RECORD
  5
221
100
AcDbSymbolTableRecord
100
AcDbBlockTableRecord
  2
_FILLED
  0
ENDTAB
  0
TABLE
  2
DIMSTYLE
  5
A
100
AcDbSymbolTable
 70
1
100
AcDbDimStyleTable
 71
0
  0
DIMSTYLE
105
222
100
AcDbSymbolTableRecord
100
AcDbDimStyleTableRecord
  2
STANDARD
 70
0
  3

  4

 40
1.0
 41
0.9353977058
 42
1.0
 43
0.38
 44
1.0
 45
0.0
 46
0.0
 47
0.01
 48
0.01
140
1.3095567882
141
0.09
142
0.0
143
25.4
144
1.0
145
0.0
146
1.0
147
0.625
 71
1
 72
0
 73
0
 74
0
 75
0
 76
0
 77
1
 78
8
 79
2
170
0
171
1
172
0
173
0
174
0
175
0
176
0
177
0
178
0
270
2
179
2
271
2
272
2
273
2
274
2
275
0
280
0
281
0
282
0
283
1
284
8
285
0
286
0
287
3
288
0
340
11
278
46
341
221
342
221
343
221
344
221
  0
ENDTAB
  0
ENDSEC
  0
SECTION
  2
BLOCKS
  0
BLOCK
  5
20
100
AcDbEntity
  8
0
100
AcDbBlockBegin
  2
*Model_Space
 70
0
 10
0.0
 20
0.0
 30
0.0
  3
*Model_Space
  1

  0
ENDBLK
  5
21
100
AcDbEntity
  8
0
100
AcDbBlockEnd
  0
BLOCK
  5
1C
100
AcDbEntity
  8
0
100
AcDbBlockBegin
  2
*Paper_Space
 70
0
 10
0.0
 20
0.0
 30
0.0
  3
*Paper_Space
  1

  0
ENDBLK
  5
1D
100
AcDbEntity
  8
0
100
AcDbBlockEnd
  0
BLOCK
  5
223
100
AcDbEntity
  8
0
100
AcDbBlockBegin
  2
_FILLED
 70
64
 10
0.0
 20
0.0
  3
_FILLED
  1

  0
SOLID
  5
224
100
AcDbEntity
  8
0
  6
BYBLOCK
 62
0
100
AcDbTrace
 10
0.0
 20
0.0
 11
-1.0
 21
0.25
 12
-1.0
 22
-0.25
 13
-1.0
 23
-0.25
  0
ENDBLK
  5
225
100
AcDbEntity
  8
0
  6
BYBLOCK
 62
0
100
AcDbBlockEnd
  0
ENDSEC
  0
SECTION
  2
ENTITIES
  0
LINE
  5
226
100
AcDbEntity
  8
0
100
AcDbLine
 62
7
  6
BYLAYER
 10
9.1154192541
 20
65.4214999409
 11
9.1154192541
 21
63.395975178
  0
LINE
  5
227
100
AcDbEntity
  8
0
100
AcDbLine
 62
7
  6
BYLAYER
 10
9.1154192541
 20
65.4214999409
 11
39.4326376954
 21
82.9250496869
  0
LINE
  5
228
100
AcDbEntity
  8
00_COMPONENTS_2
100
AcDbLine
 62
7
  6
BYLAYER
 10
18.7952639185
 20
31.6225393878
 11
18.7952639185
 21
32.4365082525
  0
LINE
  5
229
100
AcDbEntity
  8
00_COMPONENTS
100
AcDbLine
 62
7
  6
BYLAYER
 10
19.5890139185
 20
49.6598101545
 11
19.5890139185
 21
50.9041598382
  0
LINE
  5
22A
100
AcDbEntity
  8
0
100
AcDbLine
 62
7
  6
BYLAYER
 10
19.8029981457
 20
57.2256382196
 11
19.8029981457
 21
53.3278060742
  0
LINE
  5
22B
100
AcDbEntity
  8
0
100
AcDbLine
 62
7
  6
BYLAYER
 10
20.1033900301
 20
59.0777355706
 11
20.1033900301
 21
57.0522108077
  0
LWPOLYLINE
  5
22C
100
AcDbEntity
  8
00_COMPONENTS
100
AcDbPolyline
 62
7
  6
BYLAYER
 90
3
 70
0
 10
19.5888655595
 20
50.9041598303
 10
19.6772555683
 20
51.9833712441
 10
20.094138007
 20
53.0112218904
  0
LINE
  5
22D
100
AcDbEntity
  8
0
100
AcDbLine
 62
7
  6
BYLAYER
 10
44.0577717717
 20
80.7503355641
 11
47.3804527028
 21
82.6686748431
  0
LINE
  5
22E
100
AcDbEntity
  8
0
100
AcDbLine
 62
7
  6
BYLAYER
 10
32.015303237
 20
73.1340129192
 11
44.6325105563
 21
80.4185174788
  0
LINE
  5
22F
100
AcDbEntity
  8
0
100
AcDbLine
 62
7
  6
BYLAYER
 10
47.9551914874
 20
82.3368567579
 11
60.5723988067
 21
89.6213613175
  0
LINE
  5
230
100
AcDbEntity
  8
00_COMPONENTS
100
AcDbLine
 62
7
  6
BYLAYER
 10
28.5816327429
 20
39.8521068727
 11
26.8582750892
 21
40.847065369
  0
LINE
  5
231
100
AcDbEntity
  8
00_COMPONENTS
100
AcDbLine
 62
7
  6
BYLAYER
 10
21.9113317125
 20
44.3793939345
 11
24.2326760375
 21
42.3481542933
  0
LINE
  5
232
100
AcDbEntity
  8
00_COMPONENTS
100
AcDbLine
 62
7
  6
BYLAYER
 10
21.9702940334
 20
44.3278002945
 11
21.9702940334
 21
39.9867563486
  0
LINE
  5
233
100
AcDbEntity
  8
0
100
AcDbLine
 62
7
  6
BYLAYER
 10
22.217675261
 20
56.7786712611
 11
22.217675261
 21
50.7020969724
  0
LINE
  5
234
100
AcDbEntity
  8
00_COMPONENTS
100
AcDbLine
 62
7
  6
BYLAYER
 10
23.4327639145
 20
37.9836622891
 11
23.4327639145
 21
38.8191009411
  0
LINE
  5
235
100
AcDbEntity
  8
0
100
AcDbLine
 62
7
  6
BYLAYER
 10
62.3684575086
 20
88.584429801
 11
55.2780797963
 21
84.4908227557
  0
LINE
  5
236
100
AcDbEntity
  8
0
100
AcDbLine
 62
7
  6
BYLAYER
 10
40.9017396511
 20
76.190688448
 11
33.8113619388
 21
72.0970814027
  0
LINE
  5
237
100
AcDbEntity
  8
00_COMPONENTS
100
AcDbLine
 62
7
  6
BYLAYER
 10
46.6660409547
 20
38.5410345263
 11
46.0353100031
 21
38.5410330102
  0
LINE
  5
238
100
AcDbEntity
  8
00_COMPONENTS
100
AcDbLine
 62
7
  6
BYLAYER
 10
32.8303632407
 20
38.5410012694
 11
32.199632289
 21
38.5409997533
  0
LINE
  5
239
100
AcDbEntity
  8
00_COMPONENTS
100
AcDbLine
 62
7
  6
BYLAYER
 10
32.199632289
 20
38.5409997533
 11
31.7536362991
 21
38.7984898329
  0
LINE
  5
23A
100
AcDbEntity
  8
0
100
AcDbLine
 62
7
  6
BYLAYER
 10
19.8029981457
 20
53.3278060742
 11
22.217675261
 21
50.7020969724
  0
LWPOLYLINE
  5
23B
100
AcDbEntity
  8
0
100
AcDbPolyline
 62
7
  6
BYLAYER
 90
3
 70
0
 10
21.1005337705
 20
51.9168716357
 10
21.5106791938
 20
51.1705871212
 10
22.1413153266
 20
50.6153652741
  0
LWPOLYLINE
  5
23C
100
AcDbEntity
  8
00_COMPONENTS
100
AcDbPolyline
 62
7
  6
BYLAYER
 90
9
 70
0
 10
25.0814357446
 20
48.2102343679
 10
25.4642342554
 20
47.3858059853
 10
27.8778896328
 20
45.1671644281
 10
29.4865484597
 20
44.2376695916
 10
33.3277673899
 20
42.8422998193
 10
37.7099945537
 20
42.1618700803
 10
42.2480964611
 20
42.256906806
 10
46.5390455653
 20
43.1205634864
 10
50.0944191307
 20
44.6337549083
  0
LINE
  5
23D
100
AcDbEntity
  8
0
100
AcDbLine
 62
7
  6
BYLAYER
 10
24.4627486384
 20
55.4825068655
 11
24.4627486384
 21
49.4059325768
  0
LINE
  5
23E
100
AcDbEntity
  8
0
100
AcDbLine
 62
7
  6
BYLAYER
 10
51.2599724006
 20
77.3388655585
 11
52.1579942738
 21
77.8573356339
  0
LINE
  5
23F
100
AcDbEntity
  8
0
100
AcDbLine
 62
7
  6
BYLAYER
 10
54.941862081
 20
79.4645928677
 11
55.8398839542
 21
79.9830629431
  0
LINE
  5
240
100
AcDbEntity
  8
0
100
AcDbLine
 62
7
  6
BYLAYER
 10
22.217675261
 20
50.7020969724
 11
24.4627486384
 21
49.4059325768
  0
LWPOLYLINE
  5
241
100
AcDbEntity
  8
0
100
AcDbPolyline
 62
7
  6
BYLAYER
 90
4
 70
0
 10
24.7967221638
 20
49.3035603631
 10
26.0964604866
 20
48.5532599899
 10
30.7169609604
 20
46.8037865771
 10
35.9742575546
 20
45.8396175463
  0
LINE
  5
242
100
AcDbEntity
  8
0
100
AcDbLine
 62
7
  6
BYLAYER
 10
28.4449193657
 20
52.23633555
 11
28.4449193657
 21
54.2618603129
  0
LINE
  5
243
100
AcDbEntity
  8
00_COMPONENTS
100
AcDbLine
 62
7
  6
BYLAYER
 10
28.5816327429
 20
39.8521068727
 11
28.5816327429
 21
40.1927717954
  0
LINE
  5
244
100
AcDbEntity
  8
0
100
AcDbLine
 62
7
  6
BYLAYER
 10
29.0106953315
 20
48.0118598881
 11
29.0106953315
 21
51.9096920335
  0
LINE
  5
245
100
AcDbEntity
  8
0
100
AcDbLine
 62
7
  6
BYLAYER
 10
32.015303237
 20
60.8991720911
 11
31.7651115111
 21
60.4658249047
  0
LINE
  5
246
100
AcDbEntity
  8
0
100
AcDbLine
 62
7
  6
BYLAYER
 10
40.9017396511
 20
76.190688448
 11
36.6091575229
 21
68.7556768337
  0
LINE
  5
247
100
AcDbEntity
  8
0
100
AcDbLine
 62
7
  6
BYLAYER
 10
53.7026047575
 20
76.9655745297
 11
56.4864725646
 21
78.5728317635
  0
LINE
  5
248
100
AcDbEntity
  8
0
100
AcDbLine
 62
7
  6
BYLAYER
 10
58.2825237888
 20
78.5728360807
 11
53.7026122351
 21
75.9286386961
  0
LINE
  5
249
100
AcDbEntity
  8
0
100
AcDbLine
 62
7
  6
BYLAYER
 10
58.2825237888
 20
77.1003556217
 11
53.7026122351
 21
74.456158237
  0
LWPOLYLINE
  5
24A
100
AcDbEntity
  8
0
100
AcDbPolyline
 62
7
  6
BYLAYER
 90
5
 70
0
 10
35.9742575546
 20
45.8396175463
 10
41.4904377829
 20
45.7286057144
 10
46.8569615131
 20
46.4803815064
 10
51.6905208439
 20
48.0468629336
 10
53.7832729465
 20
49.1000649575
  0
LWPOLYLINE
  5
24B
100
AcDbEntity
  8
0
100
AcDbPolyline
 62
7
  6
BYLAYER
 90
3
 70
0
 10
29.0106953315
 20
48.0118598881
 10
34.2262518187
 20
46.8706334917
 10
38.177820563
 20
46.6171695463
  0
LINE
  5
24C
100
AcDbEntity
  8
0
100
AcDbLine
 62
7
  6
BYLAYER
 10
24.4627486384
 20
49.4059325768
 11
29.0106953315
 21
48.0118598881
  0
LINE
  5
24D
100
AcDbEntity
  8
0
100
AcDbLine
 62
7
  6
BYLAYER
 10
22.217675261
 20
56.7786712611
 11
20.1033900301
 21
59.0777355706
  0
LINE
  5
24E
100
AcDbEntity
  8
0
100
AcDbLine
 62
7
  6
BYLAYER
 10
31.7651115111
 20
60.4658249047
 11
31.7651115111
 21
59.325171028
  0
LINE
  5
24F
100
AcDbEntity
  8
0
100
AcDbLine
 62
7
  6
BYLAYER
 10
32.015303237
 20
53.017026366
 11
32.015303237
 21
59.1807186377
  0
LINE
  5
250
100
AcDbEntity
  8
0
100
AcDbLine
 62
7
  6
BYLAYER
 10
32.015303237
 20
60.8991720911
 11
32.015303237
 21
73.1340129192
  0
LINE
  5
251
100
AcDbEntity
  8
00_COMPONENTS
100
AcDbLine
 62
7
  6
BYLAYER
 10
32.199632289
 20
38.5409997533
 11
32.199632289
 21
34.0809787596
  0
LINE
  5
252
100
AcDbEntity
  8
0
100
AcDbLine
 62
7
  6
BYLAYER
 10
33.8113619388
 20
72.0970814027
 11
33.8113619388
 21
59.8622405746
  0
LINE
  5
253
100
AcDbEntity
  8
0
100
AcDbLine
 62
7
  6
BYLAYER
 10
33.8113619388
 20
58.1437871212
 11
33.8113619388
 21
51.9800948495
  0
LINE
  5
254
100
AcDbEntity
  8
0
100
AcDbLine
 62
7
  6
BYLAYER
 10
38.3617502262
 20
67.7437880338
 11
33.8113619388
 21
59.8622405746
  0
LINE
  5
255
100
AcDbEntity
  8
0
100
AcDbLine
 62
7
  6
BYLAYER
 10
52.7109436313
 20
72.6392933382
 11
61.4294628348
 21
77.6729027007
  0
LINE
  5
256
100
AcDbEntity
  8
0
100
AcDbLine
 62
7
  6
BYLAYER
 10
9.1154192541
 20
63.395975178
 11
20.1033900301
 21
57.0522108077
  0
LINE
  5
257
100
AcDbEntity
  8
0
100
AcDbLine
 62
7
  6
BYLAYER
 10
28.4449193657
 20
52.23633555
 11
39.4328901417
 21
45.8925711797
  0
LINE
  5
258
100
AcDbEntity
  8
0
100
AcDbLine
 62
7
  6
BYLAYER
 10
24.4627486384
 20
55.4825068655
 11
22.217675261
 21
56.7786712611
  0
LINE
  5
259
100
AcDbEntity
  8
0
100
AcDbLine
 62
7
  6
BYLAYER
 10
39.4328901417
 20
47.9180959427
 11
28.4449193657
 21
54.2618603129
  0
LINE
  5
25A
100
AcDbEntity
  8
0
100
AcDbLine
 62
7
  6
BYLAYER
 10
20.1033900301
 20
59.0777355706
 11
9.1154192541
 21
65.4214999409
  0
LINE
  5
25B
100
AcDbEntity
  8
0
100
AcDbLine
 62
7
  6
BYLAYER
 10
33.8113619388
 20
51.9800948495
 11
32.015303237
 21
53.017026366
  0
LINE
  5
25C
100
AcDbEntity
  8
0
100
AcDbLine
 62
7
  6
BYLAYER
 10
40.0935114046
 20
66.7440296917
 11
44.3860935327
 21
74.179041306
  0
LINE
  5
25D
100
AcDbEntity
  8
0
100
AcDbLine
 62
7
  6
BYLAYER
 10
37.0455240946
 20
57.4172462463
 11
38.838390486
 21
60.5225991655
  0
LINE
  5
25E
100
AcDbEntity
  8
0
100
AcDbLine
 62
7
  6
BYLAYER
 10
39.4690401487
 20
61.6149224867
 11
41.8461041078
 21
65.7321408919
  0
LINE
  5
25F
100
AcDbEntity
  8
0
100
AcDbLine
 62
7
  6
BYLAYER
 10
40.085216265
 20
61.6954175275
 11
39.0680414757
 21
59.9336093322
  0
LINE
  5
260
100
AcDbEntity
  8
0
100
AcDbLine
 62
7
  6
BYLAYER
 10
28.4449193657
 20
54.2618603129
 11
24.4627486384
 21
55.4825068655
  0
LINE
  5
261
100
AcDbEntity
  8
00_COMPONENTS
100
AcDbLine
 62
7
420
3604575
  6
BYLAYER
 10
39.4327639185
 20
7.792832203
 11
39.4327639185
 21
19.0877057042
  0
LINE
  5
262
100
AcDbEntity
  8
0
100
AcDbLine
 62
7
  6
BYLAYER
 10
39.4328901417
 20
47.9180959427
 11
39.4328901417
 21
45.8925711797
  0
LINE
  5
263
100
AcDbEntity
  8
0
100
AcDbLine
 62
7
  6
BYLAYER
 10
33.8113619388
 20
51.9800948495
 11
39.1493577769
 21
55.0619697872
  0
LINE
  5
264
100
AcDbEntity
  8
0
100
AcDbLine
 62
7
  6
BYLAYER
 10
48.0405408274
 20
49.9285975064
 11
31.7651115111
 21
59.325171028
  0
LINE
  5
265
100
AcDbEntity
  8
0
100
AcDbLine
 62
7
  6
BYLAYER
 10
31.7651115111
 20
60.4658249047
 11
37.0455240946
 21
57.4172462463
  0
LINE
  5
266
100
AcDbEntity
  8
0
100
AcDbLine
 62
7
  6
BYLAYER
 10
38.9646450621
 20
55.1686124282
 11
37.0455240946
 21
57.4172462463
  0
LINE
  5
267
100
AcDbEntity
  8
0
100
AcDbLine
 62
7
  6
BYLAYER
 10
52.7109436313
 20
72.6392933382
 11
47.0039062677
 21
62.7543597913
  0
LWPOLYLINE
  5
268
100
AcDbEntity
  8
00_COMPONENTS_2
100
AcDbPolyline
 62
7
  6
BYLAYER
 90
4
 70
0
 10
22.6989754218
 20
39.4049674348
 10
21.2727920992
 20
38.284782498
 10
19.193856032
 20
34.8500610921
 10
18.7952642589
 20
32.4343444764
  0
LINE
  5
269
100
AcDbEntity
  8
0
100
AcDbLine
 62
7
  6
BYLAYER
 10
45.0069242437
 20
56.3076974414
 11
44.382950106
 21
56.0472120798
  0
LINE
  5
26A
100
AcDbEntity
  8
0
100
AcDbLine
 62
7
  6
BYLAYER
 10
32.015303237
 20
60.8991720911
 11
33.8113619388
 21
59.8622405746
  0
LINE
  5
26B
100
AcDbEntity
  8
0
100
AcDbLine
 62
7
  6
BYLAYER
 10
47.4690432068
 20
52.4257512383
 11
48.8025376549
 21
51.6558358471
  0
LINE
  5
26C
100
AcDbEntity
  8
0
100
AcDbLine
 62
7
  6
BYLAYER
 10
47.7831415295
 20
52.4203465268
 11
47.545230813
 21
52.5577082703
  0
LINE
  5
26D
100
AcDbEntity
  8
0
100
AcDbLine
 62
7
  6
BYLAYER
 10
41.905724083
 20
56.5469303913
 11
42.1167041105
 21
56.4251175329
  0
LINE
  5
26E
100
AcDbEntity
  8
0
100
AcDbLine
 62
7
  6
BYLAYER
 10
47.8627275403
 20
53.1076362913
 11
48.1006402076
 21
52.9702734214
  0
LINE
  5
26F
100
AcDbEntity
  8
0
100
AcDbLine
 62
7
  6
BYLAYER
 10
39.7210952043
 20
58.1014451444
 11
41.2674141431
 21
57.2086976855
  0
LINE
  5
270
100
AcDbEntity
  8
0
100
AcDbLine
 62
7
  6
BYLAYER
 10
39.5953643215
 20
58.7460105313
 11
38.929778891
 21
59.1303183216
  0
LINE
  5
271
100
AcDbEntity
  8
0
100
AcDbLine
 62
7
  6
BYLAYER
 10
43.1195377227
 20
56.7114040101
 11
48.2373900078
 21
53.7565743231
  0
LINE
  5
272
100
AcDbEntity
  8
0
100
AcDbLine
 62
7
  6
BYLAYER
 10
44.1351800258
 20
56.2478618028
 11
43.6779819293
 21
56.5118327941
  0
LINE
  5
273
100
AcDbEntity
  8
0
100
AcDbLine
 62
7
  6
BYLAYER
 10
44.4771327431
 20
57.0664475483
 11
44.9343308396
 21
56.802476557
  0
LINE
  5
274
100
AcDbEntity
  8
0
100
AcDbLine
 62
7
  6
BYLAYER
 10
44.0577717717
 20
80.0866938675
 11
44.0577717717
 21
80.7503355641
  0
LINE
  5
275
100
AcDbEntity
  8
00_COMPONENTS
100
AcDbLine
 62
7
  6
BYLAYER
 10
46.6660409548
 20
38.5410345263
 11
46.6660409548
 21
34.0810135326
  0
LINE
  5
276
100
AcDbEntity
  8
0
100
AcDbLine
 62
7
  6
BYLAYER
 10
48.7564989709
 20
61.7424709914
 11
46.9594564528
 21
58.6298847683
  0
LINE
  5
277
100
AcDbEntity
  8
0
100
AcDbLine
 62
7
  6
BYLAYER
 10
45.1687639082
 20
55.528297083
 11
43.4620069275
 21
52.572090866
  0
LINE
  5
278
100
AcDbEntity
  8
0
100
AcDbLine
 62
7
  6
BYLAYER
 10
46.5703106064
 20
54.7190905835
 11
48.361003151
 21
57.8206782688
  0
LINE
  5
279
100
AcDbEntity
  8
0
100
AcDbLine
 62
7
  6
BYLAYER
 10
48.6785018292
 20
57.6373650804
 11
46.8878092846
 21
54.5357773951
  0
LINE
  5
27A
100
AcDbEntity
  8
0
100
AcDbLine
 62
7
  6
BYLAYER
 10
69.750108583
 20
65.4216456887
 11
68.6624908762
 21
64.7937130612
  0
LINE
  5
27B
100
AcDbEntity
  8
0
100
AcDbLine
 62
7
  6
BYLAYER
 10
45.4779155899
 20
51.4081721795
 11
39.4328901417
 21
47.9180959427
  0
LINE
  5
27C
100
AcDbEntity
  8
0
100
AcDbLine
 62
7
  6
BYLAYER
 10
41.8743048479
 20
60.4268283907
 11
42.3315029444
 21
60.1628573994
  0
LINE
  5
27D
100
AcDbEntity
  8
0
100
AcDbLine
 62
7
  6
BYLAYER
 10
40.7204714356
 20
62.2319060068
 11
41.3860568661
 21
61.8475982165
  0
LINE
  5
27E
100
AcDbEntity
  8
0
100
AcDbLine
 62
7
  6
BYLAYER
 10
50.0280825524
 20
56.8581620084
 11
44.9102302673
 21
59.8129916953
  0
LINE
  5
27F
100
AcDbEntity
  8
0
100
AcDbLine
 62
7
  6
BYLAYER
 10
43.5524830412
 20
61.1687033912
 11
42.0070028831
 21
62.0609665908
  0
LINE
  5
280
100
AcDbEntity
  8
0
100
AcDbLine
 62
7
  6
BYLAYER
 10
43.6779819293
 20
56.5118327941
 11
41.8743048479
 21
60.4268283907
  0
LINE
  5
281
100
AcDbEntity
  8
0
100
AcDbLine
 62
7
  6
BYLAYER
 10
44.1351800258
 20
56.2478618028
 11
42.3315029444
 21
60.1628573994
  0
LINE
  5
282
100
AcDbEntity
  8
0
100
AcDbLine
 62
7
  6
BYLAYER
 10
42.6734556617
 20
60.9814431449
 11
44.4771327431
 21
57.0664475483
  0
LINE
  5
283
100
AcDbEntity
  8
0
100
AcDbLine
 62
7
  6
BYLAYER
 10
46.2034969019
 20
58.3801628248
 11
46.1171133787
 21
59.0507850993
  0
LINE
  5
284
100
AcDbEntity
  8
00_COMPONENTS
100
AcDbLine
 62
7
  6
BYLAYER
 10
48.9743584871
 20
40.8588668847
 11
48.9743584871
 21
39.614517201
  0
LINE
  5
285
100
AcDbEntity
  8
0
100
AcDbLine
 62
7
  6
BYLAYER
 10
50.7964293535
 20
58.1889850932
 11
50.0280825524
 21
56.8581620084
  0
LINE
  5
286
100
AcDbEntity
  8
0
100
AcDbLine
 62
7
  6
BYLAYER
 10
48.2373900078
 20
53.7565743231
 11
47.4690432068
 21
52.4257512383
  0
LINE
  5
287
100
AcDbEntity
  8
0
100
AcDbLine
 62
7
  6
BYLAYER
 10
50.9581283107
 20
57.9196154723
 11
50.6406296325
 21
57.3696885778
  0
LINE
  5
288
100
AcDbEntity
  8
0
100
AcDbLine
 62
7
  6
BYLAYER
 10
48.1006402076
 20
52.9702734214
 11
47.7831415295
 21
52.4203465268
  0
LINE
  5
289
100
AcDbEntity
  8
0
100
AcDbLine
 62
7
  6
BYLAYER
 10
48.8025376549
 20
51.6558358471
 11
52.1299238015
 21
57.419069702
  0
LINE
  5
28A
100
AcDbEntity
  8
0
100
AcDbLine
 62
7
  6
BYLAYER
 10
67.1449113331
 20
70.3543491832
 11
67.7613087264
 21
70.9382522095
  0
LINE
  5
28B
100
AcDbEntity
  8
0
100
AcDbLine
 62
7
  6
BYLAYER
 10
39.4328901417
 20
45.8925711797
 11
47.232051649
 21
50.3953922972
  0
LINE
  5
28C
100
AcDbEntity
  8
0
100
AcDbLine
 62
7
  6
BYLAYER
 10
66.9083548171
 20
61.7554434176
 11
69.750108583
 21
63.3961209258
  0
LINE
  5
28D
100
AcDbEntity
  8
0
100
AcDbLine
 62
7
  6
BYLAYER
 10
66.0998656388
 20
60.3550913098
 11
48.0405408274
 21
49.9285975064
  0
LINE
  5
28E
100
AcDbEntity
  8
0
100
AcDbLine
 62
7
  6
BYLAYER
 10
44.6567679007
 20
60.8244897533
 11
44.445713508
 21
60.9463455477
  0
LINE
  5
28F
100
AcDbEntity
  8
0
100
AcDbLine
 62
7
  6
BYLAYER
 10
50.6406296325
 20
57.3696885778
 11
50.4027169652
 21
57.5070514477
  0
LINE
  5
290
100
AcDbEntity
  8
0
100
AcDbLine
 62
7
  6
BYLAYER
 10
50.7202136917
 20
58.056979469
 11
50.9581283107
 21
57.9196154723
  0
LINE
  5
291
100
AcDbEntity
  8
0
100
AcDbLine
 62
7
  6
BYLAYER
 10
52.1299238015
 20
57.419069702
 11
50.7964293535
 21
58.1889850932
  0
LINE
  5
292
100
AcDbEntity
  8
0
100
AcDbLine
 62
7
  6
BYLAYER
 10
48.7564989709
 20
61.7424709914
 11
36.6091575229
 21
68.7556768337
  0
LINE
  5
293
100
AcDbEntity
  8
00_COMPONENTS
100
AcDbLine
 62
7
  6
BYLAYER
 10
50.2840215911
 20
40.3706470332
 11
50.2840215911
 21
39.8521590389
  0
LINE
  5
294
100
AcDbEntity
  8
0
100
AcDbLine
 62
7
  6
BYLAYER
 10
50.4454382819
 20
51.3170574111
 11
50.4454382819
 21
48.1995813346
  0
LINE
  5
295
100
AcDbEntity
  8
0
100
AcDbLine
 62
7
  6
BYLAYER
 10
51.2599724006
 20
75.8663850994
 11
51.2599724006
 21
77.3388655585
  0
LWPOLYLINE
  5
296
100
AcDbEntity
  8
0
100
AcDbPolyline
 62
7
  6
BYLAYER
 90
3
 70
0
 10
53.7832729465
 20
49.1000649575
 10
55.6039339087
 20
50.305605879
 10
57.5432609268
 20
52.2974866881
  0
LINE
  5
297
100
AcDbEntity
  8
0
100
AcDbLine
 62
7
  6
BYLAYER
 10
58.7375604428
 20
52.9870117193
 11
50.4454382819
 21
48.1995813346
  0
LINE
  5
298
100
AcDbEntity
  8
0
100
AcDbLine
 62
7
  6
BYLAYER
 10
33.8113619388
 20
72.0970814027
 11
32.015303237
 21
73.1340129192
  0
LINE
  5
299
100
AcDbEntity
  8
0
100
AcDbLine
 62
7
  6
BYLAYER
 10
53.7026122351
 20
74.456158237
 11
53.7026122351
 21
75.9286386961
  0
LINE
  5
29A
100
AcDbEntity
  8
00_COMPONENTS
100
AcDbLine
 62
7
  6
BYLAYER
 10
54.6243574231
 20
42.3580381417
 11
54.6243574231
 21
42.876526136
  0
LINE
  5
29B
100
AcDbEntity
  8
0
100
AcDbLine
 62
7
  6
BYLAYER
 10
54.941862081
 20
77.9921124087
 11
54.941862081
 21
79.4645928677
  0
LINE
  5
29C
100
AcDbEntity
  8
00_COMPONENTS
100
AcDbLine
 62
7
  6
BYLAYER
 10
55.4327639225
 20
37.9836622891
 11
55.4327639225
 21
38.8548429791
  0
LINE
  5
29D
100
AcDbEntity
  8
0
100
AcDbLine
 62
7
  6
BYLAYER
 10
67.1365001984
 20
74.3778489338
 11
65.3839074952
 21
71.3422524759
  0
LINE
  5
29E
100
AcDbEntity
  8
0
100
AcDbLine
 62
7
  6
BYLAYER
 10
63.3439771127
 20
65.4332719271
 11
62.0104826646
 21
63.12357897
  0
LINE
  5
29F
100
AcDbEntity
  8
0
100
AcDbLine
 62
7
  6
BYLAYER
 10
67.1809500133
 20
70.3046998296
 11
64.1123239137
 21
64.9896540112
  0
LINE
  5
2A0
100
AcDbEntity
  8
00_COMPONENTS
100
AcDbLine
 62
7
  6
BYLAYER
 10
52.9092859612
 20
46.7956538089
 11
53.74338211
 21
48.1726046504
  0
LWPOLYLINE
  5
2A1
100
AcDbEntity
  8
0
100
AcDbPolyline
 62
7
  6
BYLAYER
 90
3
 70
0
 10
50.0295102596
 20
44.786263891
 10
52.6840374775
 20
46.8634294429
 10
53.3218556626
 20
47.9161505656
  0
LINE
  5
2A2
100
AcDbEntity
  8
00_COMPONENTS
100
AcDbLine
 62
7
  6
BYLAYER
 10
50.2091161298
 20
44.6825707394
 11
52.9092859612
 21
46.7956538089
  0
LWPOLYLINE
  5
2A3
100
AcDbEntity
  8
0
100
AcDbPolyline
 62
7
  6
BYLAYER
 90
4
 70
0
 10
53.4644725269
 20
47.9879227145
 10
55.2449086732
 20
49.1668509921
 10
57.8945105455
 20
51.8882862306
 10
58.2359285078
 20
52.6973961153
  0
LWPOLYLINE
  5
2A4
100
AcDbEntity
  8
00_COMPONENTS_2
100
AcDbPolyline
 62
7
  6
BYLAYER
 90
4
 70
0
 10
60.0702635782
 20
32.4386720287
 10
59.9697174827
 20
33.6536397402
 10
58.4681448287
 20
37.1964666121
 10
56.1733972579
 20
39.428092681
  0
LINE
  5
2A5
100
AcDbEntity
  8
00_COMPONENTS
100
AcDbLine
 62
7
  6
BYLAYER
 10
56.8320498781
 20
44.1511303609
 11
56.8320498781
 21
45.3954800446
  0
LINE
  5
2A6
100
AcDbEntity
  8
00_COMPONENTS
100
AcDbLine
 62
7
  6
BYLAYER
 10
56.8952940331
 20
44.2299281674
 11
56.8952940331
 21
39.9868402979
  0
LINE
  5
2A7
100
AcDbEntity
  8
0
100
AcDbLine
 62
7
  6
BYLAYER
 10
58.2825237888
 20
77.1003556217
 11
58.2825237888
 21
78.5728360807
  0
LINE
  5
2A8
100
AcDbEntity
  8
0
100
AcDbLine
 62
7
  6
BYLAYER
 10
58.7375604428
 20
52.9870117193
 11
58.7375604428
 21
56.1044877958
  0
LINE
  5
2A9
100
AcDbEntity
  8
00_COMPONENTS
100
AcDbLine
 62
7
  6
BYLAYER
 10
59.2765139185
 20
49.6598101545
 11
59.2765139185
 21
50.9041598382
  0
LINE
  5
2AA
100
AcDbEntity
  8
0
100
AcDbLine
 62
7
  6
BYLAYER
 10
64.3391968626
 20
65.1519000682
 11
63.9581984489
 21
64.4919877948
  0
LINE
  5
2AB
100
AcDbEntity
  8
0
100
AcDbLine
 62
7
  6
BYLAYER
 10
67.4814767967
 20
68.7636631645
 11
65.0049871074
 21
64.474233387
  0
LINE
  5
2AC
100
AcDbEntity
  8
0
100
AcDbLine
 62
7
  6
BYLAYER
 10
63.8485746423
 20
62.0622933344
 11
65.1820731314
 21
64.3719932909
  0
LINE
  5
2AD
100
AcDbEntity
  8
0
100
AcDbLine
 62
7
  6
BYLAYER
 10
65.4995766305
 20
64.1886884526
 11
64.1660733204
 21
61.878980146
  0
LINE
  5
2AE
100
AcDbEntity
  8
0
100
AcDbLine
 62
7
  6
BYLAYER
 10
65.9030164583
 20
63.9557676287
 11
68.9716425579
 21
69.2708134472
  0
LINE
  5
2AF
100
AcDbEntity
  8
0
100
AcDbLine
 62
7
  6
BYLAYER
 10
65.3378688113
 20
61.2024567558
 11
66.6713632594
 21
63.5121497129
  0
LWPOLYLINE
  5
2B0
100
AcDbEntity
  8
0
100
AcDbPolyline
 62
7
  6
BYLAYER
 90
3
 70
0
 10
58.7375604428
 20
52.9870117193
 10
60.9152995523
 20
56.0561192956
 10
61.2542278779
 20
57.5574777437
  0
LINE
  5
2B1
100
AcDbEntity
  8
00_COMPONENTS
100
AcDbLine
 62
7
  6
BYLAYER
 10
48.9743584871
 20
40.8588668847
 11
56.8320498781
 21
45.3954800446
  0
LINE
  5
2B2
100
AcDbEntity
  8
00_COMPONENTS
100
AcDbLine
 62
7
  6
BYLAYER
 10
47.1120332309
 20
38.79852675
 11
46.6660409547
 21
38.5410345263
  0
LINE
  5
2B3
100
AcDbEntity
  8
00_COMPONENTS
100
AcDbLine
 62
7
  6
BYLAYER
 10
56.8320498781
 20
44.1511303609
 11
48.9743584871
 21
39.614517201
  0
LINE
  5
2B4
100
AcDbEntity
  8
00_COMPONENTS
100
AcDbLine
 62
7
  6
BYLAYER
 10
54.6243574231
 20
42.3580381417
 11
50.2840215911
 21
39.8521590389
  0
LINE
  5
2B5
100
AcDbEntity
  8
0
100
AcDbLine
 62
7
  6
BYLAYER
 10
52.7109436313
 20
72.6392933382
 11
44.3860935327
 21
74.179041306
  0
LINE
  5
2B6
100
AcDbEntity
  8
0
100
AcDbLine
 62
7
  6
BYLAYER
 10
62.0104826646
 20
63.12357897
 11
65.3378688113
 21
61.2024567558
  0
LINE
  5
2B7
100
AcDbEntity
  8
0
100
AcDbLine
 62
7
  6
BYLAYER
 10
40.9017396511
 20
76.190688448
 11
44.3860935327
 21
74.179041306
  0
LINE
  5
2B8
100
AcDbEntity
  8
00_COMPONENTS_2
100
AcDbLine
 62
7
  6
BYLAYER
 10
60.0702639185
 20
31.6225393878
 11
60.0702639185
 21
32.4365082525
  0
LINE
  5
2B9
100
AcDbEntity
  8
0
100
AcDbLine
 62
7
  6
BYLAYER
 10
62.3684575086
 20
80.3971772581
 11
62.3684575086
 21
88.584429801
  0
LINE
  5
2BA
100
AcDbEntity
  8
0
100
AcDbLine
 62
7
  6
BYLAYER
 10
70.6783995386
 20
68.2853886707
 11
66.0998656388
 21
60.3550913098
  0
LINE
  5
2BB
100
AcDbEntity
  8
0
100
AcDbLine
 62
7
  6
BYLAYER
 10
63.9581984489
 20
64.4919877948
 11
63.0899517251
 21
64.993284607
  0
LINE
  5
2BC
100
AcDbEntity
  8
0
100
AcDbLine
 62
7
  6
BYLAYER
 10
66.6713632594
 20
63.5121497129
 11
65.0049871074
 21
64.474233387
  0
LINE
  5
2BD
100
AcDbEntity
  8
0
100
AcDbLine
 62
7
  6
BYLAYER
 10
64.1123239137
 20
64.9896540112
 11
63.3439771127
 21
65.4332719271
  0
LINE
  5
2BE
100
AcDbEntity
  8
0
100
AcDbLine
 62
7
  6
BYLAYER
 10
64.2392969399
 20
65.2095789646
 11
65.1319817818
 21
64.6941958364
  0
LINE
  5
2BF
100
AcDbEntity
  8
0
100
AcDbLine
 62
7
  6
BYLAYER
 10
65.2589835204
 20
64.9141705213
 11
64.3663088289
 21
65.4295712306
  0
LINE
  5
2C0
100
AcDbEntity
  8
0
100
AcDbLine
 62
7
  6
BYLAYER
 10
64.683807507
 20
65.9794981251
 11
65.5764821985
 21
65.4640974159
  0
LINE
  5
2C1
100
AcDbEntity
  8
0
100
AcDbLine
 62
7
  6
BYLAYER
 10
53.7026122351
 20
74.456158237
 11
51.2599724006
 21
75.8663850994
  0
LINE
  5
2C2
100
AcDbEntity
  8
0
100
AcDbLine
 62
7
  6
BYLAYER
 10
39.4326376954
 20
82.9250496869
 11
44.0577717717
 21
80.2547876923
  0
LINE
  5
2C3
100
AcDbEntity
  8
0
100
AcDbLine
 62
7
  6
BYLAYER
 10
69.2062927669
 20
65.7356107937
 11
69.750108583
 21
65.4216456887
  0
LINE
  5
2C4
100
AcDbEntity
  8
0
100
AcDbLine
 62
7
  6
BYLAYER
 10
44.6325105563
 20
80.4185174788
 11
44.0577717717
 21
80.7503355641
  0
LINE
  5
2C5
100
AcDbEntity
  8
0
100
AcDbLine
 62
7
  6
BYLAYER
 10
53.7026122351
 20
75.9286386961
 11
51.2599724006
 21
77.3388655585
  0
LINE
  5
2C6
100
AcDbEntity
  8
0
100
AcDbLine
 62
7
  6
BYLAYER
 10
66.5887906758
 20
69.2790440772
 11
67.4814767967
 21
68.7636631645
  0
LINE
  5
2C7
100
AcDbEntity
  8
0
100
AcDbLine
 62
7
  6
BYLAYER
 10
52.1579942738
 20
77.8573356339
 11
53.7026047575
 21
76.9655745297
  0
LINE
  5
2C8
100
AcDbEntity
  8
0
100
AcDbLine
 62
7
  6
BYLAYER
 10
70.6783995386
 20
68.2853886707
 11
68.9716425579
 21
69.2708134472
  0
LINE
  5
2C9
100
AcDbEntity
  8
0
100
AcDbLine
 62
7
  6
BYLAYER
 10
67.1809500133
 20
70.3046998296
 11
65.3839074952
 21
71.3422524759
  0
LINE
  5
2CA
100
AcDbEntity
  8
0
100
AcDbLine
 62
7
  6
BYLAYER
 10
55.2112488501
 20
77.8365854035
 11
54.941862081
 21
77.9921124087
  0
LINE
  5
2CB
100
AcDbEntity
  8
0
100
AcDbLine
 62
7
  6
BYLAYER
 10
47.9551914874
 20
82.3368567579
 11
47.3804527028
 21
82.6686748431
  0
LINE
  5
2CC
100
AcDbEntity
  8
0
100
AcDbLine
 62
7
  6
BYLAYER
 10
56.4864725646
 20
78.5728317635
 11
54.941862081
 21
79.4645928677
  0
LINE
  5
2CD
100
AcDbEntity
  8
0
100
AcDbLine
 62
7
  6
BYLAYER
 10
55.8398839542
 20
79.9830629431
 11
58.2825237888
 21
78.5728360807
  0
LINE
  5
2CE
100
AcDbEntity
  8
0
100
AcDbLine
 62
7
  6
BYLAYER
 10
69.750108583
 20
65.4216456887
 11
69.750108583
 21
63.3961209258
  0
LINE
  5
2CF
100
AcDbEntity
  8
0
100
AcDbLine
 62
7
  6
BYLAYER
 10
67.1365001984
 20
74.3778489338
 11
61.4294628348
 21
77.6729027007
  0
LINE
  5
2D0
100
AcDbEntity
  8
0
100
AcDbLine
 62
7
  6
BYLAYER
 10
66.655982608
 20
73.5455634331
 11
68.0221240835
 21
71.9448556225
  0
LINE
  5
2D1
100
AcDbEntity
  8
0
100
AcDbLine
 62
7
  6
BYLAYER
 10
67.1809500133
 20
70.3046998296
 11
65.9706161818
 21
71.972138592
  0
LINE
  5
2D2
100
AcDbEntity
  8
0
100
AcDbLine
 62
7
  6
BYLAYER
 10
67.7613087264
 20
70.9382522095
 11
68.9716425579
 21
69.2708134472
  0
LINE
  5
2D3
100
AcDbEntity
  8
0
100
AcDbLine
 62
7
  6
BYLAYER
 10
68.0221240835
 20
71.9448556225
 11
70.6783995386
 21
68.2853886707
  0
LINE
  5
2D4
100
AcDbEntity
  8
0
100
AcDbLine
 62
7
  6
BYLAYER
 10
58.7624336779
 20
82.4791756137
 11
61.4294628348
 21
77.6729027007
  0
LINE
  5
2D5
100
AcDbEntity
  8
0
100
AcDbLine
 62
7
  6
BYLAYER
 10
55.2780797963
 20
84.4908227557
 11
63.0550158061
 21
80.0007813068
  0
LINE
  5
2D6
100
AcDbEntity
  8
0
100
AcDbLine
 62
7
  6
BYLAYER
 10
63.0550158061
 20
80.0007813068
 11
67.1365001984
 21
74.3778489338
  0
LINE
  5
2D7
100
AcDbEntity
  8
0
100
AcDbLine
 62
7
  6
BYLAYER
 10
62.3684575086
 20
88.584429801
 11
60.5723988067
 21
89.6213613175
  0
ARC
  5
2D8
100
AcDbEntity
  8
00_COMPONENTS
100
AcDbCircle
 62
7
  6
BYLAYER
 10
40.1030445115
 20
65.7270376963
 40
27.8257187626
100
AcDbArc
 50
282.3095720404
 51
284.5893136853
  0
ARC
  5
2D9
100
AcDbEntity
  8
00_COMPONENTS
100
AcDbCircle
 62
7
  6
BYLAYER
 10
38.7099572059
 20
65.5073945191
 40
27.5999273567
100
AcDbArc
 50
255.4016626809
 51
257.7000620857
  0
ARC
  5
2DA
100
AcDbEntity
  8
00_COMPONENTS
100
AcDbCircle
 62
7
  6
BYLAYER
 10
38.0150386583
 20
60.1834003482
 40
27.518228665
100
AcDbArc
 50
297.6148286277
 51
300.0156634384
  0
ARC
  5
2DB
100
AcDbEntity
  8
00_COMPONENTS
100
AcDbCircle
 62
7
  6
BYLAYER
 10
40.1463078414
 20
58.8160776197
 40
25.9802748254
100
AcDbArc
 50
242.346786798
 51
252.189282454
  0
ARC
  5
2DC
100
AcDbEntity
  8
00_COMPONENTS
100
AcDbCircle
 62
7
  6
BYLAYER
 10
38.725807017
 20
58.7999626296
 40
25.9629304865
100
AcDbArc
 50
287.8080845786
 51
297.6401150885
  0
ARC
  5
2DD
100
AcDbEntity
  8
00_COMPONENTS_2
100
AcDbCircle
 62
7
  6
BYLAYER
 10
44.262529176
 20
40.1080457139
 40
19.5265933017
100
AcDbArc
 50
299.7642882752
 51
299.9997121563
  0
ARC
  5
2DE
100
AcDbEntity
  8
00_COMPONENTS_2
100
AcDbCircle
 62
7
  6
BYLAYER
 10
44.2641229666
 20
40.9192454734
 40
19.5233982909
100
AcDbArc
 50
299.7751080583
 51
299.9997246974
  0
ARC
  5
2DF
100
AcDbEntity
  8
00_COMPONENTS_2
100
AcDbCircle
 62
7
  6
BYLAYER
 10
44.0353015524
 20
41.1114570317
 40
18.6015859313
100
AcDbArc
 50
299.7964504775
 51
300.0210670774
  0
ARC
  5
2E0
100
AcDbEntity
  8
00_COMPONENTS
100
AcDbCircle
 62
7
  6
BYLAYER
 10
43.1253460101
 20
44.6532881581
 40
15.2434020351
100
AcDbArc
 50
299.2760498524
 51
299.997710552
  0
ARC
  5
2E1
100
AcDbEntity
  8
00_COMPONENTS
100
AcDbCircle
 62
7
  6
BYLAYER
 10
35.7235707147
 20
44.623771695
 40
15.2095344588
100
AcDbArc
 50
240.0000405853
 51
240.7553030899
  0
ARC
  5
2E2
100
AcDbEntity
  8
00_COMPONENTS
100
AcDbCircle
 62
7
  6
BYLAYER
 10
42.997653876
 20
57.1735550999
 40
14.4232409025
100
AcDbArc
 50
299.5406077106
 51
299.9992743502
  0
ARC
  5
2E3
100
AcDbEntity
  8
00_COMPONENTS_2
100
AcDbCircle
 62
7
  6
BYLAYER
 10
42.2098159181
 20
38.1376548949
 40
13.6151366142
100
AcDbArc
 50
296.3963814916
 51
299.9481063227
  0
ARC
  5
2E4
100
AcDbEntity
  8
0
100
AcDbCircle
 62
7
  6
BYLAYER
 10
74.9704506642
 20
82.010856785
 40
13.4823174443
100
AcDbArc
 50
227.3205712213
 51
228.1233822864
  0
ARC
  5
2E5
100
AcDbEntity
  8
00_COMPONENTS_2
100
AcDbCircle
 62
7
  6
BYLAYER
 10
42.6629081426
 20
37.3492765336
 40
12.7058030924
100
AcDbArc
 50
299.9523920999
 51
300.3071790802
  0
ARC
  5
2E6
100
AcDbEntity
  8
00_COMPONENTS_2
100
AcDbCircle
 62
7
  6
BYLAYER
 10
42.4431686813
 20
37.5830924279
 40
11.8501410517
100
AcDbArc
 50
299.9995352334
 51
300.3543224173
  0
ARC
  5
2E7
100
AcDbEntity
  8
00_COMPONENTS
100
AcDbCircle
 62
7
  6
BYLAYER
 10
48.4912376512
 20
52.0740792819
 40
11.5040109619
100
AcDbArc
 50
316.4717713518
 51
317.8610642916
  0
ARC
  5
2E8
100
AcDbEntity
  8
00_COMPONENTS_2
100
AcDbCircle
 62
7
  6
BYLAYER
 10
25.7048979477
 20
32.4373994709
 40
6.909624572
100
AcDbArc
 50
180.0253325261
 51
186.6518366484
  0
ARC
  5
2E9
100
AcDbEntity
  8
00_COMPONENTS_2
100
AcDbCircle
 62
7
  6
BYLAYER
 10
53.1660351531
 20
32.4370689037
 40
6.9042189215
100
AcDbArc
 50
353.2708078985
 51
359.9953473464
  0
ARC
  5
2EA
100
AcDbEntity
  8
00_COMPONENTS
100
AcDbCircle
 62
7
  6
BYLAYER
 10
52.5985716362
 20
50.9066141862
 40
6.6779294703
100
AcDbArc
 50
349.698240949
 51
359.9789420874
  0
ARC
  5
2EB
100
AcDbEntity
  8
0
100
AcDbCircle
 62
7
  6
BYLAYER
 10
42.6950848084
 20
58.7064046185
 40
2.4046272565
100
AcDbArc
 50
290.2384143992
 51
294.1264855057
  0
ARC
  5
2EC
100
AcDbEntity
  8
0
100
AcDbCircle
 62
7
  6
BYLAYER
 10
43.4611464511
 20
58.25527919
 40
2.3927455285
100
AcDbArc
 50
290.590755227
 51
292.6591662263
  0
ARC
  5
2ED
100
AcDbEntity
  8
0
100
AcDbCircle
 62
7
  6
BYLAYER
 10
43.7440375577
 20
58.7451262243
 40
2.3926690217
100
AcDbArc
 50
7.3393966953
 51
9.4138791636
  0
ARC
  5
2EE
100
AcDbEntity
  8
0
100
AcDbCircle
 62
7
  6
BYLAYER
 10
45.9938106479
 20
57.1195765434
 40
2.1363811034
100
AcDbArc
 50
318.7775481226
 51
341.102245398
  0
ARC
  5
2EF
100
AcDbEntity
  8
0
100
AcDbCircle
 62
7
  6
BYLAYER
 10
42.7596669278
 20
58.0284515888
 40
1.7100068541
100
AcDbArc
 50
240.0410250182
 51
251.2990360678
  0
ARC
  5
2F0
100
AcDbEntity
  8
0
100
AcDbCircle
 62
7
  6
BYLAYER
 10
43.5943476486
 20
59.4725402205
 40
1.7020358306
100
AcDbArc
 50
48.6892649723
 51
59.9864742212
  0
ARC
  5
2F1
100
AcDbEntity
  8
0
100
AcDbCircle
 62
7
  6
BYLAYER
 10
28.6664316401
 20
77.578204131
 40
1.2380337874
100
AcDbArc
 50
57.0237754724
 51
60.0101751731
  0
ARC
  5
2F2
100
AcDbEntity
  8
0
100
AcDbCircle
 62
7
  6
BYLAYER
 10
27.9552766245
 20
77.5926893074
 40
1.2209409725
100
AcDbArc
 50
120.1673543733
 51
123.0220386139
  0
SPLINE
  5
2F3
100
AcDbEntity
  8
00_COMPONENTS_2
100
AcDbSpline
 62
7
  6
BYLAYER
 70
0
 71
3
 72
25
 73
21
 74
0
 42
0.0000001
 43
0.0000001
 44
0.0000000001
 40
0.0
 40
0.0
 40
0.0
 40
0.0
 40
0.0237577572
 40
0.0476053588
 40
0.0717218298
 40
0.0962359587
 40
0.1468256844
 40
0.2003092287
 40
0.2572518321
 40
0.3178596057
 40
0.3819922514
 40
0.4492154751
 40
0.5188670107
 40
0.5901224806
 40
0.6620579715
 40
0.7337082591
 40
0.8041265912
 40
0.8724370549
 40
0.9379105919
 40
1.0
 40
1.0
 40
1.0
 40
1.0
 10
18.7952639185
 20
31.6225393878
 30
0.0
 10
18.7952639185
 20
31.295297872
 30
0.0
 10
18.836244234
 20
30.6388596377
 30
0.0
 10
19.0190257721
 20
29.6656506752
 30
0.0
 10
19.3203180176
 20
28.7113947172
 30
0.0
 10
19.8782208987
 20
27.4610139283
 30
0.0
 10
20.8618805996
 20
25.9719747611
 30
0.0
 10
22.4133775284
 20
24.3727244151
 30
0.0
 10
24.3056872546
 20
22.9554120967
 30
0.0
 10
26.4975817679
 20
21.7345187232
 30
0.0
 10
28.9466653785
 20
20.7238293909
 30
0.0
 10
31.6060348701
 20
19.9374371207
 30
0.0
 10
34.4237312057
 20
19.3877421182
 30
0.0
 10
37.3434280142
 20
19.0841752542
 30
0.0
 10
40.3058228205
 20
19.0321915806
 30
0.0
 10
43.2503807278
 20
19.232713876
 30
0.0
 10
46.1169820524
 20
19.682150642
 30
0.0
 10
48.8481429564
 20
20.3725953512
 30
0.0
 10
51.3892834237
 20
21.2925533797
 30
0.0
 10
52.9694544074
 20
22.072194369
 30
0.0
 10
53.7101022387
 20
22.4998050414
 30
0.0
  0
SPLINE
  5
2F4
100
AcDbEntity
  8
00_COMPONENTS_2
100
AcDbSpline
 62
7
  6
BYLAYER
 70
0
 71
3
 72
16
 73
12
 74
0
 42
0.0000001
 43
0.0000001
 44
0.0000000001
 40
0.0
 40
0.0
 40
0.0
 40
0.0
 40
0.1417395215
 40
0.2775995636
 40
0.4077509106
 40
0.4708972164
 40
0.5328529527
 40
0.6535614659
 40
0.7709345041
 40
0.8860048779
 40
1.0
 40
1.0
 40
1.0
 40
1.0
 10
53.7101022387
 20
22.4998050414
 30
0.0
 10
54.1865944572
 20
22.7749063098
 30
0.0
 10
55.0977378694
 20
23.3534845767
 30
0.0
 10
56.3493202216
 20
24.3264181948
 30
0.0
 10
57.271465048
 20
25.2151750497
 30
0.0
 10
57.9208145842
 20
25.9643508524
 30
0.0
 10
58.4998308302
 20
26.7234188136
 30
0.0
 10
59.1142580243
 20
27.7175343107
 30
0.0
 10
59.6599738389
 20
28.9808348609
 30
0.0
 10
59.9949242811
 20
30.2890739673
 30
0.0
 10
60.0702639185
 20
31.1800327
 30
0.0
 10
60.0702639185
 20
31.6225393878
 30
0.0
  0
SPLINE
  5
2F5
100
AcDbEntity
  8
00_COMPONENTS_2
100
AcDbSpline
 62
7
  6
BYLAYER
 70
0
 71
3
 72
26
 73
22
 74
0
 42
0.0000001
 43
0.0000001
 44
0.0000000001
 40
0.0
 40
0.0
 40
0.0
 40
0.0
 40
0.0219524322
 40
0.0436757918
 40
0.0654174231
 40
0.0874234745
 40
0.1099257006
 40
0.1331299447
 40
0.1822334239
 40
0.2357497009
 40
0.2940494282
 40
0.357032495
 40
0.4242349111
 40
0.4949215712
 40
0.5681627417
 40
0.6428992236
 40
0.7180006182
 40
0.7923189111
 40
0.864744739
 40
0.9342550017
 40
1.0
 40
1.0
 40
1.0
 40
1.0
 10
26.037602557
 20
33.0062717017
 30
0.0
 10
25.9882229817
 20
32.8125692062
 30
0.0
 10
25.9140004563
 20
32.4205328237
 30
0.0
 10
25.8803699352
 20
31.8241439792
 30
0.0
 10
25.9255515897
 20
31.2279382954
 30
0.0
 10
26.0492325841
 20
30.635806669
 30
0.0
 10
26.2504743644
 20
30.0513233233
 30
0.0
 10
26.6271723126
 20
29.2725609345
 30
0.0
 10
27.2982351231
 20
28.3327828131
 30
0.0
 10
28.3624101259
 20
27.3156188164
 30
0.0
 10
29.6751444451
 20
26.4056492616
 30
0.0
 10
31.2067747956
 20
25.6215891245
 30
0.0
 10
32.9233968015
 20
24.9796657731
 30
0.0
 10
34.786735401
 20
24.4938708139
 30
0.0
 10
36.7549928098
 20
24.1749639394
 30
0.0
 10
38.7837919658
 20
24.0301048736
 30
0.0
 10
40.82727469
 20
24.0625751535
 30
0.0
 10
42.8392038883
 20
24.2716055478
 30
0.0
 10
44.7741953496
 20
24.6525828639
 30
0.0
 10
46.5884812788
 20
25.1967320915
 30
0.0
 10
47.7266373437
 20
25.6757270663
 30
0.0
 10
48.2628144253
 20
25.9420346116
 30
0.0
  0
SPLINE
  5
2F6
100
AcDbEntity
  8
00_COMPONENTS_2
100
AcDbSpline
 62
7
  6
BYLAYER
 70
0
 71
3
 72
25
 73
21
 74
0
 42
0.0000001
 43
0.0000001
 44
0.0000000001
 40
0.0
 40
0.0
 40
0.0
 40
0.0
 40
0.0618677022
 40
0.127533488
 40
0.1963494694
 40
0.2675093709
 40
0.3401040209
 40
0.4131627631
 40
0.4856960841
 40
0.5567360523
 40
0.6253781071
 40
0.6908255996
 40
0.7524397157
 40
0.8097978597
 40
0.8627634803
 40
0.9115666527
 40
0.9346301241
 40
0.9569466626
 40
0.9786751721
 40
1.0
 40
1.0
 40
1.0
 40
1.0
 10
53.9593823597
 20
23.9733012351
 30
0.0
 10
53.2380447261
 20
23.5606012208
 30
0.0
 10
51.6962740486
 20
22.8034696104
 30
0.0
 10
49.2141567942
 20
21.8993070613
 30
0.0
 10
46.5358898112
 20
21.2067929119
 30
0.0
 10
43.7153388857
 20
20.7399068303
 30
0.0
 10
40.808832891
 20
20.5078560141
 30
0.0
 10
37.8747098155
 20
20.5153224288
 30
0.0
 10
34.971862888
 20
20.762144444
 30
0.0
 10
32.1585205069
 20
21.2433836203
 30
0.0
 10
29.4909812811
 20
21.9494447337
 30
0.0
 10
27.0223964766
 20
22.8664210731
 30
0.0
 10
24.8017176547
 20
23.9764814554
 30
0.0
 10
22.8726589752
 20
25.2589475882
 30
0.0
 10
21.2738628243
 20
26.6899628052
 30
0.0
 10
20.22455902
 20
28.0116444933
 30
0.0
 10
19.5964490225
 20
29.1122258236
 30
0.0
 10
19.2352768618
 20
29.9402407524
 30
0.0
 10
18.9774727664
 20
30.7816168802
 30
0.0
 10
18.8749393033
 20
31.3524913702
 30
0.0
 10
18.8417863903
 20
31.6370173893
 30
0.0
  0
SPLINE
  5
2F7
100
AcDbEntity
  8
00_COMPONENTS_2
100
AcDbSpline
 62
7
  6
BYLAYER
 70
0
 71
3
 72
22
 73
18
 74
0
 42
0.0000001
 43
0.0000001
 44
0.0000000001
 40
0.0
 40
0.0
 40
0.0
 40
0.0
 40
0.0680036606
 40
0.1327596516
 40
0.1945419863
 40
0.2537575602
 40
0.3109473456
 40
0.366772188
 40
0.4219825394
 40
0.4773713925
 40
0.533719774
 40
0.5917422026
 40
0.6520488374
 40
0.7151212611
 40
0.7813060898
 40
0.8508205893
 40
1.0
 40
1.0
 40
1.0
 40
1.0
 10
55.9192766525
 20
39.2305022102
 30
0.0
 10
56.216347102
 20
38.9669689123
 30
0.0
 10
56.7736018644
 20
38.4259463895
 30
0.0
 10
57.5053607497
 20
37.5542369369
 30
0.0
 10
58.1067433497
 20
36.6484474194
 30
0.0
 10
58.5727723425
 20
35.7149106535
 30
0.0
 10
58.8995058031
 20
34.7603384876
 30
0.0
 10
59.0837773929
 20
33.791907036
 30
0.0
 10
59.1237378183
 20
32.8173146862
 30
0.0
 10
59.0189870465
 20
31.8445042092
 30
0.0
 10
58.7705606348
 20
30.8813589395
 30
0.0
 10
58.3809807501
 20
29.935348177
 30
0.0
 10
57.8537535945
 20
29.0134436582
 30
0.0
 10
57.1933132824
 20
28.1221653134
 30
0.0
 10
56.4047484028
 20
27.2675344231
 30
0.0
 10
55.1615904603
 20
26.1591409167
 30
0.0
 10
54.0964748682
 20
25.4410008588
 30
0.0
 10
53.3420350201
 20
25.0054274094
 30
0.0
  0
SPLINE
  5
2F8
100
AcDbEntity
  8
00_COMPONENTS_2
100
AcDbSpline
 62
7
  6
BYLAYER
 70
0
 71
3
 72
15
 73
11
 74
0
 42
0.0000001
 43
0.0000001
 44
0.0000000001
 40
0.0
 40
0.0
 40
0.0
 40
0.0
 40
0.1508089109
 40
0.292333427
 40
0.4247195269
 40
0.5488011626
 40
0.6660149047
 40
0.7784757685
 40
0.8888335906
 40
1.0
 40
1.0
 40
1.0
 40
1.0
 10
49.0747112774
 20
26.3799459805
 30
0.0
 10
49.4303791803
 20
26.5882367766
 30
0.0
 10
50.1007880433
 20
27.0261005413
 30
0.0
 10
50.9966746461
 20
27.7685089291
 30
0.0
 10
51.7398518094
 20
28.5675589553
 30
0.0
 10
52.3197034076
 20
29.4134474832
 30
0.0
 10
52.7270288071
 20
30.2959151828
 30
0.0
 10
52.9541331254
 20
31.2031785087
 30
0.0
 10
52.9960340303
 20
32.1210051169
 30
0.0
 10
52.9007849186
 20
32.723638263
 30
0.0
 10
52.824973736
 20
33.0178531304
 30
0.0
  0
SPLINE
  5
2F9
100
AcDbEntity
  8
00_COMPONENTS_2
100
AcDbSpline
 62
7
  6
BYLAYER
 70
0
 71
3
 72
15
 73
11
 74
0
 42
0.0000001
 43
0.0000001
 44
0.0000000001
 40
0.0
 40
0.0
 40
0.0
 40
0.0
 40
0.1485901108
 40
0.2895072216
 40
0.4227223536
 40
0.548643372
 40
0.668001707
 40
0.7819387451
 40
0.8919877336
 40
1.0
 40
1.0
 40
1.0
 40
1.0
 10
54.0257408713
 20
23.1974708164
 30
0.0
 10
54.4912018981
 20
23.4662032615
 30
0.0
 10
55.3770498018
 20
24.0276751667
 30
0.0
 10
56.5880992714
 20
24.9650519379
 30
0.0
 10
57.6355847636
 20
25.9677133527
 30
0.0
 10
58.5091066654
 20
27.0264501145
 30
0.0
 10
59.1996871117
 20
28.1319497699
 30
0.0
 10
59.6995548995
 20
29.2741584051
 30
0.0
 10
60.0024248604
 20
30.4415065822
 30
0.0
 10
60.0702406415
 20
31.2318467608
 30
0.0
 10
60.070254077
 20
31.622539388
 30
0.0
  0
SPLINE
  5
2FA
100
AcDbEntity
  8
00_COMPONENTS_2
100
AcDbSpline
 62
7
  6
BYLAYER
 70
0
 71
3
 72
26
 73
22
 74
0
 42
0.0000001
 43
0.0000001
 44
0.0000000001
 40
0.0
 40
0.0
 40
0.0
 40
0.0
 40
0.0213291013
 40
0.0428857112
 40
0.0648854939
 40
0.0875221071
 40
0.1352723821
 40
0.1606784397
 40
0.1871835557
 40
0.2435728598
 40
0.304465074
 40
0.3694946592
 40
0.4380367811
 40
0.509276838
 40
0.5822691013
 40
0.655988278
 40
0.7293773085
 40
0.8013932046
 40
0.8710553041
 40
0.9374909919
 40
1.0
 40
1.0
 40
1.0
 40
1.0
 10
18.7952737601
 20
31.6225393877
 30
0.0
 10
18.7952637125
 20
31.3303662576
 30
0.0
 10
18.8329211469
 20
30.7422286775
 30
0.0
 10
19.0015165194
 20
29.8673249815
 30
0.0
 10
19.2813166786
 20
29.0024710569
 30
0.0
 10
19.8089306765
 20
27.8495801715
 30
0.0
 10
20.5513512876
 20
26.7545572131
 30
0.0
 10
21.4654268518
 20
25.7391454778
 30
0.0
 10
22.5497514734
 20
24.7241200278
 30
0.0
 10
24.1447239916
 20
23.5554717926
 30
0.0
 10
26.342202448
 20
22.3563671327
 30
0.0
 10
28.8165212986
 20
21.3554221989
 30
0.0
 10
31.5154648084
 20
20.5732653668
 30
0.0
 10
34.3823337429
 20
20.0260575307
 30
0.0
 10
37.3564300786
 20
19.7253379835
 30
0.0
 10
40.3746431324
 20
19.6774647603
 30
0.0
 10
43.3728485725
 20
19.8834697938
 30
0.0
 10
46.2873427822
 20
20.3389441055
 30
0.0
 10
49.0565004537
 20
21.0343908681
 30
0.0
 10
51.6213838781
 20
21.9549297349
 30
0.0
 10
53.2128695285
 20
22.7324153106
 30
0.0
 10
53.9561744187
 20
23.1574974077
 30
0.0
  0
SPLINE
  5
2FB
100
AcDbEntity
  8
00_COMPONENTS_2
100
AcDbSpline
 62
7
  6
BYLAYER
 70
0
 71
3
 72
12
 73
8
 74
0
 42
0.0000001
 43
0.0000001
 44
0.0000000001
 40
0.0
 40
0.0
 40
0.0
 40
0.0
 40
0.2806438817
 40
0.5396466217
 40
0.7781707627
 40
0.8908986139
 40
1.0
 40
1.0
 40
1.0
 40
1.0
 10
48.4315899025
 20
27.3574064254
 30
0.0
 10
48.8405554363
 20
27.5969100641
 30
0.0
 10
49.6006750095
 20
28.1054808451
 30
0.0
 10
50.5796309084
 20
28.9895769106
 30
0.0
 10
51.2193654156
 20
29.8062245281
 30
0.0
 10
51.5996777666
 20
30.4856713782
 30
0.0
 10
51.7464873615
 20
30.8313513072
 30
0.0
 10
51.8085040831
 20
31.0048444172
 30
0.0
  0
SPLINE
  5
2FC
100
AcDbEntity
  8
00_COMPONENTS_2
100
AcDbSpline
 62
7
  6
BYLAYER
 70
0
 71
3
 72
9
 73
5
 74
0
 42
0.0000001
 43
0.0000001
 44
0.0000000001
 40
0.0
 40
0.0
 40
0.0
 40
0.0
 40
0.50500136
 40
1.0
 40
1.0
 40
1.0
 40
1.0
 10
51.8085040831
 20
31.0048444172
 30
0.0
 10
51.8935238292
 20
31.2426889821
 30
0.0
 10
52.0242904455
 20
31.728196526
 30
0.0
 10
52.0691174624
 20
32.2292869439
 30
0.0
 10
52.0692627779
 20
32.4768673423
 30
0.0
  0
SPLINE
  5
2FD
100
AcDbEntity
  8
00_COMPONENTS_2
100
AcDbSpline
 62
7
  6
BYLAYER
 70
0
 71
3
 72
15
 73
11
 74
0
 42
0.0000001
 43
0.0000001
 44
0.0000000001
 40
0.0
 40
0.0
 40
0.0
 40
0.0
 40
0.1077038202
 40
0.2182852445
 40
0.3331343695
 40
0.4533657531
 40
0.5797838663
 40
0.7129028715
 40
0.8530030149
 40
1.0
 40
1.0
 40
1.0
 40
1.0
 10
60.0226914427
 20
31.6280550335
 30
0.0
 10
59.9805221074
 20
31.2699688183
 30
0.0
 10
59.8381676431
 20
30.5498104808
 30
0.0
 10
59.4608561735
 20
29.4964518259
 30
0.0
 10
58.9217310358
 20
28.468595798
 30
0.0
 10
58.2260996755
 20
27.4746989696
 30
0.0
 10
57.3801851007
 20
26.5222013837
 30
0.0
 10
56.3909222837
 20
25.6182493514
 30
0.0
 10
55.2665159236
 20
24.7698735422
 30
0.0
 10
54.4519148614
 20
24.2574898803
 30
0.0
 10
54.0257408713
 20
24.0114396811
 30
0.0
  0
SPLINE
  5
2FE
100
AcDbEntity
  8
00_COMPONENTS_2
100
AcDbSpline
 62
7
  6
BYLAYER
 70
0
 71
3
 72
9
 73
5
 74
0
 42
0.0000001
 43
0.0000001
 44
0.0000000001
 40
0.0
 40
0.0
 40
0.0
 40
0.0
 40
0.4950683464
 40
1.0
 40
1.0
 40
1.0
 40
1.0
 10
26.7993624399
 20
32.317775076
 30
0.0
 10
26.8078689466
 20
32.0961821458
 30
0.0
 10
26.8606287259
 20
31.6492809549
 30
0.0
 10
26.9814432763
 20
31.2160016386
 30
0.0
 10
27.0576619793
 20
31.0030568416
 30
0.0
  0
SPLINE
  5
2FF
100
AcDbEntity
  8
00_COMPONENTS_2
100
AcDbSpline
 62
7
  6
BYLAYER
 70
0
 71
3
 72
23
 73
19
 74
0
 42
0.0000001
 43
0.0000001
 44
0.0000000001
 40
0.0
 40
0.0
 40
0.0
 40
0.0
 40
0.0442354428
 40
0.0916088044
 40
0.1427607651
 40
0.1979588457
 40
0.2571550249
 40
0.3200493985
 40
0.3861470038
 40
0.4548058375
 40
0.5252777251
 40
0.5967443491
 40
0.6683506034
 40
0.7392359584
 40
0.8085682785
 40
0.8755685624
 40
0.9395667804
 40
1.0
 40
1.0
 40
1.0
 40
1.0
 10
27.0576619793
 20
31.0030568416
 30
0.0
 10
27.1754576521
 20
30.6739515876
 30
0.0
 10
27.4959691557
 20
30.01816671
 30
0.0
 10
28.1786589453
 20
29.1131782044
 30
0.0
 10
29.0620254776
 20
28.2724818788
 30
0.0
 10
30.1293482014
 20
27.5098377432
 30
0.0
 10
31.3616999713
 20
26.8372970859
 30
0.0
 10
32.7374017023
 20
26.2661492516
 30
0.0
 10
34.2322232832
 20
25.806179595
 30
0.0
 10
35.8197053789
 20
25.4654344947
 30
0.0
 10
37.4716336694
 20
25.2499378612
 30
0.0
 10
39.1585664206
 20
25.1635251563
 30
0.0
 10
40.8503888631
 20
25.2077379517
 30
0.0
 10
42.5169183277
 20
25.3817677011
 30
0.0
 10
44.1283817498
 20
25.6825466368
 30
0.0
 10
45.6562640124
 20
26.1047098409
 30
0.0
 10
47.0731130416
 20
26.6408210944
 30
0.0
 10
47.954587402
 20
27.0817486834
 30
0.0
 10
48.3681559604
 20
27.3205211767
 30
0.0
  0
SPLINE
  5
300
100
AcDbEntity
  8
00_COMPONENTS_2
100
AcDbSpline
 62
7
  6
BYLAYER
 70
0
 71
3
 72
38
 73
34
 74
0
 42
0.0000001
 43
0.0000001
 44
0.0000000001
 40
0.0
 40
0.0
 40
0.0
 40
0.0
 40
0.0324841421
 40
0.0663257808
 40
0.1014068497
 40
0.1375806377
 40
0.2124850873
 40
0.2895387727
 40
0.3670551242
 40
0.4433166313
 40
0.5166915491
 40
0.5518584652
 40
0.5857960541
 40
0.6183831554
 40
0.6495304303
 40
0.6791876922
 40
0.7073506746
 40
0.7340667824
 40
0.7594465918
 40
0.7836654951
 40
0.806964388
 40
0.8296511199
 40
0.8520730109
 40
0.8746032743
 40
0.8860315755
 40
0.8976202355
 40
0.9094090595
 40
0.9214326175
 40
0.9337245558
 40
0.9463107749
 40
0.9724474064
 40
0.9860393915
 40
1.0
 40
1.0
 40
1.0
 40
1.0
 10
53.2788053772
 20
24.9690707087
 30
0.0
 10
52.8433671679
 20
24.7199427733
 30
0.0
 10
51.9335360771
 20
24.2468865865
 30
0.0
 10
50.4945836008
 20
23.625886686
 30
0.0
 10
48.9636993644
 20
23.0831696206
 30
0.0
 10
46.7921266131
 20
22.462947626
 30
0.0
 10
43.9317009926
 20
21.9158576867
 30
0.0
 10
40.3929672846
 20
21.6299853403
 30
0.0
 10
36.8224816916
 20
21.7164019615
 30
0.0
 10
33.3375937354
 20
22.1722663576
 30
0.0
 10
30.5594759982
 20
22.8573914509
 30
0.0
 10
28.4808123916
 20
23.5831269299
 30
0.0
 10
27.0345760761
 20
24.1985869501
 30
0.0
 10
25.6912170671
 20
24.8876767734
 30
0.0
 10
24.4617924192
 20
25.6448830638
 30
0.0
 10
23.3564687429
 20
26.4641246496
 30
0.0
 10
22.3843954955
 20
27.3388716709
 30
0.0
 10
21.553858526
 20
28.262375409
 30
0.0
 10
20.8720200431
 20
29.2273397514
 30
0.0
 10
20.3450903694
 20
30.2261381383
 30
0.0
 10
19.9788068202
 20
31.2507372536
 30
0.0
 10
19.7765057602
 20
32.291998632
 30
0.0
 10
19.7414719407
 20
33.3403511903
 30
0.0
 10
19.8512608472
 20
34.2080212064
 30
0.0
 10
20.0194678176
 20
34.8915902978
 30
0.0
 10
20.1874079614
 20
35.4027607141
 30
0.0
 10
20.395391116
 20
35.9088464541
 30
0.0
 10
20.6426027398
 20
36.4091229349
 30
0.0
 10
20.9299456904
 20
36.9017690086
 30
0.0
 10
21.3693008953
 20
37.5562622512
 30
0.0
 10
21.8823060742
 20
38.1832240296
 30
0.0
 10
22.4565381655
 20
38.7816678905
 30
0.0
 10
22.7679736097
 20
39.0719897748
 30
0.0
 10
22.9290821878
 20
39.2152642768
 30
0.0
  0
SPLINE
  5
301
100
AcDbEntity
  8
00_COMPONENTS
100
AcDbSpline
 62
7
  6
BYLAYER
 70
0
 71
3
 72
9
 73
5
 74
0
 42
0.0000001
 43
0.0000001
 44
0.0000000001
 40
0.0
 40
0.0
 40
0.0
 40
0.0
 40
0.5043974687
 40
1.0
 40
1.0
 40
1.0
 40
1.0
 10
58.9181565816
 20
53.0715834102
 30
0.0
 10
59.0354691376
 20
52.7200711871
 30
0.0
 10
59.2152993305
 20
52.0041827088
 30
0.0
 10
59.2765095353
 20
51.2682696602
 30
0.0
 10
59.2765006554
 20
50.9041598475
 30
0.0
  0
SPLINE
  5
302
100
AcDbEntity
  8
00_COMPONENTS
100
AcDbSpline
 62
7
  6
BYLAYER
 70
0
 71
3
 72
13
 73
9
 74
0
 42
0.0000001
 43
0.0000001
 44
0.0000000001
 40
0.0
 40
0.0
 40
0.0
 40
0.0
 40
0.2700804603
 40
0.5235649671
 40
0.64550983
 40
0.7650554629
 40
0.8829487246
 40
1.0
 40
1.0
 40
1.0
 40
1.0
 10
57.021692746
 20
44.355685402
 30
0.0
 10
57.3776233843
 20
44.7491430341
 30
0.0
 10
58.0154585145
 20
45.5619160236
 30
0.0
 10
58.6247809229
 20
46.6822329652
 30
0.0
 10
58.963753314
 20
47.5950348125
 30
0.0
 10
59.1439471211
 20
48.2789028071
 30
0.0
 10
59.2523510408
 20
48.9679713304
 30
0.0
 10
59.2764952649
 20
49.4298679341
 30
0.0
 10
59.276500992
 20
49.6598101617
 30
0.0
  0
SPLINE
  5
303
100
AcDbEntity
  8
00_COMPONENTS
100
AcDbSpline
 62
7
  6
BYLAYER
 70
0
 71
3
 72
21
 73
17
 74
0
 42
0.0000001
 43
0.0000001
 44
0.0000000001
 40
0.0
 40
0.0
 40
0.0
 40
0.0
 40
0.0558440366
 40
0.1141906896
 40
0.1748003875
 40
0.2373773154
 40
0.3015794103
 40
0.3670301086
 40
0.4999979899
 40
0.6329662662
 40
0.6984168928
 40
0.762619993
 40
0.8251975669
 40
0.8858048377
 40
0.9441625262
 40
1.0
 40
1.0
 40
1.0
 40
1.0
 10
28.2984279856
 20
31.3482264102
 30
0.0
 10
28.6714623624
 20
31.1328489835
 30
0.0
 10
29.4536558738
 20
30.7254108277
 30
0.0
 10
30.6949676188
 20
30.1961199869
 30
0.0
 10
32.0198112867
 20
29.739405584
 30
0.0
 10
33.4154617186
 20
29.3596940819
 30
0.0
 10
34.868682589
 20
29.0605177179
 30
0.0
 10
36.8746520623
 20
28.7714049295
 30
0.0
 10
39.4326116888
 20
28.6278675369
 30
0.0
 10
41.9905717767
 20
28.7713772432
 30
0.0
 10
43.9965559665
 20
29.0604600618
 30
0.0
 10
45.4497912429
 20
29.3596290157
 30
0.0
 10
46.8454386567
 20
29.7393243207
 30
0.0
 10
48.1703689468
 20
30.1960103566
 30
0.0
 10
49.411678904
 20
30.725345974
 30
0.0
 10
50.1939199927
 20
31.1327650478
 30
0.0
 10
50.5669136535
 20
31.3481117528
 30
0.0
  0
SPLINE
  5
304
100
AcDbEntity
  8
00_COMPONENTS
100
AcDbSpline
 62
7
  6
BYLAYER
 70
0
 71
3
 72
15
 73
11
 74
0
 42
0.0000001
 43
0.0000001
 44
0.0000000001
 40
0.0
 40
0.0
 40
0.0
 40
0.0
 40
0.1080125962
 40
0.2180617431
 40
0.3319999525
 40
0.4513576929
 40
0.5772772922
 40
0.7105009212
 40
0.8513949675
 40
1.0
 40
1.0
 40
1.0
 40
1.0
 10
23.4327810294
 20
37.9836622891
 30
0.0
 10
23.4327811008
 20
37.6807703494
 30
0.0
 10
23.4853721788
 20
37.0680459408
 30
0.0
 10
23.7201392593
 20
36.1630258141
 30
0.0
 10
24.1076913482
 20
35.2775139857
 30
0.0
 10
24.6430614693
 20
34.4204547008
 30
0.0
 10
25.3202553602
 20
33.5996094676
 30
0.0
 10
26.1323278884
 20
32.8223363928
 30
0.0
 10
27.0711675169
 20
32.0955601231
 30
0.0
 10
27.7579232326
 20
31.6602887604
 30
0.0
 10
28.1188128156
 20
31.4519230871
 30
0.0
  0
SPLINE
  5
305
100
AcDbEntity
  8
00_COMPONENTS
100
AcDbSpline
 62
7
  6
BYLAYER
 70
0
 71
3
 72
9
 73
5
 74
0
 42
0.0000001
 43
0.0000001
 44
0.0000000001
 40
0.0
 40
0.0
 40
0.0
 40
0.0
 40
0.5084751053
 40
1.0
 40
1.0
 40
1.0
 40
1.0
 10
47.1120332309
 20
38.79852675
 30
0.0
 10
47.6605577158
 20
38.9414423079
 30
0.0
 10
48.730814415
 20
39.2564679259
 30
0.0
 10
49.7774647981
 20
39.6432579825
 30
0.0
 10
50.2840215911
 20
39.8521590389
 30
0.0
  0
SPLINE
  5
306
100
AcDbEntity
  8
00_COMPONENTS
100
AcDbSpline
 62
7
  6
BYLAYER
 70
0
 71
3
 72
9
 73
5
 74
0
 42
0.0000001
 43
0.0000001
 44
0.0000000001
 40
0.0
 40
0.0
 40
0.0
 40
0.0
 40
0.2578804251
 40
1.0
 40
1.0
 40
1.0
 40
1.0
 10
54.6243574231
 20
42.3580381417
 30
0.0
 10
54.7529273674
 20
42.4619585723
 30
0.0
 10
55.2440111499
 20
42.8740271547
 30
0.0
 10
55.7041796078
 20
43.3235397882
 30
0.0
 10
56.02130668
 20
43.6781695495
 30
0.0
  0
SPLINE
  5
307
100
AcDbEntity
  8
00_COMPONENTS
100
AcDbSpline
 62
7
  6
BYLAYER
 70
0
 71
3
 72
11
 73
7
 74
0
 42
0.0000001
 43
0.0000001
 44
0.0000000001
 40
0.0
 40
0.0
 40
0.0
 40
0.0
 40
0.2607801015
 40
0.5150898063
 40
0.7617609406
 40
1.0
 40
1.0
 40
1.0
 40
1.0
 10
21.9702940334
 20
39.9867563486
 30
0.0
 10
22.4663216763
 20
39.5738330491
 30
0.0
 10
23.4614658614
 20
38.7764193361
 30
0.0
 10
24.9856000557
 20
37.6654545477
 30
0.0
 10
26.5207944044
 20
36.6685815894
 30
0.0
 10
27.5659580231
 20
36.0768309234
 30
0.0
 10
28.0883659437
 20
35.8034433931
 30
0.0
  0
SPLINE
  5
308
100
AcDbEntity
  8
00_COMPONENTS
100
AcDbSpline
 62
7
  6
BYLAYER
 70
0
 71
3
 72
13
 73
9
 74
0
 42
0.0000001
 43
0.0000001
 44
0.0000000001
 40
0.0
 40
0.0
 40
0.0
 40
0.0
 40
0.2494608786
 40
0.3746573513
 40
0.4999998888
 40
0.625342441
 40
0.7505389573
 40
1.0
 40
1.0
 40
1.0
 40
1.0
 10
32.199632289
 20
34.0809787596
 30
0.0
 10
33.3900297178
 20
33.8662339373
 30
0.0
 10
35.1913069161
 20
33.6097663722
 30
0.0
 10
37.6100163613
 20
33.4327545852
 30
0.0
 10
39.4328367297
 20
33.3877473272
 30
0.0
 10
41.2556570922
 20
33.4327633586
 30
0.0
 10
43.6743667655
 20
33.6097868037
 30
0.0
 10
45.4756437427
 20
33.8662630266
 30
0.0
 10
46.6660409548
 20
34.0810135326
 30
0.0
  0
SPLINE
  5
309
100
AcDbEntity
  8
00_COMPONENTS
100
AcDbSpline
 62
7
  6
BYLAYER
 70
0
 71
3
 72
10
 73
6
 74
0
 42
0.0000001
 43
0.0000001
 44
0.0000000001
 40
0.0
 40
0.0
 40
0.0
 40
0.0
 40
0.4879261527
 40
0.741370173
 40
1.0
 40
1.0
 40
1.0
 40
1.0
 10
51.7806674939
 20
36.3556775947
 30
0.0
 10
52.6650554223
 20
36.8662761553
 30
0.0
 10
53.9676770855
 20
37.715119221
 30
0.0
 10
55.6446695575
 20
38.9676940901
 30
0.0
 10
56.4792815859
 20
39.6405215853
 30
0.0
 10
56.8952940331
 20
39.9868402979
 30
0.0
  0
SPLINE
  5
30A
100
AcDbEntity
  8
00_COMPONENTS
100
AcDbSpline
 62
7
  6
BYLAYER
 70
0
 71
3
 72
14
 73
10
 74
0
 42
0.0000001
 43
0.0000001
 44
0.0000000001
 40
0.0
 40
0.0
 40
0.0
 40
0.0
 40
0.1170317771
 40
0.2349045706
 40
0.3544261637
 40
0.4763517794
 40
0.6013556592
 40
0.7300261129
 40
1.0
 40
1.0
 40
1.0
 40
1.0
 10
19.5890268451
 20
49.6598101473
 30
0.0
 10
19.5890211211
 20
49.4299879788
 30
0.0
 10
19.6131470625
 20
48.9683337683
 30
0.0
 10
19.7214711208
 20
48.2796304059
 30
0.0
 10
19.901392052
 20
47.5961018394
 30
0.0
 10
20.1522865337
 20
46.9204738656
 30
0.0
 10
20.4730022741
 20
46.2550700863
 30
0.0
 10
21.0003204306
 20
45.371086934
 30
0.0
 10
21.4858830112
 20
44.7515824967
 30
0.0
 10
21.841450296
 20
44.3583328155
 30
0.0
  0
SPLINE
  5
30B
100
AcDbEntity
  8
00_COMPONENTS
100
AcDbSpline
 62
7
  6
BYLAYER
 70
0
 71
3
 72
19
 73
15
 74
0
 42
0.0000001
 43
0.0000001
 44
0.0000000001
 40
0.0
 40
0.0
 40
0.0
 40
0.0
 40
0.0529697503
 40
0.1082790183
 40
0.1658045023
 40
0.2253732926
 40
0.2867726554
 40
0.3497568795
 40
0.4793195408
 40
0.6116977578
 40
0.7443052773
 40
0.8745380889
 40
0.9380255121
 40
1.0
 40
1.0
 40
1.0
 40
1.0
 10
24.1872000016
 20
42.3262799535
 30
0.0
 10
24.5601215018
 20
42.0678568147
 30
0.0
 10
25.3448302139
 20
41.571353146
 30
0.0
 10
26.5992554826
 20
40.9030912769
 30
0.0
 10
27.9482181448
 20
40.2995620395
 30
0.0
 10
29.3816828771
 20
39.7651681142
 30
0.0
 10
30.8892005832
 20
39.3037399053
 30
0.0
 10
33.0027530674
 20
38.7856650962
 30
0.0
 10
35.7563323881
 20
38.3445120904
 30
0.0
 10
39.1355607112
 20
38.1484319386
 30
0.0
 10
42.5233717716
 20
38.2863078635
 30
0.0
 10
45.2962806975
 20
38.6794776037
 30
0.0
 10
47.4338725095
 20
39.1603447504
 30
0.0
 10
48.4682781194
 20
39.4542870764
 30
0.0
 10
48.9743584871
 20
39.614517201
 30
0.0
  0
SPLINE
  5
30C
100
AcDbEntity
  8
00_COMPONENTS
100
AcDbSpline
 62
7
  6
BYLAYER
 70
0
 71
3
 72
15
 73
11
 74
0
 42
0.0000001
 43
0.0000001
 44
0.0000000001
 40
0.0
 40
0.0
 40
0.0
 40
0.0
 40
0.1485855515
 40
0.2895083633
 40
0.4227232286
 40
0.5486425556
 40
0.6680017289
 40
0.7819390888
 40
0.8919878313
 40
1.0
 40
1.0
 40
1.0
 40
1.0
 10
50.7465195237
 20
31.4518102151
 30
0.0
 10
51.1073745698
 20
31.6601487295
 30
0.0
 10
51.7941588766
 20
32.0954604773
 30
0.0
 10
52.7330799181
 20
32.8221875703
 30
0.0
 10
53.5451962578
 20
33.5995408559
 30
0.0
 10
54.2224063121
 20
34.4203792054
 30
0.0
 10
54.7578112067
 20
35.2774508964
 30
0.0
 10
55.1453739085
 20
36.1629871503
 30
0.0
 10
55.3801531736
 20
37.0680247765
 30
0.0
 10
55.4327468792
 20
37.6807634504
 30
0.0
 10
55.4327468077
 20
37.9836622891
 30
0.0
  0
SPLINE
  5
30D
100
AcDbEntity
  8
00_COMPONENTS
100
AcDbSpline
 62
7
  6
BYLAYER
 70
0
 71
3
 72
9
 73
5
 74
0
 42
0.0000001
 43
0.0000001
 44
0.0000000001
 40
0.0
 40
0.0
 40
0.0
 40
0.0
 40
0.4915250254
 40
1.0
 40
1.0
 40
1.0
 40
1.0
 10
28.5816327429
 20
39.8521068727
 30
0.0
 10
29.0881924206
 20
39.6432083045
 30
0.0
 10
30.134848094
 20
39.2564233647
 30
0.0
 10
31.2051096067
 20
38.941402792
 30
0.0
 10
31.7536362991
 20
38.7984898329
 30
0.0
  0
SPLINE
  5
30E
100
AcDbEntity
  8
00_COMPONENTS
100
AcDbSpline
 62
7
  6
BYLAYER
 70
0
 71
3
 72
11
 73
7
 74
0
 42
0.0000001
 43
0.0000001
 44
0.0000000001
 40
0.0
 40
0.0
 40
0.0
 40
0.0
 40
0.2472827907
 40
0.5000002494
 40
0.7527175812
 40
1.0
 40
1.0
 40
1.0
 40
1.0
 10
32.8303632407
 20
38.5410012694
 30
0.0
 10
33.9012039801
 20
38.3072506216
 30
0.0
 10
36.0952024196
 20
37.9591283813
 30
0.0
 10
39.4328412201
 20
37.7864932009
 30
0.0
 10
42.7704775535
 20
37.9591442533
 30
0.0
 10
44.9644721004
 20
38.3072770977
 30
0.0
 10
46.0353100031
 20
38.5410330102
 30
0.0
  0
SPLINE
  5
30F
100
AcDbEntity
  8
00_COMPONENTS
100
AcDbSpline
 62
7
  6
BYLAYER
 70
0
 71
3
 72
26
 73
22
 74
0
 42
0.0000001
 43
0.0000001
 44
0.0000000001
 40
0.0
 40
0.0
 40
0.0
 40
0.0
 40
0.0694712434
 40
0.1412080955
 40
0.2144611552
 40
0.2884329919
 40
0.362299843
 40
0.4352414995
 40
0.5064689586
 40
0.5752547115
 40
0.6409637373
 40
0.7030891139
 40
0.7612931407
 40
0.8154558568
 40
0.8657304734
 40
0.8895706029
 40
0.9126495781
 40
0.9350849479
 40
0.9570148517
 40
0.9785964633
 40
1.0
 40
1.0
 40
1.0
 40
1.0
 10
48.9743584871
 20
40.8588668847
 30
0.0
 10
48.2083915319
 20
40.6163540577
 30
0.0
 10
46.628668808
 20
40.193175174
 30
0.0
 10
44.1861598966
 20
39.7482843282
 30
0.0
 10
41.6647407956
 20
39.4881925618
 30
0.0
 10
39.1064190239
 20
39.4172366635
 30
0.0
 10
36.5534782494
 20
39.5365999516
 30
0.0
 10
34.0482265178
 20
39.8442950608
 30
0.0
 10
31.6321083902
 20
40.3352499756
 30
0.0
 10
29.3450099655
 20
41.0013906885
 30
0.0
 10
27.2245418585
 20
41.8318849793
 30
0.0
 10
25.3054540128
 20
42.8133691733
 30
0.0
 10
23.6190068687
 20
43.9305835403
 30
0.0
 10
22.1931310917
 20
45.1660984251
 30
0.0
 10
21.2249459479
 20
46.2997625427
 30
0.0
 10
20.6138095239
 20
47.2448177154
 30
0.0
 10
20.2423868046
 20
47.9571587247
 30
0.0
 10
19.9515433364
 20
48.6823506752
 30
0.0
 10
19.7427785121
 20
49.4174374746
 30
0.0
 10
19.6170467459
 20
50.1590529802
 30
0.0
 10
19.5890211449
 20
50.6566259789
 30
0.0
 10
19.5890271816
 20
50.904159829
 30
0.0
  0
SPLINE
  5
310
100
AcDbEntity
  8
00_COMPONENTS
100
AcDbSpline
 62
7
  6
BYLAYER
 70
0
 71
3
 72
11
 73
7
 74
0
 42
0.0000001
 43
0.0000001
 44
0.0000000001
 40
0.0
 40
0.0
 40
0.0
 40
0.0
 40
0.2340232235
 40
0.476650401
 40
0.7312148856
 40
1.0
 40
1.0
 40
1.0
 40
1.0
 10
59.1688498651
 20
49.7123838883
 30
0.0
 10
59.0996641382
 20
49.3305540449
 30
0.0
 10
58.8917085936
 20
48.5636400337
 30
0.0
 10
58.3901877148
 20
47.4547921007
 30
0.0
 10
57.7014714015
 20
46.3828479858
 30
0.0
 10
57.1389897913
 20
45.7186296211
 30
0.0
 10
56.8320498781
 20
45.3954800446
 30
0.0
  0
SPLINE
  5
311
100
AcDbEntity
  8
00_COMPONENTS
100
AcDbSpline
 62
7
  6
BYLAYER
 70
0
 71
3
 72
21
 73
17
 74
0
 42
0.0000001
 43
0.0000001
 44
0.0000000001
 40
0.0
 40
0.0
 40
0.0
 40
0.0
 40
0.0560866817
 40
0.1145943402
 40
0.1752850776
 40
0.2378698419
 40
0.3020169623
 40
0.3673627736
 40
0.5000350441
 40
0.6327021138
 40
0.6980412092
 40
0.7621799416
 40
0.8247537358
 40
0.8854278784
 40
0.9439287691
 40
1.0
 40
1.0
 40
1.0
 40
1.0
 10
28.2930973838
 20
31.3528258157
 30
0.0
 10
28.6702593212
 20
31.1416315304
 30
0.0
 10
29.4592105741
 20
30.7422633785
 30
0.0
 10
30.7077737602
 20
30.2235521955
 30
0.0
 10
32.0366226649
 20
29.7763302569
 30
0.0
 10
33.433477075
 20
29.4047855751
 30
0.0
 10
34.8855842395
 20
29.1122593634
 30
0.0
 10
36.887255183
 20
28.8298340986
 30
0.0
 10
39.4376768621
 20
28.6898623978
 30
0.0
 10
41.9879977218
 20
28.8307376396
 30
0.0
 10
43.9894103349
 20
29.1138752732
 30
0.0
 10
45.44120806
 20
29.4069235431
 30
0.0
 10
46.837642216
 20
29.7789678555
 30
0.0
 10
48.1660619367
 20
30.2266395822
 30
0.0
 10
49.4140927507
 20
30.7458562539
 30
0.0
 10
50.2026940226
 20
31.1455361561
 30
0.0
 10
50.5796421002
 20
31.3568685121
 30
0.0
  0
SPLINE
  5
312
100
AcDbEntity
  8
00_COMPONENTS
100
AcDbSpline
 62
7
  6
BYLAYER
 70
0
 71
3
 72
11
 73
7
 74
0
 42
0.0000001
 43
0.0000001
 44
0.0000000001
 40
0.0
 40
0.0
 40
0.0
 40
0.0
 40
0.2469659903
 40
0.4999997857
 40
0.7530336904
 40
1.0
 40
1.0
 40
1.0
 40
1.0
 10
45.3922794383
 20
33.8511827234
 30
0.0
 10
44.4289522192
 20
33.6279445278
 30
0.0
 10
42.4492743517
 20
33.2957827879
 30
0.0
 10
39.4328178293
 20
33.131196382
 30
0.0
 10
36.4163593936
 20
33.2957711214
 30
0.0
 10
34.4366785035
 20
33.6279250665
 30
0.0
 10
33.4733490757
 20
33.8511593957
 30
0.0
  0
SPLINE
  5
313
100
AcDbEntity
  8
0
100
AcDbSpline
 62
7
  6
BYLAYER
 70
0
 71
3
 72
12
 73
8
 74
0
 42
0.0000001
 43
0.0000001
 44
0.0000000001
 40
0.0
 40
0.0
 40
0.0
 40
0.0
 40
0.1081620034
 40
0.2183717769
 40
0.4513384358
 40
0.7104781591
 40
1.0
 40
1.0
 40
1.0
 40
1.0
 10
48.3931697378
 20
79.1171764159
 30
0.0
 10
48.3931637118
 20
79.0827955557
 30
0.0
 10
48.3991521762
 20
79.0132379951
 30
0.0
 10
48.4353036224
 20
78.8738146783
 30
0.0
 10
48.5280163669
 20
78.7027967179
 30
0.0
 10
48.7008057821
 20
78.5213889409
 30
0.0
 10
48.8453880579
 20
78.421777781
 30
0.0
 10
48.9250877132
 20
78.3757642046
 30
0.0
  0
SPLINE
  5
314
100
AcDbEntity
  8
0
100
AcDbSpline
 62
7
  6
BYLAYER
 70
0
 71
3
 72
15
 73
11
 74
0
 42
0.0000001
 43
0.0000001
 44
0.0000000001
 40
0.0
 40
0.0
 40
0.0
 40
0.0
 40
0.1139977135
 40
0.2370741808
 40
0.366688155
 40
0.49973363
 40
0.6328237806
 40
0.7625300249
 40
0.8858279087
 40
1.0
 40
1.0
 40
1.0
 40
1.0
 10
27.3417203027
 20
78.6482675842
 30
0.0
 10
27.4080367962
 20
78.6868576276
 30
0.0
 10
27.5532011945
 20
78.754949427
 30
0.0
 10
27.7898077743
 20
78.8274048642
 30
0.0
 10
28.0461877815
 20
78.8721486877
 30
0.0
 10
28.3126793703
 20
78.8874599509
 30
0.0
 10
28.5792636705
 20
78.8727439792
 30
0.0
 10
28.8359956489
 20
78.8286156249
 30
0.0
 10
29.0730901758
 20
78.756640209
 30
0.0
 10
29.2187083628
 20
78.6889044055
 30
0.0
 10
29.2852581173
 20
78.6504827561
 30
0.0
  0
SPLINE
  5
315
100
AcDbEntity
  8
0
100
AcDbSpline
 62
7
  6
BYLAYER
 70
0
 71
3
 72
11
 73
7
 74
0
 42
0.0000001
 43
0.0000001
 44
0.0000000001
 40
0.0
 40
0.0
 40
0.0
 40
0.0
 40
0.2177822878
 40
0.4509146108
 40
0.7103059136
 40
1.0
 40
1.0
 40
1.0
 40
1.0
 10
26.9438007997
 20
79.12749316
 30
0.0
 10
26.9438079338
 20
79.075250879
 30
0.0
 10
26.9631028825
 20
78.9663600977
 30
0.0
 10
27.0456580786
 20
78.8146398328
 30
0.0
 10
27.1761581789
 20
78.6774963599
 30
0.0
 10
27.2853480838
 20
78.6022912253
 30
0.0
 10
27.345530871
 20
78.5675454629
 30
0.0
  0
SPLINE
  5
316
100
AcDbEntity
  8
0
100
AcDbSpline
 62
7
  6
BYLAYER
 70
0
 71
3
 72
11
 73
7
 74
0
 42
0.0000001
 43
0.0000001
 44
0.0000000001
 40
0.0
 40
0.0
 40
0.0
 40
0.0
 40
0.2640073859
 40
0.517009801
 40
0.7610372442
 40
1.0
 40
1.0
 40
1.0
 40
1.0
 10
42.6734556617
 20
60.9814431449
 30
0.0
 10
42.8209907322
 20
61.0475053999
 30
0.0
 10
43.1238344564
 20
61.1486837101
 30
0.0
 10
43.5913937224
 20
61.1965474959
 30
0.0
 10
44.0422205758
 20
61.1342827365
 30
0.0
 10
44.3189997602
 20
61.019502109
 30
0.0
 10
44.445713508
 20
60.9463455477
 30
0.0
  0
SPLINE
  5
317
100
AcDbEntity
  8
0
100
AcDbSpline
 62
7
  6
BYLAYER
 70
0
 71
3
 72
9
 73
5
 74
0
 42
0.0000001
 43
0.0000001
 44
0.0000000001
 40
0.0
 40
0.0
 40
0.0
 40
0.0
 40
0.2536608796
 40
1.0
 40
1.0
 40
1.0
 40
1.0
 10
42.3315029444
 20
60.1628573994
 30
0.0
 10
42.3718541921
 20
60.2028598624
 30
0.0
 10
42.5354280661
 20
60.355932007
 30
0.0
 10
42.7169663738
 20
60.490008911
 30
0.0
 10
42.8602684726
 20
60.5761066126
 30
0.0
  0
SPLINE
  5
318
100
AcDbEntity
  8
0
100
AcDbSpline
 62
7
  6
BYLAYER
 70
0
 71
3
 72
15
 73
11
 74
0
 42
0.0000001
 43
0.0000001
 44
0.0000000001
 40
0.0
 40
0.0
 40
0.0
 40
0.0
 40
0.1107327021
 40
0.224353097
 40
0.342967013
 40
0.4673836085
 40
0.5971259132
 40
0.7306661219
 40
0.865777108
 40
1.0
 40
1.0
 40
1.0
 40
1.0
 10
41.905724083
 20
56.5469303913
 30
0.0
 10
41.7638892944
 20
56.6288168921
 30
0.0
 10
41.4994705871
 20
56.8382512576
 30
0.0
 10
41.2030438495
 20
57.2573950026
 30
0.0
 10
41.0188843071
 20
57.7576844546
 30
0.0
 10
40.9555794402
 20
58.3101382803
 30
0.0
 10
41.014697846
 20
58.8846682251
 30
0.0
 10
41.1922539109
 20
59.4505470418
 30
0.0
 10
41.4780066877
 20
59.977375421
 30
0.0
 10
41.7333232884
 20
60.2870654362
 30
0.0
 10
41.8743048479
 20
60.4268283907
 30
0.0
  0
SPLINE
  5
319
100
AcDbEntity
  8
0
100
AcDbSpline
 62
7
  6
BYLAYER
 70
0
 71
3
 72
20
 73
16
 74
0
 42
0.0000001
 43
0.0000001
 44
0.0000000001
 40
0.0
 40
0.0
 40
0.0
 40
0.0
 40
0.0623921369
 40
0.1288107638
 40
0.2703049945
 40
0.4173669803
 40
0.5616187136
 40
0.6302551767
 40
0.6953819904
 40
0.7563644167
 40
0.812833572
 40
0.8647660381
 40
0.912567381
 40
0.9571680124
 40
1.0
 40
1.0
 40
1.0
 40
1.0
 10
48.9250877132
 20
78.3757642046
 30
0.0
 10
48.9903075298
 20
78.3381103777
 30
0.0
 10
49.1301722307
 20
78.2691886801
 30
0.0
 10
49.4373675348
 20
78.157842254
 30
0.0
 10
49.8601923112
 20
78.0732944212
 30
0.0
 10
50.3845707888
 20
78.0588192365
 30
0.0
 10
50.8173369674
 20
78.1195027906
 30
0.0
 10
51.140235261
 20
78.2125511212
 30
0.0
 10
51.3587113804
 20
78.3005520396
 30
0.0
 10
51.5527886815
 20
78.4061216066
 30
0.0
 10
51.7184269872
 20
78.5271651678
 30
0.0
 10
51.8521250565
 20
78.6613874081
 30
0.0
 10
51.9507219051
 20
78.8064762237
 30
0.0
 10
52.0115369514
 20
78.9594914588
 30
0.0
 10
52.0253391846
 20
79.0654770869
 30
0.0
 10
52.025348246
 20
79.1171764089
 30
0.0
  0
SPLINE
  5
31A
100
AcDbEntity
  8
0
100
AcDbSpline
 62
7
  6
BYLAYER
 70
0
 71
3
 72
11
 73
7
 74
0
 42
0.0000001
 43
0.0000001
 44
0.0000000001
 40
0.0
 40
0.0
 40
0.0
 40
0.0
 40
0.2528358797
 40
0.5034586427
 40
0.7522415715
 40
1.0
 40
1.0
 40
1.0
 40
1.0
 10
44.9102302673
 20
59.8129916953
 30
0.0
 10
44.8970789719
 20
60.070407974
 30
0.0
 10
44.8087513074
 20
60.5820766651
 30
0.0
 10
44.4949210525
 20
61.2901500548
 30
0.0
 10
44.0191970141
 20
61.8949631464
 30
0.0
 10
43.6112455723
 20
62.2053928153
 30
0.0
 10
43.3925078233
 20
62.3316795805
 30
0.0
  0
SPLINE
  5
31B
100
AcDbEntity
  8
0
100
AcDbSpline
 62
7
  6
BYLAYER
 70
0
 71
3
 72
11
 73
7
 74
0
 42
0.0000001
 43
0.0000001
 44
0.0000000001
 40
0.0
 40
0.0
 40
0.0
 40
0.0
 40
0.2477580966
 40
0.4965410023
 40
0.7471639304
 40
1.0
 40
1.0
 40
1.0
 40
1.0
 10
40.1794212007
 20
56.7664194077
 30
0.0
 10
40.3981591064
 20
56.640132552
 30
0.0
 10
40.8709775252
 20
56.4420558281
 30
0.0
 10
41.6326254322
 20
56.3324805938
 30
0.0
 10
42.4027512332
 20
56.4147391255
 30
0.0
 10
42.8900331559
 20
56.5940834071
 30
0.0
 10
43.1195377227
 20
56.7114040101
 30
0.0
  0
SPLINE
  5
31C
100
AcDbEntity
  8
0
100
AcDbSpline
 62
7
  6
BYLAYER
 70
0
 71
3
 72
18
 73
14
 74
0
 42
0.0000001
 43
0.0000001
 44
0.0000000001
 40
0.0
 40
0.0
 40
0.0
 40
0.0
 40
0.1286589586
 40
0.2702085684
 40
0.4173284212
 40
0.5616320941
 40
0.6952663345
 40
0.7562718603
 40
0.8127631831
 40
0.8647118098
 40
0.9125345827
 40
0.9571501866
 40
1.0
 40
1.0
 40
1.0
 40
1.0
 10
27.345530871
 20
78.5675454629
 30
0.0
 10
27.4470650264
 20
78.5089260171
 30
0.0
 10
27.6769507221
 20
78.4140752069
 30
0.0
 10
28.0516023625
 20
78.3391258998
 30
0.0
 10
28.4479345563
 20
78.3281723711
 30
0.0
 10
28.8332557507
 20
78.3822821996
 30
0.0
 10
29.1285497093
 20
78.4809135817
 30
0.0
 10
29.3300840264
 20
78.5904624466
 30
0.0
 10
29.4551878944
 20
78.6818846599
 30
0.0
 10
29.5561340784
 20
78.7832744502
 30
0.0
 10
29.6306473832
 20
78.8928223606
 30
0.0
 10
29.6765210345
 20
79.0084080346
 30
0.0
 10
29.6869935209
 20
79.0884461018
 30
0.0
 10
29.6869881887
 20
79.1274931287
 30
0.0
  0
SPLINE
  5
31D
100
AcDbEntity
  8
0
100
AcDbSpline
 62
7
  6
BYLAYER
 70
0
 71
3
 72
9
 73
5
 74
0
 42
0.0000001
 43
0.0000001
 44
0.0000000001
 40
0.0
 40
0.0
 40
0.0
 40
0.0
 40
0.5078894714
 40
1.0
 40
1.0
 40
1.0
 40
1.0
 10
44.9343308396
 20
56.802476557
 30
0.0
 10
44.816905442
 20
56.6860661515
 30
0.0
 10
44.5660052613
 20
56.4757802566
 30
0.0
 10
44.2814018875
 20
56.3133360382
 30
0.0
 10
44.1351800258
 20
56.2478618028
 30
0.0
  0
SPLINE
  5
31E
100
AcDbEntity
  8
0
100
AcDbSpline
 62
7
  6
BYLAYER
 70
0
 71
3
 72
15
 73
11
 74
0
 42
0.0000001
 43
0.0000001
 44
0.0000000001
 40
0.0
 40
0.0
 40
0.0
 40
0.0
 40
0.1203702916
 40
0.2445520503
 40
0.3715361089
 40
0.4999981498
 40
0.6284596118
 40
0.7554428804
 40
0.8796258459
 40
1.0
 40
1.0
 40
1.0
 40
1.0
 10
45.0069216277
 20
56.307710726
 30
0.0
 10
45.1015436816
 20
56.3472183739
 30
0.0
 10
45.2867170216
 20
56.4454025553
 30
0.0
 10
45.5384634984
 20
56.6394204529
 30
0.0
 10
45.7608570207
 20
56.8760562682
 30
0.0
 10
45.9462091286
 20
57.1470424849
 30
0.0
 10
46.0882212828
 20
57.4430510833
 30
0.0
 10
46.1819656826
 20
57.7539643163
 30
0.0
 10
46.2241316484
 20
58.068994204
 30
0.0
 10
46.2165763529
 20
58.2784555152
 30
0.0
 10
46.2034833338
 20
58.3801581944
 30
0.0
  0
SPLINE
  5
31F
100
AcDbEntity
  8
0
100
AcDbSpline
 62
7
  6
BYLAYER
 70
0
 71
3
 72
12
 73
8
 74
0
 42
0.0000001
 43
0.0000001
 44
0.0000000001
 40
0.0
 40
0.0
 40
0.0
 40
0.0
 40
0.1081620034
 40
0.2183717769
 40
0.4513384358
 40
0.7104781591
 40
1.0
 40
1.0
 40
1.0
 40
1.0
 10
52.025348246
 20
79.1171764089
 30
0.0
 10
52.025354272
 20
79.1515572692
 30
0.0
 10
52.0193658077
 20
79.2211148297
 30
0.0
 10
51.9832143614
 20
79.3605381466
 30
0.0
 10
51.890501617
 20
79.5315561069
 30
0.0
 10
51.7177122017
 20
79.7129638839
 30
0.0
 10
51.5731299259
 20
79.8125750438
 30
0.0
 10
51.4934302707
 20
79.8585886203
 30
0.0
  0
SPLINE
  5
320
100
AcDbEntity
  8
0
100
AcDbSpline
 62
7
  6
BYLAYER
 70
0
 71
3
 72
11
 73
7
 74
0
 42
0.0000001
 43
0.0000001
 44
0.0000000001
 40
0.0
 40
0.0
 40
0.0
 40
0.0
 40
0.2177822878
 40
0.4509146108
 40
0.7103059136
 40
1.0
 40
1.0
 40
1.0
 40
1.0
 10
29.6869881887
 20
79.1274931287
 30
0.0
 10
29.6869810545
 20
79.1797354097
 30
0.0
 10
29.6676861058
 20
79.288626191
 30
0.0
 10
29.5851309098
 20
79.4403464559
 30
0.0
 10
29.4546308094
 20
79.5774899288
 30
0.0
 10
29.3454409045
 20
79.6526950635
 30
0.0
 10
29.2852581173
 20
79.6874408258
 30
0.0
  0
SPLINE
  5
321
100
AcDbEntity
  8
0
100
AcDbSpline
 62
7
  6
BYLAYER
 70
0
 71
3
 72
15
 73
11
 74
0
 42
0.0000001
 43
0.0000001
 44
0.0000000001
 40
0.0
 40
0.0
 40
0.0
 40
0.0
 40
0.1272019417
 40
0.2539154337
 40
0.3799335946
 40
0.5052012148
 40
0.6297124965
 40
0.7535514907
 40
0.8769180345
 40
1.0
 40
1.0
 40
1.0
 40
1.0
 10
38.838390486
 20
60.5225991655
 30
0.0
 10
38.7785628409
 20
60.3495358887
 30
0.0
 10
38.6876390538
 20
59.9934431389
 30
0.0
 10
38.6421021157
 20
59.4459489576
 30
0.0
 10
38.6889017036
 20
58.9011656539
 30
0.0
 10
38.8266743187
 20
58.3752783162
 30
0.0
 10
39.0515613103
 20
57.8837322471
 30
0.0
 10
39.35698266
 20
57.440956008
 30
0.0
 10
39.7339070407
 20
57.0602794954
 30
0.0
 10
40.025976818
 20
56.8550094878
 30
0.0
 10
40.1794212007
 20
56.7664194077
 30
0.0
  0
SPLINE
  5
322
100
AcDbEntity
  8
0
100
AcDbSpline
 62
7
  6
BYLAYER
 70
0
 71
3
 72
18
 73
14
 74
0
 42
0.0000001
 43
0.0000001
 44
0.0000000001
 40
0.0
 40
0.0
 40
0.0
 40
0.0
 40
0.1286589586
 40
0.2702085684
 40
0.4173284212
 40
0.5616320941
 40
0.6952663345
 40
0.7562718603
 40
0.8127631831
 40
0.8647118098
 40
0.9125345827
 40
0.9571501866
 40
1.0
 40
1.0
 40
1.0
 40
1.0
 10
29.2852581173
 20
79.6874408258
 30
0.0
 10
29.1837239619
 20
79.7460602716
 30
0.0
 10
28.9538382663
 20
79.8409110819
 30
0.0
 10
28.5791866258
 20
79.915860389
 30
0.0
 10
28.1828544321
 20
79.9268139176
 30
0.0
 10
27.7975332377
 20
79.8727040891
 30
0.0
 10
27.5022392791
 20
79.7740727071
 30
0.0
 10
27.3007049619
 20
79.6645238421
 30
0.0
 10
27.1756010939
 20
79.5731016288
 30
0.0
 10
27.0746549099
 20
79.4717118386
 30
0.0
 10
27.0001416051
 20
79.3621639282
 30
0.0
 10
26.9542679538
 20
79.2465782542
 30
0.0
 10
26.9437954674
 20
79.1665401869
 30
0.0
 10
26.9438007997
 20
79.12749316
 30
0.0
  0
SPLINE
  5
323
100
AcDbEntity
  8
0
100
AcDbSpline
 62
7
  6
BYLAYER
 70
0
 71
3
 72
9
 73
5
 74
0
 42
0.0000001
 43
0.0000001
 44
0.0000000001
 40
0.0
 40
0.0
 40
0.0
 40
0.0
 40
0.4811832268
 40
1.0
 40
1.0
 40
1.0
 40
1.0
 10
67.1560397367
 20
72.3412844119
 30
0.0
 10
67.0528994356
 20
72.4833775531
 30
0.0
 10
66.8306325629
 20
72.7729577179
 30
0.0
 10
66.5964442492
 20
73.0529139118
 30
0.0
 10
66.4723132459
 20
73.1958497428
 30
0.0
  0
SPLINE
  5
324
100
AcDbEntity
  8
0
100
AcDbSpline
 62
7
  6
BYLAYER
 70
0
 71
3
 72
18
 73
14
 74
0
 42
0.0000001
 43
0.0000001
 44
0.0000000001
 40
0.0
 40
0.0
 40
0.0
 40
0.0
 40
0.0248458209
 40
0.0520019619
 40
0.0830691171
 40
0.1190978986
 40
0.1607010144
 40
0.2082089261
 40
0.321411587
 40
0.4586636249
 40
0.6188202429
 40
0.8001327576
 40
1.0
 40
1.0
 40
1.0
 40
1.0
 10
67.7613087264
 20
70.9382522095
 30
0.0
 10
67.7706273423
 20
70.9475068262
 30
0.0
 10
67.7870467891
 20
70.9701751071
 30
0.0
 10
67.8018670066
 20
71.0119759473
 30
0.0
 10
67.8079120583
 20
71.0617315351
 30
0.0
 10
67.8054237807
 20
71.1193195419
 30
0.0
 10
67.7945866095
 20
71.1846958801
 30
0.0
 10
67.7674144806
 20
71.2882454962
 30
0.0
 10
67.7106728056
 20
71.4356125139
 30
0.0
 10
67.6148874284
 20
71.6305494348
 30
0.0
 10
67.4886575628
 20
71.8500396109
 30
0.0
 10
67.3338189505
 20
72.0907738136
 30
0.0
 10
67.2181003944
 20
72.2557854003
 30
0.0
 10
67.1560397367
 20
72.3412844119
 30
0.0
  0
SPLINE
  5
325
100
AcDbEntity
  8
0
100
AcDbSpline
 62
7
  6
BYLAYER
 70
0
 71
3
 72
20
 73
16
 74
0
 42
0.0000001
 43
0.0000001
 44
0.0000000001
 40
0.0
 40
0.0
 40
0.0
 40
0.0
 40
0.0623921369
 40
0.1288107638
 40
0.2703049945
 40
0.4173669803
 40
0.5616187136
 40
0.6302551767
 40
0.6953819904
 40
0.7563644167
 40
0.812833572
 40
0.8647660381
 40
0.912567381
 40
0.9571680124
 40
1.0
 40
1.0
 40
1.0
 40
1.0
 10
51.4934302707
 20
79.8585886203
 30
0.0
 10
51.428210454
 20
79.8962424471
 30
0.0
 10
51.2883457532
 20
79.9651641447
 30
0.0
 10
50.981150449
 20
80.0765105708
 30
0.0
 10
50.5583256726
 20
80.1610584037
 30
0.0
 10
50.033947195
 20
80.1755335883
 30
0.0
 10
49.6011810164
 20
80.1148500342
 30
0.0
 10
49.2782827229
 20
80.0218017036
 30
0.0
 10
49.0598066035
 20
79.9338007852
 30
0.0
 10
48.8657293023
 20
79.8282312182
 30
0.0
 10
48.7000909967
 20
79.707187657
 30
0.0
 10
48.5663929273
 20
79.5729654167
 30
0.0
 10
48.4677960787
 20
79.4278766011
 30
0.0
 10
48.4069810324
 20
79.274861366
 30
0.0
 10
48.3931787992
 20
79.1688757379
 30
0.0
 10
48.3931697378
 20
79.1171764159
 30
0.0
  0
SPLINE
  5
326
100
AcDbEntity
  8
0
100
AcDbSpline
 62
7
  6
BYLAYER
 70
0
 71
3
 72
11
 73
7
 74
0
 42
0.0000001
 43
0.0000001
 44
0.0000000001
 40
0.0
 40
0.0
 40
0.0
 40
0.0
 40
0.239647193
 40
0.4898316145
 40
0.7454061854
 40
1.0
 40
1.0
 40
1.0
 40
1.0
 10
45.3403888067
 20
59.5888805747
 30
0.0
 10
45.3776477726
 20
59.3715468564
 30
0.0
 10
45.3912864915
 20
58.9149934333
 30
0.0
 10
45.2426059473
 20
58.2392158317
 30
0.0
 10
44.9386434335
 20
57.6026625762
 30
0.0
 10
44.643494935
 20
57.2313717522
 30
0.0
 10
44.4771327431
 20
57.0664475483
 30
0.0
  0
SPLINE
  5
327
100
AcDbEntity
  8
0
100
AcDbSpline
 62
7
  6
BYLAYER
 70
0
 71
3
 72
15
 73
11
 74
0
 42
0.0000001
 43
0.0000001
 44
0.0000000001
 40
0.0
 40
0.0
 40
0.0
 40
0.0
 40
0.1230817799
 40
0.2464482541
 40
0.3702872727
 40
0.4947986392
 40
0.6200663646
 40
0.7460846094
 40
0.8727981253
 40
1.0
 40
1.0
 40
1.0
 40
1.0
 10
43.3925078233
 20
62.3316795805
 30
0.0
 10
43.2390633631
 20
62.4202697054
 30
0.0
 10
42.9152575334
 20
62.5705712752
 30
0.0
 10
42.3971177213
 20
62.7066540102
 30
0.0
 10
41.8609500533
 20
62.7497635235
 30
0.0
 10
41.3228142526
 20
62.6987435657
 30
0.0
 10
40.7984958391
 20
62.5551100967
 30
0.0
 10
40.3033001559
 20
62.3232441999
 30
0.0
 10
39.8519256315
 20
62.0100576978
 30
0.0
 10
39.5890030051
 20
61.7532671925
 30
0.0
 10
39.4690401487
 20
61.6149224867
 30
0.0
  0
SPLINE
  5
328
100
AcDbEntity
  8
0
100
AcDbSpline
 62
7
  6
BYLAYER
 70
0
 71
3
 72
15
 73
11
 74
0
 42
0.0000001
 43
0.0000001
 44
0.0000000001
 40
0.0
 40
0.0
 40
0.0
 40
0.0
 40
0.1203746173
 40
0.2445551855
 40
0.3715370605
 40
0.5000000002
 40
0.6284629396
 40
0.7554448138
 40
0.8796253819
 40
1.0
 40
1.0
 40
1.0
 40
1.0
 10
44.3829479966
 20
56.0472227878
 30
0.0
 10
44.5200933627
 20
56.1044669003
 30
0.0
 10
44.7884498283
 20
56.2468000064
 30
0.0
 10
45.1533013245
 20
56.5279807733
 30
0.0
 10
45.475624552
 20
56.8709171111
 30
0.0
 10
45.7442645889
 20
57.2636449643
 30
0.0
 10
45.9500674823
 20
57.6926528939
 30
0.0
 10
46.0859086095
 20
58.1432578003
 30
0.0
 10
46.1470038543
 20
58.5998173339
 30
0.0
 10
46.1360972404
 20
58.9033876763
 30
0.0
 10
46.117103055
 20
59.0507815739
 30
0.0
  0
SPLINE
  5
329
100
AcDbEntity
  8
0
100
AcDbSpline
 62
7
  6
BYLAYER
 70
0
 71
3
 72
23
 73
19
 74
0
 42
0.0000001
 43
0.0000001
 44
0.0000000001
 40
0.0
 40
0.0
 40
0.0
 40
0.0
 40
0.0464750933
 40
0.0964050281
 40
0.1500341308
 40
0.2073498027
 40
0.2681302609
 40
0.3319884017
 40
0.3984095455
 40
0.4667834902
 40
0.5364325402
 40
0.6066370582
 40
0.6766595384
 40
0.7457676359
 40
0.8132611367
 40
0.8784878311
 40
0.9408916185
 40
1.0
 40
1.0
 40
1.0
 40
1.0
 10
25.3270221827
 20
47.9825912333
 30
0.0
 10
25.5462468096
 20
47.6297780103
 30
0.0
 10
26.0688199969
 20
46.9387547256
 30
0.0
 10
27.0352396319
 20
46.0030951694
 30
0.0
 10
28.1945398072
 20
45.146248856
 30
0.0
 10
29.5283411847
 20
44.3809251447
 30
0.0
 10
31.0161595454
 20
43.7181880408
 30
0.0
 10
32.6350077892
 20
43.168032175
 30
0.0
 10
34.3598217452
 20
42.7388446249
 30
0.0
 10
36.1637928744
 20
42.4372541237
 30
0.0
 10
38.0188104989
 20
42.2679470619
 30
0.0
 10
39.8959194674
 20
42.2335688622
 30
0.0
 10
41.765788083
 20
42.3346667371
 30
0.0
 10
43.5992331788
 20
42.5696375907
 30
0.0
 10
45.3675960563
 20
42.9348566812
 30
0.0
 10
47.0435200459
 20
43.4246192075
 30
0.0
 10
48.6006207422
 20
44.0313903417
 30
0.0
 10
49.5720001405
 20
44.5221218773
 30
0.0
 10
50.0295102596
 20
44.786263891
 30
0.0
  0
SPLINE
  5
32A
100
AcDbEntity
  8
0
100
AcDbSpline
 62
7
  6
BYLAYER
 70
0
 71
3
 72
11
 73
7
 74
0
 42
0.0000001
 43
0.0000001
 44
0.0000000001
 40
0.0
 40
0.0
 40
0.0
 40
0.0
 40
0.257201538
 40
0.511032429
 40
0.7593157065
 40
1.0
 40
1.0
 40
1.0
 40
1.0
 10
40.6386791749
 20
46.5324838784
 30
0.0
 10
41.4937905673
 20
46.5593166916
 30
0.0
 10
43.1915942298
 20
46.6693494298
 30
0.0
 10
45.6970257408
 20
47.0039447246
 30
0.0
 10
48.1189552903
 20
47.5030227121
 30
0.0
 10
49.6850282453
 20
47.9491373317
 30
0.0
 10
50.4454382819
 20
48.1995813346
 30
0.0
  0
SPLINE
  5
32B
100
AcDbEntity
  8
0
100
AcDbSpline
 62
7
  6
BYLAYER
 70
0
 71
3
 72
23
 73
19
 74
0
 42
0.0000001
 43
0.0000001
 44
0.0000000001
 40
0.0
 40
0.0
 40
0.0
 40
0.0
 40
0.0496494857
 40
0.1026534436
 40
0.158975625
 40
0.2184227219
 40
0.2806751171
 40
0.3453135088
 40
0.4118421675
 40
0.4797091994
 40
0.5483248051
 40
0.6170786109
 40
0.6853564889
 40
0.7525567652
 40
0.8181097229
 40
0.8814885314
 40
0.9422452508
 40
1.0
 40
1.0
 40
1.0
 40
1.0
 10
22.0328009253
 20
50.5810145053
 30
0.0
 10
22.4137469799
 20
50.1798885854
 30
0.0
 10
23.2607243539
 20
49.4056414004
 30
0.0
 10
24.7042271862
 20
48.37320657
 30
0.0
 10
26.3429491953
 20
47.4444287937
 30
0.0
 10
28.1550206139
 20
46.6313953302
 30
0.0
 10
30.1166791222
 20
45.9444535593
 30
0.0
 10
32.2020031519
 20
45.3925852093
 30
0.0
 10
34.3833962953
 20
44.9830383106
 30
0.0
 10
36.6319174618
 20
44.7212317824
 30
0.0
 10
38.9176914391
 20
44.6106418046
 30
0.0
 10
41.2103206873
 20
44.6527439411
 30
0.0
 10
43.4793014734
 20
44.8469835049
 30
0.0
 10
45.6944902633
 20
45.1907585179
 30
0.0
 10
47.8264162749
 20
45.6795445166
 30
0.0
 10
49.8469927375
 20
46.3068608818
 30
0.0
 10
51.729135298
 20
47.0644640387
 30
0.0
 10
52.9071835133
 20
47.6661736731
 30
0.0
 10
53.4644725269
 20
47.9879227145
 30
0.0
  0
SPLINE
  5
32C
100
AcDbEntity
  8
0
100
AcDbSpline
 62
7
  6
BYLAYER
 70
0
 71
3
 72
13
 73
9
 74
0
 42
0.0000001
 43
0.0000001
 44
0.0000000001
 40
0.0
 40
0.0
 40
0.0
 40
0.0
 40
0.1165488106
 40
0.2344409575
 40
0.3542882207
 40
0.476652277
 40
0.7307232355
 40
1.0
 40
1.0
 40
1.0
 40
1.0
 10
17.2416703264
 20
58.6366855683
 30
0.0
 10
17.2638741702
 20
58.4047889108
 30
0.0
 10
17.3304110775
 20
57.9401337521
 30
0.0
 10
17.4948856108
 20
57.2504100949
 30
0.0
 10
17.7237584431
 20
56.5669905195
 30
0.0
 10
18.1186614469
 20
55.655870196
 30
0.0
 10
18.7779716573
 20
54.5397800245
 30
0.0
 10
19.4386662781
 20
53.7239789185
 30
0.0
 10
19.8029981457
 20
53.3278060742
 30
0.0
  0
ELLIPSE
  5
32D
100
AcDbEntity
  8
0
100
AcDbEllipse
 62
7
  6
BYLAYER
 10
42.4982396373
 20
59.1377831608
 30
0.0
 11
1.6066066926
 21
2.7825934927
 31
0.0
 40
0.868896216
 41
0.1406258951
 42
0.979677339
  0
ELLIPSE
  5
32E
100
AcDbEntity
  8
0
100
AcDbEllipse
 62
7
  6
BYLAYER
 10
41.8326542068
 20
59.5220909511
 30
0.0
 11
1.6066066926
 21
2.7825934927
 31
0.0
 40
0.868896216
 41
0.979677339
 42
2.1619677434
  0
ELLIPSE
  5
32F
100
AcDbEntity
  8
0
100
AcDbEllipse
 62
7
  6
BYLAYER
 10
42.4982396373
 20
59.1377831608
 30
0.0
 11
1.6066066926
 21
2.7825934927
 31
0.0
 40
0.868896216
 41
2.1619677434
 42
3.0009546347
  0
ELLIPSE
  5
330
100
AcDbEntity
  8
0
100
AcDbEllipse
 62
7
  6
BYLAYER
 10
41.5245128038
 20
59.7000112243
 30
0.0
 11
1.6066066926
 21
2.7825934927
 31
0.0
 40
0.868896216
 41
1.3732646231
 42
1.7683804593
  0
ENDSEC
  0
SECTION
  2
OBJECTS
  0
DICTIONARY
  5
C
100
AcDbDictionary
280
0
281
1
  3
ACAD_GROUP
350
D
  3
ACAD_MLINESTYLE
350
17
  3
ACAD_LAYOUT
350
1A
  3
ACAD_PLOTSETTINGS
350
19
  3
ACAD_PLOTSTYLENAME
350
E
  0
DICTIONARY
  5
D
102
{ACAD_REACTORS
330
C
102
}
100
AcDbDictionary
280
0
281
1
  0
ACDBDICTIONARYWDFLT
  5
E
102
{ACAD_REACTORS
330
C
102
}
100
AcDbDictionary
281
1
  3
Normal
350
F
100
AcDbDictionaryWithDefault
340
F
  0
DICTIONARY
  5
17
102
{ACAD_REACTORS
330
C
102
}
100
AcDbDictionary
280
0
281
1
  3
Standard
350
18
  0
DICTIONARY
  5
19
102
{ACAD_REACTORS
330
C
102
}
100
AcDbDictionary
281
1
  0
DICTIONARY
  5
1A
102
{ACAD_REACTORS
330
C
102
}
100
AcDbDictionary
281
1
  3
Model
350
331
  3
Layout1
350
332
  0
ACDBPLACEHOLDER
  5
F
102
{ACAD_REACTORS
330
E
102
}
  0
MLINESTYLE
  5
18
102
{ACAD_REACTORS
330
17
102
}
100
AcDbMlineStyle
  2
STANDARD
 70
0
  3

 62
256
 51
90.0
 52
90.0
 71
2
 49
0.5
 62
256
  6
BYLAYER
 49
-0.5
 62
256
  6
BYLAYER
  0
LAYOUT
  5
331
102
{ACAD_REACTORS
330
1A
102
}
100
AcDbPlotSettings
  1

  2
none_device
  4

  6

 40
0.0
 41
0.0
 42
0.0
 43
0.0
 44
210.0
 45
297.0
 46
0.0
 47
0.0
 48
0.0
 49
0.0
140
0.0
141
0.0
142
1.0
143
1.0
 70
1024
 72
1
 73
0
 74
0
  7

 75
0
147
1.0
148
0.0
149
0.0
100
AcDbLayout
  1
Model
 70
0
 71
0
 10
0.0
 20
0.0
 11
210.0
 21
297.0
 12
0.0
 22
0.0
 32
0.0
 14
0.0
 24
0.0
 34
0.0
 15
0.0
 25
0.0
 35
0.0
146
0.0
 13
0.0
 23
0.0
 33
0.0
 16
1.0
 26
0.0
 36
0.0
 17
0.0
 27
1.0
 37
0.0
 76
0
330
21F
345
0
346
0
  0
LAYOUT
  5
332
102
{ACAD_REACTORS
330
1A
102
}
100
AcDbPlotSettings
  1

  2
none_device
  4

  6

 40
0.0
 41
0.0
 42
0.0
 43
0.0
 44
210.0
 45
297.0
 46
0.0
 47
0.0
 48
0.0
 49
0.0
140
0.0
141
0.0
142
1.0
143
1.0
 70
0
 72
1
 73
0
 74
0
  7

 75
0
147
1.0
148
0.0
149
0.0
100
AcDbLayout
  1
Layout1
 70
0
 71
1
 10
0.0
 20
0.0
 11
210.0
 21
297.0
 12
0.0
 22
0.0
 32
0.0
 14
0.0
 24
0.0
 34
0.0
 15
0.0
 25
0.0
 35
0.0
146
0.0
 13
0.0
 23
0.0
 33
0.0
 16
1.0
 26
0.0
 36
0.0
 17
0.0
 27
1.0
 37
0.0
 76
0
330
220
345
0
346
0
  0
ENDSEC
  0
EOF
