999
DXF file: C:\Users\sesa63760\Dev\_Creo\CAD\MCADUE0001337_3D-CAD\drw0001_6.dxf
999
Pro/ENGINEER 2019471 by Parametric Technology Corporation
  0
SECTION
  2
HEADER
  9
$ACADVER
  1
AC1024
  9
$DWGCODEPAGE
  3
ANSI_1252
  9
$EXTMAX
 10
677.6267069523
 20
958.357771261
 30
0.0
  9
$EXTMIN
 10
0.0
 20
0.0
 30
0.0
  9
$LIMMIN
 10
0.0
 20
0.0
  9
$LIMMAX
 10
677.6267069523
 20
958.357771261
  9
$VIEWCTR
 10
338.8133534761
 20
479.1788856305
  9
$VIEWSIZE
 40
958.357771261
  9
$CLAYER
  8
0
  9
$LTSCALE
 40
62.4707287933
  9
$CELTYPE
  6
BYLAYER
  9
$DIMSCALE
 40
1.0
  9
$DIMASZ
 40
8.0669846066
  9
$DIMEXO
 40
1.0
  9
$DIMDLI
 40
43.161594439
  9
$DIMEXE
 40
1.0
  9
$DIMCEN
 40
10.2224828935
  9
$DIMLFAC
 40
1.0
  9
$DIMBLK
  1
_FILLED
  9
$DIMALT
 70
0
  9
$DIMALTF
 40
0.0393700787
  9
$DIMTXT
 40
11.2937784492
  9
$DIMTOL
 70
1
  9
$DIMLIM
 70
0
  9
$DIMTFAC
 40
1.0
  9
$DIMTP
 40
0.01
  9
$DIMTM
 40
0.01
  9
$DIMGAP
 40
0.625
  9
$DIMDSEP
 70
46
  9
$AUNITS
 70
0
  9
$PDMODE
 70
3
  9
$PDSIZE
 40
0.3125
  9
$HANDSEED
  5
4AB
  9
$TILEMODE
 70
1
  9
$MEASUREMENT
 70
1
  9
$INSUNITS
 70
4
  0
ENDSEC
  0
SECTION
  2
CLASSES
  0
CLASS
  1
ACDBDICTIONARYWDFLT
  2
AcDbDictionaryWithDefault
  3
AutoCAD 2000
 90
0
 91
1
280
0
281
0
  0
CLASS
  1
ACDBPLACEHOLDER
  2
AcDbPlaceHolder
  3
AutoCAD 2000
 90
0
 91
1
280
0
281
0
  0
CLASS
  1
LAYOUT
  2
AcDbLayout
  3
AutoCAD 2000
 90
0
 91
0
280
0
281
0
  0
ENDSEC
  0
SECTION
  2
TABLES
  0
TABLE
  2
VPORT
  5
8
100
AcDbSymbolTable
 70
2
  0
VPORT
  5
1F4
100
AcDbSymbolTableRecord
100
AcDbViewportTableRecord
  2
*ACTIVE
 70
0
 10
0.0
 20
0.0
 11
1.0
 21
1.0
 12
338.8133534761
 22
479.1788856305
 13
0.0
 23
0.0
 14
1.0
 24
1.0
 15
0.0
 25
0.0
 16
0.0
 26
0.0
 36
1.0
 17
0.0
 27
0.0
 37
0.0
 40
958.357771261
 41
0.7070707071
 42
50.0
 43
0.0
 44
0.0
 50
0.0
 51
0.0
 71
0
 72
100
 73
1
 74
1
 75
0
 76
0
 77
0
 78
0
  0
ENDTAB
  0
TABLE
  2
LTYPE
  5
5
100
AcDbSymbolTable
 70
6
  0
LTYPE
  5
14
100
AcDbSymbolTableRecord
100
AcDbLinetypeTableRecord
  2
BYBLOCK
 70
0
  3

 72
65
 73
0
 40
0.0
  0
LTYPE
  5
15
100
AcDbSymbolTableRecord
100
AcDbLinetypeTableRecord
  2
BYLAYER
 70
0
  3

 72
65
 73
0
 40
0.0
  0
LTYPE
  5
16
100
AcDbSymbolTableRecord
100
AcDbLinetypeTableRecord
  2
CONTINUOUS
 70
64
  3
Solid line
 72
65
 73
0
 40
0.0
  0
LTYPE
  5
1F5
100
AcDbSymbolTableRecord
100
AcDbLinetypeTableRecord
  2
CENTER
 70
64
  3
____ _ ____ _ ____ _ ____ _ ____ _ ____ _ ____
 72
65
 73
4
 40
0.6
 49
0.375
 74
0
 49
-0.075
 74
0
 49
0.075
 74
0
 49
-0.075
 74
0
  0
LTYPE
  5
1F6
100
AcDbSymbolTableRecord
100
AcDbLinetypeTableRecord
  2
HIDDEN
 70
64
  3
- - - - - - - - - - - - - - - - - - - -
 72
65
 73
2
 40
0.2
 49
0.1
 74
0
 49
-0.1
 74
0
  0
LTYPE
  5
1F7
100
AcDbSymbolTableRecord
100
AcDbLinetypeTableRecord
  2
PHANTOM
 70
64
  3
_____ _ _ _____ _ _ _____ _ _ _____
 72
65
 73
6
 40
0.8
 49
0.45
 74
0
 49
-0.05
 74
0
 49
0.1
 74
0
 49
-0.05
 74
0
 49
0.1
 74
0
 49
-0.05
 74
0
  0
LTYPE
  5
1F8
100
AcDbSymbolTableRecord
100
AcDbLinetypeTableRecord
  2
DOT
 70
64
  3
. . . . . . . . . . . . . . . . . . . .
 72
65
 73
2
 40
0.2
 49
0.1
 74
0
 49
-0.1
 74
0
  0
LTYPE
  5
1F9
100
AcDbSymbolTableRecord
100
AcDbLinetypeTableRecord
  2
DASHED
 70
64
  3
- - - - - - - - - - - - - - - - - - - -
 72
65
 73
2
 40
0.2
 49
0.1
 74
0
 49
-0.1
 74
0
  0
ENDTAB
  0
TABLE
  2
LAYER
  5
2
100
AcDbSymbolTable
 70
36
  0
LAYER
  5
10
100
AcDbSymbolTableRecord
100
AcDbLayerTableRecord
  2
0
 70
0
 62
7
  6
CONTINUOUS
370
-3
390
F
  0
LAYER
  5
1FA
100
AcDbSymbolTableRecord
100
AcDbLayerTableRecord
  2
DEFAULT_1
 70
0
 62
7
  6
CENTER
370
-3
390
F
  0
LAYER
  5
1FB
100
AcDbSymbolTableRecord
100
AcDbLayerTableRecord
  2
DEFAULT_2
 70
0
 62
8
  6
HIDDEN
370
-3
390
F
  0
LAYER
  5
1FC
100
AcDbSymbolTableRecord
100
AcDbLayerTableRecord
  2
DEFAULT_3
 70
0
 62
7
  6
PHANTOM
370
-3
390
F
  0
LAYER
  5
1FD
100
AcDbSymbolTableRecord
100
AcDbLayerTableRecord
  2
00_COMPONENTS
 70
0
 62
7
  6
CONTINUOUS
370
-3
390
F
  0
LAYER
  5
1FE
100
AcDbSymbolTableRecord
100
AcDbLayerTableRecord
  2
01_1_DEFAULT_DATUMS
 70
0
 62
7
  6
CONTINUOUS
370
-3
390
F
  0
LAYER
  5
1FF
100
AcDbSymbolTableRecord
100
AcDbLayerTableRecord
  2
01_PLANES
 70
0
 62
7
  6
CONTINUOUS
370
-3
390
F
  0
LAYER
  5
200
100
AcDbSymbolTableRecord
100
AcDbLayerTableRecord
  2
02_COORD_SYS
 70
0
 62
7
  6
CONTINUOUS
370
-3
390
F
  0
LAYER
  5
201
100
AcDbSymbolTableRecord
100
AcDbLayerTableRecord
  2
03_AXES
 70
0
 62
7
  6
CONTINUOUS
370
-3
390
F
  0
LAYER
  5
202
100
AcDbSymbolTableRecord
100
AcDbLayerTableRecord
  2
04_POINTS
 70
0
 62
7
  6
CONTINUOUS
370
-3
390
F
  0
LAYER
  5
203
100
AcDbSymbolTableRecord
100
AcDbLayerTableRecord
  2
05_CURVES
 70
0
 62
7
  6
CONTINUOUS
370
-3
390
F
  0
LAYER
  5
204
100
AcDbSymbolTableRecord
100
AcDbLayerTableRecord
  2
06_SURFS
 70
0
 62
7
  6
CONTINUOUS
370
-3
390
F
  0
LAYER
  5
205
100
AcDbSymbolTableRecord
100
AcDbLayerTableRecord
  2
07_COSMETICS
 70
0
 62
7
  6
CONTINUOUS
370
-3
390
F
  0
LAYER
  5
206
100
AcDbSymbolTableRecord
100
AcDbLayerTableRecord
  2
10_NOTES
 70
0
 62
7
  6
CONTINUOUS
370
-3
390
F
  0
LAYER
  5
207
100
AcDbSymbolTableRecord
100
AcDbLayerTableRecord
  2
11_NOTES_PUB
 70
0
 62
7
  6
CONTINUOUS
370
-3
390
F
  0
LAYER
  5
208
100
AcDbSymbolTableRecord
100
AcDbLayerTableRecord
  2
13_REF_GTOL
 70
0
 62
7
  6
CONTINUOUS
370
-3
390
F
  0
LAYER
  5
209
100
AcDbSymbolTableRecord
100
AcDbLayerTableRecord
  2
16_MISC
 70
0
 62
7
  6
CONTINUOUS
370
-3
390
F
  0
LAYER
  5
20A
100
AcDbSymbolTableRecord
100
AcDbLayerTableRecord
  2
17_NO_PRINT
 70
0
 62
7
  6
CONTINUOUS
370
-3
390
F
  0
LAYER
  5
20B
100
AcDbSymbolTableRecord
100
AcDbLayerTableRecord
  2
18_DATUM_CAMS_JOINTS
 70
0
 62
7
  6
CONTINUOUS
370
-3
390
F
  0
LAYER
  5
20C
100
AcDbSymbolTableRecord
100
AcDbLayerTableRecord
  2
19_DATUM_FUNCTIONAL
 70
0
 62
7
  6
CONTINUOUS
370
-3
390
F
  0
LAYER
  5
20D
100
AcDbSymbolTableRecord
100
AcDbLayerTableRecord
  2
20_DATUM_KINEMATIC_SCHEME
 70
0
 62
7
  6
CONTINUOUS
370
-3
390
F
  0
ENDTAB
  0
TABLE
  2
STYLE
  5
3
100
AcDbSymbolTable
 70
1
  0
STYLE
  5
11
100
AcDbSymbolTableRecord
100
AcDbTextStyleTableRecord
  2
STANDARD
 70
0
 40
0.0
 41
0.8
 50
0.0
 71
0
 42
0.2
  3
txt
  4

  0
STYLE
  5
20E
100
AcDbSymbolTableRecord
100
AcDbTextStyleTableRecord
  2
TEXTSTYLE_1
 70
0
 40
0.0
 41
0.8
 50
0.0
 71
0
 42
0.2
  3
gdt
  4

  0
ENDTAB
  0
TABLE
  2
VIEW
  5
6
100
AcDbSymbolTable
 70
0
  0
ENDTAB
  0
TABLE
  2
UCS
  5
7
100
AcDbSymbolTable
 70
0
  0
ENDTAB
  0
TABLE
  2
APPID
  5
9
100
AcDbSymbolTable
 70
1
  0
APPID
  5
20F
100
AcDbSymbolTableRecord
100
AcDbRegAppTableRecord
  2
ACAD
 70
0
  0
ENDTAB
  0
TABLE
  2
BLOCK_RECORD
  5
1
100
AcDbSymbolTable
 70
0
  0
BLOCK_RECORD
  5
210
100
AcDbSymbolTableRecord
100
AcDbBlockTableRecord
  2
*Model_Space
  0
BLOCK_RECORD
  5
211
100
AcDbSymbolTableRecord
100
AcDbBlockTableRecord
  2
*Paper_Space
  0
BLOCK_RECORD
  5
212
100
AcDbSymbolTableRecord
100
AcDbBlockTableRecord
  2
_FILLED
  0
ENDTAB
  0
TABLE
  2
DIMSTYLE
  5
A
100
AcDbSymbolTable
 70
1
100
AcDbDimStyleTable
 71
0
  0
DIMSTYLE
105
213
100
AcDbSymbolTableRecord
100
AcDbDimStyleTableRecord
  2
STANDARD
 70
0
  3

  4

 40
1.0
 41
8.0669846066
 42
1.0
 43
0.38
 44
1.0
 45
0.0
 46
0.0
 47
0.01
 48
0.01
140
11.2937784492
141
0.09
142
0.0
143
25.4
144
1.0
145
0.0
146
1.0
147
0.625
 71
1
 72
0
 73
0
 74
0
 75
0
 76
0
 77
1
 78
8
 79
2
170
0
171
1
172
0
173
0
174
0
175
0
176
0
177
0
178
0
270
2
179
2
271
2
272
2
273
2
274
2
275
0
280
0
281
0
282
0
283
1
284
8
285
0
286
0
287
3
288
0
340
11
278
46
341
212
342
212
343
212
344
212
  0
ENDTAB
  0
ENDSEC
  0
SECTION
  2
BLOCKS
  0
BLOCK
  5
20
100
AcDbEntity
  8
0
100
AcDbBlockBegin
  2
*Model_Space
 70
0
 10
0.0
 20
0.0
 30
0.0
  3
*Model_Space
  1

  0
ENDBLK
  5
21
100
AcDbEntity
  8
0
100
AcDbBlockEnd
  0
BLOCK
  5
1C
100
AcDbEntity
  8
0
100
AcDbBlockBegin
  2
*Paper_Space
 70
0
 10
0.0
 20
0.0
 30
0.0
  3
*Paper_Space
  1

  0
ENDBLK
  5
1D
100
AcDbEntity
  8
0
100
AcDbBlockEnd
  0
BLOCK
  5
214
100
AcDbEntity
  8
0
100
AcDbBlockBegin
  2
_FILLED
 70
64
 10
0.0
 20
0.0
  3
_FILLED
  1

  0
SOLID
  5
215
100
AcDbEntity
  8
0
  6
BYBLOCK
 62
0
100
AcDbTrace
 10
0.0
 20
0.0
 11
-1.0
 21
0.25
 12
-1.0
 22
-0.25
 13
-1.0
 23
-0.25
  0
ENDBLK
  5
216
100
AcDbEntity
  8
0
  6
BYBLOCK
 62
0
100
AcDbBlockEnd
  0
ENDSEC
  0
SECTION
  2
ENTITIES
  0
LINE
  5
217
100
AcDbEntity
  8
0
100
AcDbLine
 62
7
  6
CONTINUOUS
 10
415.2682028702
 20
79.1788856305
 11
294.0682028703
 21
79.1788856305
  0
LINE
  5
218
100
AcDbEntity
  8
0
100
AcDbLine
 62
7
  6
CONTINUOUS
 10
405.9182028702
 20
79.4788856305
 11
316.4182028702
 21
79.4788856305
  0
LINE
  5
219
100
AcDbEntity
  8
0
100
AcDbLine
 62
7
  6
CONTINUOUS
 10
415.2682028702
 20
80.3788856305
 11
294.0682028702
 21
80.3788856305
  0
LINE
  5
21A
100
AcDbEntity
  8
0
100
AcDbLine
 62
7
  6
CONTINUOUS
 10
406.2505836282
 20
80.6788856305
 11
316.0858221123
 21
80.6788856305
  0
LINE
  5
21B
100
AcDbEntity
  8
0
100
AcDbLine
 62
7
  6
CONTINUOUS
 10
403.1267866266
 20
81.1315892752
 11
319.2096191139
 21
81.1315892752
  0
LINE
  5
21C
100
AcDbEntity
  8
0
100
AcDbLine
 62
7
  6
CONTINUOUS
 10
404.3085559302
 20
81.3399670884
 11
318.0278498103
 21
81.3399670884
  0
LINE
  5
21D
100
AcDbEntity
  8
0
100
AcDbLine
 62
7
  6
CONTINUOUS
 10
403.0349300499
 20
81.6525338082
 11
319.3014756905
 21
81.6525338082
  0
LINE
  5
21E
100
AcDbEntity
  8
0
100
AcDbLine
 62
7
  6
CONTINUOUS
 10
404.2166993536
 20
81.8609116214
 11
318.1197063869
 21
81.8609116214
  0
LINE
  5
21F
100
AcDbEntity
  8
0
100
AcDbLine
 62
7
  6
CONTINUOUS
 10
418.1682028702
 20
82.0788856305
 11
416.9682028702
 21
82.0788856305
  0
LINE
  5
220
100
AcDbEntity
  8
0
100
AcDbLine
 62
7
  6
CONTINUOUS
 10
292.3682028703
 20
82.0788856305
 11
291.1682028754
 21
82.0788856305
  0
LINE
  5
221
100
AcDbEntity
  8
0
100
AcDbLine
 62
7
  6
CONTINUOUS
 10
402.0501222969
 20
82.4788856305
 11
320.2862834435
 21
82.4788856305
  0
LINE
  5
222
100
AcDbEntity
  8
0
100
AcDbLine
 62
7
  6
CONTINUOUS
 10
402.0501222969
 20
83.6788856305
 11
320.2862834435
 21
83.6788856305
  0
LINE
  5
223
100
AcDbEntity
  8
0
100
AcDbLine
 62
7
  6
CONTINUOUS
 10
418.1682028702
 20
96.0288856305
 11
416.9682028702
 21
96.0288856305
  0
LINE
  5
224
100
AcDbEntity
  8
0
100
AcDbLine
 62
7
  6
CONTINUOUS
 10
292.3682028702
 20
96.1461431203
 11
291.1682027983
 21
96.1461431203
  0
LINE
  5
225
100
AcDbEntity
  8
0
100
AcDbLine
 62
7
  6
CONTINUOUS
 10
273.2682028702
 20
96.8774307171
 11
273.0392320757
 21
96.8774307171
  0
LINE
  5
226
100
AcDbEntity
  8
0
100
AcDbLine
 62
7
  6
CONTINUOUS
 10
288.1911803818
 20
99.778163699
 11
287.9622095874
 21
99.778163699
  0
LINE
  5
227
100
AcDbEntity
  8
0
100
AcDbLine
 62
7
  6
CONTINUOUS
 10
272.888999565
 20
100.2784750982
 11
272.7869131068
 21
100.2779929149
  0
LINE
  5
228
100
AcDbEntity
  8
0
100
AcDbLine
 62
7
  6
CONTINUOUS
 10
280.1108038103
 20
101.1804594376
 11
280.2185365628
 21
101.1812081755
  0
LINE
  5
229
100
AcDbEntity
  8
0
100
AcDbLine
 62
7
  6
CONTINUOUS
 10
272.8596806282
 20
100.2744959915
 11
272.8419210586
 21
100.2779929149
  0
LINE
  5
22A
100
AcDbEntity
  8
0
100
AcDbLine
 62
7
  6
CONTINUOUS
 10
407.1682028702
 20
122.4288856305
 11
407.9682028703
 21
122.6432449844
  0
LINE
  5
22B
100
AcDbEntity
  8
0
100
AcDbLine
 62
7
  6
CONTINUOUS
 10
288.1911803818
 20
98.6002110789
 11
273.2682028703
 21
95.6994780969
  0
LINE
  5
22C
100
AcDbEntity
  8
0
100
AcDbLine
 62
7
  6
CONTINUOUS
 10
288.1911803818
 20
99.778163699
 11
273.2682028703
 21
96.8774307171
  0
LINE
  5
22D
100
AcDbEntity
  8
0
100
AcDbLine
 62
7
  6
CONTINUOUS
 10
287.9622095874
 20
99.778163699
 11
273.0392320758
 21
96.8774307171
  0
LINE
  5
22E
100
AcDbEntity
  8
0
100
AcDbLine
 62
7
  6
CONTINUOUS
 10
280.2185365323
 20
101.1812081755
 11
272.8888868014
 21
100.2793949833
  0
LINE
  5
22F
100
AcDbEntity
  8
0
100
AcDbLine
 62
7
  6
CONTINUOUS
 10
272.7869131068
 20
100.277992915
 11
280.1244489046
 21
101.1812081755
  0
LINE
  5
230
100
AcDbEntity
  8
0
100
AcDbLine
 62
7
  6
CONTINUOUS
 10
280.2185633707
 20
98.5419213144
 11
272.8911593141
 21
97.965632144
  0
LINE
  5
231
100
AcDbEntity
  8
0
100
AcDbLine
 62
7
  6
CONTINUOUS
 10
280.1244489046
 20
99.7382249832
 11
272.7928449237
 21
99.1616054952
  0
LINE
  5
232
100
AcDbEntity
  8
0
100
AcDbLine
 62
7
  6
CONTINUOUS
 10
418.1682028702
 20
106.3288856305
 11
416.9682028702
 21
106.3288856305
  0
LINE
  5
233
100
AcDbEntity
  8
0
100
AcDbLine
 62
7
  6
CONTINUOUS
 10
410.4682028702
 20
109.6788856305
 11
407.9682028702
 21
109.6788856305
  0
LINE
  5
234
100
AcDbEntity
  8
0
100
AcDbLine
 62
7
  6
CONTINUOUS
 10
416.9682028702
 20
112.1788856305
 11
410.909020322
 21
112.1788856305
  0
LINE
  5
235
100
AcDbEntity
  8
0
100
AcDbLine
 62
7
  6
CONTINUOUS
 10
406.8682028702
 20
112.6788856305
 11
392.7182028702
 21
112.6788856305
  0
LINE
  5
236
100
AcDbEntity
  8
0
100
AcDbLine
 62
7
  6
CONTINUOUS
 10
406.8682028702
 20
120.6788856305
 11
392.7182028702
 21
120.6788856305
  0
LINE
  5
237
100
AcDbEntity
  8
0
100
AcDbLine
 62
7
  6
CONTINUOUS
 10
416.9682028702
 20
121.1788856305
 11
410.909020322
 21
121.1788856305
  0
LINE
  5
238
100
AcDbEntity
  8
0
100
AcDbLine
 62
7
  6
CONTINUOUS
 10
410.4682028702
 20
123.6788856305
 11
407.9682028702
 21
123.6788856305
  0
LINE
  5
239
100
AcDbEntity
  8
0
100
AcDbLine
 62
7
  6
CONTINUOUS
 10
272.9353539252
 20
861.2800979442
 11
272.9356986358
 21
861.2804120093
  0
LINE
  5
23A
100
AcDbEntity
  8
0
100
AcDbLine
 62
7
  6
CONTINUOUS
 10
292.3682028702
 20
152.1755522972
 11
294.4062434503
 21
152.3114216692
  0
LINE
  5
23B
100
AcDbEntity
  8
0
100
AcDbLine
 62
7
  6
CONTINUOUS
 10
291.9551753505
 20
151.0245861724
 11
297.9682028702
 21
151.1820428395
  0
LINE
  5
23C
100
AcDbEntity
  8
0
100
AcDbLine
 62
7
  6
CONTINUOUS
 10
290.9682028702
 20
143.1788856305
 11
291.1682028702
 21
143.1788856305
  0
LINE
  5
23D
100
AcDbEntity
  8
0
100
AcDbLine
 62
7
  6
CONTINUOUS
 10
291.1682028702
 20
144.4288856305
 11
292.3682028702
 21
144.4288856305
  0
LINE
  5
23E
100
AcDbEntity
  8
0
100
AcDbLine
 62
7
  6
CONTINUOUS
 10
291.1682028702
 20
151.9288856305
 11
292.3682028702
 21
151.9288856305
  0
LINE
  5
23F
100
AcDbEntity
  8
0
100
AcDbLine
 62
7
  6
CONTINUOUS
 10
290.9682028702
 20
153.1788856305
 11
291.1682028702
 21
153.1788856305
  0
LINE
  5
240
100
AcDbEntity
  8
0
100
AcDbLine
 62
7
  6
CONTINUOUS
 10
291.9551753505
 20
145.3331850886
 11
297.9682028702
 21
145.1757284216
  0
LINE
  5
241
100
AcDbEntity
  8
0
100
AcDbLine
 62
7
  6
CONTINUOUS
 10
292.3682028702
 20
144.1822189639
 11
294.4062434502
 21
144.0463495919
  0
LINE
  5
242
100
AcDbEntity
  8
0
100
AcDbLine
 62
7
  6
CONTINUOUS
 10
297.9682028702
 20
151.6788856305
 11
294.9257944274
 21
152.2781478995
  0
LINE
  5
243
100
AcDbEntity
  8
0
100
AcDbLine
 62
7
  6
CONTINUOUS
 10
407.1682028702
 20
110.9288856305
 11
407.9682028703
 21
110.7145262766
  0
LINE
  5
244
100
AcDbEntity
  8
0
100
AcDbLine
 62
7
  6
CONTINUOUS
 10
406.4182028702
 20
879.1788856305
 11
405.9182028702
 21
878.8788856305
  0
LINE
  5
245
100
AcDbEntity
  8
0
100
AcDbLine
 62
7
  6
CONTINUOUS
 10
406.7505836282
 20
877.9788856305
 11
406.2505836282
 21
877.6788856305
  0
LINE
  5
246
100
AcDbEntity
  8
0
100
AcDbLine
 62
7
  6
CONTINUOUS
 10
297.9682028702
 20
144.6788856306
 11
294.9257944274
 21
144.0796233615
  0
LINE
  5
247
100
AcDbEntity
  8
0
100
AcDbLine
 62
7
  6
CONTINUOUS
 10
406.4182028702
 20
79.1788856305
 11
405.9182028702
 21
79.4788856305
  0
LINE
  5
248
100
AcDbEntity
  8
0
100
AcDbLine
 62
7
  6
CONTINUOUS
 10
406.7505836282
 20
80.3788856305
 11
406.2505836282
 21
80.6788856305
  0
LINE
  5
249
100
AcDbEntity
  8
0
100
AcDbLine
 62
7
  6
CONTINUOUS
 10
290.8682028702
 20
806.0788856305
 11
289.6682028702
 21
804.8788856305
  0
LINE
  5
24A
100
AcDbEntity
  8
0
100
AcDbLine
 62
7
  6
CONTINUOUS
 10
272.9906545993
 20
861.3862397206
 11
273.0392320758
 21
861.4803405439
  0
LINE
  5
24B
100
AcDbEntity
  8
0
100
AcDbLine
 62
7
  6
CONTINUOUS
 10
391.9682028702
 20
844.9288856305
 11
392.7182028702
 21
845.6788856305
  0
LINE
  5
24C
100
AcDbEntity
  8
0
100
AcDbLine
 62
7
  6
CONTINUOUS
 10
391.9682028702
 20
113.4288856305
 11
392.7182028702
 21
112.6788856305
  0
LINE
  5
24D
100
AcDbEntity
  8
0
100
AcDbLine
 62
7
  6
CONTINUOUS
 10
273.0392320757
 20
96.8774307171
 11
272.9906838023
 21
96.9714723916
  0
LINE
  5
24E
100
AcDbEntity
  8
0
100
AcDbLine
 62
7
  6
CONTINUOUS
 10
277.800523568
 20
826.1788856305
 11
277.5009457147
 21
824.7503142019
  0
LINE
  5
24F
100
AcDbEntity
  8
0
100
AcDbLine
 62
7
  6
CONTINUOUS
 10
273.0392320758
 20
96.8774307171
 11
273.2682028702
 21
95.6994780969
  0
LINE
  5
250
100
AcDbEntity
  8
0
100
AcDbLine
 62
7
  6
CONTINUOUS
 10
281.8148668031
 20
795.8931713448
 11
281.5152889497
 21
794.1788856305
  0
LINE
  5
251
100
AcDbEntity
  8
0
100
AcDbLine
 62
7
  6
CONTINUOUS
 10
288.1911803818
 20
859.7575601821
 11
287.9622095874
 21
858.579607562
  0
LINE
  5
252
100
AcDbEntity
  8
0
100
AcDbLine
 62
7
  6
CONTINUOUS
 10
288.1911803818
 20
98.6002110789
 11
287.9622095874
 21
99.778163699
  0
LINE
  5
253
100
AcDbEntity
  8
0
100
AcDbLine
 62
7
  6
CONTINUOUS
 10
280.1244489238
 20
99.7382247393
 11
280.2185364705
 21
98.5419199897
  0
LINE
  5
254
100
AcDbEntity
  8
0
100
AcDbLine
 62
7
  6
CONTINUOUS
 10
272.8879695788
 20
860.3923993499
 11
272.7869131068
 21
859.1966620922
  0
LINE
  5
255
100
AcDbEntity
  8
0
100
AcDbLine
 62
7
  6
CONTINUOUS
 10
280.2118602822
 20
859.7734284594
 11
280.1108038103
 21
858.5776912017
  0
LWPOLYLINE
  5
256
100
AcDbEntity
  8
0
100
AcDbPolyline
 62
7
  6
CONTINUOUS
 90
4
 70
0
 10
288.9682028702
 20
800.2563696527
 10
288.9738476521
 20
800.3035506782
 10
288.9904633619
 20
800.3480684378
 10
289.0357093249
 20
800.3058212498
  0
LINE
  5
257
100
AcDbEntity
  8
0
100
AcDbLine
 62
7
  6
CONTINUOUS
 10
277.800523568
 20
551.1788856305
 11
277.5009457147
 21
549.7503142019
  0
LWPOLYLINE
  5
258
100
AcDbEntity
  8
0
100
AcDbPolyline
 62
7
  6
CONTINUOUS
 90
4
 70
0
 10
289.2793266804
 20
552.6517811737
 10
289.2891547783
 20
552.6656295299
 10
289.2999689612
 20
552.6747036603
 10
289.3116343278
 20
552.6788903699
  0
LINE
  5
259
100
AcDbEntity
  8
0
100
AcDbLine
 62
7
  6
CONTINUOUS
 10
289.0939251972
 20
525.2563696527
 11
289.1002211074
 21
517.9014014211
  0
LINE
  5
25A
100
AcDbEntity
  8
0
100
AcDbLine
 62
7
  6
CONTINUOUS
 10
289.0939251972
 20
800.2563696527
 11
289.1002211074
 21
792.901401421
  0
LINE
  5
25B
100
AcDbEntity
  8
0
100
AcDbLine
 62
7
  6
CONTINUOUS
 10
289.4630490832
 20
545.2183096191
 11
289.4613934739
 21
552.3661849589
  0
LINE
  5
25C
100
AcDbEntity
  8
0
100
AcDbLine
 62
7
  6
CONTINUOUS
 10
289.4630490832
 20
820.218309619
 11
289.4613934738
 21
827.366184959
  0
LINE
  5
25D
100
AcDbEntity
  8
0
100
AcDbLine
 62
7
  6
CONTINUOUS
 10
271.1842871283
 20
98.7225903375
 11
271.1842871283
 21
859.6351809236
  0
LINE
  5
25E
100
AcDbEntity
  8
0
100
AcDbLine
 62
7
  6
CONTINUOUS
 10
272.3842871284
 20
98.7296341168
 11
272.3842871284
 21
859.6281371442
  0
LINE
  5
25F
100
AcDbEntity
  8
0
100
AcDbLine
 62
7
  6
CONTINUOUS
 10
272.7869131067
 20
858.079778346
 11
272.7869131067
 21
100.277992915
  0
LINE
  5
260
100
AcDbEntity
  8
0
100
AcDbLine
 62
7
  6
CONTINUOUS
 10
272.7947168335
 20
858.0776409297
 11
272.7947168335
 21
100.2808213244
  0
LINE
  5
261
100
AcDbEntity
  8
0
100
AcDbLine
 62
7
  6
CONTINUOUS
 10
272.8293421809
 20
100.1650622438
 11
272.8293421809
 21
858.1927988315
  0
LINE
  5
262
100
AcDbEntity
  8
0
100
AcDbLine
 62
7
  6
CONTINUOUS
 10
272.889773458
 20
100.2810611599
 11
272.889773458
 21
858.0783807635
  0
LINE
  5
263
100
AcDbEntity
  8
0
100
AcDbLine
 62
7
  6
CONTINUOUS
 10
273.0368863579
 20
96.8893493597
 11
273.0367788923
 21
861.4683816714
  0
LINE
  5
264
100
AcDbEntity
  8
0
100
AcDbLine
 62
7
  6
CONTINUOUS
 10
273.0392320757
 20
861.4803405439
 11
273.0392320757
 21
96.8774307171
  0
LINE
  5
265
100
AcDbEntity
  8
0
100
AcDbLine
 62
7
  6
CONTINUOUS
 10
273.2682028702
 20
861.4803405439
 11
273.2682028702
 21
96.8774307171
  0
LINE
  5
266
100
AcDbEntity
  8
0
100
AcDbLine
 62
7
  6
CONTINUOUS
 10
276.0579062589
 20
835.1788856305
 11
276.0579062589
 21
820.4788856305
  0
LINE
  5
267
100
AcDbEntity
  8
0
100
AcDbLine
 62
7
  6
CONTINUOUS
 10
276.0579062589
 20
799.8788856305
 11
276.0579062589
 21
785.1788856305
  0
LINE
  5
268
100
AcDbEntity
  8
0
100
AcDbLine
 62
7
  6
CONTINUOUS
 10
276.0579062589
 20
560.1788856305
 11
276.0579062589
 21
545.4788856305
  0
LINE
  5
269
100
AcDbEntity
  8
0
100
AcDbLine
 62
7
  6
CONTINUOUS
 10
276.0579062589
 20
524.8788856305
 11
276.0579062589
 21
510.1788856305
  0
LINE
  5
26A
100
AcDbEntity
  8
0
100
AcDbLine
 62
7
  6
CONTINUOUS
 10
276.3440887864
 20
835.1788856305
 11
276.3440887864
 21
820.4788856305
  0
LINE
  5
26B
100
AcDbEntity
  8
0
100
AcDbLine
 62
7
  6
CONTINUOUS
 10
276.3440887864
 20
799.8788856305
 11
276.3440887864
 21
785.1788856305
  0
LINE
  5
26C
100
AcDbEntity
  8
0
100
AcDbLine
 62
7
  6
CONTINUOUS
 10
276.3440887864
 20
560.1788856305
 11
276.3440887864
 21
545.4788856305
  0
LINE
  5
26D
100
AcDbEntity
  8
0
100
AcDbLine
 62
7
  6
CONTINUOUS
 10
276.3440887864
 20
524.8788856305
 11
276.3440887864
 21
510.1788856305
  0
LINE
  5
26E
100
AcDbEntity
  8
0
100
AcDbLine
 62
7
  6
CONTINUOUS
 10
277.5579062589
 20
835.1788856305
 11
277.5579062589
 21
820.4788856305
  0
LINE
  5
26F
100
AcDbEntity
  8
0
100
AcDbLine
 62
7
  6
CONTINUOUS
 10
277.5579062589
 20
799.8788856305
 11
277.5579062589
 21
785.1788856305
  0
LINE
  5
270
100
AcDbEntity
  8
0
100
AcDbLine
 62
7
  6
CONTINUOUS
 10
277.5579062589
 20
560.1788856305
 11
277.5579062589
 21
545.4788856305
  0
LINE
  5
271
100
AcDbEntity
  8
0
100
AcDbLine
 62
7
  6
CONTINUOUS
 10
277.5579062589
 20
524.8788856305
 11
277.5579062589
 21
510.1788856305
  0
LINE
  5
272
100
AcDbEntity
  8
0
100
AcDbLine
 62
7
  6
CONTINUOUS
 10
277.7248460666
 20
510.1788856305
 11
277.7248460666
 21
524.8788856305
  0
LINE
  5
273
100
AcDbEntity
  8
0
100
AcDbLine
 62
7
  6
CONTINUOUS
 10
277.7248460666
 20
545.4788856305
 11
277.7248460666
 21
560.1788856305
  0
LINE
  5
274
100
AcDbEntity
  8
0
100
AcDbLine
 62
7
  6
CONTINUOUS
 10
277.7248460666
 20
785.1788856305
 11
277.7248460666
 21
799.8788856305
  0
LINE
  5
275
100
AcDbEntity
  8
0
100
AcDbLine
 62
7
  6
CONTINUOUS
 10
277.7248460666
 20
820.4788856305
 11
277.7248460666
 21
835.1788856305
  0
LINE
  5
276
100
AcDbEntity
  8
0
100
AcDbLine
 62
7
  6
CONTINUOUS
 10
278.6503542079
 20
510.1788856305
 11
278.6503542079
 21
526.5306678352
  0
LINE
  5
277
100
AcDbEntity
  8
0
100
AcDbLine
 62
7
  6
CONTINUOUS
 10
278.6503542079
 20
543.8271034258
 11
278.6503542079
 21
560.1788856305
  0
LINE
  5
278
100
AcDbEntity
  8
0
100
AcDbLine
 62
7
  6
CONTINUOUS
 10
278.6503542079
 20
785.1788856305
 11
278.6503542079
 21
801.5306678352
  0
LINE
  5
279
100
AcDbEntity
  8
0
100
AcDbLine
 62
7
  6
CONTINUOUS
 10
278.6503542079
 20
818.8271034258
 11
278.6503542079
 21
835.1788856305
  0
LINE
  5
27A
100
AcDbEntity
  8
0
100
AcDbLine
 62
7
  6
CONTINUOUS
 10
278.6687906083
 20
526.8788856306
 11
278.6687906083
 21
528.2506824003
  0
LINE
  5
27B
100
AcDbEntity
  8
0
100
AcDbLine
 62
7
  6
CONTINUOUS
 10
278.6687906083
 20
542.1070888608
 11
278.6687906083
 21
543.4788856306
  0
LINE
  5
27C
100
AcDbEntity
  8
0
100
AcDbLine
 62
7
  6
CONTINUOUS
 10
278.6687906083
 20
801.8788856306
 11
278.6687906083
 21
803.2506824002
  0
LINE
  5
27D
100
AcDbEntity
  8
0
100
AcDbLine
 62
7
  6
CONTINUOUS
 10
278.6687906083
 20
817.1070888608
 11
278.6687906083
 21
818.4788856306
  0
LINE
  5
27E
100
AcDbEntity
  8
0
100
AcDbLine
 62
7
  6
CONTINUOUS
 10
279.1203161205
 20
510.1788856305
 11
279.1203161205
 21
524.8788856305
  0
LINE
  5
27F
100
AcDbEntity
  8
0
100
AcDbLine
 62
7
  6
CONTINUOUS
 10
279.1203161205
 20
545.4788856305
 11
279.1203161205
 21
560.1788856305
  0
LINE
  5
280
100
AcDbEntity
  8
0
100
AcDbLine
 62
7
  6
CONTINUOUS
 10
279.1203161205
 20
785.1788856305
 11
279.1203161205
 21
799.8788856305
  0
LINE
  5
281
100
AcDbEntity
  8
0
100
AcDbLine
 62
7
  6
CONTINUOUS
 10
279.1203161205
 20
820.4788856305
 11
279.1203161205
 21
835.1788856305
  0
LINE
  5
282
100
AcDbEntity
  8
0
100
AcDbLine
 62
7
  6
CONTINUOUS
 10
279.3443120115
 20
835.1788856305
 11
279.3443120115
 21
820.4788856305
  0
LINE
  5
283
100
AcDbEntity
  8
0
100
AcDbLine
 62
7
  6
CONTINUOUS
 10
279.3443120115
 20
799.8788856305
 11
279.3443120115
 21
785.1788856305
  0
LINE
  5
284
100
AcDbEntity
  8
0
100
AcDbLine
 62
7
  6
CONTINUOUS
 10
279.3443120115
 20
560.1788856305
 11
279.3443120115
 21
545.4788856305
  0
LINE
  5
285
100
AcDbEntity
  8
0
100
AcDbLine
 62
7
  6
CONTINUOUS
 10
279.3443120115
 20
524.8788856305
 11
279.3443120115
 21
510.1788856305
  0
LINE
  5
286
100
AcDbEntity
  8
0
100
AcDbLine
 62
7
  6
CONTINUOUS
 10
280.0311114881
 20
835.1788856305
 11
280.0311114881
 21
818.8271034184
  0
LINE
  5
287
100
AcDbEntity
  8
0
100
AcDbLine
 62
7
  6
CONTINUOUS
 10
280.0311114881
 20
801.5306668047
 11
280.0311114881
 21
785.1788856305
  0
LINE
  5
288
100
AcDbEntity
  8
0
100
AcDbLine
 62
7
  6
CONTINUOUS
 10
280.0311114881
 20
560.1788856305
 11
280.0311114881
 21
543.8271034184
  0
LINE
  5
289
100
AcDbEntity
  8
0
100
AcDbLine
 62
7
  6
CONTINUOUS
 10
280.0311114881
 20
526.5306668047
 11
280.0311114881
 21
510.1788856305
  0
LINE
  5
28A
100
AcDbEntity
  8
0
100
AcDbLine
 62
7
  6
CONTINUOUS
 10
280.0403296883
 20
818.4788803416
 11
280.0403296883
 21
817.1070888608
  0
LINE
  5
28B
100
AcDbEntity
  8
0
100
AcDbLine
 62
7
  6
CONTINUOUS
 10
280.0403296883
 20
803.2506824002
 11
280.0403296883
 21
801.8788794367
  0
LINE
  5
28C
100
AcDbEntity
  8
0
100
AcDbLine
 62
7
  6
CONTINUOUS
 10
280.0403296883
 20
543.4788803416
 11
280.0403296883
 21
542.1070888607
  0
LINE
  5
28D
100
AcDbEntity
  8
0
100
AcDbLine
 62
7
  6
CONTINUOUS
 10
280.0403296883
 20
528.2506824002
 11
280.0403296883
 21
526.8788794367
  0
LINE
  5
28E
100
AcDbEntity
  8
0
100
AcDbLine
 62
7
  6
CONTINUOUS
 10
280.1108038102
 20
857.1773118234
 11
280.1108038102
 21
101.1804594376
  0
LINE
  5
28F
100
AcDbEntity
  8
0
100
AcDbLine
 62
7
  6
CONTINUOUS
 10
280.1244489238
 20
857.176343498
 11
280.1244490017
 21
101.1812081755
  0
LINE
  5
290
100
AcDbEntity
  8
0
100
AcDbLine
 62
7
  6
CONTINUOUS
 10
280.2118602822
 20
857.1773118234
 11
280.2118602822
 21
101.1804594376
  0
LINE
  5
291
100
AcDbEntity
  8
0
100
AcDbLine
 62
7
  6
CONTINUOUS
 10
280.2185365628
 20
101.1812081755
 11
280.2185364705
 21
857.1767826666
  0
LINE
  5
292
100
AcDbEntity
  8
0
100
AcDbLine
 62
7
  6
CONTINUOUS
 10
280.8394417821
 20
835.1788856305
 11
280.8394417821
 21
814.7366115994
  0
LINE
  5
293
100
AcDbEntity
  8
0
100
AcDbLine
 62
7
  6
CONTINUOUS
 10
280.8394417821
 20
805.6211596616
 11
280.8394417821
 21
785.1788856305
  0
LINE
  5
294
100
AcDbEntity
  8
0
100
AcDbLine
 62
7
  6
CONTINUOUS
 10
280.8394417821
 20
560.1788856305
 11
280.8394417821
 21
539.7366115995
  0
LINE
  5
295
100
AcDbEntity
  8
0
100
AcDbLine
 62
7
  6
CONTINUOUS
 10
280.8394417821
 20
530.6211596616
 11
280.8394417821
 21
510.1788856305
  0
LINE
  5
296
100
AcDbEntity
  8
0
100
AcDbLine
 62
7
  6
CONTINUOUS
 10
281.1256552753
 20
510.1788856305
 11
281.1256552753
 21
530.6211596616
  0
LINE
  5
297
100
AcDbEntity
  8
0
100
AcDbLine
 62
7
  6
CONTINUOUS
 10
281.1256552753
 20
539.7366115994
 11
281.1256552753
 21
560.1788856305
  0
LINE
  5
298
100
AcDbEntity
  8
0
100
AcDbLine
 62
7
  6
CONTINUOUS
 10
281.1256552753
 20
785.1788856305
 11
281.1256552753
 21
805.6211596617
  0
LINE
  5
299
100
AcDbEntity
  8
0
100
AcDbLine
 62
7
  6
CONTINUOUS
 10
281.1256552753
 20
814.7366115993
 11
281.1256552753
 21
835.1788856305
  0
LINE
  5
29A
100
AcDbEntity
  8
0
100
AcDbLine
 62
7
  6
CONTINUOUS
 10
281.7579062588
 20
835.1788856305
 11
281.7579062588
 21
820.4788856305
  0
LINE
  5
29B
100
AcDbEntity
  8
0
100
AcDbLine
 62
7
  6
CONTINUOUS
 10
281.7579062588
 20
799.8788856305
 11
281.7579062588
 21
785.1788856305
  0
LINE
  5
29C
100
AcDbEntity
  8
0
100
AcDbLine
 62
7
  6
CONTINUOUS
 10
281.7579062588
 20
560.1788856305
 11
281.7579062588
 21
545.4788856305
  0
LINE
  5
29D
100
AcDbEntity
  8
0
100
AcDbLine
 62
7
  6
CONTINUOUS
 10
281.7579062588
 20
524.8788856305
 11
281.7579062588
 21
510.1788856305
  0
LINE
  5
29E
100
AcDbEntity
  8
0
100
AcDbLine
 62
7
  6
CONTINUOUS
 10
283.2579062588
 20
835.1788856305
 11
283.2579062588
 21
820.4788856305
  0
LINE
  5
29F
100
AcDbEntity
  8
0
100
AcDbLine
 62
7
  6
CONTINUOUS
 10
283.2579062588
 20
799.8788856305
 11
283.2579062588
 21
785.1788856305
  0
LINE
  5
2A0
100
AcDbEntity
  8
0
100
AcDbLine
 62
7
  6
CONTINUOUS
 10
283.2579062588
 20
560.1788856305
 11
283.2579062588
 21
545.4788856305
  0
LINE
  5
2A1
100
AcDbEntity
  8
0
100
AcDbLine
 62
7
  6
CONTINUOUS
 10
283.2579062588
 20
524.8788856305
 11
283.2579062588
 21
510.1788856305
  0
LINE
  5
2A2
100
AcDbEntity
  8
0
100
AcDbLine
 62
7
  6
CONTINUOUS
 10
287.9622095873
 20
858.579607562
 11
287.9622095873
 21
99.778163699
  0
LINE
  5
2A3
100
AcDbEntity
  8
0
100
AcDbLine
 62
7
  6
CONTINUOUS
 10
288.1911803818
 20
858.579607562
 11
288.1911803818
 21
99.778163699
  0
LINE
  5
2A4
100
AcDbEntity
  8
0
100
AcDbLine
 62
7
  6
CONTINUOUS
 10
288.4773938748
 20
835.1788856305
 11
288.4773938748
 21
785.1788856305
  0
LINE
  5
2A5
100
AcDbEntity
  8
0
100
AcDbLine
 62
7
  6
CONTINUOUS
 10
288.4773938748
 20
560.1788856305
 11
288.4773938748
 21
510.1788856305
  0
LINE
  5
2A6
100
AcDbEntity
  8
0
100
AcDbLine
 62
7
  6
CONTINUOUS
 10
288.9682028702
 20
827.3031324198
 11
288.9682028702
 21
820.2748584683
  0
LINE
  5
2A7
100
AcDbEntity
  8
0
100
AcDbLine
 62
7
  6
CONTINUOUS
 10
288.9682028702
 20
800.2563593139
 11
288.9682028702
 21
792.7869804561
  0
LINE
  5
2A8
100
AcDbEntity
  8
0
100
AcDbLine
 62
7
  6
CONTINUOUS
 10
288.9682028702
 20
552.3031324198
 11
288.9682028702
 21
545.2748584684
  0
LINE
  5
2A9
100
AcDbEntity
  8
0
100
AcDbLine
 62
7
  6
CONTINUOUS
 10
288.9682028702
 20
525.2563593139
 11
288.9682028702
 21
517.7869804561
  0
LINE
  5
2AA
100
AcDbEntity
  8
0
100
AcDbLine
 62
7
  6
CONTINUOUS
 10
289.4630494808
 20
517.8377829712
 11
289.4630494808
 21
525.3199893433
  0
LINE
  5
2AB
100
AcDbEntity
  8
0
100
AcDbLine
 62
7
  6
CONTINUOUS
 10
289.4630494808
 20
792.8377829713
 11
289.4630494808
 21
800.3199893433
  0
LINE
  5
2AC
100
AcDbEntity
  8
0
100
AcDbLine
 62
7
  6
CONTINUOUS
 10
289.6682028702
 20
510.1788856305
 11
289.6682028703
 21
560.1788856305
  0
LINE
  5
2AD
100
AcDbEntity
  8
0
100
AcDbLine
 62
7
  6
CONTINUOUS
 10
289.6682028702
 20
785.1788856305
 11
289.6682028702
 21
835.1788856305
  0
LINE
  5
2AE
100
AcDbEntity
  8
0
100
AcDbLine
 62
7
  6
CONTINUOUS
 10
289.9682028702
 20
147.4288856304
 11
289.9682028702
 21
148.9288856306
  0
LINE
  5
2AF
100
AcDbEntity
  8
0
100
AcDbLine
 62
7
  6
CONTINUOUS
 10
289.9682028702
 20
422.4288856304
 11
289.9682028702
 21
423.9288856306
  0
LINE
  5
2B0
100
AcDbEntity
  8
0
100
AcDbLine
 62
7
  6
CONTINUOUS
 10
289.9682028702
 20
809.4288856304
 11
289.9682028702
 21
810.9288856306
  0
LINE
  5
2B1
100
AcDbEntity
  8
0
100
AcDbLine
 62
7
  6
CONTINUOUS
 10
290.4682028702
 20
826.3288856305
 11
290.4682028702
 21
821.2288856305
  0
LINE
  5
2B2
100
AcDbEntity
  8
0
100
AcDbLine
 62
7
  6
CONTINUOUS
 10
290.4682028702
 20
799.1288856305
 11
290.4682028702
 21
794.0288856305
  0
LINE
  5
2B3
100
AcDbEntity
  8
0
100
AcDbLine
 62
7
  6
CONTINUOUS
 10
290.4682028702
 20
551.3288856305
 11
290.4682028702
 21
546.2288856305
  0
LINE
  5
2B4
100
AcDbEntity
  8
0
100
AcDbLine
 62
7
  6
CONTINUOUS
 10
290.4682028702
 20
524.1288856305
 11
290.4682028702
 21
519.0288856305
  0
LINE
  5
2B5
100
AcDbEntity
  8
0
100
AcDbLine
 62
7
  6
CONTINUOUS
 10
290.6682028702
 20
512.1788856305
 11
290.6682028702
 21
558.1788856305
  0
LINE
  5
2B6
100
AcDbEntity
  8
0
100
AcDbLine
 62
7
  6
CONTINUOUS
 10
290.6682028702
 20
787.1788856305
 11
290.6682028702
 21
833.1788856305
  0
LINE
  5
2B7
100
AcDbEntity
  8
0
100
AcDbLine
 62
7
  6
CONTINUOUS
 10
290.8682028702
 20
814.2788856305
 11
290.8682028702
 21
806.0788856305
  0
LINE
  5
2B8
100
AcDbEntity
  8
0
100
AcDbLine
 62
7
  6
CONTINUOUS
 10
290.8682028702
 20
539.2788856305
 11
290.8682028702
 21
531.0788856306
  0
LINE
  5
2B9
100
AcDbEntity
  8
0
100
AcDbLine
 62
7
  6
CONTINUOUS
 10
290.9682028702
 20
143.1788856305
 11
290.9682028702
 21
153.1788856305
  0
LINE
  5
2BA
100
AcDbEntity
  8
0
100
AcDbLine
 62
7
  6
CONTINUOUS
 10
290.9682028702
 20
418.1788856305
 11
290.9682028702
 21
428.1788856305
  0
LINE
  5
2BB
100
AcDbEntity
  8
0
100
AcDbLine
 62
7
  6
CONTINUOUS
 10
290.9682028702
 20
805.1788856305
 11
290.9682028702
 21
815.1788856305
  0
LINE
  5
2BC
100
AcDbEntity
  8
0
100
AcDbLine
 62
7
  6
CONTINUOUS
 10
291.1682028702
 20
826.4288856305
 11
291.1682028702
 21
821.1288856305
  0
LINE
  5
2BD
100
AcDbEntity
  8
0
100
AcDbLine
 62
7
  6
CONTINUOUS
 10
291.1682028702
 20
551.4288856305
 11
291.1682028702
 21
546.1288856305
  0
LINE
  5
2BE
100
AcDbEntity
  8
0
100
AcDbLine
 62
7
  6
CONTINUOUS
 10
291.1682028702
 20
518.9288856305
 11
291.1682028702
 21
524.2288856305
  0
LINE
  5
2BF
100
AcDbEntity
  8
0
100
AcDbLine
 62
7
  6
CONTINUOUS
 10
291.1682028702
 20
82.0788856305
 11
291.1682028702
 21
518.9288856305
  0
LINE
  5
2C0
100
AcDbEntity
  8
0
100
AcDbLine
 62
7
  6
CONTINUOUS
 10
291.1682028702
 20
524.2288856305
 11
291.1682028702
 21
546.1288856305
  0
LINE
  5
2C1
100
AcDbEntity
  8
0
100
AcDbLine
 62
7
  6
CONTINUOUS
 10
291.1682028702
 20
793.9288856305
 11
291.1682028702
 21
799.2288856305
  0
LINE
  5
2C2
100
AcDbEntity
  8
0
100
AcDbLine
 62
7
  6
CONTINUOUS
 10
291.1682028702
 20
551.4288856305
 11
291.1682028702
 21
793.9288856305
  0
LINE
  5
2C3
100
AcDbEntity
  8
0
100
AcDbLine
 62
7
  6
CONTINUOUS
 10
291.1682028702
 20
826.4288856305
 11
291.1682028702
 21
876.2788856305
  0
LINE
  5
2C4
100
AcDbEntity
  8
0
100
AcDbLine
 62
7
  6
CONTINUOUS
 10
291.1682028702
 20
799.2288856305
 11
291.1682028702
 21
821.1288856305
  0
LINE
  5
2C5
100
AcDbEntity
  8
0
100
AcDbLine
 62
7
  6
CONTINUOUS
 10
291.3682028702
 20
146.6791956757
 11
291.3682028702
 21
149.6787739119
  0
LINE
  5
2C6
100
AcDbEntity
  8
0
100
AcDbLine
 62
7
  6
CONTINUOUS
 10
291.3682028702
 20
421.6791956757
 11
291.3682028702
 21
424.6787739119
  0
LINE
  5
2C7
100
AcDbEntity
  8
0
100
AcDbLine
 62
7
  6
CONTINUOUS
 10
291.3682028702
 20
808.6791956757
 11
291.3682028702
 21
811.6787739119
  0
LINE
  5
2C8
100
AcDbEntity
  8
0
100
AcDbLine
 62
7
  6
CONTINUOUS
 10
291.4682638246
 20
812.5241645293
 11
291.4682638246
 21
807.8330137511
  0
LINE
  5
2C9
100
AcDbEntity
  8
0
100
AcDbLine
 62
7
  6
CONTINUOUS
 10
291.4682638246
 20
425.5241645293
 11
291.4682638246
 21
420.8330137511
  0
LINE
  5
2CA
100
AcDbEntity
  8
0
100
AcDbLine
 62
7
  6
CONTINUOUS
 10
291.4682638246
 20
150.5241645293
 11
291.4682638246
 21
145.8330137511
  0
LINE
  5
2CB
100
AcDbEntity
  8
0
100
AcDbLine
 62
7
  6
CONTINUOUS
 10
291.9551753499
 20
145.3331850886
 11
291.9551753499
 21
151.0245861724
  0
LINE
  5
2CC
100
AcDbEntity
  8
0
100
AcDbLine
 62
7
  6
CONTINUOUS
 10
291.9551753499
 20
420.3331850886
 11
291.9551753499
 21
426.0245861724
  0
LINE
  5
2CD
100
AcDbEntity
  8
0
100
AcDbLine
 62
7
  6
CONTINUOUS
 10
291.9551753499
 20
807.3331850886
 11
291.9551753499
 21
813.0245861724
  0
LINE
  5
2CE
100
AcDbEntity
  8
0
100
AcDbLine
 62
7
  6
CONTINUOUS
 10
292.3682028702
 20
876.2788856305
 11
292.3682028702
 21
82.0788856305
  0
LINE
  5
2CF
100
AcDbEntity
  8
0
100
AcDbLine
 62
7
  6
CONTINUOUS
 10
294.0682028703
 20
879.1788856305
 11
294.0682028703
 21
79.1788856356
  0
LINE
  5
2D0
100
AcDbEntity
  8
0
100
AcDbLine
 62
7
  6
CONTINUOUS
 10
289.258314419
 20
827.2829105724
 11
289.2556649745
 21
820.2748606886
  0
LINE
  5
2D1
100
AcDbEntity
  8
0
100
AcDbLine
 62
7
  6
CONTINUOUS
 10
289.258314419
 20
552.2829105724
 11
289.2556649745
 21
545.2748606887
  0
LWPOLYLINE
  5
2D2
100
AcDbEntity
  8
0
100
AcDbPolyline
 62
7
  6
CONTINUOUS
 90
4
 70
0
 10
288.9682028702
 20
525.2563696527
 10
288.9738476521
 20
525.3035506782
 10
288.9904633619
 20
525.3480684378
 10
289.0357093249
 20
525.3058212498
  0
LINE
  5
2D3
100
AcDbEntity
  8
0
100
AcDbLine
 62
7
  6
CONTINUOUS
 10
281.8148668031
 20
520.8931713448
 11
281.5152889497
 21
519.1788856305
  0
LINE
  5
2D4
100
AcDbEntity
  8
0
100
AcDbLine
 62
7
  6
CONTINUOUS
 10
290.8682028702
 20
531.0788856305
 11
289.6682028703
 21
529.8788856305
  0
LINE
  5
2D5
100
AcDbEntity
  8
0
100
AcDbLine
 62
7
  6
CONTINUOUS
 10
291.9551753505
 20
426.0245861724
 11
297.9682028702
 21
426.1820428395
  0
LINE
  5
2D6
100
AcDbEntity
  8
0
100
AcDbLine
 62
7
  6
CONTINUOUS
 10
290.9682028702
 20
418.1788856305
 11
291.1682028702
 21
418.1788856305
  0
LINE
  5
2D7
100
AcDbEntity
  8
0
100
AcDbLine
 62
7
  6
CONTINUOUS
 10
290.9682028702
 20
428.1788856305
 11
291.1682028702
 21
428.1788856305
  0
LINE
  5
2D8
100
AcDbEntity
  8
0
100
AcDbLine
 62
7
  6
CONTINUOUS
 10
291.9551753505
 20
420.3331850886
 11
297.9682028702
 21
420.1757284216
  0
LINE
  5
2D9
100
AcDbEntity
  8
0
100
AcDbLine
 62
7
  6
CONTINUOUS
 10
292.3682028702
 20
419.1822189639
 11
294.4062434502
 21
419.0463495919
  0
LINE
  5
2DA
100
AcDbEntity
  8
0
100
AcDbLine
 62
7
  6
CONTINUOUS
 10
297.9682028702
 20
426.6788856305
 11
294.9257944274
 21
427.2781478995
  0
LINE
  5
2DB
100
AcDbEntity
  8
0
100
AcDbLine
 62
7
  6
CONTINUOUS
 10
277.5009457147
 20
520.8931713448
 11
277.8005235681
 21
519.1788856305
  0
LINE
  5
2DC
100
AcDbEntity
  8
0
100
AcDbLine
 62
7
  6
CONTINUOUS
 10
294.4062434502
 20
144.0463495918
 11
294.4062434502
 21
152.3114216692
  0
LINE
  5
2DD
100
AcDbEntity
  8
0
100
AcDbLine
 62
7
  6
CONTINUOUS
 10
294.4062434502
 20
419.0463495918
 11
294.4062434502
 21
427.3114216692
  0
LINE
  5
2DE
100
AcDbEntity
  8
0
100
AcDbLine
 62
7
  6
CONTINUOUS
 10
294.4062434502
 20
806.0463495918
 11
294.4062434502
 21
814.3114216692
  0
LINE
  5
2DF
100
AcDbEntity
  8
0
100
AcDbLine
 62
7
  6
CONTINUOUS
 10
294.9257944247
 20
144.0796233609
 11
294.9257944248
 21
152.2781479001
  0
LINE
  5
2E0
100
AcDbEntity
  8
0
100
AcDbLine
 62
7
  6
CONTINUOUS
 10
294.9257944247
 20
419.0796233609
 11
294.9257944248
 21
427.2781479001
  0
LINE
  5
2E1
100
AcDbEntity
  8
0
100
AcDbLine
 62
7
  6
CONTINUOUS
 10
294.9257944247
 20
806.0796233609
 11
294.9257944248
 21
814.2781479001
  0
LINE
  5
2E2
100
AcDbEntity
  8
0
100
AcDbLine
 62
7
  6
CONTINUOUS
 10
297.9682028702
 20
144.6788856306
 11
297.9682028702
 21
151.6788856305
  0
LINE
  5
2E3
100
AcDbEntity
  8
0
100
AcDbLine
 62
7
  6
CONTINUOUS
 10
297.9682028702
 20
419.6788856306
 11
297.9682028702
 21
426.6788856305
  0
LINE
  5
2E4
100
AcDbEntity
  8
0
100
AcDbLine
 62
7
  6
CONTINUOUS
 10
297.9682028702
 20
806.6788856306
 11
297.9682028702
 21
813.6788856305
  0
LINE
  5
2E5
100
AcDbEntity
  8
0
100
AcDbLine
 62
7
  6
CONTINUOUS
 10
301.0182028702
 20
79.1788856305
 11
301.0182028702
 21
80.3788856305
  0
LINE
  5
2E6
100
AcDbEntity
  8
0
100
AcDbLine
 62
7
  6
CONTINUOUS
 10
311.3182028702
 20
79.1788856305
 11
311.3182028702
 21
80.3788856305
  0
LINE
  5
2E7
100
AcDbEntity
  8
0
100
AcDbLine
 62
7
  6
CONTINUOUS
 10
297.9682028702
 20
419.6788856306
 11
294.9257944274
 21
419.0796233615
  0
LINE
  5
2E8
100
AcDbEntity
  8
0
100
AcDbLine
 62
7
  6
CONTINUOUS
 10
292.3682028702
 20
427.1755522972
 11
294.4062434503
 21
427.3114216692
  0
LINE
  5
2E9
100
AcDbEntity
  8
0
100
AcDbLine
 62
7
  6
CONTINUOUS
 10
281.814866803
 20
549.7503142019
 11
281.5152889496
 21
551.1788856305
  0
LINE
  5
2EA
100
AcDbEntity
  8
0
100
AcDbLine
 62
7
  6
CONTINUOUS
 10
325.7182028702
 20
82.4788856305
 11
325.7182028702
 21
83.6788856305
  0
LINE
  5
2EB
100
AcDbEntity
  8
0
100
AcDbLine
 62
7
  6
CONTINUOUS
 10
325.7182028702
 20
874.6788856305
 11
325.7182028702
 21
875.8788856305
  0
LINE
  5
2EC
100
AcDbEntity
  8
0
100
AcDbLine
 62
7
  6
CONTINUOUS
 10
329.6182028702
 20
82.4788856305
 11
329.6182028702
 21
83.6788856305
  0
LINE
  5
2ED
100
AcDbEntity
  8
0
100
AcDbLine
 62
7
  6
CONTINUOUS
 10
329.6182028702
 20
874.6788856305
 11
329.6182028702
 21
875.8788856305
  0
LINE
  5
2EE
100
AcDbEntity
  8
0
100
AcDbLine
 62
7
  6
CONTINUOUS
 10
333.6682028702
 20
875.8788856305
 11
333.6682028702
 21
874.6788856305
  0
LINE
  5
2EF
100
AcDbEntity
  8
0
100
AcDbLine
 62
7
  6
CONTINUOUS
 10
333.6682028702
 20
83.6788856305
 11
333.6682028702
 21
82.4788856305
  0
LINE
  5
2F0
100
AcDbEntity
  8
0
100
AcDbLine
 62
7
  6
CONTINUOUS
 10
342.9182028702
 20
879.1788856305
 11
342.9182028702
 21
878.8788856305
  0
LINE
  5
2F1
100
AcDbEntity
  8
0
100
AcDbLine
 62
7
  6
CONTINUOUS
 10
342.9182028702
 20
877.9788856305
 11
342.9182028702
 21
877.6788856305
  0
LINE
  5
2F2
100
AcDbEntity
  8
0
100
AcDbLine
 62
7
  6
CONTINUOUS
 10
342.9182028702
 20
80.6788856305
 11
342.9182028702
 21
80.3788856305
  0
LINE
  5
2F3
100
AcDbEntity
  8
0
100
AcDbLine
 62
7
  6
CONTINUOUS
 10
342.9182028702
 20
79.4788856305
 11
342.9182028702
 21
79.1788856305
  0
LINE
  5
2F4
100
AcDbEntity
  8
0
100
AcDbLine
 62
7
  6
CONTINUOUS
 10
343.6682028702
 20
875.8788856305
 11
343.6682028702
 21
874.6788856305
  0
LINE
  5
2F5
100
AcDbEntity
  8
0
100
AcDbLine
 62
7
  6
CONTINUOUS
 10
343.6682028702
 20
83.6788856305
 11
343.6682028702
 21
82.4788856305
  0
LINE
  5
2F6
100
AcDbEntity
  8
0
100
AcDbLine
 62
7
  6
CONTINUOUS
 10
343.9182028702
 20
878.8788856305
 11
343.9182028702
 21
874.6788856305
  0
LINE
  5
2F7
100
AcDbEntity
  8
0
100
AcDbLine
 62
7
  6
CONTINUOUS
 10
343.9182028702
 20
83.6788856305
 11
343.9182028702
 21
79.4788856305
  0
LINE
  5
2F8
100
AcDbEntity
  8
0
100
AcDbLine
 62
7
  6
CONTINUOUS
 10
403.1267866266
 20
877.2261819858
 11
403.0349300499
 21
876.7052374528
  0
LINE
  5
2F9
100
AcDbEntity
  8
0
100
AcDbLine
 62
7
  6
CONTINUOUS
 10
404.3085559302
 20
877.0178041726
 11
404.2166993536
 21
876.4968596396
  0
LINE
  5
2FA
100
AcDbEntity
  8
0
100
AcDbLine
 62
7
  6
CONTINUOUS
 10
410.909020322
 20
837.1788856305
 11
410.4682028702
 21
834.6788856305
  0
LINE
  5
2FB
100
AcDbEntity
  8
0
100
AcDbLine
 62
7
  6
CONTINUOUS
 10
403.1267866266
 20
81.1315892752
 11
403.0349300499
 21
81.6525338082
  0
LINE
  5
2FC
100
AcDbEntity
  8
0
100
AcDbLine
 62
7
  6
CONTINUOUS
 10
404.3085559302
 20
81.3399670884
 11
404.2166993536
 21
81.8609116214
  0
LINE
  5
2FD
100
AcDbEntity
  8
0
100
AcDbLine
 62
7
  6
CONTINUOUS
 10
410.909020322
 20
121.1788856305
 11
410.4682028702
 21
123.6788856305
  0
LINE
  5
2FE
100
AcDbEntity
  8
0
100
AcDbLine
 62
7
  6
CONTINUOUS
 10
277.5009457147
 20
795.8931713448
 11
277.8005235681
 21
794.1788856305
  0
LINE
  5
2FF
100
AcDbEntity
  8
0
100
AcDbLine
 62
7
  6
CONTINUOUS
 10
289.1130216366
 20
517.8995897246
 11
289.6682028702
 21
517.8221238618
  0
LINE
  5
300
100
AcDbEntity
  8
0
100
AcDbLine
 62
7
  6
CONTINUOUS
 10
289.6682028702
 20
517.627942528
 11
289.0458502928
 21
517.716850039
  0
LINE
  5
301
100
AcDbEntity
  8
0
100
AcDbLine
 62
7
  6
CONTINUOUS
 10
289.6747276226
 20
517.8075387381
 11
289.4630494809
 21
517.8377784727
  0
LINE
  5
302
100
AcDbEntity
  8
0
100
AcDbLine
 62
7
  6
CONTINUOUS
 10
290.8682028702
 20
539.2788856305
 11
289.6682028703
 21
540.4788856306
  0
LINE
  5
303
100
AcDbEntity
  8
0
100
AcDbLine
 62
7
  6
CONTINUOUS
 10
281.814866803
 20
824.7503142019
 11
281.5152889496
 21
826.1788856305
  0
LINE
  5
304
100
AcDbEntity
  8
0
100
AcDbLine
 62
7
  6
CONTINUOUS
 10
378.4182028703
 20
878.8788856305
 11
378.4182028702
 21
874.6788856305
  0
LINE
  5
305
100
AcDbEntity
  8
0
100
AcDbLine
 62
7
  6
CONTINUOUS
 10
378.4182028702
 20
83.6788856305
 11
378.4182028702
 21
79.4788856305
  0
LINE
  5
306
100
AcDbEntity
  8
0
100
AcDbLine
 62
7
  6
CONTINUOUS
 10
378.6682028702
 20
875.8788856305
 11
378.6682028702
 21
874.6788856305
  0
LINE
  5
307
100
AcDbEntity
  8
0
100
AcDbLine
 62
7
  6
CONTINUOUS
 10
378.6682028702
 20
83.6788856305
 11
378.6682028702
 21
82.4788856305
  0
LINE
  5
308
100
AcDbEntity
  8
0
100
AcDbLine
 62
7
  6
CONTINUOUS
 10
379.4182028702
 20
879.1788856305
 11
379.4182028702
 21
878.8788856305
  0
LINE
  5
309
100
AcDbEntity
  8
0
100
AcDbLine
 62
7
  6
CONTINUOUS
 10
379.4182028702
 20
877.9788856305
 11
379.4182028702
 21
877.6788856305
  0
LINE
  5
30A
100
AcDbEntity
  8
0
100
AcDbLine
 62
7
  6
CONTINUOUS
 10
379.4182028702
 20
80.6788856305
 11
379.4182028702
 21
80.3788856305
  0
LINE
  5
30B
100
AcDbEntity
  8
0
100
AcDbLine
 62
7
  6
CONTINUOUS
 10
379.4182028702
 20
79.4788856305
 11
379.4182028702
 21
79.1788856305
  0
LINE
  5
30C
100
AcDbEntity
  8
0
100
AcDbLine
 62
7
  6
CONTINUOUS
 10
388.6682028702
 20
875.8788856305
 11
388.6682028702
 21
874.6788856305
  0
LINE
  5
30D
100
AcDbEntity
  8
0
100
AcDbLine
 62
7
  6
CONTINUOUS
 10
388.6682028702
 20
83.6788856305
 11
388.6682028702
 21
82.4788856305
  0
LINE
  5
30E
100
AcDbEntity
  8
0
100
AcDbLine
 62
7
  6
CONTINUOUS
 10
391.9682028702
 20
844.9288856305
 11
391.9682028702
 21
838.4288856305
  0
LINE
  5
30F
100
AcDbEntity
  8
0
100
AcDbLine
 62
7
  6
CONTINUOUS
 10
391.9682028702
 20
119.9288856305
 11
391.9682028702
 21
113.4288856305
  0
LINE
  5
310
100
AcDbEntity
  8
0
100
AcDbLine
 62
7
  6
CONTINUOUS
 10
392.7182028702
 20
845.6788856305
 11
392.7182028702
 21
837.6788856305
  0
LINE
  5
311
100
AcDbEntity
  8
0
100
AcDbLine
 62
7
  6
CONTINUOUS
 10
392.7182028702
 20
120.6788856305
 11
392.7182028702
 21
112.6788856305
  0
LINE
  5
312
100
AcDbEntity
  8
0
100
AcDbLine
 62
7
  6
CONTINUOUS
 10
392.7182028702
 20
82.4788856305
 11
392.7182028702
 21
83.6788856305
  0
LINE
  5
313
100
AcDbEntity
  8
0
100
AcDbLine
 62
7
  6
CONTINUOUS
 10
392.7182028702
 20
874.6788856305
 11
392.7182028702
 21
875.8788856305
  0
LINE
  5
314
100
AcDbEntity
  8
0
100
AcDbLine
 62
7
  6
CONTINUOUS
 10
396.6182028702
 20
82.4788856305
 11
396.6182028702
 21
83.6788856305
  0
LINE
  5
315
100
AcDbEntity
  8
0
100
AcDbLine
 62
7
  6
CONTINUOUS
 10
396.6182028702
 20
874.6788856305
 11
396.6182028702
 21
875.8788856305
  0
LINE
  5
316
100
AcDbEntity
  8
0
100
AcDbLine
 62
7
  6
CONTINUOUS
 10
318.1197063869
 20
81.8609116214
 11
318.0278498103
 21
81.3399670884
  0
LINE
  5
317
100
AcDbEntity
  8
0
100
AcDbLine
 62
7
  6
CONTINUOUS
 10
319.3014756905
 20
81.6525338082
 11
319.2096191139
 21
81.1315892752
  0
LINE
  5
318
100
AcDbEntity
  8
0
100
AcDbLine
 62
7
  6
CONTINUOUS
 10
291.1682028702
 20
524.2288856305
 11
290.4682028702
 21
524.1288856305
  0
LINE
  5
319
100
AcDbEntity
  8
0
100
AcDbLine
 62
7
  6
CONTINUOUS
 10
289.7030755272
 20
525.5348105412
 11
289.1078221219
 21
525.4497743404
  0
LINE
  5
31A
100
AcDbEntity
  8
0
100
AcDbLine
 62
7
  6
CONTINUOUS
 10
291.1682028702
 20
510.1788856305
 11
276.0579062589
 21
510.1788856305
  0
LINE
  5
31B
100
AcDbEntity
  8
0
100
AcDbLine
 62
7
  6
CONTINUOUS
 10
291.1682028702
 20
512.1788856305
 11
290.6682028702
 21
512.1788856305
  0
LINE
  5
31C
100
AcDbEntity
  8
0
100
AcDbLine
 62
7
  6
CONTINUOUS
 10
282.61444057
 20
516.1788856305
 11
276.6756049111
 21
516.1788856305
  0
LINE
  5
31D
100
AcDbEntity
  8
0
100
AcDbLine
 62
7
  6
CONTINUOUS
 10
283.1820242533
 20
516.8339366562
 11
281.7136417556
 21
516.8339366563
  0
LINE
  5
31E
100
AcDbEntity
  8
0
100
AcDbLine
 62
7
  6
CONTINUOUS
 10
288.9729231954
 20
517.9014014211
 11
289.1002211074
 21
517.9014014211
  0
LINE
  5
31F
100
AcDbEntity
  8
0
100
AcDbLine
 62
7
  6
CONTINUOUS
 10
283.1820242533
 20
518.5238346048
 11
281.7136417557
 21
518.5238346048
  0
LINE
  5
320
100
AcDbEntity
  8
0
100
AcDbLine
 62
7
  6
CONTINUOUS
 10
282.621143121
 20
519.1788856305
 11
276.6756986647
 21
519.1788856305
  0
LINE
  5
321
100
AcDbEntity
  8
0
100
AcDbLine
 62
7
  6
CONTINUOUS
 10
281.814866803
 20
520.8931713448
 11
277.5009457147
 21
520.8931713448
  0
LINE
  5
322
100
AcDbEntity
  8
0
100
AcDbLine
 62
7
  6
CONTINUOUS
 10
276.0579062589
 20
524.8788856305
 11
283.2579062588
 21
524.8788856305
  0
LINE
  5
323
100
AcDbEntity
  8
0
100
AcDbLine
 62
7
  6
CONTINUOUS
 10
289.1013725021
 20
525.2563696527
 11
288.9682028703
 21
525.2563696527
  0
LINE
  5
324
100
AcDbEntity
  8
0
100
AcDbLine
 62
7
  6
CONTINUOUS
 10
278.650354208
 20
526.5306678352
 11
280.0311114883
 21
526.5306678352
  0
LINE
  5
325
100
AcDbEntity
  8
0
100
AcDbLine
 62
7
  6
CONTINUOUS
 10
280.0403296882
 20
526.8788856305
 11
278.6687906083
 21
526.8788856305
  0
LINE
  5
326
100
AcDbEntity
  8
0
100
AcDbLine
 62
7
  6
CONTINUOUS
 10
278.6687906082
 20
528.2506824002
 11
280.0403296883
 21
528.2506824002
  0
LINE
  5
327
100
AcDbEntity
  8
0
100
AcDbLine
 62
7
  6
CONTINUOUS
 10
280.5062102211
 20
529.9827332078
 11
279.6005516741
 21
529.9827332078
  0
LINE
  5
328
100
AcDbEntity
  8
0
100
AcDbLine
 62
7
  6
CONTINUOUS
 10
281.1256552752
 20
530.6211596616
 11
280.8394417822
 21
530.6211596616
  0
LINE
  5
329
100
AcDbEntity
  8
0
100
AcDbLine
 62
7
  6
CONTINUOUS
 10
290.8682028702
 20
531.0788856305
 11
291.1682028702
 21
531.0788856305
  0
LINE
  5
32A
100
AcDbEntity
  8
0
100
AcDbLine
 62
7
  6
CONTINUOUS
 10
291.1682028702
 20
531.4288856305
 11
292.3682028702
 21
531.4288856305
  0
LINE
  5
32B
100
AcDbEntity
  8
0
100
AcDbLine
 62
7
  6
CONTINUOUS
 10
290.4682028703
 20
519.0288856305
 11
291.1682028702
 21
518.9288856305
  0
LINE
  5
32C
100
AcDbEntity
  8
0
100
AcDbLine
 62
7
  6
CONTINUOUS
 10
289.3116553517
 20
544.8788799988
 11
289.7074153972
 21
544.8223391626
  0
LINE
  5
32D
100
AcDbEntity
  8
0
100
AcDbLine
 62
7
  6
CONTINUOUS
 10
318.0278498103
 20
877.0178041726
 11
318.1197063869
 21
876.4968596396
  0
LINE
  5
32E
100
AcDbEntity
  8
0
100
AcDbLine
 62
7
  6
CONTINUOUS
 10
319.2096191139
 20
877.2261819858
 11
319.3014756905
 21
876.7052374528
  0
LINE
  5
32F
100
AcDbEntity
  8
0
100
AcDbLine
 62
7
  6
CONTINUOUS
 10
406.8682028702
 20
112.6742356433
 11
406.8682028702
 21
121.2265493732
  0
LINE
  5
330
100
AcDbEntity
  8
0
100
AcDbLine
 62
7
  6
CONTINUOUS
 10
406.8682028702
 20
837.1312218879
 11
406.8682028702
 21
845.6815429142
  0
LINE
  5
331
100
AcDbEntity
  8
0
100
AcDbLine
 62
7
  6
CONTINUOUS
 10
407.1682028702
 20
847.4288856305
 11
407.1682028702
 21
835.9288856305
  0
LINE
  5
332
100
AcDbEntity
  8
0
100
AcDbLine
 62
7
  6
CONTINUOUS
 10
407.1682028702
 20
122.4288856305
 11
407.1682028702
 21
110.9288856305
  0
LINE
  5
333
100
AcDbEntity
  8
0
100
AcDbLine
 62
7
  6
CONTINUOUS
 10
407.9682028702
 20
848.6788856305
 11
407.9682028702
 21
834.6788856305
  0
LINE
  5
334
100
AcDbEntity
  8
0
100
AcDbLine
 62
7
  6
CONTINUOUS
 10
407.9682028702
 20
123.6788856305
 11
407.9682028702
 21
109.6788856305
  0
LINE
  5
335
100
AcDbEntity
  8
0
100
AcDbLine
 62
7
  6
CONTINUOUS
 10
410.4682028702
 20
848.6788856305
 11
410.4682028702
 21
834.6788856305
  0
LINE
  5
336
100
AcDbEntity
  8
0
100
AcDbLine
 62
7
  6
CONTINUOUS
 10
410.4682028702
 20
123.6788856305
 11
410.4682028702
 21
109.6788856305
  0
LINE
  5
337
100
AcDbEntity
  8
0
100
AcDbLine
 62
7
  6
CONTINUOUS
 10
410.909020322
 20
846.1788856305
 11
410.909020322
 21
837.1788856305
  0
LINE
  5
338
100
AcDbEntity
  8
0
100
AcDbLine
 62
7
  6
CONTINUOUS
 10
410.909020322
 20
121.1788856305
 11
410.909020322
 21
112.1788856305
  0
LINE
  5
339
100
AcDbEntity
  8
0
100
AcDbLine
 62
7
  6
CONTINUOUS
 10
415.2682028702
 20
879.1788856305
 11
415.2682028702
 21
79.1788856356
  0
LINE
  5
33A
100
AcDbEntity
  8
0
100
AcDbLine
 62
7
  6
CONTINUOUS
 10
416.9682028702
 20
876.2788856305
 11
416.9682028702
 21
82.0788856305
  0
LINE
  5
33B
100
AcDbEntity
  8
0
100
AcDbLine
 62
7
  6
CONTINUOUS
 10
418.1682028702
 20
876.2788856305
 11
418.1682028702
 21
82.0788856305
  0
LINE
  5
33C
100
AcDbEntity
  8
0
100
AcDbLine
 62
7
  6
CONTINUOUS
 10
291.1682028702
 20
551.4288856305
 11
290.4682028702
 21
551.3288856305
  0
LINE
  5
33D
100
AcDbEntity
  8
0
100
AcDbLine
 62
7
  6
CONTINUOUS
 10
289.6682028702
 20
552.3414660654
 11
289.2583144191
 21
552.2829105724
  0
LINE
  5
33E
100
AcDbEntity
  8
0
100
AcDbLine
 62
7
  6
CONTINUOUS
 10
289.7075414656
 20
552.7354501008
 11
289.311655275
 21
552.6788912443
  0
LINE
  5
33F
100
AcDbEntity
  8
0
100
AcDbLine
 62
7
  6
CONTINUOUS
 10
291.1682028702
 20
538.9288856305
 11
292.3682028702
 21
538.9288856305
  0
LINE
  5
340
100
AcDbEntity
  8
0
100
AcDbLine
 62
7
  6
CONTINUOUS
 10
290.8682028702
 20
539.2788856305
 11
291.1682028702
 21
539.2788856305
  0
LINE
  5
341
100
AcDbEntity
  8
0
100
AcDbLine
 62
7
  6
CONTINUOUS
 10
280.8394417821
 20
539.7366115995
 11
281.1256552753
 21
539.7366115995
  0
LINE
  5
342
100
AcDbEntity
  8
0
100
AcDbLine
 62
7
  6
CONTINUOUS
 10
280.5062102212
 20
540.3750380532
 11
279.600551674
 21
540.3750380532
  0
LINE
  5
343
100
AcDbEntity
  8
0
100
AcDbLine
 62
7
  6
CONTINUOUS
 10
280.0403296883
 20
542.1070888608
 11
278.6687906082
 21
542.1070888608
  0
LINE
  5
344
100
AcDbEntity
  8
0
100
AcDbLine
 62
7
  6
CONTINUOUS
 10
278.6687906083
 20
543.4788856305
 11
280.0403296897
 21
543.4788856305
  0
LINE
  5
345
100
AcDbEntity
  8
0
100
AcDbLine
 62
7
  6
CONTINUOUS
 10
280.0311114882
 20
543.8271034259
 11
278.650354208
 21
543.8271034259
  0
LINE
  5
346
100
AcDbEntity
  8
0
100
AcDbLine
 62
7
  6
CONTINUOUS
 10
288.9682028702
 20
545.2748606887
 11
289.2556649745
 21
545.2748606887
  0
LINE
  5
347
100
AcDbEntity
  8
0
100
AcDbLine
 62
7
  6
CONTINUOUS
 10
276.0579062589
 20
545.4788856305
 11
283.2579062588
 21
545.4788856305
  0
LINE
  5
348
100
AcDbEntity
  8
0
100
AcDbLine
 62
7
  6
CONTINUOUS
 10
277.5009457147
 20
549.7503142019
 11
281.814866803
 21
549.7503142019
  0
LINE
  5
349
100
AcDbEntity
  8
0
100
AcDbLine
 62
7
  6
CONTINUOUS
 10
276.6756986646
 20
551.1788856305
 11
282.6028491404
 21
551.1788856305
  0
LINE
  5
34A
100
AcDbEntity
  8
0
100
AcDbLine
 62
7
  6
CONTINUOUS
 10
283.1820242533
 20
551.8339366562
 11
281.7136417556
 21
551.8339366563
  0
LINE
  5
34B
100
AcDbEntity
  8
0
100
AcDbLine
 62
7
  6
CONTINUOUS
 10
288.9682028702
 20
552.2829105724
 11
289.2591858302
 21
552.2829105724
  0
LINE
  5
34C
100
AcDbEntity
  8
0
100
AcDbLine
 62
7
  6
CONTINUOUS
 10
283.1820242533
 20
553.5238346048
 11
281.7136417556
 21
553.5238346048
  0
LINE
  5
34D
100
AcDbEntity
  8
0
100
AcDbLine
 62
7
  6
CONTINUOUS
 10
282.61444057
 20
554.1788856305
 11
276.675604911
 21
554.1788856305
  0
LINE
  5
34E
100
AcDbEntity
  8
0
100
AcDbLine
 62
7
  6
CONTINUOUS
 10
290.6682028702
 20
558.1788856305
 11
291.1682028702
 21
558.1788856305
  0
LINE
  5
34F
100
AcDbEntity
  8
0
100
AcDbLine
 62
7
  6
CONTINUOUS
 10
276.0579062589
 20
560.1788856305
 11
291.1682028702
 21
560.1788856305
  0
LINE
  5
350
100
AcDbEntity
  8
0
100
AcDbLine
 62
7
  6
CONTINUOUS
 10
289.6682028702
 20
545.2163051956
 11
289.2557997572
 21
545.2547488976
  0
LINE
  5
351
100
AcDbEntity
  8
0
100
AcDbLine
 62
7
  6
CONTINUOUS
 10
290.4682028703
 20
546.2288856305
 11
291.1682028702
 21
546.1288856305
  0
LINE
  5
352
100
AcDbEntity
  8
0
100
AcDbLine
 62
7
  6
CONTINUOUS
 10
410.909020322
 20
112.1788856305
 11
410.4682028702
 21
109.6788856305
  0
LINE
  5
353
100
AcDbEntity
  8
0
100
AcDbLine
 62
7
  6
CONTINUOUS
 10
410.909020322
 20
846.1788856305
 11
410.4682028702
 21
848.6788856305
  0
LINE
  5
354
100
AcDbEntity
  8
0
100
AcDbLine
 62
7
  6
CONTINUOUS
 10
290.8682028702
 20
814.2788856305
 11
289.6682028702
 21
815.4788856305
  0
LINE
  5
355
100
AcDbEntity
  8
0
100
AcDbLine
 62
7
  6
CONTINUOUS
 10
391.9682028702
 20
119.9288856305
 11
392.7182028702
 21
120.6788856305
  0
LINE
  5
356
100
AcDbEntity
  8
0
100
AcDbLine
 62
7
  6
CONTINUOUS
 10
391.9682028702
 20
838.4288856305
 11
392.7182028702
 21
837.6788856305
  0
LINE
  5
357
100
AcDbEntity
  8
0
100
AcDbLine
 62
7
  6
CONTINUOUS
 10
316.0858221123
 20
80.6788856305
 11
315.5858221123
 21
80.3788856305
  0
LINE
  5
358
100
AcDbEntity
  8
0
100
AcDbLine
 62
7
  6
CONTINUOUS
 10
316.4182028702
 20
79.4788856305
 11
315.9182028702
 21
79.1788856305
  0
LINE
  5
359
100
AcDbEntity
  8
0
100
AcDbLine
 62
7
  6
CONTINUOUS
 10
291.1682028703
 20
799.2288856305
 11
290.4682028702
 21
799.1288856305
  0
LINE
  5
35A
100
AcDbEntity
  8
0
100
AcDbLine
 62
7
  6
CONTINUOUS
 10
289.7030755272
 20
800.5348105412
 11
289.1078221219
 21
800.4497743405
  0
LINE
  5
35B
100
AcDbEntity
  8
0
100
AcDbLine
 62
7
  6
CONTINUOUS
 10
291.1682028702
 20
785.1788856305
 11
276.0579062589
 21
785.1788856305
  0
LINE
  5
35C
100
AcDbEntity
  8
0
100
AcDbLine
 62
7
  6
CONTINUOUS
 10
291.1682028702
 20
787.1788856305
 11
290.6682028702
 21
787.1788856305
  0
LINE
  5
35D
100
AcDbEntity
  8
0
100
AcDbLine
 62
7
  6
CONTINUOUS
 10
282.61444057
 20
791.1788856305
 11
276.6756049111
 21
791.1788856305
  0
LINE
  5
35E
100
AcDbEntity
  8
0
100
AcDbLine
 62
7
  6
CONTINUOUS
 10
283.1820242533
 20
791.8339366562
 11
281.7136417556
 21
791.8339366562
  0
LINE
  5
35F
100
AcDbEntity
  8
0
100
AcDbLine
 62
7
  6
CONTINUOUS
 10
288.9729231954
 20
792.901401421
 11
289.1002211074
 21
792.901401421
  0
LINE
  5
360
100
AcDbEntity
  8
0
100
AcDbLine
 62
7
  6
CONTINUOUS
 10
283.1820242533
 20
793.5238346048
 11
281.7136417557
 21
793.5238346048
  0
LINE
  5
361
100
AcDbEntity
  8
0
100
AcDbLine
 62
7
  6
CONTINUOUS
 10
282.621143121
 20
794.1788856305
 11
276.6756986645
 21
794.1788856305
  0
LINE
  5
362
100
AcDbEntity
  8
0
100
AcDbLine
 62
7
  6
CONTINUOUS
 10
281.814866803
 20
795.8931713448
 11
277.5009457147
 21
795.8931713448
  0
LINE
  5
363
100
AcDbEntity
  8
0
100
AcDbLine
 62
7
  6
CONTINUOUS
 10
276.0579062589
 20
799.8788856305
 11
283.2579062588
 21
799.8788856305
  0
LINE
  5
364
100
AcDbEntity
  8
0
100
AcDbLine
 62
7
  6
CONTINUOUS
 10
289.1013725021
 20
800.2563696527
 11
288.9682028703
 21
800.2563696527
  0
LINE
  5
365
100
AcDbEntity
  8
0
100
AcDbLine
 62
7
  6
CONTINUOUS
 10
278.650354208
 20
801.5306678352
 11
280.0311114883
 21
801.5306678352
  0
LINE
  5
366
100
AcDbEntity
  8
0
100
AcDbLine
 62
7
  6
CONTINUOUS
 10
280.0403296882
 20
801.8788856305
 11
278.6687906083
 21
801.8788856305
  0
LINE
  5
367
100
AcDbEntity
  8
0
100
AcDbLine
 62
7
  6
CONTINUOUS
 10
278.6687906082
 20
803.2506824002
 11
280.0403296883
 21
803.2506824002
  0
LINE
  5
368
100
AcDbEntity
  8
0
100
AcDbLine
 62
7
  6
CONTINUOUS
 10
280.5062102211
 20
804.9827332078
 11
279.6005516741
 21
804.9827332078
  0
LINE
  5
369
100
AcDbEntity
  8
0
100
AcDbLine
 62
7
  6
CONTINUOUS
 10
290.9682028702
 20
805.1788856305
 11
291.1682028702
 21
805.1788856305
  0
LINE
  5
36A
100
AcDbEntity
  8
0
100
AcDbLine
 62
7
  6
CONTINUOUS
 10
281.1256552753
 20
805.6211596616
 11
280.8394417822
 21
805.6211596616
  0
LINE
  5
36B
100
AcDbEntity
  8
0
100
AcDbLine
 62
7
  6
CONTINUOUS
 10
290.8682028702
 20
806.0788856305
 11
291.1682028702
 21
806.0788856305
  0
LINE
  5
36C
100
AcDbEntity
  8
0
100
AcDbLine
 62
7
  6
CONTINUOUS
 10
291.1682028702
 20
806.4288856305
 11
292.3682028702
 21
806.4288856305
  0
LINE
  5
36D
100
AcDbEntity
  8
0
100
AcDbLine
 62
7
  6
CONTINUOUS
 10
291.9551753505
 20
807.3331850886
 11
297.9682028702
 21
807.1757284216
  0
LINE
  5
36E
100
AcDbEntity
  8
0
100
AcDbLine
 62
7
  6
CONTINUOUS
 10
292.3682028702
 20
806.1822189639
 11
294.4062434502
 21
806.0463495919
  0
LINE
  5
36F
100
AcDbEntity
  8
0
100
AcDbLine
 62
7
  6
CONTINUOUS
 10
289.1130216366
 20
792.8995897246
 11
289.6682028702
 21
792.8221238618
  0
LINE
  5
370
100
AcDbEntity
  8
0
100
AcDbLine
 62
7
  6
CONTINUOUS
 10
289.6682028702
 20
792.627942528
 11
289.0458502928
 21
792.716850039
  0
LINE
  5
371
100
AcDbEntity
  8
0
100
AcDbLine
 62
7
  6
CONTINUOUS
 10
289.6747276226
 20
792.8075387381
 11
289.4630494809
 21
792.8377784726
  0
LINE
  5
372
100
AcDbEntity
  8
0
100
AcDbLine
 62
7
  6
CONTINUOUS
 10
290.4682028703
 20
794.0288856305
 11
291.1682028703
 21
793.9288856305
  0
LINE
  5
373
100
AcDbEntity
  8
0
100
AcDbLine
 62
7
  6
CONTINUOUS
 10
297.9682028702
 20
813.6788856305
 11
294.9257944274
 21
814.2781478995
  0
LINE
  5
374
100
AcDbEntity
  8
0
100
AcDbLine
 62
7
  6
CONTINUOUS
 10
316.0858221123
 20
877.6788856305
 11
315.5858221123
 21
877.9788856305
  0
LINE
  5
375
100
AcDbEntity
  8
0
100
AcDbLine
 62
7
  6
CONTINUOUS
 10
316.4182028702
 20
878.8788856305
 11
315.9182028702
 21
879.1788856305
  0
LINE
  5
376
100
AcDbEntity
  8
0
100
AcDbLine
 62
7
  6
CONTINUOUS
 10
407.1682028702
 20
847.4288856305
 11
407.9682028702
 21
847.6432449844
  0
LINE
  5
377
100
AcDbEntity
  8
0
100
AcDbLine
 62
7
  6
CONTINUOUS
 10
297.9682028702
 20
806.6788856306
 11
294.9257944274
 21
806.0796233615
  0
LINE
  5
378
100
AcDbEntity
  8
0
100
AcDbLine
 62
7
  6
CONTINUOUS
 10
291.1682028703
 20
826.4288856305
 11
290.4682028702
 21
826.3288856305
  0
LINE
  5
379
100
AcDbEntity
  8
0
100
AcDbLine
 62
7
  6
CONTINUOUS
 10
289.6682028702
 20
827.3414660655
 11
289.2583144191
 21
827.2829105725
  0
LINE
  5
37A
100
AcDbEntity
  8
0
100
AcDbLine
 62
7
  6
CONTINUOUS
 10
289.7075414656
 20
827.7354501008
 11
289.3116552749
 21
827.6788912443
  0
LINE
  5
37B
100
AcDbEntity
  8
0
100
AcDbLine
 62
7
  6
CONTINUOUS
 10
292.3682028702
 20
814.1755522972
 11
294.4062434503
 21
814.3114216692
  0
LINE
  5
37C
100
AcDbEntity
  8
0
100
AcDbLine
 62
7
  6
CONTINUOUS
 10
291.9551753505
 20
813.0245861724
 11
297.9682028702
 21
813.1820428395
  0
LINE
  5
37D
100
AcDbEntity
  8
0
100
AcDbLine
 62
7
  6
CONTINUOUS
 10
291.1682028702
 20
813.9288856305
 11
292.3682028702
 21
813.9288856305
  0
LINE
  5
37E
100
AcDbEntity
  8
0
100
AcDbLine
 62
7
  6
CONTINUOUS
 10
290.8682028702
 20
814.2788856305
 11
291.1682028702
 21
814.2788856305
  0
LINE
  5
37F
100
AcDbEntity
  8
0
100
AcDbLine
 62
7
  6
CONTINUOUS
 10
280.8394417822
 20
814.7366115995
 11
281.1256552753
 21
814.7366115994
  0
LINE
  5
380
100
AcDbEntity
  8
0
100
AcDbLine
 62
7
  6
CONTINUOUS
 10
290.9682028702
 20
815.1788856305
 11
291.1682028702
 21
815.1788856305
  0
LINE
  5
381
100
AcDbEntity
  8
0
100
AcDbLine
 62
7
  6
CONTINUOUS
 10
280.5062102212
 20
815.3750380532
 11
279.600551674
 21
815.3750380532
  0
LINE
  5
382
100
AcDbEntity
  8
0
100
AcDbLine
 62
7
  6
CONTINUOUS
 10
280.0403296883
 20
817.1070888608
 11
278.6687906083
 21
817.1070888608
  0
LINE
  5
383
100
AcDbEntity
  8
0
100
AcDbLine
 62
7
  6
CONTINUOUS
 10
278.6687906083
 20
818.4788856305
 11
280.0403296897
 21
818.4788856305
  0
LINE
  5
384
100
AcDbEntity
  8
0
100
AcDbLine
 62
7
  6
CONTINUOUS
 10
280.0311114882
 20
818.8271034258
 11
278.650354208
 21
818.8271034258
  0
LINE
  5
385
100
AcDbEntity
  8
0
100
AcDbLine
 62
7
  6
CONTINUOUS
 10
288.9682028702
 20
820.2748606886
 11
289.2556649745
 21
820.2748606886
  0
LINE
  5
386
100
AcDbEntity
  8
0
100
AcDbLine
 62
7
  6
CONTINUOUS
 10
276.0579062589
 20
820.4788856305
 11
283.2579062588
 21
820.4788856305
  0
LINE
  5
387
100
AcDbEntity
  8
0
100
AcDbLine
 62
7
  6
CONTINUOUS
 10
277.5009457147
 20
824.7503142019
 11
281.814866803
 21
824.7503142019
  0
LINE
  5
388
100
AcDbEntity
  8
0
100
AcDbLine
 62
7
  6
CONTINUOUS
 10
276.6756986644
 20
826.1788856305
 11
282.6028491404
 21
826.1788856305
  0
LINE
  5
389
100
AcDbEntity
  8
0
100
AcDbLine
 62
7
  6
CONTINUOUS
 10
283.1820242533
 20
826.8339366562
 11
281.7136417556
 21
826.8339366562
  0
LINE
  5
38A
100
AcDbEntity
  8
0
100
AcDbLine
 62
7
  6
CONTINUOUS
 10
288.9682028702
 20
827.2829105724
 11
289.2583144191
 21
827.2829105724
  0
LINE
  5
38B
100
AcDbEntity
  8
0
100
AcDbLine
 62
7
  6
CONTINUOUS
 10
283.1820242533
 20
828.5238346048
 11
281.7136417556
 21
828.5238346048
  0
LINE
  5
38C
100
AcDbEntity
  8
0
100
AcDbLine
 62
7
  6
CONTINUOUS
 10
282.61444057
 20
829.1788856305
 11
276.675604911
 21
829.1788856305
  0
LINE
  5
38D
100
AcDbEntity
  8
0
100
AcDbLine
 62
7
  6
CONTINUOUS
 10
290.6682028702
 20
833.1788856305
 11
291.1682028702
 21
833.1788856305
  0
LINE
  5
38E
100
AcDbEntity
  8
0
100
AcDbLine
 62
7
  6
CONTINUOUS
 10
410.4682028702
 20
834.6788856305
 11
407.9682028702
 21
834.6788856305
  0
LINE
  5
38F
100
AcDbEntity
  8
0
100
AcDbLine
 62
7
  6
CONTINUOUS
 10
276.0579062589
 20
835.1788856305
 11
291.1682028702
 21
835.1788856305
  0
LINE
  5
390
100
AcDbEntity
  8
0
100
AcDbLine
 62
7
  6
CONTINUOUS
 10
289.6682028702
 20
820.2163051956
 11
289.2557997572
 21
820.2547488976
  0
LINE
  5
391
100
AcDbEntity
  8
0
100
AcDbLine
 62
7
  6
CONTINUOUS
 10
289.3116553517
 20
819.8788799987
 11
289.7074153972
 21
819.8223391625
  0
LINE
  5
392
100
AcDbEntity
  8
0
100
AcDbLine
 62
7
  6
CONTINUOUS
 10
290.4682028703
 20
821.2288856305
 11
291.1682028703
 21
821.1288856305
  0
LWPOLYLINE
  5
393
100
AcDbEntity
  8
0
100
AcDbPolyline
 62
7
  6
CONTINUOUS
 90
4
 70
0
 10
272.7869131068
 20
858.0797783462
 10
272.8054764633
 20
858.0817246687
 10
272.8177182593
 20
858.084376397
 10
272.8596806282
 20
858.0832752695
  0
LINE
  5
394
100
AcDbEntity
  8
0
100
AcDbLine
 62
7
  6
CONTINUOUS
 10
280.2185364705
 20
857.1767826666
 11
280.1244489238
 21
857.176343498
  0
LINE
  5
395
100
AcDbEntity
  8
0
100
AcDbLine
 62
7
  6
CONTINUOUS
 10
416.9682028702
 20
837.1788856305
 11
410.909020322
 21
837.1788856305
  0
LINE
  5
396
100
AcDbEntity
  8
0
100
AcDbLine
 62
7
  6
CONTINUOUS
 10
406.8682028702
 20
837.6788856305
 11
392.7182028702
 21
837.6788856305
  0
LINE
  5
397
100
AcDbEntity
  8
0
100
AcDbLine
 62
7
  6
CONTINUOUS
 10
406.8682028702
 20
845.6788856305
 11
392.7182028702
 21
845.6788856305
  0
LINE
  5
398
100
AcDbEntity
  8
0
100
AcDbLine
 62
7
  6
CONTINUOUS
 10
416.9682028702
 20
846.1788856305
 11
410.909020322
 21
846.1788856305
  0
LINE
  5
399
100
AcDbEntity
  8
0
100
AcDbLine
 62
7
  6
CONTINUOUS
 10
410.4682028702
 20
848.6788856305
 11
407.9682028702
 21
848.6788856305
  0
LINE
  5
39A
100
AcDbEntity
  8
0
100
AcDbLine
 62
7
  6
CONTINUOUS
 10
418.1682028702
 20
852.0288856305
 11
416.9682028702
 21
852.0288856305
  0
LINE
  5
39B
100
AcDbEntity
  8
0
100
AcDbLine
 62
7
  6
CONTINUOUS
 10
280.1108038103
 20
857.1773118234
 11
280.2118602822
 21
857.1773118234
  0
LINE
  5
39C
100
AcDbEntity
  8
0
100
AcDbLine
 62
7
  6
CONTINUOUS
 10
288.1911803818
 20
858.579607562
 11
287.9622095874
 21
858.579607562
  0
LINE
  5
39D
100
AcDbEntity
  8
0
100
AcDbLine
 62
7
  6
CONTINUOUS
 10
273.2682028702
 20
861.4803405439
 11
273.0392320758
 21
861.4803405439
  0
LINE
  5
39E
100
AcDbEntity
  8
0
100
AcDbLine
 62
7
  6
CONTINUOUS
 10
292.3682028702
 20
862.2116281407
 11
291.1682027984
 21
862.2116281408
  0
LINE
  5
39F
100
AcDbEntity
  8
0
100
AcDbLine
 62
7
  6
CONTINUOUS
 10
418.1682028702
 20
862.3288856305
 11
416.9682028702
 21
862.3288856305
  0
LINE
  5
3A0
100
AcDbEntity
  8
0
100
AcDbLine
 62
7
  6
CONTINUOUS
 10
402.0501222969
 20
874.6788856305
 11
320.2862834435
 21
874.6788856305
  0
LINE
  5
3A1
100
AcDbEntity
  8
0
100
AcDbLine
 62
7
  6
CONTINUOUS
 10
402.0501222969
 20
875.8788856305
 11
320.2862834435
 21
875.8788856305
  0
LINE
  5
3A2
100
AcDbEntity
  8
0
100
AcDbLine
 62
7
  6
CONTINUOUS
 10
418.1682028702
 20
876.2788856305
 11
416.9682028702
 21
876.2788856305
  0
LINE
  5
3A3
100
AcDbEntity
  8
0
100
AcDbLine
 62
7
  6
CONTINUOUS
 10
292.3682028703
 20
876.2788856305
 11
291.1682028754
 21
876.2788856305
  0
LINE
  5
3A4
100
AcDbEntity
  8
0
100
AcDbLine
 62
7
  6
CONTINUOUS
 10
404.2166993536
 20
876.4968596396
 11
318.1197063869
 21
876.4968596396
  0
LINE
  5
3A5
100
AcDbEntity
  8
0
100
AcDbLine
 62
7
  6
CONTINUOUS
 10
403.0349300499
 20
876.7052374528
 11
319.3014756905
 21
876.7052374528
  0
LINE
  5
3A6
100
AcDbEntity
  8
0
100
AcDbLine
 62
7
  6
CONTINUOUS
 10
404.3085559302
 20
877.0178041726
 11
318.0278498103
 21
877.0178041726
  0
LINE
  5
3A7
100
AcDbEntity
  8
0
100
AcDbLine
 62
7
  6
CONTINUOUS
 10
403.1267866266
 20
877.2261819858
 11
319.2096191139
 21
877.2261819858
  0
LINE
  5
3A8
100
AcDbEntity
  8
0
100
AcDbLine
 62
7
  6
CONTINUOUS
 10
406.2505836282
 20
877.6788856305
 11
316.0858221123
 21
877.6788856305
  0
LINE
  5
3A9
100
AcDbEntity
  8
0
100
AcDbLine
 62
7
  6
CONTINUOUS
 10
415.2682028702
 20
877.9788856305
 11
294.0682028702
 21
877.9788856305
  0
LINE
  5
3AA
100
AcDbEntity
  8
0
100
AcDbLine
 62
7
  6
CONTINUOUS
 10
405.9182028702
 20
878.8788856305
 11
316.4182028702
 21
878.8788856305
  0
LINE
  5
3AB
100
AcDbEntity
  8
0
100
AcDbLine
 62
7
  6
CONTINUOUS
 10
294.0682028703
 20
879.1788856305
 11
415.2682028702
 21
879.1788856305
  0
LWPOLYLINE
  5
3AC
100
AcDbEntity
  8
0
100
AcDbPolyline
 62
7
  6
CONTINUOUS
 90
4
 70
0
 10
272.7966444785
 20
858.0766136493
 10
272.8275289841
 20
858.076116278
 10
272.8581400541
 20
858.0763282318
 10
272.8898133756
 20
858.076258249
  0
LINE
  5
3AD
100
AcDbEntity
  8
0
100
AcDbLine
 62
7
  6
CONTINUOUS
 10
280.1108038102
 20
858.5776912017
 11
272.7869131068
 21
859.1966620923
  0
LINE
  5
3AE
100
AcDbEntity
  8
0
100
AcDbLine
 62
7
  6
CONTINUOUS
 10
280.2118602821
 20
859.7734284593
 11
272.8879695787
 21
860.3923993499
  0
LINE
  5
3AF
100
AcDbEntity
  8
0
100
AcDbLine
 62
7
  6
CONTINUOUS
 10
272.890659834
 20
858.0767043783
 11
280.2185633707
 21
857.1767826666
  0
LINE
  5
3B0
100
AcDbEntity
  8
0
100
AcDbLine
 62
7
  6
CONTINUOUS
 10
272.7869131068
 20
858.079778346
 11
280.1244220655
 21
857.176343498
  0
LINE
  5
3B1
100
AcDbEntity
  8
0
100
AcDbLine
 62
7
  6
CONTINUOUS
 10
287.9622095874
 20
858.5796075621
 11
273.0392320758
 21
861.480340544
  0
LINE
  5
3B2
100
AcDbEntity
  8
0
100
AcDbLine
 62
7
  6
CONTINUOUS
 10
288.1911803818
 20
858.579607562
 11
273.2682028703
 21
861.4803405439
  0
LINE
  5
3B3
100
AcDbEntity
  8
0
100
AcDbLine
 62
7
  6
CONTINUOUS
 10
288.1911803818
 20
859.7575601821
 11
273.2682028703
 21
862.6582931641
  0
LINE
  5
3B4
100
AcDbEntity
  8
0
100
AcDbLine
 62
7
  6
CONTINUOUS
 10
407.1682028702
 20
835.9288856305
 11
407.9682028702
 21
835.7145262766
  0
ARC
  5
3B5
100
AcDbEntity
  8
0
100
AcDbCircle
 62
7
  6
CONTINUOUS
 10
261.5231842469
 20
77.6135378278
 40
22.5619819988
100
AcDbArc
 50
58.629721435
 51
59.0180068096
  0
ARC
  5
3B6
100
AcDbEntity
  8
0
100
AcDbCircle
 62
7
  6
CONTINUOUS
 10
288.6682028702
 20
96.1461431203
 40
3.6999999999
100
AcDbArc
 50
0.0
 51
101.0000000003
  0
ARC
  5
3B7
100
AcDbEntity
  8
0
100
AcDbCircle
 62
7
  6
CONTINUOUS
 10
294.0682028702
 20
82.0788856305
 40
2.9
100
AcDbArc
 50
180.0
 51
270.0
  0
ARC
  5
3B8
100
AcDbEntity
  8
0
100
AcDbCircle
 62
7
  6
CONTINUOUS
 10
288.6682028702
 20
96.1461431203
 40
2.5
100
AcDbArc
 50
0.0
 51
100.9999999992
  0
ARC
  5
3B9
100
AcDbEntity
  8
0
100
AcDbCircle
 62
7
  6
CONTINUOUS
 10
272.9342871283
 20
97.417325668
 40
1.7500000001
100
AcDbArc
 50
94.5737898956
 51
280.9999999993
  0
ARC
  5
3BA
100
AcDbEntity
  8
0
100
AcDbCircle
 62
7
  6
CONTINUOUS
 10
294.0682028702
 20
82.0788856305
 40
1.7
100
AcDbArc
 50
180.0
 51
270.0
  0
ARC
  5
3BB
100
AcDbEntity
  8
0
100
AcDbCircle
 62
7
  6
CONTINUOUS
 10
272.9342871283
 20
97.417325668
 40
0.55
100
AcDbArc
 50
94.4974201595
 51
280.9999999941
  0
ARC
  5
3BC
100
AcDbEntity
  8
0
100
AcDbCircle
 62
7
  6
CONTINUOUS
 10
291.9682638246
 20
145.8330137511
 40
0.5
100
AcDbArc
 50
180.0
 51
268.4999999374
  0
ARC
  5
3BD
100
AcDbEntity
  8
0
100
AcDbCircle
 62
7
  6
CONTINUOUS
 10
291.9682638246
 20
150.52475751
 40
0.5
100
AcDbArc
 50
91.5000000627
 51
180.0
  0
ARC
  5
3BE
100
AcDbEntity
  8
0
100
AcDbCircle
 62
7
  6
CONTINUOUS
 10
291.9682638246
 20
420.8330137511
 40
0.5
100
AcDbArc
 50
180.0
 51
268.4999999374
  0
ARC
  5
3BF
100
AcDbEntity
  8
0
100
AcDbCircle
 62
7
  6
CONTINUOUS
 10
291.9682638246
 20
425.52475751
 40
0.5
100
AcDbArc
 50
91.5000000627
 51
180.0
  0
ARC
  5
3C0
100
AcDbEntity
  8
0
100
AcDbCircle
 62
7
  6
CONTINUOUS
 10
302.6869528702
 20
148.1788856305
 40
12.7408438324
100
AcDbArc
 50
183.3747129725
 51
203.1063268583
  0
ARC
  5
3C1
100
AcDbEntity
  8
0
100
AcDbCircle
 62
7
  6
CONTINUOUS
 10
302.6869528702
 20
148.1788856305
 40
12.7408438324
100
AcDbArc
 50
156.8936733925
 51
176.6253059394
  0
ARC
  5
3C2
100
AcDbEntity
  8
0
100
AcDbCircle
 62
7
  6
CONTINUOUS
 10
294.5392814713
 20
146.0419199075
 40
2.0
100
AcDbArc
 50
266.1859251661
 51
281.142889781
  0
ARC
  5
3C3
100
AcDbEntity
  8
0
100
AcDbCircle
 62
7
  6
CONTINUOUS
 10
294.5392814713
 20
150.3158513535
 40
2.0
100
AcDbArc
 50
78.8571102186
 51
93.8140748339
  0
ARC
  5
3C4
100
AcDbEntity
  8
0
100
AcDbCircle
 62
7
  6
CONTINUOUS
 10
320.2862834436
 20
81.4788856305
 40
2.2
100
AcDbArc
 50
90.0000000008
 51
169.9999999991
  0
ARC
  5
3C5
100
AcDbEntity
  8
0
100
AcDbCircle
 62
7
  6
CONTINUOUS
 10
317.2400036079
 20
81.4788856305
 40
2.0
100
AcDbArc
 50
270.0000000011
 51
350.000000001
  0
ARC
  5
3C6
100
AcDbEntity
  8
0
100
AcDbCircle
 62
7
  6
CONTINUOUS
 10
320.2862834435
 20
81.4788856305
 40
1.0
100
AcDbArc
 50
90.0
 51
169.999999998
  0
ARC
  5
3C7
100
AcDbEntity
  8
0
100
AcDbCircle
 62
7
  6
CONTINUOUS
 10
317.2400036078
 20
81.4788856305
 40
0.8
100
AcDbArc
 50
270.0000000036
 51
350.000000003
  0
CIRCLE
  5
3C8
100
AcDbEntity
  8
0
100
AcDbCircle
 62
7
  6
CONTINUOUS
 10
327.3682028702
 20
185.3788856305
 40
7.0
  0
CIRCLE
  5
3C9
100
AcDbEntity
  8
0
100
AcDbCircle
 62
7
  6
CONTINUOUS
 10
327.3682028702
 20
185.3788856305
 40
5.9643593539
  0
CIRCLE
  5
3CA
100
AcDbEntity
  8
0
100
AcDbCircle
 62
7
  6
CONTINUOUS
 10
327.3682028702
 20
185.3788856305
 40
5.75
  0
CIRCLE
  5
3CB
100
AcDbEntity
  8
0
100
AcDbCircle
 62
7
  6
CONTINUOUS
 10
327.3682028702
 20
185.3788856305
 40
4.0
  0
CIRCLE
  5
3CC
100
AcDbEntity
  8
0
100
AcDbCircle
 62
7
  6
CONTINUOUS
 10
327.3682028702
 20
185.3788856305
 40
3.0
  0
CIRCLE
  5
3CD
100
AcDbEntity
  8
0
100
AcDbCircle
 62
7
  6
CONTINUOUS
 10
327.3682028702
 20
185.3788856305
 40
2.5
  0
ARC
  5
3CE
100
AcDbEntity
  8
0
100
AcDbCircle
 62
7
  6
CONTINUOUS
 10
302.6869528702
 20
423.1788856305
 40
12.7408438324
100
AcDbArc
 50
183.3747129725
 51
203.1063268583
  0
ARC
  5
3CF
100
AcDbEntity
  8
0
100
AcDbCircle
 62
7
  6
CONTINUOUS
 10
302.6869528702
 20
423.1788856305
 40
12.7408438324
100
AcDbArc
 50
156.8936733925
 51
176.6253059394
  0
ARC
  5
3D0
100
AcDbEntity
  8
0
100
AcDbCircle
 62
7
  6
CONTINUOUS
 10
294.5392814713
 20
425.3158513535
 40
2.0
100
AcDbArc
 50
78.8571102186
 51
93.8140748339
  0
ARC
  5
3D1
100
AcDbEntity
  8
0
100
AcDbCircle
 62
7
  6
CONTINUOUS
 10
294.5392814713
 20
421.0419199075
 40
2.0
100
AcDbArc
 50
266.1859251661
 51
281.142889781
  0
ARC
  5
3D2
100
AcDbEntity
  8
0
100
AcDbCircle
 62
7
  6
CONTINUOUS
 10
273.3659735462
 20
526.8814513689
 40
6.6743643512
100
AcDbArc
 50
356.9873168201
 51
359.9779213378
  0
ARC
  5
3D3
100
AcDbEntity
  8
0
100
AcDbCircle
 62
7
  6
CONTINUOUS
 10
273.4291578104
 20
543.477992516
 40
6.6111700237
100
AcDbArc
 50
0.0076943483
 51
3.0269779463
  0
ARC
  5
3D4
100
AcDbEntity
  8
0
100
AcDbCircle
 62
7
  6
CONTINUOUS
 10
275.3215852559
 20
543.4761630242
 40
3.3472204811
100
AcDbArc
 50
0.046604199
 51
6.0182610591
  0
ARC
  5
3D5
100
AcDbEntity
  8
0
100
AcDbCircle
 62
7
  6
CONTINUOUS
 10
275.3502604492
 20
526.8800882971
 40
3.3185268231
100
AcDbArc
 50
353.9559289596
 51
359.9792354727
  0
ARC
  5
3D6
100
AcDbEntity
  8
0
100
AcDbCircle
 62
7
  6
CONTINUOUS
 10
280.9980894636
 20
518.2562627068
 40
2.6322668838
100
AcDbArc
 50
307.8894687311
 51
318.572878793
  0
ARC
  5
3D7
100
AcDbEntity
  8
0
100
AcDbCircle
 62
7
  6
CONTINUOUS
 10
279.4825592451
 20
517.5901967456
 40
2.3667913791
100
AcDbArc
 50
323.3948368168
 51
332.9696468835
  0
ARC
  5
3D8
100
AcDbEntity
  8
0
100
AcDbCircle
 62
7
  6
CONTINUOUS
 10
280.1300813727
 20
517.2595733679
 40
1.6397448572
100
AcDbArc
 50
332.9778068918
 51
344.9551565087
  0
ARC
  5
3D9
100
AcDbEntity
  8
0
100
AcDbCircle
 62
7
  6
CONTINUOUS
 10
281.9721173512
 20
517.4026827868
 40
1.3371646944
100
AcDbArc
 50
318.3813661905
 51
334.8279795325
  0
ARC
  5
3DA
100
AcDbEntity
  8
0
100
AcDbCircle
 62
7
  6
CONTINUOUS
 10
289.3681796867
 20
545.2748644322
 40
0.3999982937
100
AcDbArc
 50
180.0008477475
 51
261.8702528433
  0
ARC
  5
3DB
100
AcDbEntity
  8
0
100
AcDbCircle
 62
7
  6
CONTINUOUS
 10
289.3681796816
 20
552.2829068283
 40
0.3999982932
100
AcDbArc
 50
98.1280083736
 51
179.9995803937
  0
ARC
  5
3DC
100
AcDbEntity
  8
0
100
AcDbCircle
 62
7
  6
CONTINUOUS
 10
289.1682028702
 20
525.2563696527
 40
0.2
100
AcDbArc
 50
115.9542624588
 51
170.8294458538
  0
ARC
  5
3DD
100
AcDbEntity
  8
0
100
AcDbCircle
 62
7
  6
CONTINUOUS
 10
289.1681717192
 20
517.9014047502
 40
0.1999998278
100
AcDbArc
 50
179.9976229836
 51
261.8697824698
  0
ARC
  5
3DE
100
AcDbEntity
  8
0
100
AcDbCircle
 62
7
  6
CONTINUOUS
 10
289.1681749204
 20
525.2563666233
 40
0.199999791
100
AcDbArc
 50
98.1301338095
 51
115.9542624588
  0
ARC
  5
3DF
100
AcDbEntity
  8
0
100
AcDbCircle
 62
7
  6
CONTINUOUS
 10
289.1681749204
 20
525.2563666233
 40
0.199999791
100
AcDbArc
 50
170.8294458538
 51
181.9709419805
  0
ARC
  5
3E0
100
AcDbEntity
  8
0
100
AcDbCircle
 62
7
  6
CONTINUOUS
 10
273.3726499714
 20
801.8811628855
 40
6.6677004068
100
AcDbArc
 50
356.9867951799
 51
359.9804314689
  0
ARC
  5
3E1
100
AcDbEntity
  8
0
100
AcDbCircle
 62
7
  6
CONTINUOUS
 10
273.4291578126
 20
818.477992516
 40
6.6111700215
100
AcDbArc
 50
0.0076943481
 51
3.0269779468
  0
ARC
  5
3E2
100
AcDbEntity
  8
0
100
AcDbCircle
 62
7
  6
CONTINUOUS
 10
275.3215121146
 20
801.881510652
 40
3.3472591907
100
AcDbArc
 50
353.9834946464
 51
359.9550669201
  0
ARC
  5
3E3
100
AcDbEntity
  8
0
100
AcDbCircle
 62
7
  6
CONTINUOUS
 10
275.3215852569
 20
818.4761630242
 40
3.3472204802
100
AcDbArc
 50
0.0466041984
 51
6.0182610599
  0
ARC
  5
3E4
100
AcDbEntity
  8
0
100
AcDbCircle
 62
7
  6
CONTINUOUS
 10
272.9342871283
 20
860.940445593
 40
1.75
100
AcDbArc
 50
79.0000000006
 51
265.1691873898
  0
ARC
  5
3E5
100
AcDbEntity
  8
0
100
AcDbCircle
 62
7
  6
CONTINUOUS
 10
272.9342871283
 20
860.940445593
 40
0.55
100
AcDbArc
 50
79.0000000001
 51
265.1691873945
  0
ARC
  5
3E6
100
AcDbEntity
  8
0
100
AcDbCircle
 62
7
  6
CONTINUOUS
 10
294.5392814713
 20
812.3158513535
 40
2.0
100
AcDbArc
 50
78.8571102186
 51
93.8140748339
  0
ARC
  5
3E7
100
AcDbEntity
  8
0
100
AcDbCircle
 62
7
  6
CONTINUOUS
 10
294.5392814713
 20
808.0419199075
 40
2.0
100
AcDbArc
 50
266.1859251661
 51
281.142889781
  0
ARC
  5
3E8
100
AcDbEntity
  8
0
100
AcDbCircle
 62
7
  6
CONTINUOUS
 10
291.9682638246
 20
807.8330137511
 40
0.5
100
AcDbArc
 50
180.0
 51
268.4999999374
  0
ARC
  5
3E9
100
AcDbEntity
  8
0
100
AcDbCircle
 62
7
  6
CONTINUOUS
 10
291.9682638246
 20
812.52475751
 40
0.5
100
AcDbArc
 50
91.5000000627
 51
180.0
  0
ARC
  5
3EA
100
AcDbEntity
  8
0
100
AcDbCircle
 62
7
  6
CONTINUOUS
 10
289.3681796867
 20
820.2748644322
 40
0.3999982937
100
AcDbArc
 50
180.0008477483
 51
261.8702528418
  0
ARC
  5
3EB
100
AcDbEntity
  8
0
100
AcDbCircle
 62
7
  6
CONTINUOUS
 10
289.3681796816
 20
827.2829068283
 40
0.3999982932
100
AcDbArc
 50
90.0
 51
179.9995803869
  0
ARC
  5
3EC
100
AcDbEntity
  8
0
100
AcDbCircle
 62
7
  6
CONTINUOUS
 10
289.1682028702
 20
800.2563696527
 40
0.2
100
AcDbArc
 50
115.9542624718
 51
170.8294458497
  0
ARC
  5
3ED
100
AcDbEntity
  8
0
100
AcDbCircle
 62
7
  6
CONTINUOUS
 10
289.1681717193
 20
792.9014047503
 40
0.1999998278
100
AcDbArc
 50
179.9976230171
 51
261.869782449
  0
ARC
  5
3EE
100
AcDbEntity
  8
0
100
AcDbCircle
 62
7
  6
CONTINUOUS
 10
289.1681749203
 20
800.2563666234
 40
0.1999997911
100
AcDbArc
 50
98.1301340211
 51
115.9542624718
  0
ARC
  5
3EF
100
AcDbEntity
  8
0
100
AcDbCircle
 62
7
  6
CONTINUOUS
 10
289.1681749203
 20
800.2563666234
 40
0.1999997911
100
AcDbArc
 50
170.8294458497
 51
181.9709419804
  0
ARC
  5
3F0
100
AcDbEntity
  8
0
100
AcDbCircle
 62
7
  6
CONTINUOUS
 10
283.8310007146
 20
876.6173547309
 40
21.577930393
100
AcDbArc
 50
238.6363288207
 51
239.0213111276
  0
ARC
  5
3F1
100
AcDbEntity
  8
0
100
AcDbCircle
 62
7
  6
CONTINUOUS
 10
288.6682028702
 20
862.2116281407
 40
3.7
100
AcDbArc
 50
258.9999999997
 51
360.0
  0
ARC
  5
3F2
100
AcDbEntity
  8
0
100
AcDbCircle
 62
7
  6
CONTINUOUS
 10
294.0682028702
 20
876.2788856305
 40
2.9
100
AcDbArc
 50
90.0
 51
180.0
  0
ARC
  5
3F3
100
AcDbEntity
  8
0
100
AcDbCircle
 62
7
  6
CONTINUOUS
 10
288.6682028702
 20
862.2116281407
 40
2.5
100
AcDbArc
 50
259.0000000008
 51
360.0
  0
ARC
  5
3F4
100
AcDbEntity
  8
0
100
AcDbCircle
 62
7
  6
CONTINUOUS
 10
294.0682028702
 20
876.2788856305
 40
1.7
100
AcDbArc
 50
90.0
 51
180.0
  0
ARC
  5
3F5
100
AcDbEntity
  8
0
100
AcDbCircle
 62
7
  6
CONTINUOUS
 10
302.6869528702
 20
810.1788856305
 40
12.7408438324
100
AcDbArc
 50
183.3747129725
 51
203.1063268583
  0
ARC
  5
3F6
100
AcDbEntity
  8
0
100
AcDbCircle
 62
7
  6
CONTINUOUS
 10
302.6869528702
 20
810.1788856305
 40
12.7408438324
100
AcDbArc
 50
156.8936733925
 51
176.6253059394
  0
CIRCLE
  5
3F7
100
AcDbEntity
  8
0
100
AcDbCircle
 62
7
  6
CONTINUOUS
 10
327.3682028702
 20
772.9788856305
 40
7.0
  0
CIRCLE
  5
3F8
100
AcDbEntity
  8
0
100
AcDbCircle
 62
7
  6
CONTINUOUS
 10
327.3682028702
 20
772.9788856305
 40
5.9643593539
  0
CIRCLE
  5
3F9
100
AcDbEntity
  8
0
100
AcDbCircle
 62
7
  6
CONTINUOUS
 10
327.3682028702
 20
772.9788856305
 40
5.75
  0
CIRCLE
  5
3FA
100
AcDbEntity
  8
0
100
AcDbCircle
 62
7
  6
CONTINUOUS
 10
327.3682028702
 20
772.9788856305
 40
4.0
  0
CIRCLE
  5
3FB
100
AcDbEntity
  8
0
100
AcDbCircle
 62
7
  6
CONTINUOUS
 10
327.3682028702
 20
772.9788856305
 40
3.0
  0
CIRCLE
  5
3FC
100
AcDbEntity
  8
0
100
AcDbCircle
 62
7
  6
CONTINUOUS
 10
327.3682028702
 20
772.9788856305
 40
2.5
  0
ARC
  5
3FD
100
AcDbEntity
  8
0
100
AcDbCircle
 62
7
  6
CONTINUOUS
 10
320.2862834436
 20
876.8788856305
 40
2.2
100
AcDbArc
 50
190.0000000009
 51
269.9999999992
  0
ARC
  5
3FE
100
AcDbEntity
  8
0
100
AcDbCircle
 62
7
  6
CONTINUOUS
 10
317.2400036079
 20
876.8788856305
 40
2.0
100
AcDbArc
 50
9.999999999
 51
89.9999999989
  0
ARC
  5
3FF
100
AcDbEntity
  8
0
100
AcDbCircle
 62
7
  6
CONTINUOUS
 10
320.2862834435
 20
876.8788856305
 40
1.0
100
AcDbArc
 50
190.000000002
 51
270.0
  0
ARC
  5
400
100
AcDbEntity
  8
0
100
AcDbCircle
 62
7
  6
CONTINUOUS
 10
317.2400036078
 20
876.8788856305
 40
0.8
100
AcDbArc
 50
9.999999997
 51
89.9999999964
  0
ARC
  5
401
100
AcDbEntity
  8
0
100
AcDbCircle
 62
7
  6
CONTINUOUS
 10
415.2682028702
 20
82.0788856305
 40
2.9
100
AcDbArc
 50
270.0
 51
360.0
  0
ARC
  5
402
100
AcDbEntity
  8
0
100
AcDbCircle
 62
7
  6
CONTINUOUS
 10
402.0501222969
 20
81.4788856305
 40
2.2
100
AcDbArc
 50
10.0000000009
 51
90.0
  0
ARC
  5
403
100
AcDbEntity
  8
0
100
AcDbCircle
 62
7
  6
CONTINUOUS
 10
405.0964021326
 20
81.4788856305
 40
2.0
100
AcDbArc
 50
189.999999999
 51
269.9999999997
  0
ARC
  5
404
100
AcDbEntity
  8
0
100
AcDbCircle
 62
7
  6
CONTINUOUS
 10
415.2682028702
 20
82.0788856305
 40
1.7
100
AcDbArc
 50
270.0
 51
360.0
  0
ARC
  5
405
100
AcDbEntity
  8
0
100
AcDbCircle
 62
7
  6
CONTINUOUS
 10
402.0501222969
 20
81.4788856305
 40
1.0
100
AcDbArc
 50
10.000000002
 51
90.0
  0
ARC
  5
406
100
AcDbEntity
  8
0
100
AcDbCircle
 62
7
  6
CONTINUOUS
 10
405.0964021326
 20
81.4788856305
 40
0.8
100
AcDbArc
 50
189.9999999975
 51
269.9999999993
  0
ARC
  5
407
100
AcDbEntity
  8
0
100
AcDbCircle
 62
7
  6
CONTINUOUS
 10
406.8682028702
 20
112.3788856305
 40
0.3
100
AcDbArc
 50
0.000063004
 51
90.0
  0
ARC
  5
408
100
AcDbEntity
  8
0
100
AcDbCircle
 62
7
  6
CONTINUOUS
 10
406.8682028702
 20
120.9788856306
 40
0.3
100
AcDbArc
 50
270.0
 51
359.999936996
  0
ARC
  5
409
100
AcDbEntity
  8
0
100
AcDbCircle
 62
7
  6
CONTINUOUS
 10
415.2682028702
 20
876.2788856305
 40
2.9
100
AcDbArc
 50
0.0
 51
90.0
  0
ARC
  5
40A
100
AcDbEntity
  8
0
100
AcDbCircle
 62
7
  6
CONTINUOUS
 10
402.0501222969
 20
876.8788856305
 40
2.2
100
AcDbArc
 50
270.0
 51
349.9999999991
  0
ARC
  5
40B
100
AcDbEntity
  8
0
100
AcDbCircle
 62
7
  6
CONTINUOUS
 10
405.0964021326
 20
876.8788856305
 40
2.0
100
AcDbArc
 50
90.0
 51
170.000000001
  0
ARC
  5
40C
100
AcDbEntity
  8
0
100
AcDbCircle
 62
7
  6
CONTINUOUS
 10
415.2682028702
 20
876.2788856305
 40
1.7
100
AcDbArc
 50
0.0
 51
90.0
  0
ARC
  5
40D
100
AcDbEntity
  8
0
100
AcDbCircle
 62
7
  6
CONTINUOUS
 10
402.0501222969
 20
876.8788856305
 40
1.0
100
AcDbArc
 50
270.0
 51
349.999999998
  0
ARC
  5
40E
100
AcDbEntity
  8
0
100
AcDbCircle
 62
7
  6
CONTINUOUS
 10
405.0964021326
 20
876.8788856305
 40
0.8
100
AcDbArc
 50
90.0
 51
170.0000000024
  0
ARC
  5
40F
100
AcDbEntity
  8
0
100
AcDbCircle
 62
7
  6
CONTINUOUS
 10
406.8682028702
 20
837.3788856305
 40
0.3
100
AcDbArc
 50
0.0000630039
 51
90.0
  0
ARC
  5
410
100
AcDbEntity
  8
0
100
AcDbCircle
 62
7
  6
CONTINUOUS
 10
406.8682028702
 20
845.9788856306
 40
0.3
100
AcDbArc
 50
270.0
 51
359.999936996
  0
SPLINE
  5
411
100
AcDbEntity
  8
0
100
AcDbSpline
 62
7
  6
CONTINUOUS
 70
0
 71
3
 72
10
 73
6
 74
0
 42
0.0000001
 43
0.0000001
 44
0.0000000001
 40
0.0
 40
0.0
 40
0.0
 40
0.0
 40
0.3349122791
 40
0.6682201251
 40
1.0
 40
1.0
 40
1.0
 40
1.0
 10
272.8908666246
 20
97.9656110121
 30
0.0
 10
272.880261573
 20
98.0991581451
 30
0.0
 10
272.864270004
 20
98.3660166231
 30
0.0
 10
272.8247423182
 20
98.764124326
 30
0.0
 10
272.806208999
 20
99.0295357132
 30
0.0
 10
272.7966966751
 20
99.1619089375
 30
0.0
  0
SPLINE
  5
412
100
AcDbEntity
  8
0
100
AcDbSpline
 62
7
  6
CONTINUOUS
 70
0
 71
3
 72
13
 73
9
 74
0
 42
0.0000001
 43
0.0000001
 44
0.0000000001
 40
0.0
 40
0.0
 40
0.0
 40
0.0
 40
0.2084241732
 40
0.3991177559
 40
0.5370156291
 40
0.6491594067
 40
0.8029099277
 40
1.0
 40
1.0
 40
1.0
 40
1.0
 10
273.2682028702
 20
96.8774307171
 30
0.0
 10
272.9749793888
 20
97.0560711131
 30
0.0
 10
272.401677724
 20
97.3875918582
 30
0.0
 10
271.6834127032
 20
97.8754308919
 30
0.0
 10
271.1389945291
 20
98.4382015431
 30
0.0
 10
271.2355123115
 20
99.1732863216
 30
0.0
 10
271.8463244054
 20
99.6846546821
 30
0.0
 10
272.3231076129
 20
99.9964515853
 30
0.0
 10
272.6003713864
 20
100.1654008652
 30
0.0
  0
SPLINE
  5
413
100
AcDbEntity
  8
0
100
AcDbSpline
 62
7
  6
CONTINUOUS
 70
0
 71
3
 72
11
 73
7
 74
0
 42
0.0000001
 43
0.0000001
 44
0.0000000001
 40
0.0
 40
0.0
 40
0.0
 40
0.0
 40
0.26165525
 40
0.5095120695
 40
0.7453646286
 40
1.0
 40
1.0
 40
1.0
 40
1.0
 10
273.0392320757
 20
96.8774307171
 30
0.0
 10
272.8994446795
 20
97.1484026454
 30
0.0
 10
272.6013689781
 20
97.6616072371
 30
0.0
 10
272.336223905
 20
98.5067453927
 30
0.0
 10
272.4320413855
 20
99.3870390048
 30
0.0
 10
272.694634665
 20
99.9006784952
 30
0.0
 10
272.8293421809
 20
100.1650622438
 30
0.0
  0
SPLINE
  5
414
100
AcDbEntity
  8
0
100
AcDbSpline
 62
7
  6
CONTINUOUS
 70
0
 71
3
 72
9
 73
5
 74
0
 42
0.0000001
 43
0.0000001
 44
0.0000000001
 40
0.0
 40
0.0
 40
0.0
 40
0.0
 40
0.5
 40
1.0
 40
1.0
 40
1.0
 40
1.0
 10
272.8646324804
 20
100.2332867254
 30
0.0
 10
274.090035918
 20
100.3842837328
 30
0.0
 10
276.5382463813
 20
100.7068730815
 30
0.0
 10
278.9864568446
 20
101.0294624302
 30
0.0
 10
280.2118602821
 20
101.1804594376
 30
0.0
  0
SPLINE
  5
415
100
AcDbEntity
  8
0
100
AcDbSpline
 62
7
  6
CONTINUOUS
 70
0
 71
3
 72
9
 73
5
 74
0
 42
0.0000001
 43
0.0000001
 44
0.0000000001
 40
0.0
 40
0.0
 40
0.0
 40
0.0
 40
0.5
 40
1.0
 40
1.0
 40
1.0
 40
1.0
 10
280.2118602821
 20
857.1773118234
 30
0.0
 10
278.9864568446
 20
857.3283088308
 30
0.0
 10
276.5382463813
 20
857.6508981795
 30
0.0
 10
274.090035918
 20
857.9734875282
 30
0.0
 10
272.8646324804
 20
858.1244845356
 30
0.0
  0
SPLINE
  5
416
100
AcDbEntity
  8
0
100
AcDbSpline
 62
7
  6
CONTINUOUS
 70
0
 71
3
 72
8
 73
4
 74
0
 42
0.0000001
 43
0.0000001
 44
0.0000000001
 40
0.0
 40
0.0
 40
0.0
 40
0.0
 40
1.0
 40
1.0
 40
1.0
 40
1.0
 10
272.7869131067
 20
100.277992915
 30
0.0
 10
272.7453127336
 20
100.2530256936
 30
0.0
 10
272.7036571358
 20
100.228148683
 30
0.0
 10
272.6622254626
 20
100.2029025022
 30
0.0
  0
SPLINE
  5
417
100
AcDbEntity
  8
0
100
AcDbSpline
 62
7
  6
CONTINUOUS
 70
0
 71
3
 72
11
 73
7
 74
0
 42
0.0000001
 43
0.0000001
 44
0.0000000001
 40
0.0
 40
0.0
 40
0.0
 40
0.0
 40
0.2488864237
 40
0.4879349013
 40
0.7247134052
 40
1.0
 40
1.0
 40
1.0
 40
1.0
 10
273.0392320757
 20
861.4803405439
 30
0.0
 10
272.906297049
 20
861.222651643
 30
0.0
 10
272.6276337372
 20
860.7282640654
 30
0.0
 10
272.3449371072
 20
859.9176852372
 30
0.0
 10
272.4124578707
 20
859.0182242348
 30
0.0
 10
272.6827174316
 20
858.4780333194
 30
0.0
 10
272.8293421809
 20
858.1927988315
 30
0.0
  0
SPLINE
  5
418
100
AcDbEntity
  8
0
100
AcDbSpline
 62
7
  6
CONTINUOUS
 70
0
 71
3
 72
13
 73
9
 74
0
 42
0.0000001
 43
0.0000001
 44
0.0000000001
 40
0.0
 40
0.0
 40
0.0
 40
0.0
 40
0.193977863
 40
0.3474996235
 40
0.4596617556
 40
0.5967522478
 40
0.788391529
 40
1.0
 40
1.0
 40
1.0
 40
1.0
 10
272.6003713864
 20
858.192370447
 30
0.0
 10
272.3274788504
 20
858.3586561114
 30
0.0
 10
271.8543377249
 20
858.668093509
 30
0.0
 10
271.2482953081
 20
859.1702934589
 30
0.0
 10
271.130406452
 20
859.9002117348
 30
0.0
 10
271.6689409918
 20
860.4730147351
 30
0.0
 10
272.3912525284
 20
860.9636996854
 30
0.0
 10
272.9704919284
 20
861.2989662547
 30
0.0
 10
273.2682028702
 20
861.4803405439
 30
0.0
  0
SPLINE
  5
419
100
AcDbEntity
  8
0
100
AcDbSpline
 62
7
  6
CONTINUOUS
 70
0
 71
3
 72
10
 73
6
 74
0
 42
0.0000001
 43
0.0000001
 44
0.0000000001
 40
0.0
 40
0.0
 40
0.0
 40
0.0
 40
0.3420934499
 40
0.6758503865
 40
1.0
 40
1.0
 40
1.0
 40
1.0
 10
273.2682028702
 20
862.6582931641
 30
0.0
 10
273.2420585852
 20
862.5237924776
 30
0.0
 10
273.1808739946
 20
862.260050917
 30
0.0
 10
273.0835683051
 20
861.8712514941
 30
0.0
 10
273.0447250107
 20
861.6103448009
 30
0.0
 10
273.024925156
 20
861.4820323876
 30
0.0
  0
SPLINE
  5
41A
100
AcDbEntity
  8
0
100
AcDbSpline
 62
7
  6
CONTINUOUS
 70
0
 71
3
 72
12
 73
8
 74
0
 42
0.0000001
 43
0.0000001
 44
0.0000000001
 40
0.0
 40
0.0
 40
0.0
 40
0.0
 40
0.1642256972
 40
0.3529120344
 40
0.5552996748
 40
0.7716413299
 40
1.0
 40
1.0
 40
1.0
 40
1.0
 10
273.024925156
 20
861.4820323876
 30
0.0
 10
273.0310559692
 20
861.5475235248
 30
0.0
 10
273.0893740736
 20
861.6798666336
 30
0.0
 10
273.1175489274
 20
861.9011126458
 30
0.0
 10
273.1683057467
 20
862.1390447413
 30
0.0
 10
273.2164546465
 20
862.3937285343
 30
0.0
 10
273.2507505803
 20
862.5685089159
 30
0.0
 10
273.2682028702
 20
862.6582931641
 30
0.0
  0
SPLINE
  5
41B
100
AcDbEntity
  8
0
100
AcDbSpline
 62
7
  6
CONTINUOUS
 70
0
 71
3
 72
11
 73
7
 74
0
 42
0.0000001
 43
0.0000001
 44
0.0000000001
 40
0.0
 40
0.0
 40
0.0
 40
0.0
 40
0.2359391284
 40
0.4673165565
 40
0.7095958186
 40
1.0
 40
1.0
 40
1.0
 40
1.0
 10
272.889773458
 20
858.0783807635
 30
0.0
 10
272.7579923128
 20
858.3300447637
 30
0.0
 10
272.4943950654
 20
858.8288816843
 30
0.0
 10
272.3208324843
 20
859.6884887908
 30
0.0
 10
272.5481114939
 20
860.6051719526
 30
0.0
 10
272.8766445065
 20
861.1575487157
 30
0.0
 10
273.0367788923
 20
861.4683816714
 30
0.0
  0
SPLINE
  5
41C
100
AcDbEntity
  8
0
100
AcDbSpline
 62
7
  6
CONTINUOUS
 70
0
 71
3
 72
13
 73
9
 74
0
 42
0.0000001
 43
0.0000001
 44
0.0000000001
 40
0.0
 40
0.0
 40
0.0
 40
0.0
 40
0.2065944729
 40
0.3874224974
 40
0.5151912474
 40
0.6312892225
 40
0.7971858232
 40
1.0
 40
1.0
 40
1.0
 40
1.0
 10
273.0714982521
 20
861.3617535955
 30
0.0
 10
272.7798474663
 20
861.1869070537
 30
0.0
 10
272.2277095034
 20
860.85926378
 30
0.0
 10
271.5442943083
 20
860.3814155931
 30
0.0
 10
271.088522658
 20
859.7603133106
 30
0.0
 10
271.3506560146
 20
859.0559618895
 30
0.0
 10
271.9960443919
 20
858.571176012
 30
0.0
 10
272.5083987618
 20
858.2492815068
 30
0.0
 10
272.7947168335
 20
858.0776409297
 30
0.0
  0
SPLINE
  5
41D
100
AcDbEntity
  8
0
100
AcDbSpline
 62
7
  6
CONTINUOUS
 70
0
 71
3
 72
11
 73
7
 74
0
 42
0.0000001
 43
0.0000001
 44
0.0000000001
 40
0.0
 40
0.0
 40
0.0
 40
0.0
 40
0.2487612837
 40
0.481592345
 40
0.7193336117
 40
1.0
 40
1.0
 40
1.0
 40
1.0
 10
272.889773458
 20
100.2810611599
 30
0.0
 10
272.7506740243
 20
100.0155561717
 30
0.0
 10
272.4751391127
 20
99.5013029273
 30
0.0
 10
272.3252910117
 20
98.6235057961
 30
0.0
 10
272.5605526316
 20
97.7271364928
 30
0.0
 10
272.8820049708
 20
97.189976342
 30
0.0
 10
273.0368863579
 20
96.8893493597
 30
0.0
  0
SPLINE
  5
41E
100
AcDbEntity
  8
0
100
AcDbSpline
 62
7
  6
CONTINUOUS
 70
0
 71
3
 72
13
 73
9
 74
0
 42
0.0000001
 43
0.0000001
 44
0.0000000001
 40
0.0
 40
0.0
 40
0.0
 40
0.0
 40
0.2007304727
 40
0.3659375889
 40
0.4818140036
 40
0.6084871632
 40
0.7897322405
 40
1.0
 40
1.0
 40
1.0
 40
1.0
 10
272.7947168335
 20
100.2808213244
 30
0.0
 10
272.5113376498
 20
100.1108146886
 30
0.0
 10
272.0007325722
 20
99.7931160035
 30
0.0
 10
271.3617029554
 20
99.3117609953
 30
0.0
 10
271.0861597819
 20
98.6175605016
 30
0.0
 10
271.5290942197
 20
97.9877970918
 30
0.0
 10
272.2172109625
 20
97.5058931774
 30
0.0
 10
272.7746613243
 20
97.1742036074
 30
0.0
 10
273.0714982521
 20
96.9961087586
 30
0.0
  0
SPLINE
  5
41F
100
AcDbEntity
  8
0
100
AcDbSpline
 62
7
  6
CONTINUOUS
 70
0
 71
3
 72
8
 73
4
 74
0
 42
0.0000001
 43
0.0000001
 44
0.0000000001
 40
0.0
 40
0.0
 40
0.0
 40
0.0
 40
1.0
 40
1.0
 40
1.0
 40
1.0
 10
273.0714982521
 20
861.3617535656
 30
0.0
 10
273.1153563731
 20
861.3880467942
 30
0.0
 10
273.1592974438
 20
861.414203719
 30
0.0
 10
273.2029764812
 20
861.4407933849
 30
0.0
  0
SPLINE
  5
420
100
AcDbEntity
  8
0
100
AcDbSpline
 62
7
  6
CONTINUOUS
 70
0
 71
3
 72
15
 73
11
 74
0
 42
0.0000001
 43
0.0000001
 44
0.0000000001
 40
0.0
 40
0.0
 40
0.0
 40
0.0
 40
0.1256874276
 40
0.2500581855
 40
0.3738910932
 40
0.4987719185
 40
0.6235571495
 40
0.7480199777
 40
0.8736539027
 40
1.0
 40
1.0
 40
1.0
 40
1.0
 10
324.0682032677
 20
185.3788856305
 30
0.0
 10
324.0682032677
 20
185.8104377483
 30
0.0
 10
324.2411126881
 20
186.6785657383
 30
0.0
 10
324.9740677639
 20
187.7709318666
 30
0.0
 10
326.0651215002
 20
188.5030319345
 30
0.0
 10
327.3545899534
 20
188.7644058023
 30
0.0
 10
328.6485171778
 20
188.5129080706
 30
0.0
 10
329.7493662489
 20
187.784948214
 30
0.0
 10
330.4959042779
 20
186.6875966009
 30
0.0
 10
330.661967546
 20
185.8126545057
 30
0.0
 10
330.6682024728
 20
185.3788856305
 30
0.0
  0
SPLINE
  5
421
100
AcDbEntity
  8
0
100
AcDbSpline
 62
7
  6
CONTINUOUS
 70
0
 71
3
 72
15
 73
11
 74
0
 42
0.0000001
 43
0.0000001
 44
0.0000000001
 40
0.0
 40
0.0
 40
0.0
 40
0.0
 40
0.1256874276
 40
0.2500581855
 40
0.3738910932
 40
0.4987719185
 40
0.6235571495
 40
0.7480199777
 40
0.8736539027
 40
1.0
 40
1.0
 40
1.0
 40
1.0
 10
330.6682024728
 20
185.3788856305
 30
0.0
 10
330.6682024728
 20
184.9473335127
 30
0.0
 10
330.4952930524
 20
184.0792055227
 30
0.0
 10
329.7623379766
 20
182.9868393944
 30
0.0
 10
328.6712842403
 20
182.2547393266
 30
0.0
 10
327.3818157871
 20
181.9933654588
 30
0.0
 10
326.0878885627
 20
182.2448631905
 30
0.0
 10
324.9870394916
 20
182.972823047
 30
0.0
 10
324.2405014626
 20
184.0701746602
 30
0.0
 10
324.0744381945
 20
184.9451167553
 30
0.0
 10
324.0682032677
 20
185.3788856305
 30
0.0
  0
SPLINE
  5
422
100
AcDbEntity
  8
0
100
AcDbSpline
 62
7
  6
CONTINUOUS
 70
0
 71
3
 72
10
 73
6
 74
0
 42
0.0000001
 43
0.0000001
 44
0.0000000001
 40
0.0
 40
0.0
 40
0.0
 40
0.0
 40
0.2468396648
 40
0.5870972566
 40
1.0
 40
1.0
 40
1.0
 40
1.0
 10
416.9682028702
 20
82.0788856305
 30
0.0
 10
416.9682028702
 20
81.8753332373
 30
0.0
 10
416.7267030459
 20
81.4082080145
 30
0.0
 10
416.0779006617
 20
80.8991094745
 30
0.0
 10
415.5554309329
 20
80.5617406944
 30
0.0
 10
415.2682028702
 20
80.3788856305
 30
0.0
  0
SPLINE
  5
423
100
AcDbEntity
  8
0
100
AcDbSpline
 62
7
  6
CONTINUOUS
 70
0
 71
3
 72
10
 73
6
 74
0
 42
0.0000001
 43
0.0000001
 44
0.0000000001
 40
0.0
 40
0.0
 40
0.0
 40
0.0
 40
0.4129037298
 40
0.7531610635
 40
1.0
 40
1.0
 40
1.0
 40
1.0
 10
415.2682028702
 20
877.9788856305
 30
0.0
 10
415.5554316255
 20
877.7960301257
 30
0.0
 10
416.0779018484
 20
877.4586610369
 30
0.0
 10
416.7267040941
 20
876.9495620384
 30
0.0
 10
416.9682028702
 20
876.4824374277
 30
0.0
 10
416.9682028702
 20
876.2788856305
 30
0.0
  0
SPLINE
  5
424
100
AcDbEntity
  8
0
100
AcDbSpline
 62
7
  6
CONTINUOUS
 70
0
 71
3
 72
10
 73
6
 74
0
 42
0.0000001
 43
0.0000001
 44
0.0000000001
 40
0.0
 40
0.0
 40
0.0
 40
0.0
 40
0.2468396648
 40
0.5870972566
 40
1.0
 40
1.0
 40
1.0
 40
1.0
 10
292.3682028702
 20
876.2788856305
 30
0.0
 10
292.3682028702
 20
876.4824380237
 30
0.0
 10
292.6097026946
 20
876.9495632466
 30
0.0
 10
293.2585050789
 20
877.4586617866
 30
0.0
 10
293.7809748076
 20
877.7960305667
 30
0.0
 10
294.0682028702
 20
877.9788856305
 30
0.0
  0
SPLINE
  5
425
100
AcDbEntity
  8
0
100
AcDbSpline
 62
7
  6
CONTINUOUS
 70
0
 71
3
 72
10
 73
6
 74
0
 42
0.0000001
 43
0.0000001
 44
0.0000000001
 40
0.0
 40
0.0
 40
0.0
 40
0.0
 40
0.4129037298
 40
0.7531610635
 40
1.0
 40
1.0
 40
1.0
 40
1.0
 10
294.0682028702
 20
80.3788856305
 30
0.0
 10
293.780974115
 20
80.5617411353
 30
0.0
 10
293.2585038922
 20
80.8991102242
 30
0.0
 10
292.6097016463
 20
81.4082092227
 30
0.0
 10
292.3682028702
 20
81.8753338334
 30
0.0
 10
292.3682028702
 20
82.0788856305
 30
0.0
  0
LINE
  5
426
100
AcDbEntity
  8
0
100
AcDbLine
 62
7
  6
CONTINUOUS
 10
289.6750735191
 20
800.3294893146
 11
289.463049406
 21
800.3199938923
  0
LINE
  5
427
100
AcDbEntity
  8
0
100
AcDbLine
 62
7
  6
CONTINUOUS
 10
289.4630494808
 20
800.3199893433
 11
288.9682028702
 21
800.2563593139
  0
SPLINE
  5
428
100
AcDbEntity
  8
0
100
AcDbSpline
 62
7
  6
CONTINUOUS
 70
0
 71
3
 72
8
 73
4
 74
0
 42
0.0000001
 43
0.0000001
 44
0.0000000001
 40
0.0
 40
0.0
 40
0.0
 40
0.0
 40
1.0
 40
1.0
 40
1.0
 40
1.0
 10
289.1130216366
 20
792.8995897246
 30
0.0
 10
289.1052111098
 20
792.8392952107
 30
0.0
 10
289.0937782819
 20
792.7705515673
 30
0.0
 10
289.1234656102
 20
792.7174940959
 30
0.0
  0
SPLINE
  5
429
100
AcDbEntity
  8
0
100
AcDbSpline
 62
7
  6
CONTINUOUS
 70
0
 71
3
 72
10
 73
6
 74
0
 42
0.0000001
 43
0.0000001
 44
0.0000000001
 40
0.0
 40
0.0
 40
0.0
 40
0.0
 40
0.3186122812
 40
0.6614989752
 40
1.0
 40
1.0
 40
1.0
 40
1.0
 10
289.6682028702
 20
800.3356473992
 30
0.0
 10
289.6081726989
 20
800.3270716605
 30
0.0
 10
289.4803459442
 20
800.3252658524
 30
0.0
 10
289.2952440224
 20
800.3853198664
 30
0.0
 10
289.1648547546
 20
800.3577107592
 30
0.0
 10
289.1010773181
 20
800.3485996968
 30
0.0
  0
SPLINE
  5
42A
100
AcDbEntity
  8
0
100
AcDbSpline
 62
7
  6
CONTINUOUS
 70
0
 71
3
 72
8
 73
4
 74
0
 42
0.0000001
 43
0.0000001
 44
0.0000000001
 40
0.0
 40
0.0
 40
0.0
 40
0.0
 40
1.0
 40
1.0
 40
1.0
 40
1.0
 10
289.4630494127
 20
800.3199938927
 30
0.0
 10
289.4595662234
 20
800.3762263253
 30
0.0
 10
289.4591261278
 20
800.4728971857
 30
0.0
 10
289.5149000887
 20
800.4808648944
 30
0.0
  0
LINE
  5
42B
100
AcDbEntity
  8
0
100
AcDbLine
 62
7
  6
CONTINUOUS
 10
289.4630494808
 20
792.8377829713
 11
288.9682028702
 21
792.9014130389
  0
SPLINE
  5
42C
100
AcDbEntity
  8
0
100
AcDbSpline
 62
7
  6
CONTINUOUS
 70
0
 71
3
 72
8
 73
4
 74
0
 42
0.0000001
 43
0.0000001
 44
0.0000000001
 40
0.0
 40
0.0
 40
0.0
 40
0.0
 40
1.0
 40
1.0
 40
1.0
 40
1.0
 10
289.5852871242
 20
792.6397876348
 30
0.0
 10
289.537010591
 20
792.6466813682
 30
0.0
 10
289.4740335804
 20
792.6895411668
 30
0.0
 10
289.477048719
 20
792.7382141178
 30
0.0
  0
SPLINE
  5
42D
100
AcDbEntity
  8
0
100
AcDbSpline
 62
7
  6
CONTINUOUS
 70
0
 71
3
 72
11
 73
7
 74
0
 42
0.0000001
 43
0.0000001
 44
0.0000000001
 40
0.0
 40
0.0
 40
0.0
 40
0.0
 40
0.1215295266
 40
0.4013887151
 40
0.7084176996
 40
1.0
 40
1.0
 40
1.0
 40
1.0
 10
289.6682028702
 20
835.1688605047
 30
0.0
 10
289.6682028702
 20
835.0775933523
 30
0.0
 10
289.9159045107
 20
834.8425343711
 30
0.0
 10
290.172844984
 20
834.4022890225
 30
0.0
 10
290.5414090164
 20
833.8454602689
 30
0.0
 10
290.6682028702
 20
833.3978602862
 30
0.0
 10
290.6682028702
 20
833.1788856305
 30
0.0
  0
SPLINE
  5
42E
100
AcDbEntity
  8
0
100
AcDbSpline
 62
7
  6
CONTINUOUS
 70
0
 71
3
 72
10
 73
6
 74
0
 42
0.0000001
 43
0.0000001
 44
0.0000000001
 40
0.0
 40
0.0
 40
0.0
 40
0.0
 40
0.3114022751
 40
0.6434021456
 40
1.0
 40
1.0
 40
1.0
 40
1.0
 10
283.1820242532
 20
826.8339366562
 30
0.0
 10
283.1656303123
 20
826.7975585424
 30
0.0
 10
283.1271022783
 20
826.7244325671
 30
0.0
 10
283.056015389
 20
826.617665294
 30
0.0
 10
283.0015603398
 20
826.5480817756
 30
0.0
 10
282.9717237312
 20
826.5134755376
 30
0.0
  0
SPLINE
  5
42F
100
AcDbEntity
  8
0
100
AcDbSpline
 62
7
  6
CONTINUOUS
 70
0
 71
3
 72
10
 73
6
 74
0
 42
0.0000001
 43
0.0000001
 44
0.0000000001
 40
0.0
 40
0.0
 40
0.0
 40
0.0
 40
0.3546095403
 40
0.6870709497
 40
1.0
 40
1.0
 40
1.0
 40
1.0
 10
282.9717237312
 20
828.8431923824
 30
0.0
 10
283.001328916
 20
828.8088558813
 30
0.0
 10
283.0562906795
 20
828.7401812163
 30
0.0
 10
283.1271298151
 20
828.633542019
 30
0.0
 10
283.1655864214
 20
828.5603101125
 30
0.0
 10
283.1820242532
 20
828.5238346048
 30
0.0
  0
SPLINE
  5
430
100
AcDbEntity
  8
0
100
AcDbSpline
 62
7
  6
CONTINUOUS
 70
0
 71
3
 72
10
 73
6
 74
0
 42
0.0000001
 43
0.0000001
 44
0.0000000001
 40
0.0
 40
0.0
 40
0.0
 40
0.0
 40
0.3553541288
 40
0.6885375884
 40
1.0
 40
1.0
 40
1.0
 40
1.0
 10
282.61444057
 20
829.1788856305
 30
0.0
 10
282.6599703618
 20
829.1427207059
 30
0.0
 10
282.7465882278
 20
829.0705819931
 30
0.0
 10
282.8662606331
 20
828.9588609441
 30
0.0
 10
282.9384446652
 20
828.8817899015
 30
0.0
 10
282.9717237312
 20
828.8431923824
 30
0.0
  0
SPLINE
  5
431
100
AcDbEntity
  8
0
100
AcDbSpline
 62
7
  6
CONTINUOUS
 70
0
 71
3
 72
20
 73
16
 74
0
 42
0.0000001
 43
0.0000001
 44
0.0000000001
 40
0.0
 40
0.0
 40
0.0
 40
0.0
 40
0.0756051484
 40
0.139669767
 40
0.2073550885
 40
0.2843316914
 40
0.3680223872
 40
0.4558185413
 40
0.5438227529
 40
0.6316345676
 40
0.7155297836
 40
0.792963839
 40
0.8610916865
 40
0.9250642942
 40
1.0
 40
1.0
 40
1.0
 40
1.0
 10
276.6895221071
 20
826.1788856305
 30
0.0
 10
276.5966566697
 20
826.1774795321
 30
0.0
 10
276.4194577507
 20
826.1985775664
 30
0.0
 10
276.2079479552
 20
826.3625588805
 30
0.0
 10
276.1094103818
 20
826.6071171385
 30
0.0
 10
276.071295257
 20
826.8853278579
 30
0.0
 10
276.0596850036
 20
827.1906523761
 30
0.0
 10
276.0581216826
 20
827.509362675
 30
0.0
 10
276.0581120732
 20
827.8332228263
 30
0.0
 10
276.0594959906
 20
828.1522033841
 30
0.0
 10
276.0702825863
 20
828.4583759334
 30
0.0
 10
276.1066500059
 20
828.7381225243
 30
0.0
 10
276.2010105775
 20
828.9848855466
 30
0.0
 10
276.4073478
 20
829.1546413124
 30
0.0
 10
276.5835511966
 20
829.1788856305
 30
0.0
 10
276.6756049111
 20
829.1788856305
 30
0.0
  0
SPLINE
  5
432
100
AcDbEntity
  8
0
100
AcDbSpline
 62
7
  6
CONTINUOUS
 70
0
 71
3
 72
10
 73
6
 74
0
 42
0.0000001
 43
0.0000001
 44
0.0000000001
 40
0.0
 40
0.0
 40
0.0
 40
0.0
 40
0.3159351319
 40
0.6422333055
 40
1.0
 40
1.0
 40
1.0
 40
1.0
 10
282.9717237312
 20
826.513476102
 30
0.0
 10
282.9374234195
 20
826.4736926007
 30
0.0
 10
282.8643221259
 20
826.3955752236
 30
0.0
 10
282.7387135791
 20
826.2863850743
 30
0.0
 10
282.6496167941
 20
826.2157012415
 30
0.0
 10
282.6028952905
 20
826.1788856305
 30
0.0
  0
SPLINE
  5
433
100
AcDbEntity
  8
0
100
AcDbSpline
 62
7
  6
CONTINUOUS
 70
0
 71
3
 72
15
 73
11
 74
0
 42
0.0000001
 43
0.0000001
 44
0.0000000001
 40
0.0
 40
0.0
 40
0.0
 40
0.0
 40
0.1056114122
 40
0.2299126714
 40
0.3646954272
 40
0.5000048771
 40
0.6353149409
 40
0.7700803327
 40
0.8943852143
 40
1.0
 40
1.0
 40
1.0
 40
1.0
 10
283.1820242532
 20
826.8339366562
 30
0.0
 10
283.2066805463
 20
826.888648909
 30
0.0
 10
283.2359270427
 20
827.0179365189
 30
0.0
 10
283.2517647479
 20
827.2243374076
 30
0.0
 10
283.2562501261
 20
827.448561232
 30
0.0
 10
283.2570184236
 20
827.6788942777
 30
0.0
 10
283.2562500481
 20
827.9092174617
 30
0.0
 10
283.2517644142
 20
828.133433796
 30
0.0
 10
283.2359280327
 20
828.3398288277
 30
0.0
 10
283.2066813339
 20
828.4691206044
 30
0.0
 10
283.1820242532
 20
828.5238346048
 30
0.0
  0
SPLINE
  5
434
100
AcDbEntity
  8
0
100
AcDbSpline
 62
7
  6
CONTINUOUS
 70
0
 71
3
 72
15
 73
11
 74
0
 42
0.0000001
 43
0.0000001
 44
0.0000000001
 40
0.0
 40
0.0
 40
0.0
 40
0.0
 40
0.137106156
 40
0.2233637424
 40
0.3221818417
 40
0.4329975687
 40
0.5559974123
 40
0.6915918548
 40
0.8405157265
 40
1.0
 40
1.0
 40
1.0
 40
1.0
 10
281.814866803
 20
824.7503142019
 30
0.0
 10
281.8923124959
 20
824.7503142019
 30
0.0
 10
282.0143730384
 20
824.822132981
 30
0.0
 10
282.126845632
 20
824.9631534992
 30
0.0
 10
282.2141523022
 20
825.1067632343
 30
0.0
 10
282.2956520731
 20
825.2760865858
 30
0.0
 10
282.373668579
 20
825.4697482744
 30
0.0
 10
282.4509057338
 20
825.6867308972
 30
0.0
 10
282.518550805
 20
825.928304991
 30
0.0
 10
282.5805240192
 20
826.0916213977
 30
0.0
 10
282.6028952905
 20
826.1788856305
 30
0.0
  0
SPLINE
  5
435
100
AcDbEntity
  8
0
100
AcDbSpline
 62
7
  6
CONTINUOUS
 70
0
 71
3
 72
15
 73
11
 74
0
 42
0.0000001
 43
0.0000001
 44
0.0000000001
 40
0.0
 40
0.0
 40
0.0
 40
0.0
 40
0.1782738105
 40
0.3413217
 40
0.4885231393
 40
0.6204079135
 40
0.7371518928
 40
0.8386885502
 40
0.9259502013
 40
1.0
 40
1.0
 40
1.0
 40
1.0
 10
276.6895221071
 20
826.1788856305
 30
0.0
 10
276.7153143248
 20
826.0802259241
 30
0.0
 10
276.7742348543
 20
825.8939784671
 30
0.0
 10
276.8572366061
 20
825.6271289144
 30
0.0
 10
276.9466312045
 20
825.39035773
 30
0.0
 10
277.0396790429
 20
825.1837406085
 30
0.0
 10
277.1387760474
 20
825.0091428836
 30
0.0
 10
277.2462565464
 20
824.8703477447
 30
0.0
 10
277.3655736067
 20
824.7746188294
 30
0.0
 10
277.4585880872
 20
824.7503142019
 30
0.0
 10
277.5009457147
 20
824.7503142019
 30
0.0
  0
SPLINE
  5
436
100
AcDbEntity
  8
0
100
AcDbSpline
 62
7
  6
CONTINUOUS
 70
0
 71
3
 72
10
 73
6
 74
0
 42
0.0000001
 43
0.0000001
 44
0.0000000001
 40
0.0
 40
0.0
 40
0.0
 40
0.0
 40
0.3449387692
 40
0.6780748212
 40
1.0
 40
1.0
 40
1.0
 40
1.0
 10
281.3825512736
 20
826.1788856305
 30
0.0
 10
281.4094709048
 20
826.2155415579
 30
0.0
 10
281.4607345454
 20
826.2888393818
 30
0.0
 10
281.5305354992
 20
826.4007645212
 30
0.0
 10
281.5718950951
 20
826.4766602134
 30
0.0
 10
281.590966451
 20
826.5145788791
 30
0.0
  0
SPLINE
  5
437
100
AcDbEntity
  8
0
100
AcDbSpline
 62
7
  6
CONTINUOUS
 70
0
 71
3
 72
11
 73
7
 74
0
 42
0.0000001
 43
0.0000001
 44
0.0000000001
 40
0.0
 40
0.0
 40
0.0
 40
0.0
 40
0.3738959956
 40
0.6670569716
 40
0.8595082559
 40
1.0
 40
1.0
 40
1.0
 40
1.0
 10
277.5580717272
 20
827.6788856305
 30
0.0
 10
277.5580717272
 20
827.4731305324
 30
0.0
 10
277.5558296788
 20
827.1036767691
 30
0.0
 10
277.5802729744
 20
826.6385956877
 30
0.0
 10
277.6551729077
 20
826.2820274096
 30
0.0
 10
277.8409178164
 20
826.1788856305
 30
0.0
 10
277.9182304727
 20
826.1788856305
 30
0.0
  0
SPLINE
  5
438
100
AcDbEntity
  8
0
100
AcDbSpline
 62
7
  6
CONTINUOUS
 70
0
 71
3
 72
13
 73
9
 74
0
 42
0.0000001
 43
0.0000001
 44
0.0000000001
 40
0.0
 40
0.0
 40
0.0
 40
0.0
 40
0.0867038686
 40
0.1814315442
 40
0.3124685761
 40
0.4961140472
 40
0.7304400511
 40
1.0
 40
1.0
 40
1.0
 40
1.0
 10
277.9182304726
 20
829.1788856305
 30
0.0
 10
277.8703008918
 20
829.1788856305
 30
0.0
 10
277.7661619759
 20
829.1519419922
 30
0.0
 10
277.6540375184
 20
829.0096650606
 30
0.0
 10
277.5933970023
 20
828.7891960278
 30
0.0
 10
277.564851036
 20
828.4865475046
 30
0.0
 10
277.5580900017
 20
828.1064254558
 30
0.0
 10
277.5580717272
 20
827.8278973825
 30
0.0
 10
277.5580717272
 20
827.6788856305
 30
0.0
  0
SPLINE
  5
439
100
AcDbEntity
  8
0
100
AcDbSpline
 62
7
  6
CONTINUOUS
 70
0
 71
3
 72
10
 73
6
 74
0
 42
0.0000001
 43
0.0000001
 44
0.0000000001
 40
0.0
 40
0.0
 40
0.0
 40
0.0
 40
0.3219270158
 40
0.6550632006
 40
1.0
 40
1.0
 40
1.0
 40
1.0
 10
281.590966451
 20
828.8431923794
 30
0.0
 10
281.571894986
 20
828.8811112616
 30
0.0
 10
281.5305352538
 20
828.957007177
 30
0.0
 10
281.4607342592
 20
829.0689322916
 30
0.0
 10
281.4094707512
 20
829.1422299123
 30
0.0
 10
281.3825512736
 20
829.1788856305
 30
0.0
  0
SPLINE
  5
43A
100
AcDbEntity
  8
0
100
AcDbSpline
 62
7
  6
CONTINUOUS
 70
0
 71
3
 72
9
 73
5
 74
0
 42
0.0000001
 43
0.0000001
 44
0.0000000001
 40
0.0
 40
0.0
 40
0.0
 40
0.0
 40
0.6573984213
 40
1.0
 40
1.0
 40
1.0
 40
1.0
 10
281.7136417555
 20
828.5238346048
 30
0.0
 10
281.694559083
 20
828.5964250093
 30
0.0
 10
281.6567487035
 20
828.7047053198
 30
0.0
 10
281.6085420381
 20
828.8082476799
 30
0.0
 10
281.590966451
 20
828.8431923794
 30
0.0
  0
SPLINE
  5
43B
100
AcDbEntity
  8
0
100
AcDbSpline
 62
7
  6
CONTINUOUS
 70
0
 71
3
 72
11
 73
7
 74
0
 42
0.0000001
 43
0.0000001
 44
0.0000000001
 40
0.0
 40
0.0
 40
0.0
 40
0.0
 40
0.2097967081
 40
0.5000851637
 40
0.7902969299
 40
1.0
 40
1.0
 40
1.0
 40
1.0
 10
281.7136417555
 20
826.8339366562
 30
0.0
 10
281.743762438
 20
826.9485156033
 30
0.0
 10
281.7557065582
 20
827.2338544571
 30
0.0
 10
281.7581002753
 20
827.6789867153
 30
0.0
 10
281.7557064671
 20
828.1240673466
 30
0.0
 10
281.7437489943
 20
828.4093067974
 30
0.0
 10
281.7136417555
 20
828.5238346048
 30
0.0
  0
SPLINE
  5
43C
100
AcDbEntity
  8
0
100
AcDbSpline
 62
7
  6
CONTINUOUS
 70
0
 71
3
 72
9
 73
5
 74
0
 42
0.0000001
 43
0.0000001
 44
0.0000000001
 40
0.0
 40
0.0
 40
0.0
 40
0.0
 40
0.3426026431
 40
1.0
 40
1.0
 40
1.0
 40
1.0
 10
281.590966451
 20
826.5145788791
 30
0.0
 10
281.6085420926
 20
826.5495236876
 30
0.0
 10
281.6567487474
 20
826.6530660545
 30
0.0
 10
281.6945591138
 20
826.7613463686
 30
0.0
 10
281.7136417555
 20
826.8339366562
 30
0.0
  0
SPLINE
  5
43D
100
AcDbEntity
  8
0
100
AcDbSpline
 62
7
  6
CONTINUOUS
 70
0
 71
3
 72
10
 73
6
 74
0
 42
0.0000001
 43
0.0000001
 44
0.0000000001
 40
0.0
 40
0.0
 40
0.0
 40
0.0
 40
0.2140486539
 40
0.552106749
 40
1.0
 40
1.0
 40
1.0
 40
1.0
 10
279.2615849696
 20
820.4788856305
 30
0.0
 10
279.398736915
 20
820.4788856305
 30
0.0
 10
279.7134662781
 20
820.2165957035
 30
0.0
 10
279.9260451859
 20
819.6154690271
 30
0.0
 10
280.0113320722
 20
819.1134091753
 30
0.0
 10
280.0311114881
 20
818.8271034256
 30
0.0
  0
SPLINE
  5
43E
100
AcDbEntity
  8
0
100
AcDbSpline
 62
7
  6
CONTINUOUS
 70
0
 71
3
 72
10
 73
6
 74
0
 42
0.0000001
 43
0.0000001
 44
0.0000000001
 40
0.0
 40
0.0
 40
0.0
 40
0.0
 40
0.3029027016
 40
0.6380021946
 40
1.0
 40
1.0
 40
1.0
 40
1.0
 10
280.5062102212
 20
815.3750380532
 30
0.0
 10
280.5711914343
 20
815.3129938871
 30
0.0
 10
280.7072294679
 20
815.1814289628
 30
0.0
 10
280.9155279393
 20
814.970213635
 30
0.0
 10
281.0551934175
 20
814.8176304162
 30
0.0
 10
281.1256552753
 20
814.7366115993
 30
0.0
  0
SPLINE
  5
43F
100
AcDbEntity
  8
0
100
AcDbSpline
 62
7
  6
CONTINUOUS
 70
0
 71
3
 72
12
 73
8
 74
0
 42
0.0000001
 43
0.0000001
 44
0.0000000001
 40
0.0
 40
0.0
 40
0.0
 40
0.0
 40
0.2609048691
 40
0.4884150336
 40
0.6840180471
 40
0.8521336106
 40
1.0
 40
1.0
 40
1.0
 40
1.0
 10
280.0403296883
 20
817.1070888608
 30
0.0
 10
280.0403296883
 20
816.9473169166
 30
0.0
 10
280.0508236273
 20
816.6480612575
 30
0.0
 10
280.1011226794
 20
816.2315533469
 30
0.0
 10
280.1891492827
 20
815.8789292389
 30
0.0
 10
280.3194503152
 20
815.5916195951
 30
0.0
 10
280.4407188539
 20
815.4375693154
 30
0.0
 10
280.5062102212
 20
815.3750380532
 30
0.0
  0
SPLINE
  5
440
100
AcDbEntity
  8
0
100
AcDbSpline
 62
7
  6
CONTINUOUS
 70
0
 71
3
 72
12
 73
8
 74
0
 42
0.0000001
 43
0.0000001
 44
0.0000000001
 40
0.0
 40
0.0
 40
0.0
 40
0.0
 40
0.2000627056
 40
0.4000217871
 40
0.6000226953
 40
0.7999667654
 40
1.0
 40
1.0
 40
1.0
 40
1.0
 10
281.1256552753
 20
814.7366115994
 30
0.0
 10
281.6414091576
 20
814.2867729111
 30
0.0
 10
282.522019817
 20
813.1974851866
 30
0.0
 10
283.2133264591
 20
811.224679891
 30
0.0
 10
283.2132473544
 20
809.1326780909
 30
0.0
 10
282.5218678086
 20
807.1600681793
 30
0.0
 10
281.6413331824
 20
806.0709320846
 30
0.0
 10
281.1256552752
 20
805.6211596616
 30
0.0
  0
SPLINE
  5
441
100
AcDbEntity
  8
0
100
AcDbSpline
 62
7
  6
CONTINUOUS
 70
0
 71
3
 72
10
 73
6
 74
0
 42
0.0000001
 43
0.0000001
 44
0.0000000001
 40
0.0
 40
0.0
 40
0.0
 40
0.0
 40
0.3114022751
 40
0.6434021456
 40
1.0
 40
1.0
 40
1.0
 40
1.0
 10
283.1820242532
 20
551.8339366562
 30
0.0
 10
283.1656303123
 20
551.7975585424
 30
0.0
 10
283.1271022783
 20
551.7244325671
 30
0.0
 10
283.056015389
 20
551.617665294
 30
0.0
 10
283.0015603398
 20
551.5480817756
 30
0.0
 10
282.9717237312
 20
551.5134755376
 30
0.0
  0
SPLINE
  5
442
100
AcDbEntity
  8
0
100
AcDbSpline
 62
7
  6
CONTINUOUS
 70
0
 71
3
 72
10
 73
6
 74
0
 42
0.0000001
 43
0.0000001
 44
0.0000000001
 40
0.0
 40
0.0
 40
0.0
 40
0.0
 40
0.3546095403
 40
0.6870709497
 40
1.0
 40
1.0
 40
1.0
 40
1.0
 10
282.9717237312
 20
553.8431923823
 30
0.0
 10
283.001328916
 20
553.8088558813
 30
0.0
 10
283.0562906795
 20
553.7401812163
 30
0.0
 10
283.1271298151
 20
553.633542019
 30
0.0
 10
283.1655864214
 20
553.5603101125
 30
0.0
 10
283.1820242532
 20
553.5238346048
 30
0.0
  0
SPLINE
  5
443
100
AcDbEntity
  8
0
100
AcDbSpline
 62
7
  6
CONTINUOUS
 70
0
 71
3
 72
10
 73
6
 74
0
 42
0.0000001
 43
0.0000001
 44
0.0000000001
 40
0.0
 40
0.0
 40
0.0
 40
0.0
 40
0.3553541287
 40
0.6885375883
 40
1.0
 40
1.0
 40
1.0
 40
1.0
 10
282.61444057
 20
554.1788856305
 30
0.0
 10
282.6599703618
 20
554.1427207059
 30
0.0
 10
282.7465882278
 20
554.0705819932
 30
0.0
 10
282.8662606331
 20
553.9588609441
 30
0.0
 10
282.9384446652
 20
553.8817899015
 30
0.0
 10
282.9717237312
 20
553.8431923823
 30
0.0
  0
SPLINE
  5
444
100
AcDbEntity
  8
0
100
AcDbSpline
 62
7
  6
CONTINUOUS
 70
0
 71
3
 72
20
 73
16
 74
0
 42
0.0000001
 43
0.0000001
 44
0.0000000001
 40
0.0
 40
0.0
 40
0.0
 40
0.0
 40
0.0756051484
 40
0.139669767
 40
0.2073550885
 40
0.2843316914
 40
0.3680223872
 40
0.4558185413
 40
0.543822753
 40
0.6316345676
 40
0.7155297837
 40
0.7929638391
 40
0.8610916866
 40
0.9250642942
 40
1.0
 40
1.0
 40
1.0
 40
1.0
 10
276.6895221071
 20
551.1788856305
 30
0.0
 10
276.5966566698
 20
551.1774795321
 30
0.0
 10
276.4194577507
 20
551.1985775664
 30
0.0
 10
276.2079479552
 20
551.3625588805
 30
0.0
 10
276.1094103818
 20
551.6071171385
 30
0.0
 10
276.071295257
 20
551.8853278579
 30
0.0
 10
276.0596850036
 20
552.1906523761
 30
0.0
 10
276.0581216826
 20
552.5093626751
 30
0.0
 10
276.0581120732
 20
552.8332228264
 30
0.0
 10
276.0594959907
 20
553.1522033842
 30
0.0
 10
276.0702825863
 20
553.4583759335
 30
0.0
 10
276.1066500059
 20
553.7381225244
 30
0.0
 10
276.2010105776
 20
553.9848855467
 30
0.0
 10
276.4073478
 20
554.1546413125
 30
0.0
 10
276.5835511966
 20
554.1788856305
 30
0.0
 10
276.6756049111
 20
554.1788856305
 30
0.0
  0
SPLINE
  5
445
100
AcDbEntity
  8
0
100
AcDbSpline
 62
7
  6
CONTINUOUS
 70
0
 71
3
 72
10
 73
6
 74
0
 42
0.0000001
 43
0.0000001
 44
0.0000000001
 40
0.0
 40
0.0
 40
0.0
 40
0.0
 40
0.3159351319
 40
0.6422333055
 40
1.0
 40
1.0
 40
1.0
 40
1.0
 10
282.9717237312
 20
551.513476102
 30
0.0
 10
282.9374234195
 20
551.4736926007
 30
0.0
 10
282.8643221259
 20
551.3955752236
 30
0.0
 10
282.7387135791
 20
551.2863850743
 30
0.0
 10
282.6496167941
 20
551.2157012415
 30
0.0
 10
282.6028952905
 20
551.1788856305
 30
0.0
  0
SPLINE
  5
446
100
AcDbEntity
  8
0
100
AcDbSpline
 62
7
  6
CONTINUOUS
 70
0
 71
3
 72
15
 73
11
 74
0
 42
0.0000001
 43
0.0000001
 44
0.0000000001
 40
0.0
 40
0.0
 40
0.0
 40
0.0
 40
0.1056114122
 40
0.2299126714
 40
0.3646954272
 40
0.5000048771
 40
0.635314941
 40
0.7700803328
 40
0.8943852143
 40
1.0
 40
1.0
 40
1.0
 40
1.0
 10
283.1820242532
 20
551.8339366562
 30
0.0
 10
283.2066805463
 20
551.888648909
 30
0.0
 10
283.2359270427
 20
552.0179365189
 30
0.0
 10
283.2517647479
 20
552.2243374076
 30
0.0
 10
283.2562501261
 20
552.448561232
 30
0.0
 10
283.2570184236
 20
552.6788942778
 30
0.0
 10
283.2562500481
 20
552.9092174617
 30
0.0
 10
283.2517644142
 20
553.133433796
 30
0.0
 10
283.2359280327
 20
553.3398288277
 30
0.0
 10
283.2066813339
 20
553.4691206044
 30
0.0
 10
283.1820242532
 20
553.5238346048
 30
0.0
  0
SPLINE
  5
447
100
AcDbEntity
  8
0
100
AcDbSpline
 62
7
  6
CONTINUOUS
 70
0
 71
3
 72
15
 73
11
 74
0
 42
0.0000001
 43
0.0000001
 44
0.0000000001
 40
0.0
 40
0.0
 40
0.0
 40
0.0
 40
0.137106156
 40
0.2233637424
 40
0.3221818417
 40
0.4329975688
 40
0.5559974123
 40
0.6915918548
 40
0.8405157265
 40
1.0
 40
1.0
 40
1.0
 40
1.0
 10
281.814866803
 20
549.7503142019
 30
0.0
 10
281.8923124958
 20
549.7503142019
 30
0.0
 10
282.0143730384
 20
549.822132981
 30
0.0
 10
282.126845632
 20
549.9631534992
 30
0.0
 10
282.2141523022
 20
550.1067632343
 30
0.0
 10
282.2956520731
 20
550.2760865858
 30
0.0
 10
282.373668579
 20
550.4697482744
 30
0.0
 10
282.4509057338
 20
550.6867308972
 30
0.0
 10
282.518550805
 20
550.928304991
 30
0.0
 10
282.5805240192
 20
551.0916213977
 30
0.0
 10
282.6028952905
 20
551.1788856305
 30
0.0
  0
SPLINE
  5
448
100
AcDbEntity
  8
0
100
AcDbSpline
 62
7
  6
CONTINUOUS
 70
0
 71
3
 72
15
 73
11
 74
0
 42
0.0000001
 43
0.0000001
 44
0.0000000001
 40
0.0
 40
0.0
 40
0.0
 40
0.0
 40
0.1782738105
 40
0.3413217
 40
0.4885231393
 40
0.6204079135
 40
0.7371518927
 40
0.8386885502
 40
0.9259502013
 40
1.0
 40
1.0
 40
1.0
 40
1.0
 10
276.6895221071
 20
551.1788856305
 30
0.0
 10
276.7153143249
 20
551.0802259241
 30
0.0
 10
276.7742348543
 20
550.8939784671
 30
0.0
 10
276.8572366061
 20
550.6271289144
 30
0.0
 10
276.9466312045
 20
550.39035773
 30
0.0
 10
277.0396790429
 20
550.1837406085
 30
0.0
 10
277.1387760474
 20
550.0091428836
 30
0.0
 10
277.2462565464
 20
549.8703477447
 30
0.0
 10
277.3655736067
 20
549.7746188293
 30
0.0
 10
277.4585880873
 20
549.7503142019
 30
0.0
 10
277.5009457147
 20
549.7503142019
 30
0.0
  0
SPLINE
  5
449
100
AcDbEntity
  8
0
100
AcDbSpline
 62
7
  6
CONTINUOUS
 70
0
 71
3
 72
10
 73
6
 74
0
 42
0.0000001
 43
0.0000001
 44
0.0000000001
 40
0.0
 40
0.0
 40
0.0
 40
0.0
 40
0.3449387692
 40
0.6780748213
 40
1.0
 40
1.0
 40
1.0
 40
1.0
 10
281.3825512736
 20
551.1788856305
 30
0.0
 10
281.4094709048
 20
551.2155415579
 30
0.0
 10
281.4607345454
 20
551.2888393819
 30
0.0
 10
281.5305354992
 20
551.4007645212
 30
0.0
 10
281.5718950952
 20
551.4766602134
 30
0.0
 10
281.590966451
 20
551.5145788792
 30
0.0
  0
SPLINE
  5
44A
100
AcDbEntity
  8
0
100
AcDbSpline
 62
7
  6
CONTINUOUS
 70
0
 71
3
 72
11
 73
7
 74
0
 42
0.0000001
 43
0.0000001
 44
0.0000000001
 40
0.0
 40
0.0
 40
0.0
 40
0.0
 40
0.3738959957
 40
0.6670569716
 40
0.8595082559
 40
1.0
 40
1.0
 40
1.0
 40
1.0
 10
277.5580717272
 20
552.6788856305
 30
0.0
 10
277.5580717272
 20
552.4731305324
 30
0.0
 10
277.5558296788
 20
552.1036767691
 30
0.0
 10
277.5802729744
 20
551.6385956877
 30
0.0
 10
277.6551729077
 20
551.2820274096
 30
0.0
 10
277.8409178164
 20
551.1788856305
 30
0.0
 10
277.9182304727
 20
551.1788856305
 30
0.0
  0
SPLINE
  5
44B
100
AcDbEntity
  8
0
100
AcDbSpline
 62
7
  6
CONTINUOUS
 70
0
 71
3
 72
13
 73
9
 74
0
 42
0.0000001
 43
0.0000001
 44
0.0000000001
 40
0.0
 40
0.0
 40
0.0
 40
0.0
 40
0.0867038685
 40
0.1814315442
 40
0.3124685761
 40
0.4961140472
 40
0.730440051
 40
1.0
 40
1.0
 40
1.0
 40
1.0
 10
277.9182304726
 20
554.1788856305
 30
0.0
 10
277.8703008919
 20
554.1788856305
 30
0.0
 10
277.766161976
 20
554.1519419922
 30
0.0
 10
277.6540375184
 20
554.0096650607
 30
0.0
 10
277.5933970023
 20
553.7891960278
 30
0.0
 10
277.564851036
 20
553.4865475046
 30
0.0
 10
277.5580900017
 20
553.1064254559
 30
0.0
 10
277.5580717272
 20
552.8278973826
 30
0.0
 10
277.5580717272
 20
552.6788856305
 30
0.0
  0
SPLINE
  5
44C
100
AcDbEntity
  8
0
100
AcDbSpline
 62
7
  6
CONTINUOUS
 70
0
 71
3
 72
10
 73
6
 74
0
 42
0.0000001
 43
0.0000001
 44
0.0000000001
 40
0.0
 40
0.0
 40
0.0
 40
0.0
 40
0.3219270158
 40
0.6550632006
 40
1.0
 40
1.0
 40
1.0
 40
1.0
 10
281.590966451
 20
553.8431923794
 30
0.0
 10
281.571894986
 20
553.8811112616
 30
0.0
 10
281.5305352538
 20
553.9570071769
 30
0.0
 10
281.4607342592
 20
554.0689322916
 30
0.0
 10
281.4094707512
 20
554.1422299123
 30
0.0
 10
281.3825512736
 20
554.1788856305
 30
0.0
  0
SPLINE
  5
44D
100
AcDbEntity
  8
0
100
AcDbSpline
 62
7
  6
CONTINUOUS
 70
0
 71
3
 72
9
 73
5
 74
0
 42
0.0000001
 43
0.0000001
 44
0.0000000001
 40
0.0
 40
0.0
 40
0.0
 40
0.0
 40
0.6573984214
 40
1.0
 40
1.0
 40
1.0
 40
1.0
 10
281.7136417555
 20
553.5238346048
 30
0.0
 10
281.694559083
 20
553.5964250093
 30
0.0
 10
281.6567487035
 20
553.7047053198
 30
0.0
 10
281.6085420381
 20
553.8082476799
 30
0.0
 10
281.590966451
 20
553.8431923794
 30
0.0
  0
SPLINE
  5
44E
100
AcDbEntity
  8
0
100
AcDbSpline
 62
7
  6
CONTINUOUS
 70
0
 71
3
 72
11
 73
7
 74
0
 42
0.0000001
 43
0.0000001
 44
0.0000000001
 40
0.0
 40
0.0
 40
0.0
 40
0.0
 40
0.2097967081
 40
0.5000851636
 40
0.7902969299
 40
1.0
 40
1.0
 40
1.0
 40
1.0
 10
281.7136417555
 20
551.8339366562
 30
0.0
 10
281.743762438
 20
551.9485156033
 30
0.0
 10
281.7557065583
 20
552.2338544571
 30
0.0
 10
281.7581002753
 20
552.6789867153
 30
0.0
 10
281.7557064671
 20
553.1240673465
 30
0.0
 10
281.7437489943
 20
553.4093067974
 30
0.0
 10
281.7136417555
 20
553.5238346048
 30
0.0
  0
SPLINE
  5
44F
100
AcDbEntity
  8
0
100
AcDbSpline
 62
7
  6
CONTINUOUS
 70
0
 71
3
 72
9
 73
5
 74
0
 42
0.0000001
 43
0.0000001
 44
0.0000000001
 40
0.0
 40
0.0
 40
0.0
 40
0.0
 40
0.342602643
 40
1.0
 40
1.0
 40
1.0
 40
1.0
 10
281.590966451
 20
551.5145788792
 30
0.0
 10
281.6085420926
 20
551.5495236876
 30
0.0
 10
281.6567487475
 20
551.6530660545
 30
0.0
 10
281.6945591137
 20
551.7613463687
 30
0.0
 10
281.7136417555
 20
551.8339366562
 30
0.0
  0
SPLINE
  5
450
100
AcDbEntity
  8
0
100
AcDbSpline
 62
7
  6
CONTINUOUS
 70
0
 71
3
 72
10
 73
6
 74
0
 42
0.0000001
 43
0.0000001
 44
0.0000000001
 40
0.0
 40
0.0
 40
0.0
 40
0.0
 40
0.2140486539
 40
0.552106749
 40
1.0
 40
1.0
 40
1.0
 40
1.0
 10
279.2615849696
 20
545.4788856305
 30
0.0
 10
279.398736915
 20
545.4788856305
 30
0.0
 10
279.7134662781
 20
545.2165957035
 30
0.0
 10
279.9260451859
 20
544.6154690271
 30
0.0
 10
280.0113320722
 20
544.1134091753
 30
0.0
 10
280.0311114881
 20
543.8271034256
 30
0.0
  0
SPLINE
  5
451
100
AcDbEntity
  8
0
100
AcDbSpline
 62
7
  6
CONTINUOUS
 70
0
 71
3
 72
10
 73
6
 74
0
 42
0.0000001
 43
0.0000001
 44
0.0000000001
 40
0.0
 40
0.0
 40
0.0
 40
0.0
 40
0.3029027016
 40
0.6380021946
 40
1.0
 40
1.0
 40
1.0
 40
1.0
 10
280.5062102212
 20
540.3750380532
 30
0.0
 10
280.5711914343
 20
540.3129938871
 30
0.0
 10
280.7072294679
 20
540.1814289628
 30
0.0
 10
280.9155279393
 20
539.970213635
 30
0.0
 10
281.0551934175
 20
539.8176304162
 30
0.0
 10
281.1256552753
 20
539.7366115994
 30
0.0
  0
SPLINE
  5
452
100
AcDbEntity
  8
0
100
AcDbSpline
 62
7
  6
CONTINUOUS
 70
0
 71
3
 72
12
 73
8
 74
0
 42
0.0000001
 43
0.0000001
 44
0.0000000001
 40
0.0
 40
0.0
 40
0.0
 40
0.0
 40
0.2609048691
 40
0.4884150337
 40
0.6840180471
 40
0.8521336106
 40
1.0
 40
1.0
 40
1.0
 40
1.0
 10
280.0403296883
 20
542.1070888607
 30
0.0
 10
280.0403296883
 20
541.9473169165
 30
0.0
 10
280.0508236273
 20
541.6480612574
 30
0.0
 10
280.1011226794
 20
541.2315533468
 30
0.0
 10
280.1891492827
 20
540.8789292389
 30
0.0
 10
280.3194503152
 20
540.5916195951
 30
0.0
 10
280.4407188539
 20
540.4375693154
 30
0.0
 10
280.5062102212
 20
540.3750380532
 30
0.0
  0
SPLINE
  5
453
100
AcDbEntity
  8
0
100
AcDbSpline
 62
7
  6
CONTINUOUS
 70
0
 71
3
 72
12
 73
8
 74
0
 42
0.0000001
 43
0.0000001
 44
0.0000000001
 40
0.0
 40
0.0
 40
0.0
 40
0.0
 40
0.2000627056
 40
0.4000217871
 40
0.6000226953
 40
0.7999667654
 40
1.0
 40
1.0
 40
1.0
 40
1.0
 10
281.1256552753
 20
539.7366115994
 30
0.0
 10
281.6414091576
 20
539.2867729111
 30
0.0
 10
282.522019817
 20
538.1974851866
 30
0.0
 10
283.2133264592
 20
536.224679891
 30
0.0
 10
283.2132473544
 20
534.1326780909
 30
0.0
 10
282.5218678086
 20
532.1600681793
 30
0.0
 10
281.6413331824
 20
531.0709320846
 30
0.0
 10
281.1256552752
 20
530.6211596615
 30
0.0
  0
SPLINE
  5
454
100
AcDbEntity
  8
0
100
AcDbSpline
 62
7
  6
CONTINUOUS
 70
0
 71
3
 72
12
 73
8
 74
0
 42
0.0000001
 43
0.0000001
 44
0.0000000001
 40
0.0
 40
0.0
 40
0.0
 40
0.0
 40
0.2000627057
 40
0.4000217871
 40
0.6000226953
 40
0.7999667654
 40
1.0
 40
1.0
 40
1.0
 40
1.0
 10
280.8394417821
 20
530.6211596616
 30
0.0
 10
281.3551956645
 20
531.0709983499
 30
0.0
 10
282.2358063239
 20
532.1602860744
 30
0.0
 10
282.9271129661
 20
534.13309137
 30
0.0
 10
282.9270338613
 20
536.2250931702
 30
0.0
 10
282.2356543155
 20
538.1977030817
 30
0.0
 10
281.3551196893
 20
539.2868391765
 30
0.0
 10
280.8394417822
 20
539.7366115995
 30
0.0
  0
SPLINE
  5
455
100
AcDbEntity
  8
0
100
AcDbSpline
 62
7
  6
CONTINUOUS
 70
0
 71
3
 72
10
 73
6
 74
0
 42
0.0000001
 43
0.0000001
 44
0.0000000001
 40
0.0
 40
0.0
 40
0.0
 40
0.0
 40
0.343504464
 40
0.6651266409
 40
1.0
 40
1.0
 40
1.0
 40
1.0
 10
279.6005516741
 20
540.3750380532
 30
0.0
 10
279.3858753535
 20
540.4775247003
 30
0.0
 10
278.9964760081
 20
540.7634488072
 30
0.0
 10
278.711110695
 20
541.4182808085
 30
0.0
 10
278.6687906083
 20
541.8751807736
 30
0.0
 10
278.6687906083
 20
542.1070888608
 30
0.0
  0
SPLINE
  5
456
100
AcDbEntity
  8
0
100
AcDbSpline
 62
7
  6
CONTINUOUS
 70
0
 71
3
 72
10
 73
6
 74
0
 42
0.0000001
 43
0.0000001
 44
0.0000000001
 40
0.0
 40
0.0
 40
0.0
 40
0.0
 40
0.3588902008
 40
0.6943720708
 40
1.0
 40
1.0
 40
1.0
 40
1.0
 10
280.8394417821
 20
539.7366115995
 30
0.0
 10
280.6948652691
 20
539.8197304556
 30
0.0
 10
280.4116275259
 20
539.9744727844
 30
0.0
 10
279.9970391844
 20
540.1844108904
 30
0.0
 10
279.7287130263
 20
540.3138537213
 30
0.0
 10
279.6005516741
 20
540.3750380532
 30
0.0
  0
SPLINE
  5
457
100
AcDbEntity
  8
0
100
AcDbSpline
 62
7
  6
CONTINUOUS
 70
0
 71
3
 72
10
 73
6
 74
0
 42
0.0000001
 43
0.0000001
 44
0.0000000001
 40
0.0
 40
0.0
 40
0.0
 40
0.0
 40
0.4477727051
 40
0.7858719192
 40
1.0
 40
1.0
 40
1.0
 40
1.0
 10
278.650354208
 20
543.8271034259
 30
0.0
 10
278.6305801952
 20
544.1133309655
 30
0.0
 10
278.5453110072
 20
544.6153433016
 30
0.0
 10
278.3327941716
 20
545.2164624939
 30
0.0
 10
278.0180299746
 20
545.4788856305
 30
0.0
 10
277.8808276895
 20
545.4788856305
 30
0.0
  0
SPLINE
  5
458
100
AcDbEntity
  8
0
100
AcDbSpline
 62
7
  6
CONTINUOUS
 70
0
 71
3
 72
10
 73
6
 74
0
 42
0.0000001
 43
0.0000001
 44
0.0000000001
 40
0.0
 40
0.0
 40
0.0
 40
0.0
 40
0.3056176236
 40
0.6411175976
 40
1.0
 40
1.0
 40
1.0
 40
1.0
 10
279.6005516741
 20
529.9827332078
 30
0.0
 10
279.7287087036
 20
530.0439154761
 30
0.0
 10
279.9970382574
 20
530.1733596109
 30
0.0
 10
280.4116261648
 20
530.3832985613
 30
0.0
 10
280.6948684119
 20
530.5380426123
 30
0.0
 10
280.8394417821
 20
530.6211596616
 30
0.0
  0
SPLINE
  5
459
100
AcDbEntity
  8
0
100
AcDbSpline
 62
7
  6
CONTINUOUS
 70
0
 71
3
 72
10
 73
6
 74
0
 42
0.0000001
 43
0.0000001
 44
0.0000000001
 40
0.0
 40
0.0
 40
0.0
 40
0.0
 40
0.3403304396
 40
0.6578832869
 40
1.0
 40
1.0
 40
1.0
 40
1.0
 10
278.6687906083
 20
528.2506824003
 30
0.0
 10
278.6687906083
 20
528.4863787875
 30
0.0
 10
278.7120184683
 20
528.9445489026
 30
0.0
 10
279.0003375777
 20
529.5975981117
 30
0.0
 10
279.3867343528
 20
529.8806566477
 30
0.0
 10
279.6005516741
 20
529.9827332078
 30
0.0
  0
SPLINE
  5
45A
100
AcDbEntity
  8
0
100
AcDbSpline
 62
7
  6
CONTINUOUS
 70
0
 71
3
 72
12
 73
8
 74
0
 42
0.0000001
 43
0.0000001
 44
0.0000000001
 40
0.0
 40
0.0
 40
0.0
 40
0.0
 40
0.1478665234
 40
0.3159792783
 40
0.5115861791
 40
0.7390973149
 40
1.0
 40
1.0
 40
1.0
 40
1.0
 10
280.5062102212
 20
529.9827332078
 30
0.0
 10
280.4407187944
 20
529.9202018888
 30
0.0
 10
280.3194512962
 20
529.7661528923
 30
0.0
 10
280.1891494354
 20
529.4788428905
 30
0.0
 10
280.1011224467
 20
529.1262174816
 30
0.0
 10
280.0508235258
 20
528.7097079234
 30
0.0
 10
280.0403296883
 20
528.4104530072
 30
0.0
 10
280.0403296883
 20
528.2506824002
 30
0.0
  0
SPLINE
  5
45B
100
AcDbEntity
  8
0
100
AcDbSpline
 62
7
  6
CONTINUOUS
 70
0
 71
3
 72
10
 73
6
 74
0
 42
0.0000001
 43
0.0000001
 44
0.0000000001
 40
0.0
 40
0.0
 40
0.0
 40
0.0
 40
0.3622429065
 40
0.6973373641
 40
1.0
 40
1.0
 40
1.0
 40
1.0
 10
281.1256552753
 20
530.6211596616
 30
0.0
 10
281.0551457112
 20
530.5400859909
 30
0.0
 10
280.9154296465
 20
530.3874523664
 30
0.0
 10
280.7071264173
 20
530.1762418002
 30
0.0
 10
280.5711399316
 20
530.0447281991
 30
0.0
 10
280.5062102212
 20
529.9827332078
 30
0.0
  0
SPLINE
  5
45C
100
AcDbEntity
  8
0
100
AcDbSpline
 62
7
  6
CONTINUOUS
 70
0
 71
3
 72
10
 73
6
 74
0
 42
0.0000001
 43
0.0000001
 44
0.0000000001
 40
0.0
 40
0.0
 40
0.0
 40
0.0
 40
0.4477727052
 40
0.7858719191
 40
1.0
 40
1.0
 40
1.0
 40
1.0
 10
280.0311114881
 20
526.5306678354
 30
0.0
 10
280.0113374753
 20
526.2444402957
 30
0.0
 10
279.9260682873
 20
525.7424279595
 30
0.0
 10
279.7135514517
 20
525.1413087672
 30
0.0
 10
279.3987872547
 20
524.8788856305
 30
0.0
 10
279.2615849695
 20
524.8788856305
 30
0.0
  0
SPLINE
  5
45D
100
AcDbEntity
  8
0
100
AcDbSpline
 62
7
  6
CONTINUOUS
 70
0
 71
3
 72
11
 73
7
 74
0
 42
0.0000001
 43
0.0000001
 44
0.0000000001
 40
0.0
 40
0.0
 40
0.0
 40
0.0
 40
0.3738959957
 40
0.6670569716
 40
0.8595082559
 40
1.0
 40
1.0
 40
1.0
 40
1.0
 10
277.5580717272
 20
517.6788856305
 30
0.0
 10
277.5580717272
 20
517.4731305324
 30
0.0
 10
277.5558296788
 20
517.1036767691
 30
0.0
 10
277.5802729744
 20
516.6385956877
 30
0.0
 10
277.6551729077
 20
516.2820274096
 30
0.0
 10
277.8409178164
 20
516.1788856305
 30
0.0
 10
277.9182304726
 20
516.1788856305
 30
0.0
  0
SPLINE
  5
45E
100
AcDbEntity
  8
0
100
AcDbSpline
 62
7
  6
CONTINUOUS
 70
0
 71
3
 72
13
 73
9
 74
0
 42
0.0000001
 43
0.0000001
 44
0.0000000001
 40
0.0
 40
0.0
 40
0.0
 40
0.0
 40
0.0867038685
 40
0.1814315442
 40
0.3124685762
 40
0.4961140472
 40
0.7304400511
 40
1.0
 40
1.0
 40
1.0
 40
1.0
 10
277.9182304726
 20
519.1788856305
 30
0.0
 10
277.8703008918
 20
519.1788856305
 30
0.0
 10
277.7661619759
 20
519.1519419922
 30
0.0
 10
277.6540375184
 20
519.0096650606
 30
0.0
 10
277.5933970023
 20
518.7891960278
 30
0.0
 10
277.564851036
 20
518.4865475046
 30
0.0
 10
277.5580900017
 20
518.1064254558
 30
0.0
 10
277.5580717272
 20
517.8278973825
 30
0.0
 10
277.5580717272
 20
517.6788856305
 30
0.0
  0
SPLINE
  5
45F
100
AcDbEntity
  8
0
100
AcDbSpline
 62
7
  6
CONTINUOUS
 70
0
 71
3
 72
10
 73
6
 74
0
 42
0.0000001
 43
0.0000001
 44
0.0000000001
 40
0.0
 40
0.0
 40
0.0
 40
0.0
 40
0.3219270157
 40
0.6550632006
 40
1.0
 40
1.0
 40
1.0
 40
1.0
 10
281.590966451
 20
518.8431923794
 30
0.0
 10
281.571894986
 20
518.8811112616
 30
0.0
 10
281.5305352538
 20
518.9570071769
 30
0.0
 10
281.4607342593
 20
519.0689322916
 30
0.0
 10
281.4094707512
 20
519.1422299123
 30
0.0
 10
281.3825512737
 20
519.1788856305
 30
0.0
  0
SPLINE
  5
460
100
AcDbEntity
  8
0
100
AcDbSpline
 62
7
  6
CONTINUOUS
 70
0
 71
3
 72
9
 73
5
 74
0
 42
0.0000001
 43
0.0000001
 44
0.0000000001
 40
0.0
 40
0.0
 40
0.0
 40
0.0
 40
0.6573984214
 40
1.0
 40
1.0
 40
1.0
 40
1.0
 10
281.7136417555
 20
518.5238346048
 30
0.0
 10
281.694559083
 20
518.5964250093
 30
0.0
 10
281.6567487035
 20
518.7047053198
 30
0.0
 10
281.6085420381
 20
518.8082476799
 30
0.0
 10
281.590966451
 20
518.8431923794
 30
0.0
  0
SPLINE
  5
461
100
AcDbEntity
  8
0
100
AcDbSpline
 62
7
  6
CONTINUOUS
 70
0
 71
3
 72
11
 73
7
 74
0
 42
0.0000001
 43
0.0000001
 44
0.0000000001
 40
0.0
 40
0.0
 40
0.0
 40
0.0
 40
0.209796708
 40
0.5000851635
 40
0.7902969298
 40
1.0
 40
1.0
 40
1.0
 40
1.0
 10
281.7136417555
 20
516.8339366563
 30
0.0
 10
281.743762438
 20
516.9485156033
 30
0.0
 10
281.7557065582
 20
517.233854457
 30
0.0
 10
281.7581002753
 20
517.6789867151
 30
0.0
 10
281.7557064671
 20
518.1240673464
 30
0.0
 10
281.7437489943
 20
518.4093067974
 30
0.0
 10
281.7136417555
 20
518.5238346048
 30
0.0
  0
SPLINE
  5
462
100
AcDbEntity
  8
0
100
AcDbSpline
 62
7
  6
CONTINUOUS
 70
0
 71
3
 72
10
 73
6
 74
0
 42
0.0000001
 43
0.0000001
 44
0.0000000001
 40
0.0
 40
0.0
 40
0.0
 40
0.0
 40
0.3565775136
 40
0.6890656432
 40
1.0
 40
1.0
 40
1.0
 40
1.0
 10
282.9717237312
 20
518.8442646176
 30
0.0
 10
283.0015603463
 20
518.8096645263
 30
0.0
 10
283.056123199
 20
518.7400946388
 30
0.0
 10
283.1271651643
 20
518.6332978584
 30
0.0
 10
283.1656556786
 20
518.5601564309
 30
0.0
 10
283.1820242532
 20
518.5238346048
 30
0.0
  0
SPLINE
  5
463
100
AcDbEntity
  8
0
100
AcDbSpline
 62
7
  6
CONTINUOUS
 70
0
 71
3
 72
10
 73
6
 74
0
 42
0.0000001
 43
0.0000001
 44
0.0000000001
 40
0.0
 40
0.0
 40
0.0
 40
0.0
 40
0.353960823
 40
0.6903205507
 40
1.0
 40
1.0
 40
1.0
 40
1.0
 10
282.6028952906
 20
519.1788856305
 30
0.0
 10
282.6491218502
 20
519.1424600255
 30
0.0
 10
282.7391882691
 20
519.071312178
 30
0.0
 10
282.8645560017
 20
518.961817412
 30
0.0
 10
282.9380976461
 20
518.8832585973
 30
0.0
 10
282.9717237312
 20
518.8442640392
 30
0.0
  0
SPLINE
  5
464
100
AcDbEntity
  8
0
100
AcDbSpline
 62
7
  6
CONTINUOUS
 70
0
 71
3
 72
20
 73
16
 74
0
 42
0.0000001
 43
0.0000001
 44
0.0000000001
 40
0.0
 40
0.0
 40
0.0
 40
0.0
 40
0.074930411
 40
0.1388989886
 40
0.2070520396
 40
0.2845028666
 40
0.3684693414
 40
0.4564386789
 40
0.5445065209
 40
0.6322326125
 40
0.715855086
 40
0.7927751809
 40
0.8604001136
 40
0.9244400735
 40
1.0
 40
1.0
 40
1.0
 40
1.0
 10
276.6756049111
 20
516.1788856305
 30
0.0
 10
276.5835575215
 20
516.1788856305
 30
0.0
 10
276.4073671007
 20
516.2031264024
 30
0.0
 10
276.2010034435
 20
516.372881137
 30
0.0
 10
276.1066334829
 20
516.6196984466
 30
0.0
 10
276.0702643832
 20
516.8995841702
 30
0.0
 10
276.0594853201
 20
517.2060601757
 30
0.0
 10
276.0581117753
 20
517.5254003208
 30
0.0
 10
276.0581218593
 20
517.8494466982
 30
0.0
 10
276.059700338
 20
518.1680662286
 30
0.0
 10
276.0713525617
 20
518.4731498504
 30
0.0
 10
276.1095307806
 20
518.7511284813
 30
0.0
 10
276.2081547119
 20
518.9954617428
 30
0.0
 10
276.4196150306
 20
519.1592180058
 30
0.0
 10
276.5967120347
 20
519.1802908906
 30
0.0
 10
276.6895221071
 20
519.1788856305
 30
0.0
  0
SPLINE
  5
465
100
AcDbEntity
  8
0
100
AcDbSpline
 62
7
  6
CONTINUOUS
 70
0
 71
3
 72
15
 73
11
 74
0
 42
0.0000001
 43
0.0000001
 44
0.0000000001
 40
0.0
 40
0.0
 40
0.0
 40
0.0
 40
0.1056114122
 40
0.2299126714
 40
0.3646954272
 40
0.5000048771
 40
0.635314941
 40
0.7700803328
 40
0.8943852143
 40
1.0
 40
1.0
 40
1.0
 40
1.0
 10
283.1820242532
 20
516.8339366562
 30
0.0
 10
283.2066805463
 20
516.888648909
 30
0.0
 10
283.2359270427
 20
517.0179365189
 30
0.0
 10
283.2517647479
 20
517.2243374076
 30
0.0
 10
283.2562501261
 20
517.448561232
 30
0.0
 10
283.2570184236
 20
517.6788942778
 30
0.0
 10
283.2562500481
 20
517.9092174617
 30
0.0
 10
283.2517644142
 20
518.1334337961
 30
0.0
 10
283.2359280327
 20
518.3398288277
 30
0.0
 10
283.2066813339
 20
518.4691206044
 30
0.0
 10
283.1820242532
 20
518.5238346048
 30
0.0
  0
SPLINE
  5
466
100
AcDbEntity
  8
0
100
AcDbSpline
 62
7
  6
CONTINUOUS
 70
0
 71
3
 72
16
 73
12
 74
0
 42
0.0000001
 43
0.0000001
 44
0.0000000001
 40
0.0
 40
0.0
 40
0.0
 40
0.0
 40
0.1152047789
 40
0.1882938275
 40
0.2720413556
 40
0.3660632587
 40
0.4705089981
 40
0.5857092498
 40
0.7121298022
 40
0.8503480983
 40
1.0
 40
1.0
 40
1.0
 40
1.0
 10
277.5009457147
 20
520.8931713448
 30
0.0
 10
277.4253783179
 20
520.8931713448
 30
0.0
 10
277.3066971207
 20
520.819909631
 30
0.0
 10
277.19950901
 20
520.6795317675
 30
0.0
 10
277.1162398875
 20
520.5364838396
 30
0.0
 10
277.0391358293
 20
520.3682006735
 30
0.0
 10
276.9652493002
 20
520.1760086105
 30
0.0
 10
276.8942691761
 20
519.9603517297
 30
0.0
 10
276.824476818
 20
519.721093324
 30
0.0
 10
276.7593103563
 20
519.4572723508
 30
0.0
 10
276.7104157316
 20
519.2747989213
 30
0.0
 10
276.6895221071
 20
519.1788856305
 30
0.0
  0
SPLINE
  5
467
100
AcDbEntity
  8
0
100
AcDbSpline
 62
7
  6
CONTINUOUS
 70
0
 71
3
 72
16
 73
12
 74
0
 42
0.0000001
 43
0.0000001
 44
0.0000000001
 40
0.0
 40
0.0
 40
0.0
 40
0.0
 40
0.1522406186
 40
0.2922368765
 40
0.4191333409
 40
0.5342804145
 40
0.6384437569
 40
0.7320077376
 40
0.815097478
 40
0.8876502414
 40
1.0
 40
1.0
 40
1.0
 40
1.0
 10
282.6028952906
 20
519.1788856305
 30
0.0
 10
282.5821973892
 20
519.2757217268
 30
0.0
 10
282.5238373482
 20
519.4570768596
 30
0.0
 10
282.4631088112
 20
519.722919264
 30
0.0
 10
282.3941178464
 20
519.9617444049
 30
0.0
 10
282.3257068479
 20
520.1763044862
 30
0.0
 10
282.2547746675
 20
520.3672206918
 30
0.0
 10
282.1813362708
 20
520.5343822876
 30
0.0
 10
282.1021924991
 20
520.677041192
 30
0.0
 10
282.00172665
 20
520.8166280885
 30
0.0
 10
281.8879435848
 20
520.8931713448
 30
0.0
 10
281.814866803
 20
520.8931713448
 30
0.0
  0
SPLINE
  5
468
100
AcDbEntity
  8
0
100
AcDbSpline
 62
7
  6
CONTINUOUS
 70
0
 71
3
 72
10
 73
6
 74
0
 42
0.0000001
 43
0.0000001
 44
0.0000000001
 40
0.0
 40
0.0
 40
0.0
 40
0.0
 40
0.214048654
 40
0.5521067491
 40
1.0
 40
1.0
 40
1.0
 40
1.0
 10
277.8808276894
 20
524.8788856305
 30
0.0
 10
278.0179796348
 20
524.8788856305
 30
0.0
 10
278.332708998
 20
525.1411755576
 30
0.0
 10
278.5452879057
 20
525.7423022338
 30
0.0
 10
278.630574792
 20
526.2443620855
 30
0.0
 10
278.650354208
 20
526.5306678351
 30
0.0
  0
LINE
  5
469
100
AcDbEntity
  8
0
100
AcDbLine
 62
7
  6
CONTINUOUS
 10
289.6750735191
 20
525.3294893145
 11
289.463049406
 21
525.3199938923
  0
LINE
  5
46A
100
AcDbEntity
  8
0
100
AcDbLine
 62
7
  6
CONTINUOUS
 10
289.4630494808
 20
525.3199893433
 11
288.9682028702
 21
525.2563593139
  0
SPLINE
  5
46B
100
AcDbEntity
  8
0
100
AcDbSpline
 62
7
  6
CONTINUOUS
 70
0
 71
3
 72
8
 73
4
 74
0
 42
0.0000001
 43
0.0000001
 44
0.0000000001
 40
0.0
 40
0.0
 40
0.0
 40
0.0
 40
1.0
 40
1.0
 40
1.0
 40
1.0
 10
289.1130216366
 20
517.8995897246
 30
0.0
 10
289.1052111098
 20
517.8392952107
 30
0.0
 10
289.0937782819
 20
517.7705515672
 30
0.0
 10
289.1234656102
 20
517.7174940959
 30
0.0
  0
SPLINE
  5
46C
100
AcDbEntity
  8
0
100
AcDbSpline
 62
7
  6
CONTINUOUS
 70
0
 71
3
 72
10
 73
6
 74
0
 42
0.0000001
 43
0.0000001
 44
0.0000000001
 40
0.0
 40
0.0
 40
0.0
 40
0.0
 40
0.3186122812
 40
0.6614989752
 40
1.0
 40
1.0
 40
1.0
 40
1.0
 10
289.6682028702
 20
525.3356473992
 30
0.0
 10
289.6081726989
 20
525.3270716605
 30
0.0
 10
289.4803459442
 20
525.3252658525
 30
0.0
 10
289.2952440224
 20
525.3853198665
 30
0.0
 10
289.1648547546
 20
525.3577107592
 30
0.0
 10
289.1010773181
 20
525.3485996969
 30
0.0
  0
SPLINE
  5
46D
100
AcDbEntity
  8
0
100
AcDbSpline
 62
7
  6
CONTINUOUS
 70
0
 71
3
 72
8
 73
4
 74
0
 42
0.0000001
 43
0.0000001
 44
0.0000000001
 40
0.0
 40
0.0
 40
0.0
 40
0.0
 40
1.0
 40
1.0
 40
1.0
 40
1.0
 10
289.4630494127
 20
525.3199938926
 30
0.0
 10
289.4595662234
 20
525.3762263255
 30
0.0
 10
289.4591261282
 20
525.4728971863
 30
0.0
 10
289.5149000893
 20
525.480864895
 30
0.0
  0
LINE
  5
46E
100
AcDbEntity
  8
0
100
AcDbLine
 62
7
  6
CONTINUOUS
 10
289.4630494808
 20
517.8377829712
 11
288.9682028702
 21
517.9014130388
  0
SPLINE
  5
46F
100
AcDbEntity
  8
0
100
AcDbSpline
 62
7
  6
CONTINUOUS
 70
0
 71
3
 72
8
 73
4
 74
0
 42
0.0000001
 43
0.0000001
 44
0.0000000001
 40
0.0
 40
0.0
 40
0.0
 40
0.0
 40
1.0
 40
1.0
 40
1.0
 40
1.0
 10
289.5852871243
 20
517.6397876348
 30
0.0
 10
289.5370105911
 20
517.6466813681
 30
0.0
 10
289.4740335804
 20
517.6895411668
 30
0.0
 10
289.477048719
 20
517.7382141178
 30
0.0
  0
SPLINE
  5
470
100
AcDbEntity
  8
0
100
AcDbSpline
 62
7
  6
CONTINUOUS
 70
0
 71
3
 72
11
 73
7
 74
0
 42
0.0000001
 43
0.0000001
 44
0.0000000001
 40
0.0
 40
0.0
 40
0.0
 40
0.0
 40
0.1215295266
 40
0.4013887151
 40
0.7084176996
 40
1.0
 40
1.0
 40
1.0
 40
1.0
 10
289.6682028702
 20
560.1688605047
 30
0.0
 10
289.6682028703
 20
560.0775933523
 30
0.0
 10
289.9159045106
 20
559.8425343711
 30
0.0
 10
290.1728449841
 20
559.4022890225
 30
0.0
 10
290.5414090163
 20
558.8454602689
 30
0.0
 10
290.6682028702
 20
558.3978602862
 30
0.0
 10
290.6682028702
 20
558.1788856305
 30
0.0
  0
SPLINE
  5
471
100
AcDbEntity
  8
0
100
AcDbSpline
 62
7
  6
CONTINUOUS
 70
0
 71
3
 72
11
 73
7
 74
0
 42
0.0000001
 43
0.0000001
 44
0.0000000001
 40
0.0
 40
0.0
 40
0.0
 40
0.0
 40
0.3436080185
 40
0.6421117344
 40
0.8615251597
 40
1.0
 40
1.0
 40
1.0
 40
1.0
 10
294.0682028702
 20
877.9788856305
 30
0.0
 10
293.6970837547
 20
877.8403873534
 30
0.0
 10
293.0032749958
 20
877.5848784458
 30
0.0
 10
292.0906370724
 20
877.1809994345
 30
0.0
 10
291.4363284025
 20
876.8159461969
 30
0.0
 10
291.1682028702
 20
876.4385229821
 30
0.0
 10
291.1682028702
 20
876.2788856305
 30
0.0
  0
SPLINE
  5
472
100
AcDbEntity
  8
0
100
AcDbSpline
 62
7
  6
CONTINUOUS
 70
0
 71
3
 72
11
 73
7
 74
0
 42
0.0000001
 43
0.0000001
 44
0.0000000001
 40
0.0
 40
0.0
 40
0.0
 40
0.0
 40
0.1384703311
 40
0.3578789984
 40
0.6563832578
 40
1.0
 40
1.0
 40
1.0
 40
1.0
 10
291.1682028702
 20
82.0788856305
 30
0.0
 10
291.1682028702
 20
81.9192534441
 30
0.0
 10
291.4363144978
 20
81.5418371704
 30
0.0
 10
292.0906137075
 20
81.1767830452
 30
0.0
 10
293.0032551393
 20
80.7729001024
 30
0.0
 10
293.6970742556
 20
80.5173874529
 30
0.0
 10
294.0682028702
 20
80.3788856305
 30
0.0
  0
SPLINE
  5
473
100
AcDbEntity
  8
0
100
AcDbSpline
 62
7
  6
CONTINUOUS
 70
0
 71
3
 72
14
 73
10
 74
0
 42
0.0000001
 43
0.0000001
 44
0.0000000001
 40
0.0
 40
0.0
 40
0.0
 40
0.0
 40
0.1311944369
 40
0.2806784267
 40
0.4396098057
 40
0.6016992136
 40
0.7554242637
 40
0.8817729189
 40
1.0
 40
1.0
 40
1.0
 40
1.0
 10
290.6682028702
 20
787.1788856305
 30
0.0
 10
290.6682028702
 20
787.080164223
 30
0.0
 10
290.6420292214
 20
786.8683692531
 30
0.0
 10
290.5310748234
 20
786.5548247337
 30
0.0
 10
290.3650323967
 20
786.2411447136
 30
0.0
 10
290.1751002607
 20
785.9394206694
 30
0.0
 10
289.9765573187
 20
785.6680909454
 30
0.0
 10
289.8248277362
 20
785.4208992639
 30
0.0
 10
289.6682028702
 20
785.2778744664
 30
0.0
 10
289.6682028702
 20
785.1889107563
 30
0.0
  0
SPLINE
  5
474
100
AcDbEntity
  8
0
100
AcDbSpline
 62
7
  6
CONTINUOUS
 70
0
 71
3
 72
11
 73
7
 74
0
 42
0.0000001
 43
0.0000001
 44
0.0000000001
 40
0.0
 40
0.0
 40
0.0
 40
0.0
 40
0.1384703311
 40
0.3578789984
 40
0.6563832578
 40
1.0
 40
1.0
 40
1.0
 40
1.0
 10
418.1682028702
 20
876.2788856305
 30
0.0
 10
418.1682028702
 20
876.4385178169
 30
0.0
 10
417.9000912427
 20
876.8159340906
 30
0.0
 10
417.245792033
 20
877.1809882158
 30
0.0
 10
416.3331506012
 20
877.5848711586
 30
0.0
 10
415.6393314849
 20
877.8403838082
 30
0.0
 10
415.2682028702
 20
877.9788856305
 30
0.0
  0
SPLINE
  5
475
100
AcDbEntity
  8
0
100
AcDbSpline
 62
7
  6
CONTINUOUS
 70
0
 71
3
 72
11
 73
7
 74
0
 42
0.0000001
 43
0.0000001
 44
0.0000000001
 40
0.0
 40
0.0
 40
0.0
 40
0.0
 40
0.3436080185
 40
0.6421117344
 40
0.8615251597
 40
1.0
 40
1.0
 40
1.0
 40
1.0
 10
415.2682028702
 20
80.3788856305
 30
0.0
 10
415.6393219858
 20
80.5173839077
 30
0.0
 10
416.3331307447
 20
80.7728928152
 30
0.0
 10
417.2457686681
 20
81.1767718265
 30
0.0
 10
417.900077338
 20
81.5418250641
 30
0.0
 10
418.1682028702
 20
81.9192482789
 30
0.0
 10
418.1682028702
 20
82.0788856305
 30
0.0
  0
SPLINE
  5
476
100
AcDbEntity
  8
0
100
AcDbSpline
 62
7
  6
CONTINUOUS
 70
0
 71
3
 72
14
 73
10
 74
0
 42
0.0000001
 43
0.0000001
 44
0.0000000001
 40
0.0
 40
0.0
 40
0.0
 40
0.0
 40
0.1311944369
 40
0.2806784267
 40
0.4396098057
 40
0.6016992136
 40
0.7554242637
 40
0.8817729189
 40
1.0
 40
1.0
 40
1.0
 40
1.0
 10
290.6682028702
 20
512.1788856305
 30
0.0
 10
290.6682028702
 20
512.080164223
 30
0.0
 10
290.6420292214
 20
511.8683692531
 30
0.0
 10
290.5310748234
 20
511.5548247337
 30
0.0
 10
290.3650323967
 20
511.2411447136
 30
0.0
 10
290.1751002607
 20
510.9394206694
 30
0.0
 10
289.9765573187
 20
510.6680909454
 30
0.0
 10
289.8248277362
 20
510.4208992639
 30
0.0
 10
289.6682028702
 20
510.2778744664
 30
0.0
 10
289.6682028702
 20
510.1889107563
 30
0.0
  0
SPLINE
  5
477
100
AcDbEntity
  8
0
100
AcDbSpline
 62
7
  6
CONTINUOUS
 70
0
 71
3
 72
8
 73
4
 74
0
 42
0.0000001
 43
0.0000001
 44
0.0000000001
 40
0.0
 40
0.0
 40
0.0
 40
0.0
 40
1.0
 40
1.0
 40
1.0
 40
1.0
 10
289.6750735191
 20
552.3442437547
 30
0.0
 10
289.6270158437
 20
552.3427362143
 30
0.0
 10
289.5800691827
 20
552.3641788928
 30
0.0
 10
289.5320115074
 20
552.3626713524
 30
0.0
  0
SPLINE
  5
478
100
AcDbEntity
  8
0
100
AcDbSpline
 62
7
  6
CONTINUOUS
 70
0
 71
3
 72
8
 73
4
 74
0
 42
0.0000001
 43
0.0000001
 44
0.0000000001
 40
0.0
 40
0.0
 40
0.0
 40
0.0
 40
1.0
 40
1.0
 40
1.0
 40
1.0
 10
289.6750735887
 20
545.2135367815
 30
0.0
 10
289.6284198981
 20
545.2202015944
 30
0.0
 10
289.5803654201
 20
545.2092602679
 30
0.0
 10
289.5337117294
 20
545.2159250809
 30
0.0
  0
SPLINE
  5
479
100
AcDbEntity
  8
0
100
AcDbSpline
 62
7
  6
CONTINUOUS
 70
0
 71
3
 72
8
 73
4
 74
0
 42
0.0000001
 43
0.0000001
 44
0.0000000001
 40
0.0
 40
0.0
 40
0.0
 40
0.0
 40
1.0
 40
1.0
 40
1.0
 40
1.0
 10
289.6662930099
 20
544.8322420749
 30
0.0
 10
289.6211589853
 20
544.847676757
 30
0.0
 10
289.5735753942
 20
544.874046499
 30
0.0
 10
289.549857705
 20
544.9154322551
 30
0.0
  0
SPLINE
  5
47A
100
AcDbEntity
  8
0
100
AcDbSpline
 62
7
  6
CONTINUOUS
 70
0
 71
3
 72
8
 73
4
 74
0
 42
0.0000001
 43
0.0000001
 44
0.0000000001
 40
0.0
 40
0.0
 40
0.0
 40
0.0
 40
1.0
 40
1.0
 40
1.0
 40
1.0
 10
289.5177228298
 20
544.9621420096
 30
0.0
 10
289.4848991772
 20
545.0194170531
 30
0.0
 10
289.4590286018
 20
545.0866172237
 30
0.0
 10
289.4631109471
 20
545.1525046826
 30
0.0
  0
SPLINE
  5
47B
100
AcDbEntity
  8
0
100
AcDbSpline
 62
7
  6
CONTINUOUS
 70
0
 71
3
 72
9
 73
5
 74
0
 42
0.0000001
 43
0.0000001
 44
0.0000000001
 40
0.0
 40
0.0
 40
0.0
 40
0.0
 40
0.5500328822
 40
1.0
 40
1.0
 40
1.0
 40
1.0
 10
289.3116343277
 20
544.8788808912
 30
0.0
 10
289.2414489157
 20
544.8883202684
 30
0.0
 10
289.2477861675
 20
545.0891243717
 30
0.0
 10
289.2486120234
 20
545.1972627588
 30
0.0
 10
289.2557997572
 20
545.2547488976
 30
0.0
  0
SPLINE
  5
47C
100
AcDbEntity
  8
0
100
AcDbSpline
 62
7
  6
CONTINUOUS
 70
0
 71
3
 72
9
 73
5
 74
0
 42
0.0000001
 43
0.0000001
 44
0.0000000001
 40
0.0
 40
0.0
 40
0.0
 40
0.0
 40
0.540697887
 40
1.0
 40
1.0
 40
1.0
 40
1.0
 10
289.2793266804
 20
552.6517811737
 30
0.0
 10
289.2459401478
 20
552.5936426715
 30
0.0
 10
289.2441462829
 20
552.4608560146
 30
0.0
 10
289.250857434
 20
552.3393706025
 30
0.0
 10
289.2583144191
 20
552.2829105724
 30
0.0
  0
LINE
  5
47D
100
AcDbEntity
  8
0
100
AcDbLine
 62
7
  6
CONTINUOUS
 10
288.9682028702
 20
545.2748584684
 11
289.4630490832
 21
545.2183096191
  0
SPLINE
  5
47E
100
AcDbEntity
  8
0
100
AcDbSpline
 62
7
  6
CONTINUOUS
 70
0
 71
3
 72
9
 73
5
 74
0
 42
0.0000001
 43
0.0000001
 44
0.0000000001
 40
0.0
 40
0.0
 40
0.0
 40
0.0
 40
0.5454461865
 40
1.0
 40
1.0
 40
1.0
 40
1.0
 10
289.4613934739
 20
552.3661849589
 30
0.0
 10
289.3729154618
 20
552.3447482065
 30
0.0
 10
289.209862647
 20
552.3078687984
 30
0.0
 10
289.0442156576
 20
552.2870520381
 30
0.0
 10
288.9682028702
 20
552.2829097972
 30
0.0
  0
SPLINE
  5
47F
100
AcDbEntity
  8
0
100
AcDbSpline
 62
7
  6
CONTINUOUS
 70
0
 71
3
 72
10
 73
6
 74
0
 42
0.0000001
 43
0.0000001
 44
0.0000000001
 40
0.0
 40
0.0
 40
0.0
 40
0.0
 40
0.3497941768
 40
0.6184236039
 40
1.0
 40
1.0
 40
1.0
 40
1.0
 10
289.4620718924
 20
552.3662465028
 30
0.0
 10
289.4615110728
 20
552.4172449397
 30
0.0
 10
289.4739576128
 20
552.5085372534
 30
0.0
 10
289.5357704842
 20
552.6418846357
 30
0.0
 10
289.614371277
 20
552.7079840348
 30
0.0
 10
289.6670783664
 20
552.7257961755
 30
0.0
  0
SPLINE
  5
480
100
AcDbEntity
  8
0
100
AcDbSpline
 62
7
  6
CONTINUOUS
 70
0
 71
3
 72
11
 73
7
 74
0
 42
0.0000001
 43
0.0000001
 44
0.0000000001
 40
0.0
 40
0.0
 40
0.0
 40
0.0
 40
0.194758881
 40
0.4289644066
 40
0.7053240717
 40
1.0
 40
1.0
 40
1.0
 40
1.0
 10
291.1682028702
 20
862.2116281407
 30
0.0
 10
291.1682028702
 20
861.8986775589
 30
0.0
 10
290.9571161848
 20
861.2092969539
 30
0.0
 10
290.2337304397
 20
860.3228717591
 30
0.0
 10
289.2688830436
 20
859.4592203015
 30
0.0
 10
288.5538189702
 20
858.8840723005
 30
0.0
 10
288.1911803818
 20
858.579607562
 30
0.0
  0
SPLINE
  5
481
100
AcDbEntity
  8
0
100
AcDbSpline
 62
7
  6
CONTINUOUS
 70
0
 71
3
 72
11
 73
7
 74
0
 42
0.0000001
 43
0.0000001
 44
0.0000000001
 40
0.0
 40
0.0
 40
0.0
 40
0.0
 40
0.2946645491
 40
0.5710221862
 40
0.8052329517
 40
1.0
 40
1.0
 40
1.0
 40
1.0
 10
288.1911803818
 20
99.778163699
 30
0.0
 10
288.55380491
 20
99.473710774
 30
0.0
 10
289.2688516529
 20
98.8985758765
 30
0.0
 10
290.2336922105
 20
98.0349370173
 30
0.0
 10
290.9571001327
 20
97.1485079279
 30
0.0
 10
291.1682028702
 20
96.4591067734
 30
0.0
 10
291.1682028702
 20
96.1461431203
 30
0.0
  0
SPLINE
  5
482
100
AcDbEntity
  8
0
100
AcDbSpline
 62
7
  6
CONTINUOUS
 70
0
 71
3
 72
12
 73
8
 74
0
 42
0.0000001
 43
0.0000001
 44
0.0000000001
 40
0.0
 40
0.0
 40
0.0
 40
0.0
 40
0.2000627057
 40
0.4000217871
 40
0.6000226953
 40
0.7999667654
 40
1.0
 40
1.0
 40
1.0
 40
1.0
 10
280.8394417821
 20
805.6211596616
 30
0.0
 10
281.3551956645
 20
806.0709983499
 30
0.0
 10
282.2358063239
 20
807.1602860745
 30
0.0
 10
282.927112966
 20
809.13309137
 30
0.0
 10
282.9270338613
 20
811.2250931702
 30
0.0
 10
282.2356543155
 20
813.1977030817
 30
0.0
 10
281.3551196893
 20
814.2868391764
 30
0.0
 10
280.8394417822
 20
814.7366115994
 30
0.0
  0
SPLINE
  5
483
100
AcDbEntity
  8
0
100
AcDbSpline
 62
7
  6
CONTINUOUS
 70
0
 71
3
 72
10
 73
6
 74
0
 42
0.0000001
 43
0.0000001
 44
0.0000000001
 40
0.0
 40
0.0
 40
0.0
 40
0.0
 40
0.343504464
 40
0.6651266409
 40
1.0
 40
1.0
 40
1.0
 40
1.0
 10
279.6005516741
 20
815.3750380532
 30
0.0
 10
279.3858753535
 20
815.4775247003
 30
0.0
 10
278.9964760081
 20
815.7634488072
 30
0.0
 10
278.711110695
 20
816.4182808085
 30
0.0
 10
278.6687906083
 20
816.8751807736
 30
0.0
 10
278.6687906083
 20
817.1070888608
 30
0.0
  0
SPLINE
  5
484
100
AcDbEntity
  8
0
100
AcDbSpline
 62
7
  6
CONTINUOUS
 70
0
 71
3
 72
10
 73
6
 74
0
 42
0.0000001
 43
0.0000001
 44
0.0000000001
 40
0.0
 40
0.0
 40
0.0
 40
0.0
 40
0.3588902009
 40
0.6943720709
 40
1.0
 40
1.0
 40
1.0
 40
1.0
 10
280.8394417821
 20
814.7366115994
 30
0.0
 10
280.694865269
 20
814.8197304556
 30
0.0
 10
280.4116275258
 20
814.9744727845
 30
0.0
 10
279.9970391843
 20
815.1844108904
 30
0.0
 10
279.7287130263
 20
815.3138537213
 30
0.0
 10
279.6005516741
 20
815.3750380532
 30
0.0
  0
SPLINE
  5
485
100
AcDbEntity
  8
0
100
AcDbSpline
 62
7
  6
CONTINUOUS
 70
0
 71
3
 72
10
 73
6
 74
0
 42
0.0000001
 43
0.0000001
 44
0.0000000001
 40
0.0
 40
0.0
 40
0.0
 40
0.0
 40
0.4477727051
 40
0.7858719192
 40
1.0
 40
1.0
 40
1.0
 40
1.0
 10
278.650354208
 20
818.8271034258
 30
0.0
 10
278.6305801952
 20
819.1133309654
 30
0.0
 10
278.5453110072
 20
819.6153433016
 30
0.0
 10
278.3327941716
 20
820.2164624939
 30
0.0
 10
278.0180299746
 20
820.4788856305
 30
0.0
 10
277.8808276895
 20
820.4788856305
 30
0.0
  0
SPLINE
  5
486
100
AcDbEntity
  8
0
100
AcDbSpline
 62
7
  6
CONTINUOUS
 70
0
 71
3
 72
10
 73
6
 74
0
 42
0.0000001
 43
0.0000001
 44
0.0000000001
 40
0.0
 40
0.0
 40
0.0
 40
0.0
 40
0.3056176236
 40
0.6411175976
 40
1.0
 40
1.0
 40
1.0
 40
1.0
 10
279.6005516741
 20
804.9827332078
 30
0.0
 10
279.7287087036
 20
805.0439154761
 30
0.0
 10
279.9970382574
 20
805.1733596109
 30
0.0
 10
280.4116261649
 20
805.3832985612
 30
0.0
 10
280.6948684119
 20
805.5380426124
 30
0.0
 10
280.8394417821
 20
805.6211596616
 30
0.0
  0
SPLINE
  5
487
100
AcDbEntity
  8
0
100
AcDbSpline
 62
7
  6
CONTINUOUS
 70
0
 71
3
 72
10
 73
6
 74
0
 42
0.0000001
 43
0.0000001
 44
0.0000000001
 40
0.0
 40
0.0
 40
0.0
 40
0.0
 40
0.3403304395
 40
0.6578832869
 40
1.0
 40
1.0
 40
1.0
 40
1.0
 10
278.6687906083
 20
803.2506824002
 30
0.0
 10
278.6687906083
 20
803.4863787875
 30
0.0
 10
278.7120184683
 20
803.9445489026
 30
0.0
 10
279.0003375777
 20
804.5975981117
 30
0.0
 10
279.3867343528
 20
804.8806566477
 30
0.0
 10
279.6005516741
 20
804.9827332078
 30
0.0
  0
SPLINE
  5
488
100
AcDbEntity
  8
0
100
AcDbSpline
 62
7
  6
CONTINUOUS
 70
0
 71
3
 72
12
 73
8
 74
0
 42
0.0000001
 43
0.0000001
 44
0.0000000001
 40
0.0
 40
0.0
 40
0.0
 40
0.0
 40
0.1478665234
 40
0.3159792783
 40
0.5115861791
 40
0.739097315
 40
1.0
 40
1.0
 40
1.0
 40
1.0
 10
280.5062102212
 20
804.9827332078
 30
0.0
 10
280.4407187944
 20
804.9202018888
 30
0.0
 10
280.3194512962
 20
804.7661528923
 30
0.0
 10
280.1891494354
 20
804.4788428904
 30
0.0
 10
280.1011224467
 20
804.1262174816
 30
0.0
 10
280.0508235258
 20
803.7097079234
 30
0.0
 10
280.0403296883
 20
803.4104530072
 30
0.0
 10
280.0403296883
 20
803.2506824002
 30
0.0
  0
SPLINE
  5
489
100
AcDbEntity
  8
0
100
AcDbSpline
 62
7
  6
CONTINUOUS
 70
0
 71
3
 72
10
 73
6
 74
0
 42
0.0000001
 43
0.0000001
 44
0.0000000001
 40
0.0
 40
0.0
 40
0.0
 40
0.0
 40
0.3622429065
 40
0.6973373641
 40
1.0
 40
1.0
 40
1.0
 40
1.0
 10
281.1256552753
 20
805.6211596617
 30
0.0
 10
281.0551457112
 20
805.5400859909
 30
0.0
 10
280.9154296465
 20
805.3874523665
 30
0.0
 10
280.7071264173
 20
805.1762418003
 30
0.0
 10
280.5711399316
 20
805.0447281991
 30
0.0
 10
280.5062102212
 20
804.9827332078
 30
0.0
  0
SPLINE
  5
48A
100
AcDbEntity
  8
0
100
AcDbSpline
 62
7
  6
CONTINUOUS
 70
0
 71
3
 72
10
 73
6
 74
0
 42
0.0000001
 43
0.0000001
 44
0.0000000001
 40
0.0
 40
0.0
 40
0.0
 40
0.0
 40
0.4477727051
 40
0.7858719191
 40
1.0
 40
1.0
 40
1.0
 40
1.0
 10
280.0311114881
 20
801.5306678354
 30
0.0
 10
280.0113374753
 20
801.2444402957
 30
0.0
 10
279.9260682873
 20
800.7424279595
 30
0.0
 10
279.7135514517
 20
800.1413087672
 30
0.0
 10
279.3987872547
 20
799.8788856305
 30
0.0
 10
279.2615849695
 20
799.8788856305
 30
0.0
  0
SPLINE
  5
48B
100
AcDbEntity
  8
0
100
AcDbSpline
 62
7
  6
CONTINUOUS
 70
0
 71
3
 72
10
 73
6
 74
0
 42
0.0000001
 43
0.0000001
 44
0.0000000001
 40
0.0
 40
0.0
 40
0.0
 40
0.0
 40
0.3449387692
 40
0.6780748212
 40
1.0
 40
1.0
 40
1.0
 40
1.0
 10
281.3825512736
 20
791.1788856305
 30
0.0
 10
281.4094709049
 20
791.2155415578
 30
0.0
 10
281.4607345453
 20
791.2888393819
 30
0.0
 10
281.5305354992
 20
791.4007645212
 30
0.0
 10
281.5718950952
 20
791.4766602134
 30
0.0
 10
281.590966451
 20
791.5145788791
 30
0.0
  0
SPLINE
  5
48C
100
AcDbEntity
  8
0
100
AcDbSpline
 62
7
  6
CONTINUOUS
 70
0
 71
3
 72
11
 73
7
 74
0
 42
0.0000001
 43
0.0000001
 44
0.0000000001
 40
0.0
 40
0.0
 40
0.0
 40
0.0
 40
0.3738959956
 40
0.6670569716
 40
0.8595082559
 40
1.0
 40
1.0
 40
1.0
 40
1.0
 10
277.5580717272
 20
792.6788856305
 30
0.0
 10
277.5580717272
 20
792.4731305324
 30
0.0
 10
277.5558296788
 20
792.1036767691
 30
0.0
 10
277.5802729744
 20
791.6385956877
 30
0.0
 10
277.6551729077
 20
791.2820274096
 30
0.0
 10
277.8409178164
 20
791.1788856306
 30
0.0
 10
277.9182304726
 20
791.1788856305
 30
0.0
  0
SPLINE
  5
48D
100
AcDbEntity
  8
0
100
AcDbSpline
 62
7
  6
CONTINUOUS
 70
0
 71
3
 72
13
 73
9
 74
0
 42
0.0000001
 43
0.0000001
 44
0.0000000001
 40
0.0
 40
0.0
 40
0.0
 40
0.0
 40
0.0867038685
 40
0.1814315442
 40
0.3124685761
 40
0.4961140472
 40
0.730440051
 40
1.0
 40
1.0
 40
1.0
 40
1.0
 10
277.9182304726
 20
794.1788856305
 30
0.0
 10
277.8703008918
 20
794.1788856305
 30
0.0
 10
277.766161976
 20
794.1519419923
 30
0.0
 10
277.6540375184
 20
794.0096650607
 30
0.0
 10
277.5933970023
 20
793.7891960278
 30
0.0
 10
277.564851036
 20
793.4865475046
 30
0.0
 10
277.5580900017
 20
793.1064254559
 30
0.0
 10
277.5580717272
 20
792.8278973825
 30
0.0
 10
277.5580717272
 20
792.6788856305
 30
0.0
  0
SPLINE
  5
48E
100
AcDbEntity
  8
0
100
AcDbSpline
 62
7
  6
CONTINUOUS
 70
0
 71
3
 72
10
 73
6
 74
0
 42
0.0000001
 43
0.0000001
 44
0.0000000001
 40
0.0
 40
0.0
 40
0.0
 40
0.0
 40
0.3219270157
 40
0.6550632006
 40
1.0
 40
1.0
 40
1.0
 40
1.0
 10
281.590966451
 20
793.8431923794
 30
0.0
 10
281.571894986
 20
793.8811112616
 30
0.0
 10
281.5305352538
 20
793.9570071769
 30
0.0
 10
281.4607342593
 20
794.0689322916
 30
0.0
 10
281.4094707512
 20
794.1422299123
 30
0.0
 10
281.3825512737
 20
794.1788856305
 30
0.0
  0
SPLINE
  5
48F
100
AcDbEntity
  8
0
100
AcDbSpline
 62
7
  6
CONTINUOUS
 70
0
 71
3
 72
9
 73
5
 74
0
 42
0.0000001
 43
0.0000001
 44
0.0000000001
 40
0.0
 40
0.0
 40
0.0
 40
0.0
 40
0.6573984213
 40
1.0
 40
1.0
 40
1.0
 40
1.0
 10
281.7136417555
 20
793.5238346048
 30
0.0
 10
281.6945590831
 20
793.5964250093
 30
0.0
 10
281.6567487035
 20
793.7047053198
 30
0.0
 10
281.6085420381
 20
793.8082476799
 30
0.0
 10
281.590966451
 20
793.8431923794
 30
0.0
  0
SPLINE
  5
490
100
AcDbEntity
  8
0
100
AcDbSpline
 62
7
  6
CONTINUOUS
 70
0
 71
3
 72
11
 73
7
 74
0
 42
0.0000001
 43
0.0000001
 44
0.0000000001
 40
0.0
 40
0.0
 40
0.0
 40
0.0
 40
0.2097967079
 40
0.5000851634
 40
0.7902969297
 40
1.0
 40
1.0
 40
1.0
 40
1.0
 10
281.7136417555
 20
791.8339366562
 30
0.0
 10
281.743762438
 20
791.9485156032
 30
0.0
 10
281.7557065582
 20
792.2338544569
 30
0.0
 10
281.7581002753
 20
792.678986715
 30
0.0
 10
281.7557064671
 20
793.1240673463
 30
0.0
 10
281.7437489943
 20
793.4093067973
 30
0.0
 10
281.7136417555
 20
793.5238346048
 30
0.0
  0
SPLINE
  5
491
100
AcDbEntity
  8
0
100
AcDbSpline
 62
7
  6
CONTINUOUS
 70
0
 71
3
 72
9
 73
5
 74
0
 42
0.0000001
 43
0.0000001
 44
0.0000000001
 40
0.0
 40
0.0
 40
0.0
 40
0.0
 40
0.3426026431
 40
1.0
 40
1.0
 40
1.0
 40
1.0
 10
281.590966451
 20
791.5145788791
 30
0.0
 10
281.6085420926
 20
791.5495236876
 30
0.0
 10
281.6567487474
 20
791.6530660545
 30
0.0
 10
281.6945591138
 20
791.7613463686
 30
0.0
 10
281.7136417555
 20
791.8339366562
 30
0.0
  0
SPLINE
  5
492
100
AcDbEntity
  8
0
100
AcDbSpline
 62
7
  6
CONTINUOUS
 70
0
 71
3
 72
10
 73
6
 74
0
 42
0.0000001
 43
0.0000001
 44
0.0000000001
 40
0.0
 40
0.0
 40
0.0
 40
0.0
 40
0.3130488042
 40
0.6455603635
 40
1.0
 40
1.0
 40
1.0
 40
1.0
 10
283.1820242532
 20
791.8339366562
 30
0.0
 10
283.165579702
 20
791.797446238
 30
0.0
 10
283.1271281288
 20
791.7241866802
 30
0.0
 10
283.0563248895
 20
791.617515485
 30
0.0
 10
283.0013154908
 20
791.54889523
 30
0.0
 10
282.9717237312
 20
791.5145742748
 30
0.0
  0
SPLINE
  5
493
100
AcDbEntity
  8
0
100
AcDbSpline
 62
7
  6
CONTINUOUS
 70
0
 71
3
 72
10
 73
6
 74
0
 42
0.0000001
 43
0.0000001
 44
0.0000000001
 40
0.0
 40
0.0
 40
0.0
 40
0.0
 40
0.3565775136
 40
0.6890656432
 40
1.0
 40
1.0
 40
1.0
 40
1.0
 10
282.9717237312
 20
793.8442646176
 30
0.0
 10
283.0015603463
 20
793.8096645263
 30
0.0
 10
283.056123199
 20
793.7400946388
 30
0.0
 10
283.1271651643
 20
793.6332978584
 30
0.0
 10
283.1656556786
 20
793.5601564309
 30
0.0
 10
283.1820242532
 20
793.5238346048
 30
0.0
  0
SPLINE
  5
494
100
AcDbEntity
  8
0
100
AcDbSpline
 62
7
  6
CONTINUOUS
 70
0
 71
3
 72
10
 73
6
 74
0
 42
0.0000001
 43
0.0000001
 44
0.0000000001
 40
0.0
 40
0.0
 40
0.0
 40
0.0
 40
0.353960823
 40
0.6903205507
 40
1.0
 40
1.0
 40
1.0
 40
1.0
 10
282.6028952906
 20
794.1788856305
 30
0.0
 10
282.6491218502
 20
794.1424600255
 30
0.0
 10
282.7391882691
 20
794.0713121779
 30
0.0
 10
282.8645560017
 20
793.961817412
 30
0.0
 10
282.9380976461
 20
793.8832585973
 30
0.0
 10
282.9717237312
 20
793.8442640392
 30
0.0
  0
SPLINE
  5
495
100
AcDbEntity
  8
0
100
AcDbSpline
 62
7
  6
CONTINUOUS
 70
0
 71
3
 72
20
 73
16
 74
0
 42
0.0000001
 43
0.0000001
 44
0.0000000001
 40
0.0
 40
0.0
 40
0.0
 40
0.0
 40
0.074930411
 40
0.1388989886
 40
0.2070520396
 40
0.2845028667
 40
0.3684693415
 40
0.456438679
 40
0.5445065209
 40
0.6322326126
 40
0.715855086
 40
0.7927751809
 40
0.8604001136
 40
0.9244400736
 40
1.0
 40
1.0
 40
1.0
 40
1.0
 10
276.6756049111
 20
791.1788856305
 30
0.0
 10
276.5835575215
 20
791.1788856306
 30
0.0
 10
276.4073671006
 20
791.2031264024
 30
0.0
 10
276.2010034434
 20
791.3728811371
 30
0.0
 10
276.1066334829
 20
791.6196984468
 30
0.0
 10
276.0702643832
 20
791.8995841704
 30
0.0
 10
276.05948532
 20
792.2060601759
 30
0.0
 10
276.0581117753
 20
792.5254003211
 30
0.0
 10
276.0581218593
 20
792.8494466985
 30
0.0
 10
276.059700338
 20
793.1680662288
 30
0.0
 10
276.0713525617
 20
793.4731498506
 30
0.0
 10
276.1095307806
 20
793.7511284815
 30
0.0
 10
276.208154712
 20
793.995461743
 30
0.0
 10
276.4196150307
 20
794.1592180058
 30
0.0
 10
276.5967120347
 20
794.1802908906
 30
0.0
 10
276.6895221071
 20
794.1788856305
 30
0.0
  0
SPLINE
  5
496
100
AcDbEntity
  8
0
100
AcDbSpline
 62
7
  6
CONTINUOUS
 70
0
 71
3
 72
10
 73
6
 74
0
 42
0.0000001
 43
0.0000001
 44
0.0000000001
 40
0.0
 40
0.0
 40
0.0
 40
0.0
 40
0.3113638854
 40
0.6447017473
 40
1.0
 40
1.0
 40
1.0
 40
1.0
 10
282.9717237312
 20
791.514574275
 30
0.0
 10
282.9384554826
 20
791.475989274
 30
0.0
 10
282.8661573947
 20
791.3990186734
 30
0.0
 10
282.7466940085
 20
791.2870782133
 30
0.0
 10
282.6599628248
 20
791.2150445682
 30
0.0
 10
282.61444057
 20
791.1788856305
 30
0.0
  0
SPLINE
  5
497
100
AcDbEntity
  8
0
100
AcDbSpline
 62
7
  6
CONTINUOUS
 70
0
 71
3
 72
15
 73
11
 74
0
 42
0.0000001
 43
0.0000001
 44
0.0000000001
 40
0.0
 40
0.0
 40
0.0
 40
0.0
 40
0.1056114122
 40
0.2299126714
 40
0.3646954273
 40
0.5000048771
 40
0.635314941
 40
0.7700803327
 40
0.8943852143
 40
1.0
 40
1.0
 40
1.0
 40
1.0
 10
283.1820242532
 20
791.8339366562
 30
0.0
 10
283.2066805463
 20
791.888648909
 30
0.0
 10
283.2359270428
 20
792.017936519
 30
0.0
 10
283.2517647479
 20
792.2243374076
 30
0.0
 10
283.2562501261
 20
792.448561232
 30
0.0
 10
283.2570184236
 20
792.6788942778
 30
0.0
 10
283.2562500481
 20
792.9092174618
 30
0.0
 10
283.2517644142
 20
793.133433796
 30
0.0
 10
283.2359280327
 20
793.3398288277
 30
0.0
 10
283.2066813339
 20
793.4691206044
 30
0.0
 10
283.1820242532
 20
793.5238346048
 30
0.0
  0
SPLINE
  5
498
100
AcDbEntity
  8
0
100
AcDbSpline
 62
7
  6
CONTINUOUS
 70
0
 71
3
 72
16
 73
12
 74
0
 42
0.0000001
 43
0.0000001
 44
0.0000000001
 40
0.0
 40
0.0
 40
0.0
 40
0.0
 40
0.1152047789
 40
0.1882938275
 40
0.2720413556
 40
0.3660632587
 40
0.4705089981
 40
0.5857092498
 40
0.7121298022
 40
0.8503480983
 40
1.0
 40
1.0
 40
1.0
 40
1.0
 10
277.5009457147
 20
795.8931713448
 30
0.0
 10
277.4253783178
 20
795.8931713448
 30
0.0
 10
277.3066971207
 20
795.8199096309
 30
0.0
 10
277.19950901
 20
795.6795317675
 30
0.0
 10
277.1162398875
 20
795.5364838396
 30
0.0
 10
277.0391358294
 20
795.3682006734
 30
0.0
 10
276.9652493002
 20
795.1760086105
 30
0.0
 10
276.8942691761
 20
794.9603517297
 30
0.0
 10
276.824476818
 20
794.721093324
 30
0.0
 10
276.7593103563
 20
794.4572723508
 30
0.0
 10
276.7104157316
 20
794.2747989213
 30
0.0
 10
276.6895221071
 20
794.1788856305
 30
0.0
  0
SPLINE
  5
499
100
AcDbEntity
  8
0
100
AcDbSpline
 62
7
  6
CONTINUOUS
 70
0
 71
3
 72
16
 73
12
 74
0
 42
0.0000001
 43
0.0000001
 44
0.0000000001
 40
0.0
 40
0.0
 40
0.0
 40
0.0
 40
0.1522406186
 40
0.2922368765
 40
0.4191333409
 40
0.5342804145
 40
0.6384437569
 40
0.7320077376
 40
0.815097478
 40
0.8876502415
 40
1.0
 40
1.0
 40
1.0
 40
1.0
 10
282.6028952906
 20
794.1788856305
 30
0.0
 10
282.5821973892
 20
794.2757217268
 30
0.0
 10
282.5238373482
 20
794.4570768596
 30
0.0
 10
282.4631088112
 20
794.722919264
 30
0.0
 10
282.3941178464
 20
794.9617444048
 30
0.0
 10
282.3257068479
 20
795.1763044862
 30
0.0
 10
282.2547746675
 20
795.3672206918
 30
0.0
 10
282.1813362708
 20
795.5343822876
 30
0.0
 10
282.1021924991
 20
795.6770411919
 30
0.0
 10
282.00172665
 20
795.8166280884
 30
0.0
 10
281.8879435848
 20
795.8931713448
 30
0.0
 10
281.814866803
 20
795.8931713448
 30
0.0
  0
SPLINE
  5
49A
100
AcDbEntity
  8
0
100
AcDbSpline
 62
7
  6
CONTINUOUS
 70
0
 71
3
 72
10
 73
6
 74
0
 42
0.0000001
 43
0.0000001
 44
0.0000000001
 40
0.0
 40
0.0
 40
0.0
 40
0.0
 40
0.214048654
 40
0.5521067491
 40
1.0
 40
1.0
 40
1.0
 40
1.0
 10
277.8808276894
 20
799.8788856305
 30
0.0
 10
278.0179796348
 20
799.8788856305
 30
0.0
 10
278.332708998
 20
800.1411755576
 30
0.0
 10
278.5452879057
 20
800.7423022339
 30
0.0
 10
278.630574792
 20
801.2443620855
 30
0.0
 10
278.650354208
 20
801.5306678351
 30
0.0
  0
SPLINE
  5
49B
100
AcDbEntity
  8
0
100
AcDbSpline
 62
7
  6
CONTINUOUS
 70
0
 71
3
 72
8
 73
4
 74
0
 42
0.0000001
 43
0.0000001
 44
0.0000000001
 40
0.0
 40
0.0
 40
0.0
 40
0.0
 40
1.0
 40
1.0
 40
1.0
 40
1.0
 10
289.6750735191
 20
827.3442437543
 30
0.0
 10
289.6270158437
 20
827.342736214
 30
0.0
 10
289.5800691828
 20
827.3641788927
 30
0.0
 10
289.5320115074
 20
827.3626713524
 30
0.0
  0
SPLINE
  5
49C
100
AcDbEntity
  8
0
100
AcDbSpline
 62
7
  6
CONTINUOUS
 70
0
 71
3
 72
8
 73
4
 74
0
 42
0.0000001
 43
0.0000001
 44
0.0000000001
 40
0.0
 40
0.0
 40
0.0
 40
0.0
 40
1.0
 40
1.0
 40
1.0
 40
1.0
 10
289.6750735887
 20
820.2135367815
 30
0.0
 10
289.6284198981
 20
820.2202015943
 30
0.0
 10
289.5803654201
 20
820.2092602678
 30
0.0
 10
289.5337117294
 20
820.2159250808
 30
0.0
  0
SPLINE
  5
49D
100
AcDbEntity
  8
0
100
AcDbSpline
 62
7
  6
CONTINUOUS
 70
0
 71
3
 72
8
 73
4
 74
0
 42
0.0000001
 43
0.0000001
 44
0.0000000001
 40
0.0
 40
0.0
 40
0.0
 40
0.0
 40
1.0
 40
1.0
 40
1.0
 40
1.0
 10
289.6662930099
 20
819.8322420748
 30
0.0
 10
289.6211589853
 20
819.8476767569
 30
0.0
 10
289.5735753942
 20
819.874046499
 30
0.0
 10
289.549857705
 20
819.9154322551
 30
0.0
  0
SPLINE
  5
49E
100
AcDbEntity
  8
0
100
AcDbSpline
 62
7
  6
CONTINUOUS
 70
0
 71
3
 72
8
 73
4
 74
0
 42
0.0000001
 43
0.0000001
 44
0.0000000001
 40
0.0
 40
0.0
 40
0.0
 40
0.0
 40
1.0
 40
1.0
 40
1.0
 40
1.0
 10
289.5177228298
 20
819.9621420096
 30
0.0
 10
289.4848991772
 20
820.019417053
 30
0.0
 10
289.4590286018
 20
820.0866172237
 30
0.0
 10
289.4631109471
 20
820.1525046825
 30
0.0
  0
SPLINE
  5
49F
100
AcDbEntity
  8
0
100
AcDbSpline
 62
7
  6
CONTINUOUS
 70
0
 71
3
 72
9
 73
5
 74
0
 42
0.0000001
 43
0.0000001
 44
0.0000000001
 40
0.0
 40
0.0
 40
0.0
 40
0.0
 40
0.5500328821
 40
1.0
 40
1.0
 40
1.0
 40
1.0
 10
289.3116343277
 20
819.8788808911
 30
0.0
 10
289.2414489157
 20
819.8883202684
 30
0.0
 10
289.2477861675
 20
820.0891243717
 30
0.0
 10
289.2486120234
 20
820.1972627588
 30
0.0
 10
289.2557997572
 20
820.2547488976
 30
0.0
  0
SPLINE
  5
4A0
100
AcDbEntity
  8
0
100
AcDbSpline
 62
7
  6
CONTINUOUS
 70
0
 71
3
 72
9
 73
5
 74
0
 42
0.0000001
 43
0.0000001
 44
0.0000000001
 40
0.0
 40
0.0
 40
0.0
 40
0.0
 40
0.4293716997
 40
1.0
 40
1.0
 40
1.0
 40
1.0
 10
289.3116343278
 20
827.6788903699
 30
0.0
 10
289.253833137
 20
827.670633057
 30
0.0
 10
289.2451140534
 20
827.4709678012
 30
0.0
 10
289.2481540247
 20
827.3598392728
 30
0.0
 10
289.2583144191
 20
827.2829105725
 30
0.0
  0
LINE
  5
4A1
100
AcDbEntity
  8
0
100
AcDbLine
 62
7
  6
CONTINUOUS
 10
288.9682028702
 20
820.2748584683
 11
289.4630490832
 21
820.218309619
  0
SPLINE
  5
4A2
100
AcDbEntity
  8
0
100
AcDbSpline
 62
7
  6
CONTINUOUS
 70
0
 71
3
 72
9
 73
5
 74
0
 42
0.0000001
 43
0.0000001
 44
0.0000000001
 40
0.0
 40
0.0
 40
0.0
 40
0.0
 40
0.5454461866
 40
1.0
 40
1.0
 40
1.0
 40
1.0
 10
289.4613934738
 20
827.366184959
 30
0.0
 10
289.3729154618
 20
827.3447482066
 30
0.0
 10
289.209862647
 20
827.3078687984
 30
0.0
 10
289.0442156576
 20
827.2870520381
 30
0.0
 10
288.9682028702
 20
827.2829097972
 30
0.0
  0
SPLINE
  5
4A3
100
AcDbEntity
  8
0
100
AcDbSpline
 62
7
  6
CONTINUOUS
 70
0
 71
3
 72
10
 73
6
 74
0
 42
0.0000001
 43
0.0000001
 44
0.0000000001
 40
0.0
 40
0.0
 40
0.0
 40
0.0
 40
0.3497941738
 40
0.6184235978
 40
1.0
 40
1.0
 40
1.0
 40
1.0
 10
289.4620718907
 20
827.366246503
 30
0.0
 10
289.4615110714
 20
827.4172449395
 30
0.0
 10
289.4739576115
 20
827.5085372524
 30
0.0
 10
289.5357704828
 20
827.6418846349
 30
0.0
 10
289.614371276
 20
827.7079840346
 30
0.0
 10
289.6670783664
 20
827.7257961755
 30
0.0
  0
SPLINE
  5
4A4
100
AcDbEntity
  8
0
100
AcDbSpline
 62
7
  6
CONTINUOUS
 70
0
 71
3
 72
15
 73
11
 74
0
 42
0.0000001
 43
0.0000001
 44
0.0000000001
 40
0.0
 40
0.0
 40
0.0
 40
0.0
 40
0.1256874276
 40
0.2500581855
 40
0.3738910932
 40
0.4987719185
 40
0.6235571495
 40
0.7480199777
 40
0.8736539027
 40
1.0
 40
1.0
 40
1.0
 40
1.0
 10
324.0682032677
 20
772.9788856305
 30
0.0
 10
324.0682032677
 20
772.5473335127
 30
0.0
 10
324.2411126881
 20
771.6792055227
 30
0.0
 10
324.9740677639
 20
770.5868393944
 30
0.0
 10
326.0651215002
 20
769.8547393266
 30
0.0
 10
327.3545899534
 20
769.5933654588
 30
0.0
 10
328.6485171778
 20
769.8448631905
 30
0.0
 10
329.7493662489
 20
770.572823047
 30
0.0
 10
330.4959042779
 20
771.6701746602
 30
0.0
 10
330.661967546
 20
772.5451167553
 30
0.0
 10
330.6682024728
 20
772.9788856305
 30
0.0
  0
SPLINE
  5
4A5
100
AcDbEntity
  8
0
100
AcDbSpline
 62
7
  6
CONTINUOUS
 70
0
 71
3
 72
15
 73
11
 74
0
 42
0.0000001
 43
0.0000001
 44
0.0000000001
 40
0.0
 40
0.0
 40
0.0
 40
0.0
 40
0.1256874276
 40
0.2500581855
 40
0.3738910932
 40
0.4987719185
 40
0.6235571495
 40
0.7480199777
 40
0.8736539027
 40
1.0
 40
1.0
 40
1.0
 40
1.0
 10
330.6682024728
 20
772.9788856305
 30
0.0
 10
330.6682024728
 20
773.4104377483
 30
0.0
 10
330.4952930524
 20
774.2785657383
 30
0.0
 10
329.7623379766
 20
775.3709318666
 30
0.0
 10
328.6712842403
 20
776.1030319345
 30
0.0
 10
327.3818157871
 20
776.3644058023
 30
0.0
 10
326.0878885627
 20
776.1129080706
 30
0.0
 10
324.9870394916
 20
775.384948214
 30
0.0
 10
324.2405014626
 20
774.2875966009
 30
0.0
 10
324.0744381945
 20
773.4126545057
 30
0.0
 10
324.0682032677
 20
772.9788856305
 30
0.0
  0
SPLINE
  5
4A6
100
AcDbEntity
  8
0
100
AcDbSpline
 62
7
  6
CONTINUOUS
 70
0
 71
3
 72
11
 73
7
 74
0
 42
0.0000001
 43
0.0000001
 44
0.0000000001
 40
0.0
 40
0.0
 40
0.0
 40
0.0
 40
0.1657365192
 40
0.3946141277
 40
0.6845819248
 40
1.0
 40
1.0
 40
1.0
 40
1.0
 10
292.3682028702
 20
862.2116281407
 30
0.0
 10
292.3682028702
 20
861.8868448531
 30
0.0
 10
291.997401901
 20
861.135954952
 30
0.0
 10
290.9407602836
 20
860.3010789672
 30
0.0
 10
289.5429784549
 20
859.4494269272
 30
0.0
 10
288.4998317428
 20
858.8845925173
 30
0.0
 10
287.9622095873
 20
858.579607562
 30
0.0
  0
SPLINE
  5
4A7
100
AcDbEntity
  8
0
100
AcDbSpline
 62
7
  6
CONTINUOUS
 70
0
 71
3
 72
11
 73
7
 74
0
 42
0.0000001
 43
0.0000001
 44
0.0000000001
 40
0.0
 40
0.0
 40
0.0
 40
0.0
 40
0.3154055548
 40
0.6053717445
 40
0.8342558402
 40
1.0
 40
1.0
 40
1.0
 40
1.0
 10
287.9622095873
 20
99.778163699
 30
0.0
 10
288.4998102582
 20
99.4731909317
 30
0.0
 10
289.5429318133
 20
98.9083693267
 30
0.0
 10
290.9407036909
 20
98.0567293613
 30
0.0
 10
291.9973724107
 20
97.2218539166
 30
0.0
 10
292.3682028702
 20
96.4709412939
 30
0.0
 10
292.3682028702
 20
96.1461431203
 30
0.0
  0
SPLINE
  5
4A8
100
AcDbEntity
  8
0
100
AcDbSpline
 62
7
  6
CONTINUOUS
 70
0
 71
3
 72
10
 73
6
 74
0
 42
0.0000001
 43
0.0000001
 44
0.0000000001
 40
0.0
 40
0.0
 40
0.0
 40
0.0
 40
0.3325530432
 40
0.6658869802
 40
1.0
 40
1.0
 40
1.0
 40
1.0
 10
272.888999565
 20
97.9654601891
 30
0.0
 10
272.8779441243
 20
98.0980211331
 30
0.0
 10
272.8565995228
 20
98.3635200617
 30
0.0
 10
272.8252364481
 20
98.7622880129
 30
0.0
 10
272.8039873378
 20
99.0284202856
 30
0.0
 10
272.793024091
 20
99.1616149966
 30
0.0
  0
ENDSEC
  0
SECTION
  2
OBJECTS
  0
DICTIONARY
  5
C
100
AcDbDictionary
280
0
281
1
  3
ACAD_GROUP
350
D
  3
ACAD_MLINESTYLE
350
17
  3
ACAD_LAYOUT
350
1A
  3
ACAD_PLOTSETTINGS
350
19
  3
ACAD_PLOTSTYLENAME
350
E
  0
DICTIONARY
  5
D
102
{ACAD_REACTORS
330
C
102
}
100
AcDbDictionary
280
0
281
1
  0
ACDBDICTIONARYWDFLT
  5
E
102
{ACAD_REACTORS
330
C
102
}
100
AcDbDictionary
281
1
  3
Normal
350
F
100
AcDbDictionaryWithDefault
340
F
  0
DICTIONARY
  5
17
102
{ACAD_REACTORS
330
C
102
}
100
AcDbDictionary
280
0
281
1
  3
Standard
350
18
  0
DICTIONARY
  5
19
102
{ACAD_REACTORS
330
C
102
}
100
AcDbDictionary
281
1
  0
DICTIONARY
  5
1A
102
{ACAD_REACTORS
330
C
102
}
100
AcDbDictionary
281
1
  3
Model
350
4A9
  3
Layout1
350
4AA
  0
ACDBPLACEHOLDER
  5
F
102
{ACAD_REACTORS
330
E
102
}
  0
MLINESTYLE
  5
18
102
{ACAD_REACTORS
330
17
102
}
100
AcDbMlineStyle
  2
STANDARD
 70
0
  3

 62
256
 51
90.0
 52
90.0
 71
2
 49
0.5
 62
256
  6
BYLAYER
 49
-0.5
 62
256
  6
BYLAYER
  0
LAYOUT
  5
4A9
102
{ACAD_REACTORS
330
1A
102
}
100
AcDbPlotSettings
  1

  2
none_device
  4

  6

 40
0.0
 41
0.0
 42
0.0
 43
0.0
 44
210.0
 45
297.0
 46
0.0
 47
0.0
 48
0.0
 49
0.0
140
0.0
141
0.0
142
1.0
143
1.0
 70
1024
 72
1
 73
0
 74
0
  7

 75
0
147
1.0
148
0.0
149
0.0
100
AcDbLayout
  1
Model
 70
0
 71
0
 10
0.0
 20
0.0
 11
210.0
 21
297.0
 12
0.0
 22
0.0
 32
0.0
 14
0.0
 24
0.0
 34
0.0
 15
0.0
 25
0.0
 35
0.0
146
0.0
 13
0.0
 23
0.0
 33
0.0
 16
1.0
 26
0.0
 36
0.0
 17
0.0
 27
1.0
 37
0.0
 76
0
330
210
345
0
346
0
  0
LAYOUT
  5
4AA
102
{ACAD_REACTORS
330
1A
102
}
100
AcDbPlotSettings
  1

  2
none_device
  4

  6

 40
0.0
 41
0.0
 42
0.0
 43
0.0
 44
210.0
 45
297.0
 46
0.0
 47
0.0
 48
0.0
 49
0.0
140
0.0
141
0.0
142
1.0
143
1.0
 70
0
 72
1
 73
0
 74
0
  7

 75
0
147
1.0
148
0.0
149
0.0
100
AcDbLayout
  1
Layout1
 70
0
 71
1
 10
0.0
 20
0.0
 11
210.0
 21
297.0
 12
0.0
 22
0.0
 32
0.0
 14
0.0
 24
0.0
 34
0.0
 15
0.0
 25
0.0
 35
0.0
146
0.0
 13
0.0
 23
0.0
 33
0.0
 16
1.0
 26
0.0
 36
0.0
 17
0.0
 27
1.0
 37
0.0
 76
0
330
211
345
0
346
0
  0
ENDSEC
  0
EOF
