999
DXF file: C:\Users\sesa63760\Dev\_Creo\CAD\MCADUE0003156_3D-CAD\drw0001_4.dxf
999
Pro/ENGINEER 2019471 by Parametric Technology Corporation
  0
SECTION
  2
HEADER
  9
$ACADVER
  1
AC1024
  9
$DWGCODEPAGE
  3
ANSI_1252
  9
$EXTMAX
 10
1244.9930337861
 20
1760.775862069
 30
0.0
  9
$EXTMIN
 10
0.0
 20
0.0
 30
0.0
  9
$LIMMIN
 10
0.0
 20
0.0
  9
$LIMMAX
 10
1244.9930337861
 20
1760.775862069
  9
$VIEWCTR
 10
622.4965168931
 20
880.3879310345
  9
$VIEWSIZE
 40
1760.775862069
  9
$CLAYER
  8
0
  9
$LTSCALE
 40
114.7765006386
  9
$CELTYPE
  6
BYLAYER
  9
$DIMSCALE
 40
1.0
  9
$DIMASZ
 40
14.8213456403
  9
$DIMEXO
 40
1.0
  9
$DIMDLI
 40
79.3001277139
  9
$DIMEXE
 40
1.0
  9
$DIMCEN
 40
18.7816091954
  9
$DIMLFAC
 40
1.0
  9
$DIMBLK
  1
_FILLED
  9
$DIMALT
 70
0
  9
$DIMALTF
 40
0.0393700787
  9
$DIMTXT
 40
20.7498838964
  9
$DIMTOL
 70
1
  9
$DIMLIM
 70
0
  9
$DIMTFAC
 40
1.0
  9
$DIMTP
 40
0.01
  9
$DIMTM
 40
0.01
  9
$DIMGAP
 40
0.625
  9
$DIMDSEP
 70
46
  9
$AUNITS
 70
0
  9
$PDMODE
 70
3
  9
$PDSIZE
 40
0.3125
  9
$HANDSEED
  5
52E
  9
$TILEMODE
 70
1
  9
$MEASUREMENT
 70
1
  9
$INSUNITS
 70
4
  0
ENDSEC
  0
SECTION
  2
CLASSES
  0
CLASS
  1
ACDBDICTIONARYWDFLT
  2
AcDbDictionaryWithDefault
  3
AutoCAD 2000
 90
0
 91
1
280
0
281
0
  0
CLASS
  1
ACDBPLACEHOLDER
  2
AcDbPlaceHolder
  3
AutoCAD 2000
 90
0
 91
1
280
0
281
0
  0
CLASS
  1
LAYOUT
  2
AcDbLayout
  3
AutoCAD 2000
 90
0
 91
0
280
0
281
0
  0
ENDSEC
  0
SECTION
  2
TABLES
  0
TABLE
  2
VPORT
  5
8
100
AcDbSymbolTable
 70
2
  0
VPORT
  5
1F4
100
AcDbSymbolTableRecord
100
AcDbViewportTableRecord
  2
*ACTIVE
 70
0
 10
0.0
 20
0.0
 11
1.0
 21
1.0
 12
622.4965168931
 22
880.3879310345
 13
0.0
 23
0.0
 14
1.0
 24
1.0
 15
0.0
 25
0.0
 16
0.0
 26
0.0
 36
1.0
 17
0.0
 27
0.0
 37
0.0
 40
1760.775862069
 41
0.7070707071
 42
50.0
 43
0.0
 44
0.0
 50
0.0
 51
0.0
 71
0
 72
100
 73
1
 74
1
 75
0
 76
0
 77
0
 78
0
  0
ENDTAB
  0
TABLE
  2
LTYPE
  5
5
100
AcDbSymbolTable
 70
6
  0
LTYPE
  5
14
100
AcDbSymbolTableRecord
100
AcDbLinetypeTableRecord
  2
BYBLOCK
 70
0
  3

 72
65
 73
0
 40
0.0
  0
LTYPE
  5
15
100
AcDbSymbolTableRecord
100
AcDbLinetypeTableRecord
  2
BYLAYER
 70
0
  3

 72
65
 73
0
 40
0.0
  0
LTYPE
  5
16
100
AcDbSymbolTableRecord
100
AcDbLinetypeTableRecord
  2
CONTINUOUS
 70
64
  3
Solid line
 72
65
 73
0
 40
0.0
  0
LTYPE
  5
1F5
100
AcDbSymbolTableRecord
100
AcDbLinetypeTableRecord
  2
CENTER
 70
64
  3
____ _ ____ _ ____ _ ____ _ ____ _ ____ _ ____
 72
65
 73
4
 40
0.6
 49
0.375
 74
0
 49
-0.075
 74
0
 49
0.075
 74
0
 49
-0.075
 74
0
  0
LTYPE
  5
1F6
100
AcDbSymbolTableRecord
100
AcDbLinetypeTableRecord
  2
HIDDEN
 70
64
  3
- - - - - - - - - - - - - - - - - - - -
 72
65
 73
2
 40
0.2
 49
0.1
 74
0
 49
-0.1
 74
0
  0
LTYPE
  5
1F7
100
AcDbSymbolTableRecord
100
AcDbLinetypeTableRecord
  2
PHANTOM
 70
64
  3
_____ _ _ _____ _ _ _____ _ _ _____
 72
65
 73
6
 40
0.8
 49
0.45
 74
0
 49
-0.05
 74
0
 49
0.1
 74
0
 49
-0.05
 74
0
 49
0.1
 74
0
 49
-0.05
 74
0
  0
LTYPE
  5
1F8
100
AcDbSymbolTableRecord
100
AcDbLinetypeTableRecord
  2
DOT
 70
64
  3
. . . . . . . . . . . . . . . . . . . .
 72
65
 73
2
 40
0.2
 49
0.1
 74
0
 49
-0.1
 74
0
  0
LTYPE
  5
1F9
100
AcDbSymbolTableRecord
100
AcDbLinetypeTableRecord
  2
DASHED
 70
64
  3
- - - - - - - - - - - - - - - - - - - -
 72
65
 73
2
 40
0.2
 49
0.1
 74
0
 49
-0.1
 74
0
  0
ENDTAB
  0
TABLE
  2
LAYER
  5
2
100
AcDbSymbolTable
 70
36
  0
LAYER
  5
10
100
AcDbSymbolTableRecord
100
AcDbLayerTableRecord
  2
0
 70
0
 62
7
  6
CONTINUOUS
370
-3
390
F
  0
LAYER
  5
1FA
100
AcDbSymbolTableRecord
100
AcDbLayerTableRecord
  2
DEFAULT_1
 70
0
 62
7
  6
CENTER
370
-3
390
F
  0
LAYER
  5
1FB
100
AcDbSymbolTableRecord
100
AcDbLayerTableRecord
  2
DEFAULT_2
 70
0
 62
8
  6
HIDDEN
370
-3
390
F
  0
LAYER
  5
1FC
100
AcDbSymbolTableRecord
100
AcDbLayerTableRecord
  2
DEFAULT_3
 70
0
 62
7
  6
PHANTOM
370
-3
390
F
  0
LAYER
  5
1FD
100
AcDbSymbolTableRecord
100
AcDbLayerTableRecord
  2
00_COMPONENTS
 70
0
 62
7
  6
CONTINUOUS
370
-3
390
F
  0
LAYER
  5
1FE
100
AcDbSymbolTableRecord
100
AcDbLayerTableRecord
  2
01_1_DEFAULT_DATUMS
 70
0
 62
7
  6
CONTINUOUS
370
-3
390
F
  0
LAYER
  5
1FF
100
AcDbSymbolTableRecord
100
AcDbLayerTableRecord
  2
01_PLANES
 70
0
 62
7
  6
CONTINUOUS
370
-3
390
F
  0
LAYER
  5
200
100
AcDbSymbolTableRecord
100
AcDbLayerTableRecord
  2
02_COORD_SYS
 70
0
 62
7
  6
CONTINUOUS
370
-3
390
F
  0
LAYER
  5
201
100
AcDbSymbolTableRecord
100
AcDbLayerTableRecord
  2
03_AXES
 70
0
 62
7
  6
CONTINUOUS
370
-3
390
F
  0
LAYER
  5
202
100
AcDbSymbolTableRecord
100
AcDbLayerTableRecord
  2
04_POINTS
 70
0
 62
7
  6
CONTINUOUS
370
-3
390
F
  0
LAYER
  5
203
100
AcDbSymbolTableRecord
100
AcDbLayerTableRecord
  2
05_CURVES
 70
0
 62
7
  6
CONTINUOUS
370
-3
390
F
  0
LAYER
  5
204
100
AcDbSymbolTableRecord
100
AcDbLayerTableRecord
  2
06_SURFS
 70
0
 62
7
  6
CONTINUOUS
370
-3
390
F
  0
LAYER
  5
205
100
AcDbSymbolTableRecord
100
AcDbLayerTableRecord
  2
07_COSMETICS
 70
0
 62
7
  6
CONTINUOUS
370
-3
390
F
  0
LAYER
  5
206
100
AcDbSymbolTableRecord
100
AcDbLayerTableRecord
  2
10_NOTES
 70
0
 62
7
  6
CONTINUOUS
370
-3
390
F
  0
LAYER
  5
207
100
AcDbSymbolTableRecord
100
AcDbLayerTableRecord
  2
11_NOTES_PUB
 70
0
 62
7
  6
CONTINUOUS
370
-3
390
F
  0
LAYER
  5
208
100
AcDbSymbolTableRecord
100
AcDbLayerTableRecord
  2
13_REF_GTOL
 70
0
 62
7
  6
CONTINUOUS
370
-3
390
F
  0
LAYER
  5
209
100
AcDbSymbolTableRecord
100
AcDbLayerTableRecord
  2
16_MISC
 70
0
 62
7
  6
CONTINUOUS
370
-3
390
F
  0
LAYER
  5
20A
100
AcDbSymbolTableRecord
100
AcDbLayerTableRecord
  2
17_NO_PRINT
 70
0
 62
7
  6
CONTINUOUS
370
-3
390
F
  0
LAYER
  5
20B
100
AcDbSymbolTableRecord
100
AcDbLayerTableRecord
  2
18_DATUM_CAMS_JOINTS
 70
0
 62
7
  6
CONTINUOUS
370
-3
390
F
  0
LAYER
  5
20C
100
AcDbSymbolTableRecord
100
AcDbLayerTableRecord
  2
19_DATUM_FUNCTIONAL
 70
0
 62
7
  6
CONTINUOUS
370
-3
390
F
  0
LAYER
  5
20D
100
AcDbSymbolTableRecord
100
AcDbLayerTableRecord
  2
20_DATUM_KINEMATIC_SCHEME
 70
0
 62
7
  6
CONTINUOUS
370
-3
390
F
  0
ENDTAB
  0
TABLE
  2
STYLE
  5
3
100
AcDbSymbolTable
 70
1
  0
STYLE
  5
11
100
AcDbSymbolTableRecord
100
AcDbTextStyleTableRecord
  2
STANDARD
 70
0
 40
0.0
 41
0.8
 50
0.0
 71
0
 42
0.2
  3
txt
  4

  0
STYLE
  5
20E
100
AcDbSymbolTableRecord
100
AcDbTextStyleTableRecord
  2
TEXTSTYLE_1
 70
0
 40
0.0
 41
0.8
 50
0.0
 71
0
 42
0.2
  3
gdt
  4

  0
ENDTAB
  0
TABLE
  2
VIEW
  5
6
100
AcDbSymbolTable
 70
0
  0
ENDTAB
  0
TABLE
  2
UCS
  5
7
100
AcDbSymbolTable
 70
0
  0
ENDTAB
  0
TABLE
  2
APPID
  5
9
100
AcDbSymbolTable
 70
1
  0
APPID
  5
20F
100
AcDbSymbolTableRecord
100
AcDbRegAppTableRecord
  2
ACAD
 70
0
  0
ENDTAB
  0
TABLE
  2
BLOCK_RECORD
  5
1
100
AcDbSymbolTable
 70
0
  0
BLOCK_RECORD
  5
210
100
AcDbSymbolTableRecord
100
AcDbBlockTableRecord
  2
*Model_Space
  0
BLOCK_RECORD
  5
211
100
AcDbSymbolTableRecord
100
AcDbBlockTableRecord
  2
*Paper_Space
  0
BLOCK_RECORD
  5
212
100
AcDbSymbolTableRecord
100
AcDbBlockTableRecord
  2
_FILLED
  0
ENDTAB
  0
TABLE
  2
DIMSTYLE
  5
A
100
AcDbSymbolTable
 70
1
100
AcDbDimStyleTable
 71
0
  0
DIMSTYLE
105
213
100
AcDbSymbolTableRecord
100
AcDbDimStyleTableRecord
  2
STANDARD
 70
0
  3

  4

 40
1.0
 41
14.8213456403
 42
1.0
 43
0.38
 44
1.0
 45
0.0
 46
0.0
 47
0.01
 48
0.01
140
20.7498838964
141
0.09
142
0.0
143
25.4
144
1.0
145
0.0
146
1.0
147
0.625
 71
1
 72
0
 73
0
 74
0
 75
0
 76
0
 77
1
 78
8
 79
2
170
0
171
1
172
0
173
0
174
0
175
0
176
0
177
0
178
0
270
2
179
2
271
2
272
2
273
2
274
2
275
0
280
0
281
0
282
0
283
1
284
8
285
0
286
0
287
3
288
0
340
11
278
46
341
212
342
212
343
212
344
212
  0
ENDTAB
  0
ENDSEC
  0
SECTION
  2
BLOCKS
  0
BLOCK
  5
20
100
AcDbEntity
  8
0
100
AcDbBlockBegin
  2
*Model_Space
 70
0
 10
0.0
 20
0.0
 30
0.0
  3
*Model_Space
  1

  0
ENDBLK
  5
21
100
AcDbEntity
  8
0
100
AcDbBlockEnd
  0
BLOCK
  5
1C
100
AcDbEntity
  8
0
100
AcDbBlockBegin
  2
*Paper_Space
 70
0
 10
0.0
 20
0.0
 30
0.0
  3
*Paper_Space
  1

  0
ENDBLK
  5
1D
100
AcDbEntity
  8
0
100
AcDbBlockEnd
  0
BLOCK
  5
214
100
AcDbEntity
  8
0
100
AcDbBlockBegin
  2
_FILLED
 70
64
 10
0.0
 20
0.0
  3
_FILLED
  1

  0
SOLID
  5
215
100
AcDbEntity
  8
0
  6
BYBLOCK
 62
0
100
AcDbTrace
 10
0.0
 20
0.0
 11
-1.0
 21
0.25
 12
-1.0
 22
-0.25
 13
-1.0
 23
-0.25
  0
ENDBLK
  5
216
100
AcDbEntity
  8
0
  6
BYBLOCK
 62
0
100
AcDbBlockEnd
  0
ENDSEC
  0
SECTION
  2
ENTITIES
  0
LINE
  5
217
100
AcDbEntity
  8
0
100
AcDbLine
 62
7
  6
CONTINUOUS
 10
138.6603099965
 20
970.5
 11
138.6603099965
 21
779.5
  0
LINE
  5
218
100
AcDbEntity
  8
0
100
AcDbLine
 62
7
  6
CONTINUOUS
 10
138.9603099965
 20
975.0
 11
138.9603099965
 21
775.0
  0
LINE
  5
219
100
AcDbEntity
  8
0
100
AcDbLine
 62
7
  6
CONTINUOUS
 10
141.927219904
 20
865.0
 11
141.927219904
 21
885.0
  0
LINE
  5
21A
100
AcDbEntity
  8
0
100
AcDbLine
 62
7
  6
CONTINUOUS
 10
144.4603099965
 20
775.0
 11
144.4603099965
 21
865.0
  0
LINE
  5
21B
100
AcDbEntity
  8
0
100
AcDbLine
 62
7
  6
CONTINUOUS
 10
144.4603099965
 20
885.0
 11
144.4603099965
 21
975.0
  0
LINE
  5
21C
100
AcDbEntity
  8
0
100
AcDbLine
 62
7
  6
CONTINUOUS
 10
145.7603099965
 20
975.0
 11
145.7603099965
 21
883.9091704795
  0
LINE
  5
21D
100
AcDbEntity
  8
0
100
AcDbLine
 62
7
  6
CONTINUOUS
 10
145.7603099965
 20
866.0908295205
 11
145.7603099965
 21
775.0
  0
LINE
  5
21E
100
AcDbEntity
  8
0
100
AcDbLine
 62
7
  6
CONTINUOUS
 10
147.0603099965
 20
975.0
 11
147.0603099965
 21
882.8183409589
  0
LINE
  5
21F
100
AcDbEntity
  8
0
100
AcDbLine
 62
7
  6
CONTINUOUS
 10
147.0603099965
 20
867.1816590411
 11
147.0603099965
 21
775.0
  0
LINE
  5
220
100
AcDbEntity
  8
0
100
AcDbLine
 62
7
  6
CONTINUOUS
 10
148.3603099965
 20
975.0
 11
148.3603099965
 21
881.7275114384
  0
LINE
  5
221
100
AcDbEntity
  8
0
100
AcDbLine
 62
7
  6
CONTINUOUS
 10
148.3603099965
 20
868.2724885616
 11
148.3603099965
 21
775.0
  0
LINE
  5
222
100
AcDbEntity
  8
0
100
AcDbLine
 62
7
  6
CONTINUOUS
 10
149.6603099965
 20
975.0
 11
149.6603099965
 21
880.6366819179
  0
LINE
  5
223
100
AcDbEntity
  8
0
100
AcDbLine
 62
7
  6
CONTINUOUS
 10
149.6603099965
 20
869.3633180821
 11
149.6603099965
 21
775.0
  0
LINE
  5
224
100
AcDbEntity
  8
0
100
AcDbLine
 62
7
  6
CONTINUOUS
 10
150.9603099965
 20
975.0
 11
150.9603099965
 21
879.5458523973
  0
LINE
  5
225
100
AcDbEntity
  8
0
100
AcDbLine
 62
7
  6
CONTINUOUS
 10
150.9603099965
 20
870.4541476027
 11
150.9603099965
 21
775.0
  0
LINE
  5
226
100
AcDbEntity
  8
0
100
AcDbLine
 62
7
  6
CONTINUOUS
 10
152.2603099965
 20
975.0
 11
152.2603099965
 21
878.4550228768
  0
LINE
  5
227
100
AcDbEntity
  8
0
100
AcDbLine
 62
7
  6
CONTINUOUS
 10
152.2603099965
 20
871.5449771232
 11
152.2603099965
 21
775.0
  0
LINE
  5
228
100
AcDbEntity
  8
0
100
AcDbLine
 62
7
  6
CONTINUOUS
 10
153.5603099965
 20
975.0
 11
153.5603099965
 21
877.3641933563
  0
LINE
  5
229
100
AcDbEntity
  8
0
100
AcDbLine
 62
7
  6
CONTINUOUS
 10
153.5603099965
 20
872.6358066437
 11
153.5603099965
 21
775.0
  0
LINE
  5
22A
100
AcDbEntity
  8
0
100
AcDbLine
 62
7
  6
CONTINUOUS
 10
154.8603099965
 20
975.0
 11
154.8603099965
 21
876.2733638358
  0
LINE
  5
22B
100
AcDbEntity
  8
0
100
AcDbLine
 62
7
  6
CONTINUOUS
 10
154.8603099965
 20
873.7266361642
 11
154.8603099965
 21
775.0
  0
LINE
  5
22C
100
AcDbEntity
  8
0
100
AcDbLine
 62
7
  6
CONTINUOUS
 10
156.1603099965
 20
975.0
 11
156.1603099965
 21
875.1825343152
  0
LINE
  5
22D
100
AcDbEntity
  8
0
100
AcDbLine
 62
7
  6
CONTINUOUS
 10
156.1603099965
 20
874.8174656848
 11
156.1603099965
 21
775.0
  0
LINE
  5
22E
100
AcDbEntity
  8
0
100
AcDbLine
 62
7
  6
CONTINUOUS
 10
157.4603099965
 20
975.0
 11
157.4603099965
 21
775.0
  0
LINE
  5
22F
100
AcDbEntity
  8
0
100
AcDbLine
 62
7
  6
CONTINUOUS
 10
158.7603099965
 20
975.0
 11
158.7603099965
 21
775.0
  0
LINE
  5
230
100
AcDbEntity
  8
0
100
AcDbLine
 62
7
  6
CONTINUOUS
 10
160.0603099965
 20
975.0
 11
160.0603099965
 21
775.0
  0
LINE
  5
231
100
AcDbEntity
  8
0
100
AcDbLine
 62
7
  6
CONTINUOUS
 10
161.3603099965
 20
975.0
 11
161.3603099965
 21
775.0
  0
LINE
  5
232
100
AcDbEntity
  8
0
100
AcDbLine
 62
7
  6
CONTINUOUS
 10
162.6603099965
 20
975.0
 11
162.6603099965
 21
775.0
  0
LINE
  5
233
100
AcDbEntity
  8
0
100
AcDbLine
 62
7
  6
CONTINUOUS
 10
163.9603099965
 20
975.0
 11
163.9603099965
 21
775.0
  0
LINE
  5
234
100
AcDbEntity
  8
0
100
AcDbLine
 62
7
  6
CONTINUOUS
 10
165.2603099965
 20
975.0
 11
165.2603099965
 21
775.0
  0
LINE
  5
235
100
AcDbEntity
  8
0
100
AcDbLine
 62
7
  6
CONTINUOUS
 10
166.5603099965
 20
975.0
 11
166.5603099965
 21
775.0
  0
LINE
  5
236
100
AcDbEntity
  8
0
100
AcDbLine
 62
7
  6
CONTINUOUS
 10
196.283256535
 20
889.6634290218
 11
196.4644860668
 21
885.1326844692
  0
LINE
  5
237
100
AcDbEntity
  8
0
100
AcDbLine
 62
7
  6
CONTINUOUS
 10
167.8603099965
 20
975.0
 11
167.8603099965
 21
775.0
  0
LINE
  5
238
100
AcDbEntity
  8
0
100
AcDbLine
 62
7
  6
CONTINUOUS
 10
169.1603099965
 20
975.0
 11
169.1603099965
 21
775.0
  0
LINE
  5
239
100
AcDbEntity
  8
0
100
AcDbLine
 62
7
  6
CONTINUOUS
 10
170.4603099965
 20
975.0
 11
170.4603099965
 21
775.0
  0
LINE
  5
23A
100
AcDbEntity
  8
0
100
AcDbLine
 62
7
  6
CONTINUOUS
 10
171.7603099965
 20
975.0
 11
171.7603099965
 21
775.0
  0
LINE
  5
23B
100
AcDbEntity
  8
0
100
AcDbLine
 62
7
  6
CONTINUOUS
 10
173.0603099965
 20
975.0
 11
173.0603099965
 21
775.0
  0
LINE
  5
23C
100
AcDbEntity
  8
0
100
AcDbLine
 62
7
  6
CONTINUOUS
 10
174.3603099965
 20
975.0
 11
174.3603099965
 21
775.0
  0
LINE
  5
23D
100
AcDbEntity
  8
0
100
AcDbLine
 62
7
  6
CONTINUOUS
 10
175.6603099965
 20
975.0
 11
175.6603099965
 21
775.0
  0
LINE
  5
23E
100
AcDbEntity
  8
0
100
AcDbLine
 62
7
  6
CONTINUOUS
 10
176.9603099965
 20
975.0
 11
176.9603099965
 21
775.0
  0
LINE
  5
23F
100
AcDbEntity
  8
0
100
AcDbLine
 62
7
  6
CONTINUOUS
 10
178.2603099965
 20
975.0
 11
178.2603099965
 21
775.0
  0
LINE
  5
240
100
AcDbEntity
  8
0
100
AcDbLine
 62
7
  6
CONTINUOUS
 10
179.5603099965
 20
975.0
 11
179.5603099965
 21
775.0
  0
LINE
  5
241
100
AcDbEntity
  8
0
100
AcDbLine
 62
7
  6
CONTINUOUS
 10
180.8603099965
 20
975.0
 11
180.8603099965
 21
775.0
  0
LINE
  5
242
100
AcDbEntity
  8
0
100
AcDbLine
 62
7
  6
CONTINUOUS
 10
182.1603099965
 20
975.0
 11
182.1603099965
 21
775.0
  0
LINE
  5
243
100
AcDbEntity
  8
0
100
AcDbLine
 62
7
  6
CONTINUOUS
 10
189.5777550978
 20
839.4627833217
 11
189.5777550978
 21
840.550162077
  0
LINE
  5
244
100
AcDbEntity
  8
0
100
AcDbLine
 62
7
  6
CONTINUOUS
 10
189.5777550978
 20
850.6990296245
 11
189.5777550978
 21
852.873786509
  0
LINE
  5
245
100
AcDbEntity
  8
0
100
AcDbLine
 62
7
  6
CONTINUOUS
 10
189.5777550978
 20
873.8964409828
 11
189.5777550978
 21
874.4401283264
  0
LINE
  5
246
100
AcDbEntity
  8
0
100
AcDbLine
 62
7
  6
CONTINUOUS
 10
189.5777550978
 20
880.058252573
 11
189.5777550978
 21
882.233011961
  0
LINE
  5
247
100
AcDbEntity
  8
0
100
AcDbLine
 62
7
  6
CONTINUOUS
 10
192.6586608929
 20
857.9482196569
 11
192.6586608929
 21
860.1229765415
  0
LINE
  5
248
100
AcDbEntity
  8
0
100
AcDbLine
 62
7
  6
CONTINUOUS
 10
192.6586608929
 20
872.6278305054
 11
192.6586608929
 21
874.8025898933
  0
LINE
  5
249
100
AcDbEntity
  8
0
100
AcDbLine
 62
7
  6
CONTINUOUS
 10
192.6586608929
 20
890.5695779324
 11
192.6586608929
 21
892.7443373203
  0
LINE
  5
24A
100
AcDbEntity
  8
0
100
AcDbLine
 62
7
  6
CONTINUOUS
 10
192.6586608929
 20
898.0
 11
192.6586608929
 21
913.5857622623
  0
LINE
  5
24B
100
AcDbEntity
  8
0
100
AcDbLine
 62
7
  6
CONTINUOUS
 10
194.1084996505
 20
861.7540460825
 11
194.1084996505
 21
861.2103562355
  0
LINE
  5
24C
100
AcDbEntity
  8
0
100
AcDbLine
 62
7
  6
CONTINUOUS
 10
195.1958780927
 20
867.5533986092
 11
195.1958780927
 21
869.9093862772
  0
LINE
  5
24D
100
AcDbEntity
  8
0
100
AcDbLine
 62
7
  6
CONTINUOUS
 10
195.1958780927
 20
885.1326844692
 11
195.1958780927
 21
887.6699004173
  0
LINE
  5
24E
100
AcDbEntity
  8
0
100
AcDbLine
 62
7
  6
CONTINUOUS
 10
196.283256535
 20
871.9029123783
 11
196.283256535
 21
867.3721678257
  0
LINE
  5
24F
100
AcDbEntity
  8
0
100
AcDbLine
 62
7
  6
CONTINUOUS
 10
197.3706349773
 20
839.6440128535
 11
197.3706349773
 21
840.1877023876
  0
LINE
  5
250
100
AcDbEntity
  8
0
100
AcDbLine
 62
7
  6
CONTINUOUS
 10
197.9143248243
 20
869.1844656467
 11
197.9143248243
 21
869.5469247103
  0
LINE
  5
251
100
AcDbEntity
  8
0
100
AcDbLine
 62
7
  6
CONTINUOUS
 10
197.9143248243
 20
886.9449822903
 11
197.9143248243
 21
887.4886746407
  0
LINE
  5
252
100
AcDbEntity
  8
0
100
AcDbLine
 62
7
  6
CONTINUOUS
 10
198.0955543561
 20
857.0420707464
 11
198.0955543561
 21
857.9482196569
  0
LINE
  5
253
100
AcDbEntity
  8
0
100
AcDbLine
 62
7
  6
CONTINUOUS
 10
199.1829327984
 20
913.5857622623
 11
199.1829327984
 21
898.0
  0
LINE
  5
254
100
AcDbEntity
  8
0
100
AcDbLine
 62
7
  6
CONTINUOUS
 10
199.1829327984
 20
892.7443373203
 11
199.1829327984
 21
890.5695779324
  0
LINE
  5
255
100
AcDbEntity
  8
0
100
AcDbLine
 62
7
  6
CONTINUOUS
 10
199.1829327984
 20
882.233011961
 11
199.1829327984
 21
880.058252573
  0
LINE
  5
256
100
AcDbEntity
  8
0
100
AcDbLine
 62
7
  6
CONTINUOUS
 10
199.1829327984
 20
874.8025898933
 11
199.1829327984
 21
872.6278305054
  0
LINE
  5
257
100
AcDbEntity
  8
0
100
AcDbLine
 62
7
  6
CONTINUOUS
 10
199.1829327984
 20
864.4724928141
 11
199.1829327984
 21
862.4789642096
  0
LINE
  5
258
100
AcDbEntity
  8
0
100
AcDbLine
 62
7
  6
CONTINUOUS
 10
199.1829327984
 20
852.873786509
 11
199.1829327984
 21
850.6990296245
  0
LINE
  5
259
100
AcDbEntity
  8
0
100
AcDbLine
 62
7
  6
CONTINUOUS
 10
200.0890817089
 20
859.0355993509
 11
200.0890817089
 21
856.8608424664
  0
LINE
  5
25A
100
AcDbEntity
  8
0
100
AcDbLine
 62
7
  6
CONTINUOUS
 10
200.0890817089
 20
862.4789642096
 11
200.0890817089
 21
865.7411007881
  0
LINE
  5
25B
100
AcDbEntity
  8
0
100
AcDbLine
 62
7
  6
CONTINUOUS
 10
200.0890817089
 20
867.3721678257
 11
200.0890817089
 21
868.2783167362
  0
LINE
  5
25C
100
AcDbEntity
  8
0
100
AcDbLine
 62
7
  6
CONTINUOUS
 10
200.63277093
 20
888.9385108948
 11
200.63277093
 21
889.4821982384
  0
LINE
  5
25D
100
AcDbEntity
  8
0
100
AcDbLine
 62
7
  6
CONTINUOUS
 10
200.9952306194
 20
865.7411007881
 11
200.9952306194
 21
863.3851131201
  0
LINE
  5
25E
100
AcDbEntity
  8
0
100
AcDbLine
 62
7
  6
CONTINUOUS
 10
200.9952306194
 20
857.40452981
 11
200.9952306194
 21
858.8543685675
  0
LINE
  5
25F
100
AcDbEntity
  8
0
100
AcDbLine
 62
7
  6
CONTINUOUS
 10
194.2897291822
 20
880.058252573
 11
194.1084996505
 21
878.970872879
  0
LINE
  5
260
100
AcDbEntity
  8
0
100
AcDbLine
 62
7
  6
CONTINUOUS
 10
201.3576903088
 20
889.4821982384
 11
201.3576903088
 21
888.5760493279
  0
LINE
  5
261
100
AcDbEntity
  8
0
100
AcDbLine
 62
7
  6
CONTINUOUS
 10
201.7201499982
 20
851.9676375985
 11
201.7201499982
 21
853.2362455726
  0
LINE
  5
262
100
AcDbEntity
  8
0
100
AcDbLine
 62
7
  6
CONTINUOUS
 10
201.9013795299
 20
860.4854381084
 11
201.9013795299
 21
858.6731402874
  0
LINE
  5
263
100
AcDbEntity
  8
0
100
AcDbLine
 62
7
  6
CONTINUOUS
 10
202.0826096875
 20
881.145632267
 11
202.0826096875
 21
882.233011961
  0
LINE
  5
264
100
AcDbEntity
  8
0
100
AcDbLine
 62
7
  6
CONTINUOUS
 10
202.0826096875
 20
884.045309782
 11
202.0826096875
 21
884.9514586926
  0
LINE
  5
265
100
AcDbEntity
  8
0
100
AcDbLine
 62
7
  6
CONTINUOUS
 10
202.0826096875
 20
888.5760493279
 11
202.0826096875
 21
889.4821982384
  0
LINE
  5
266
100
AcDbEntity
  8
0
100
AcDbLine
 62
7
  6
CONTINUOUS
 10
202.4450687511
 20
858.3106787205
 11
202.4450687511
 21
860.1229765415
  0
LINE
  5
267
100
AcDbEntity
  8
0
100
AcDbLine
 62
7
  6
CONTINUOUS
 10
202.4450687511
 20
863.3851131201
 11
202.4450687511
 21
865.5598700047
  0
LINE
  5
268
100
AcDbEntity
  8
0
100
AcDbLine
 62
7
  6
CONTINUOUS
 10
202.8075284405
 20
893.1067938805
 11
202.8075284405
 21
892.7443373203
  0
LINE
  5
269
100
AcDbEntity
  8
0
100
AcDbLine
 62
7
  6
CONTINUOUS
 10
202.8075284405
 20
882.233011961
 11
202.8075284405
 21
881.145632267
  0
LINE
  5
26A
100
AcDbEntity
  8
0
100
AcDbLine
 62
7
  6
CONTINUOUS
 10
202.8075284405
 20
871.9029123783
 11
202.8075284405
 21
871.3592225313
  0
LINE
  5
26B
100
AcDbEntity
  8
0
100
AcDbLine
 62
7
  6
CONTINUOUS
 10
203.3512176616
 20
865.5598700047
 11
203.3512176616
 21
863.3851131201
  0
LINE
  5
26C
100
AcDbEntity
  8
0
100
AcDbLine
 62
7
  6
CONTINUOUS
 10
203.3512176616
 20
859.9417482615
 11
203.3512176616
 21
858.3106787205
  0
LINE
  5
26D
100
AcDbEntity
  8
0
100
AcDbLine
 62
7
  6
CONTINUOUS
 10
203.3512176616
 20
851.4239477515
 11
203.3512176616
 21
852.873786509
  0
LINE
  5
26E
100
AcDbEntity
  8
0
100
AcDbLine
 62
7
  6
CONTINUOUS
 10
203.3512176616
 20
870.8155351877
 11
203.3512176616
 21
872.4466022253
  0
LINE
  5
26F
100
AcDbEntity
  8
0
100
AcDbLine
 62
7
  6
CONTINUOUS
 10
204.0761370404
 20
873.3527511358
 11
204.0761370404
 21
870.8155351877
  0
LINE
  5
270
100
AcDbEntity
  8
0
100
AcDbLine
 62
7
  6
CONTINUOUS
 10
204.0761370404
 20
857.9482196569
 11
204.0761370404
 21
859.3980584145
  0
LINE
  5
271
100
AcDbEntity
  8
0
100
AcDbLine
 62
7
  6
CONTINUOUS
 10
204.982285638
 20
863.3851131201
 11
204.982285638
 21
865.7411007881
  0
LINE
  5
272
100
AcDbEntity
  8
0
100
AcDbLine
 62
7
  6
CONTINUOUS
 10
204.982285638
 20
871.5404533148
 11
204.982285638
 21
871.9029123783
  0
LINE
  5
273
100
AcDbEntity
  8
0
100
AcDbLine
 62
7
  6
CONTINUOUS
 10
205.3447453273
 20
852.5113274455
 11
205.3447453273
 21
853.0550160408
  0
LINE
  5
274
100
AcDbEntity
  8
0
100
AcDbLine
 62
7
  6
CONTINUOUS
 10
205.7072047038
 20
889.4821982384
 11
205.7072047038
 21
888.5760493279
  0
LINE
  5
275
100
AcDbEntity
  8
0
100
AcDbLine
 62
7
  6
CONTINUOUS
 10
205.7072047038
 20
884.9514586926
 11
205.7072047038
 21
884.045309782
  0
LINE
  5
276
100
AcDbEntity
  8
0
100
AcDbLine
 62
7
  6
CONTINUOUS
 10
205.7072047038
 20
868.2783167362
 11
205.7072047038
 21
867.3721678257
  0
LINE
  5
277
100
AcDbEntity
  8
0
100
AcDbLine
 62
7
  6
CONTINUOUS
 10
205.7072047038
 20
865.7411007881
 11
205.7072047038
 21
862.4789642096
  0
LINE
  5
278
100
AcDbEntity
  8
0
100
AcDbLine
 62
7
  6
CONTINUOUS
 10
207.1570429919
 20
854.6860843301
 11
207.1570429919
 21
853.2362455726
  0
LINE
  5
279
100
AcDbEntity
  8
0
100
AcDbLine
 62
7
  6
CONTINUOUS
 10
212.4353601975
 20
975.0
 11
212.4353601975
 21
775.0
  0
LINE
  5
27A
100
AcDbEntity
  8
0
100
AcDbLine
 62
7
  6
CONTINUOUS
 10
218.3603099965
 20
775.0
 11
218.3603099965
 21
975.0
  0
LINE
  5
27B
100
AcDbEntity
  8
0
100
AcDbLine
 62
7
  6
CONTINUOUS
 10
218.6603099965
 20
776.0
 11
218.6603099965
 21
974.0
  0
LINE
  5
27C
100
AcDbEntity
  8
0
100
AcDbLine
 62
7
  6
CONTINUOUS
 10
218.7603099965
 20
873.0
 11
218.7603099965
 21
877.0
  0
LINE
  5
27D
100
AcDbEntity
  8
0
100
AcDbLine
 62
7
  6
CONTINUOUS
 10
219.2603099965
 20
775.0
 11
219.2603099965
 21
777.0
  0
LINE
  5
27E
100
AcDbEntity
  8
0
100
AcDbLine
 62
7
  6
CONTINUOUS
 10
219.2603099965
 20
873.060637163
 11
219.2603099965
 21
877.0
  0
LINE
  5
27F
100
AcDbEntity
  8
0
100
AcDbLine
 62
7
  6
CONTINUOUS
 10
219.2603099965
 20
973.060637163
 11
219.2603099965
 21
975.0
  0
LINE
  5
280
100
AcDbEntity
  8
0
100
AcDbLine
 62
7
  6
CONTINUOUS
 10
221.6603099965
 20
778.0
 11
221.6603099965
 21
872.0
  0
LINE
  5
281
100
AcDbEntity
  8
0
100
AcDbLine
 62
7
  6
CONTINUOUS
 10
221.6603099965
 20
878.0
 11
221.6603099965
 21
972.0
  0
LINE
  5
282
100
AcDbEntity
  8
0
100
AcDbLine
 62
7
  6
CONTINUOUS
 10
202.6262989087
 20
853.0550160408
 11
202.4450687511
 21
851.4239477515
  0
LINE
  5
283
100
AcDbEntity
  8
0
100
AcDbLine
 62
7
  6
CONTINUOUS
 10
192.4774313612
 20
847.6181225777
 11
192.8398904247
 21
849.9741102457
  0
LINE
  5
284
100
AcDbEntity
  8
0
100
AcDbLine
 62
7
  6
CONTINUOUS
 10
201.176460777
 20
853.4174751043
 11
200.9952306194
 21
852.330096662
  0
LINE
  5
285
100
AcDbEntity
  8
0
100
AcDbLine
 62
7
  6
CONTINUOUS
 10
201.9013795299
 20
893.2880246639
 11
202.0826096875
 21
894.1941735745
  0
LINE
  5
286
100
AcDbEntity
  8
0
100
AcDbLine
 62
7
  6
CONTINUOUS
 10
201.9013795299
 20
876.9773467779
 11
202.0826096875
 21
877.883493185
  0
LINE
  5
287
100
AcDbEntity
  8
0
100
AcDbLine
 62
7
  6
CONTINUOUS
 10
192.4774313612
 20
878.4271855354
 11
192.8398904247
 21
880.058252573
  0
LINE
  5
288
100
AcDbEntity
  8
0
100
AcDbLine
 62
7
  6
CONTINUOUS
 10
195.014648561
 20
895.2815532684
 11
194.6521882457
 21
894.1941735745
  0
LINE
  5
289
100
AcDbEntity
  8
0
100
AcDbLine
 62
7
  6
CONTINUOUS
 10
203.1699881298
 20
894.1941735745
 11
202.8075284405
 21
893.1067938805
  0
LINE
  5
28A
100
AcDbEntity
  8
0
100
AcDbLine
 62
7
  6
CONTINUOUS
 10
202.8075284405
 20
880.2394833565
 11
202.6262989087
 21
879.6957910061
  0
LINE
  5
28B
100
AcDbEntity
  8
0
100
AcDbLine
 62
7
  6
CONTINUOUS
 10
203.1699881298
 20
877.883493185
 11
202.8075284405
 21
876.7961159945
  0
LINE
  5
28C
100
AcDbEntity
  8
0
100
AcDbLine
 62
7
  6
CONTINUOUS
 10
194.6521882458
 20
849.9741102457
 11
194.1084996505
 21
848.3430419564
  0
LINE
  5
28D
100
AcDbEntity
  8
0
100
AcDbLine
 62
7
  6
CONTINUOUS
 10
191.3900529189
 20
840.0064725429
 11
191.7525119824
 21
839.1003236324
  0
LINE
  5
28E
100
AcDbEntity
  8
0
100
AcDbLine
 62
7
  6
CONTINUOUS
 10
198.8204737348
 20
880.058252573
 11
199.364162956
 21
878.4271855354
  0
LINE
  5
28F
100
AcDbEntity
  8
0
100
AcDbLine
 62
7
  6
CONTINUOUS
 10
204.982285638
 20
871.9029123783
 11
204.6198262615
 21
873.1715203524
  0
LINE
  5
290
100
AcDbEntity
  8
0
100
AcDbLine
 62
7
  6
CONTINUOUS
 10
197.1894054456
 20
857.2233015299
 11
197.7330952925
 21
855.0485433936
  0
LINE
  5
291
100
AcDbEntity
  8
0
100
AcDbLine
 62
7
  6
CONTINUOUS
 10
205.525975172
 20
873.1715203524
 11
205.8884345485
 21
871.7216840982
  0
LINE
  5
292
100
AcDbEntity
  8
0
100
AcDbLine
 62
7
  6
CONTINUOUS
 10
197.7330952925
 20
848.5242714882
 11
197.3706349773
 21
850.1553397775
  0
LINE
  5
293
100
AcDbEntity
  8
0
100
AcDbLine
 62
7
  6
CONTINUOUS
 10
204.982285638
 20
881.5080888271
 11
204.8010561062
 21
882.4142377377
  0
LINE
  5
294
100
AcDbEntity
  8
0
100
AcDbLine
 62
7
  6
CONTINUOUS
 10
204.982285638
 20
893.2880246639
 11
204.8010561062
 21
894.1941735745
  0
LINE
  5
295
100
AcDbEntity
  8
0
100
AcDbLine
 62
7
  6
CONTINUOUS
 10
205.7072047038
 20
882.4142377377
 11
205.8884345485
 21
881.3268630505
  0
LINE
  5
296
100
AcDbEntity
  8
0
100
AcDbLine
 62
7
  6
CONTINUOUS
 10
204.982285638
 20
876.7961159944
 11
204.8010561062
 21
878.0647239685
  0
LINE
  5
297
100
AcDbEntity
  8
0
100
AcDbLine
 62
7
  6
CONTINUOUS
 10
205.7072047038
 20
878.0647239685
 11
205.8884345485
 21
876.7961159945
  0
LINE
  5
298
100
AcDbEntity
  8
0
100
AcDbLine
 62
7
  6
CONTINUOUS
 10
205.7072047038
 20
894.1941735745
 11
205.8884345485
 21
892.9255681038
  0
LINE
  5
299
100
AcDbEntity
  8
0
100
AcDbLine
 62
7
  6
CONTINUOUS
 10
203.1699881298
 20
886.4012949467
 11
202.8075284405
 21
885.6763768196
  0
LINE
  5
29A
100
AcDbEntity
  8
0
100
AcDbLine
 62
7
  6
CONTINUOUS
 10
204.2573665721
 20
875.8899670839
 11
204.982285638
 21
876.7961159944
  0
LINE
  5
29B
100
AcDbEntity
  8
0
100
AcDbLine
 62
7
  6
CONTINUOUS
 10
189.5777550978
 20
874.4401283264
 11
189.9402141614
 21
874.8025898933
  0
LINE
  5
29C
100
AcDbEntity
  8
0
100
AcDbLine
 62
7
  6
CONTINUOUS
 10
191.9337415142
 20
872.9902920723
 11
191.3900529189
 21
872.4466022253
  0
LINE
  5
29D
100
AcDbEntity
  8
0
100
AcDbLine
 62
7
  6
CONTINUOUS
 10
204.6198262615
 20
881.145632267
 11
204.982285638
 21
881.5080888271
  0
LINE
  5
29E
100
AcDbEntity
  8
0
100
AcDbLine
 62
7
  6
CONTINUOUS
 10
203.3512176616
 20
872.4466022253
 11
202.8075284405
 21
871.9029123783
  0
LINE
  5
29F
100
AcDbEntity
  8
0
100
AcDbLine
 62
7
  6
CONTINUOUS
 10
156.3778459225
 20
875.0
 11
156.1603099965
 21
874.8174656848
  0
LINE
  5
2A0
100
AcDbEntity
  8
0
100
AcDbLine
 62
7
  6
CONTINUOUS
 10
154.8603099965
 20
873.7266361642
 11
153.5603099965
 21
872.6358066437
  0
LINE
  5
2A1
100
AcDbEntity
  8
0
100
AcDbLine
 62
7
  6
CONTINUOUS
 10
152.2603099965
 20
871.5449771232
 11
150.9603099965
 21
870.4541476027
  0
LINE
  5
2A2
100
AcDbEntity
  8
0
100
AcDbLine
 62
7
  6
CONTINUOUS
 10
149.6603099965
 20
869.3633180821
 11
148.3603099965
 21
868.2724885616
  0
LINE
  5
2A3
100
AcDbEntity
  8
0
100
AcDbLine
 62
7
  6
CONTINUOUS
 10
147.0603099965
 20
867.1816590411
 11
145.7603099965
 21
866.0908295205
  0
LINE
  5
2A4
100
AcDbEntity
  8
0
100
AcDbLine
 62
7
  6
CONTINUOUS
 10
145.7603099965
 20
883.9091704795
 11
147.0603099965
 21
882.8183409589
  0
LINE
  5
2A5
100
AcDbEntity
  8
0
100
AcDbLine
 62
7
  6
CONTINUOUS
 10
148.3603099965
 20
881.7275114384
 11
149.6603099965
 21
880.6366819179
  0
LINE
  5
2A6
100
AcDbEntity
  8
0
100
AcDbLine
 62
7
  6
CONTINUOUS
 10
150.9603099965
 20
879.5458523973
 11
152.2603099965
 21
878.4550228768
  0
LINE
  5
2A7
100
AcDbEntity
  8
0
100
AcDbLine
 62
7
  6
CONTINUOUS
 10
153.5603099965
 20
877.3641933563
 11
154.8603099965
 21
876.2733638358
  0
LINE
  5
2A8
100
AcDbEntity
  8
0
100
AcDbLine
 62
7
  6
CONTINUOUS
 10
156.1603099965
 20
875.1825343152
 11
156.3778459225
 21
875.0
  0
LINE
  5
2A9
100
AcDbEntity
  8
0
100
AcDbLine
 62
7
  6
CONTINUOUS
 10
203.713677351
 20
851.061488688
 11
203.3512176616
 21
851.4239477515
  0
LINE
  5
2AA
100
AcDbEntity
  8
0
100
AcDbLine
 62
7
  6
CONTINUOUS
 10
194.1084996505
 20
861.2103562355
 11
195.1958780927
 21
860.1229765415
  0
LINE
  5
2AB
100
AcDbEntity
  8
0
100
AcDbLine
 62
7
  6
CONTINUOUS
 10
203.3512176616
 20
858.3106787205
 11
203.713677351
 21
857.9482196569
  0
LINE
  5
2AC
100
AcDbEntity
  8
0
100
AcDbLine
 62
7
  6
CONTINUOUS
 10
202.8075284405
 20
871.3592225313
 11
203.3512176616
 21
870.8155351877
  0
LINE
  5
2AD
100
AcDbEntity
  8
0
100
AcDbLine
 62
7
  6
CONTINUOUS
 10
202.6262989087
 20
879.6957910061
 11
201.176460777
 21
881.145632267
  0
LINE
  5
2AE
100
AcDbEntity
  8
0
100
AcDbLine
 62
7
  6
CONTINUOUS
 10
200.9952306194
 20
888.5760493279
 11
200.63277093
 21
888.9385108948
  0
LINE
  5
2AF
100
AcDbEntity
  8
0
100
AcDbLine
 62
7
  6
CONTINUOUS
 10
201.9013795299
 20
858.6731402874
 11
202.4450687511
 21
858.3106787205
  0
LINE
  5
2B0
100
AcDbEntity
  8
0
100
AcDbLine
 62
7
  6
CONTINUOUS
 10
202.4450687511
 20
886.9449822903
 11
203.1699881298
 21
886.4012949467
  0
LINE
  5
2B1
100
AcDbEntity
  8
0
100
AcDbLine
 62
7
  6
CONTINUOUS
 10
202.8075284405
 20
856.8608424664
 11
200.9952306194
 21
857.40452981
  0
LINE
  5
2B2
100
AcDbEntity
  8
0
100
AcDbLine
 62
7
  6
CONTINUOUS
 10
201.7201499982
 20
853.2362455726
 11
201.176460777
 21
853.4174751043
  0
LINE
  5
2B3
100
AcDbEntity
  8
0
100
AcDbLine
 62
7
  6
CONTINUOUS
 10
218.3603099965
 20
775.0
 11
138.9603099965
 21
775.0
  0
LINE
  5
2B4
100
AcDbEntity
  8
0
100
AcDbLine
 62
7
  6
CONTINUOUS
 10
219.2603099965
 20
775.0
 11
1058.0603099965
 21
775.0
  0
LINE
  5
2B5
100
AcDbEntity
  8
0
100
AcDbLine
 62
7
  6
CONTINUOUS
 10
1058.9603099965
 20
775.0
 11
1138.3603099965
 21
775.0
  0
LINE
  5
2B6
100
AcDbEntity
  8
0
100
AcDbLine
 62
7
  6
CONTINUOUS
 10
1058.9603099965
 20
776.0
 11
1058.6603099965
 21
776.0
  0
LINE
  5
2B7
100
AcDbEntity
  8
0
100
AcDbLine
 62
7
  6
CONTINUOUS
 10
218.3603099965
 20
776.0
 11
218.6603099965
 21
776.0
  0
LINE
  5
2B8
100
AcDbEntity
  8
0
100
AcDbLine
 62
7
  6
CONTINUOUS
 10
1058.6603099965
 20
777.0
 11
1057.1056659507
 21
777.0
  0
LINE
  5
2B9
100
AcDbEntity
  8
0
100
AcDbLine
 62
7
  6
CONTINUOUS
 10
220.2149540423
 20
777.0
 11
218.7695980881
 21
777.0
  0
LINE
  5
2BA
100
AcDbEntity
  8
0
100
AcDbLine
 62
7
  6
CONTINUOUS
 10
200.9952306194
 20
858.8543685675
 11
200.0890817089
 21
859.0355993509
  0
LINE
  5
2BB
100
AcDbEntity
  8
0
100
AcDbLine
 62
7
  6
CONTINUOUS
 10
202.4450687511
 20
860.1229765415
 11
203.3512176616
 21
859.9417482615
  0
LINE
  5
2BC
100
AcDbEntity
  8
0
100
AcDbLine
 62
7
  6
CONTINUOUS
 10
203.3512176616
 20
852.873786509
 11
202.6262989087
 21
853.0550160408
  0
LINE
  5
2BD
100
AcDbEntity
  8
0
100
AcDbLine
 62
7
  6
CONTINUOUS
 10
194.470958714
 20
843.2686081827
 11
196.283256535
 21
843.8122980297
  0
LINE
  5
2BE
100
AcDbEntity
  8
0
100
AcDbLine
 62
7
  6
CONTINUOUS
 10
1084.6619591001
 20
857.2556626797
 11
1083.3933498743
 21
857.0744318962
  0
LINE
  5
2BF
100
AcDbEntity
  8
0
100
AcDbLine
 62
7
  6
CONTINUOUS
 10
1059.1163607682
 20
777.8
 11
1058.6603099965
 21
777.8
  0
LINE
  5
2C0
100
AcDbEntity
  8
0
100
AcDbLine
 62
7
  6
CONTINUOUS
 10
1056.4108001385
 20
778.0
 11
220.9098198545
 21
778.0
  0
LINE
  5
2C1
100
AcDbEntity
  8
0
100
AcDbLine
 62
7
  6
CONTINUOUS
 10
198.2767838878
 20
836.7443365902
 11
196.283256535
 21
836.9255662784
  0
LINE
  5
2C2
100
AcDbEntity
  8
0
100
AcDbLine
 62
7
  6
CONTINUOUS
 10
190.4839040084
 20
843.4498383403
 11
192.2962018294
 21
843.2686081827
  0
LINE
  5
2C3
100
AcDbEntity
  8
0
100
AcDbLine
 62
7
  6
CONTINUOUS
 10
1084.6619591001
 20
836.4142377377
 11
1078.1376871947
 21
836.4142377377
  0
LINE
  5
2C4
100
AcDbEntity
  8
0
100
AcDbLine
 62
7
  6
CONTINUOUS
 10
192.8398904247
 20
836.5631067455
 11
191.9337415142
 21
836.5631067455
  0
LINE
  5
2C5
100
AcDbEntity
  8
0
100
AcDbLine
 62
7
  6
CONTINUOUS
 10
191.7525119824
 20
839.1003236324
 11
192.1149722976
 21
839.1003236324
  0
LINE
  5
2C6
100
AcDbEntity
  8
0
100
AcDbLine
 62
7
  6
CONTINUOUS
 10
196.283256535
 20
843.8122980297
 11
196.826946382
 21
843.8122980297
  0
LINE
  5
2C7
100
AcDbEntity
  8
0
100
AcDbLine
 62
7
  6
CONTINUOUS
 10
196.283256535
 20
844.1747570932
 11
195.3771076245
 21
844.1747570932
  0
LINE
  5
2C8
100
AcDbEntity
  8
0
100
AcDbLine
 62
7
  6
CONTINUOUS
 10
192.8398904247
 20
849.9741102457
 11
194.6521882458
 21
849.9741102457
  0
LINE
  5
2C9
100
AcDbEntity
  8
0
100
AcDbLine
 62
7
  6
CONTINUOUS
 10
197.3706349773
 20
850.1553397775
 11
198.6392435772
 21
850.1553397775
  0
LINE
  5
2CA
100
AcDbEntity
  8
0
100
AcDbLine
 62
7
  6
CONTINUOUS
 10
199.1829327984
 20
850.6990296245
 11
189.5777550978
 21
850.6990296245
  0
LINE
  5
2CB
100
AcDbEntity
  8
0
100
AcDbLine
 62
7
  6
CONTINUOUS
 10
204.6198262615
 20
851.061488688
 11
203.713677351
 21
851.061488688
  0
LINE
  5
2CC
100
AcDbEntity
  8
0
100
AcDbLine
 62
7
  6
CONTINUOUS
 10
1078.1376871947
 20
852.0
 11
1084.6619591001
 21
852.0
  0
LINE
  5
2CD
100
AcDbEntity
  8
0
100
AcDbLine
 62
7
  6
CONTINUOUS
 10
189.5777550978
 20
852.873786509
 11
193.3835802717
 21
852.873786509
  0
LINE
  5
2CE
100
AcDbEntity
  8
0
100
AcDbLine
 62
7
  6
CONTINUOUS
 10
195.1958780927
 20
852.873786509
 11
199.1829327984
 21
852.873786509
  0
LINE
  5
2CF
100
AcDbEntity
  8
0
100
AcDbLine
 62
7
  6
CONTINUOUS
 10
197.7330952925
 20
855.0485433936
 11
195.3771076245
 21
855.0485433936
  0
LINE
  5
2D0
100
AcDbEntity
  8
0
100
AcDbLine
 62
7
  6
CONTINUOUS
 10
1075.2380103055
 20
855.8058264256
 11
1074.1506318632
 21
855.8058264256
  0
LINE
  5
2D1
100
AcDbEntity
  8
0
100
AcDbLine
 62
7
  6
CONTINUOUS
 10
1072.5195638868
 20
855.8058264256
 11
1071.6134152892
 21
855.8058264256
  0
LINE
  5
2D2
100
AcDbEntity
  8
0
100
AcDbLine
 62
7
  6
CONTINUOUS
 10
194.6521882457
 20
857.2233015299
 11
197.1894054456
 21
857.2233015299
  0
LINE
  5
2D3
100
AcDbEntity
  8
0
100
AcDbLine
 62
7
  6
CONTINUOUS
 10
1080.493673611
 20
857.2556626797
 11
1078.1376871947
 21
857.2556626797
  0
LINE
  5
2D4
100
AcDbEntity
  8
0
100
AcDbLine
 62
7
  6
CONTINUOUS
 10
197.1894054456
 20
857.9482196569
 11
192.6586608929
 21
857.9482196569
  0
LINE
  5
2D5
100
AcDbEntity
  8
0
100
AcDbLine
 62
7
  6
CONTINUOUS
 10
203.713677351
 20
857.9482196569
 11
204.0761370404
 21
857.9482196569
  0
LINE
  5
2D6
100
AcDbEntity
  8
0
100
AcDbLine
 62
7
  6
CONTINUOUS
 10
1078.1376871947
 20
859.4304220676
 11
1084.6619591001
 21
859.4304220676
  0
LINE
  5
2D7
100
AcDbEntity
  8
0
100
AcDbLine
 62
7
  6
CONTINUOUS
 10
192.6586608929
 20
860.1229765415
 11
193.3835802717
 21
860.1229765415
  0
LINE
  5
2D8
100
AcDbEntity
  8
0
100
AcDbLine
 62
7
  6
CONTINUOUS
 10
195.1958780927
 20
860.1229765415
 11
198.0955543561
 21
860.1229765415
  0
LINE
  5
2D9
100
AcDbEntity
  8
0
100
AcDbLine
 62
7
  6
CONTINUOUS
 10
1081.5810520533
 20
860.3365709782
 11
1081.037363458
 21
860.3365709782
  0
LINE
  5
2DA
100
AcDbEntity
  8
0
100
AcDbLine
 62
7
  6
CONTINUOUS
 10
1080.3124440792
 20
860.3365709782
 11
1079.0438361052
 21
860.3365709782
  0
LINE
  5
2DB
100
AcDbEntity
  8
0
100
AcDbLine
 62
7
  6
CONTINUOUS
 10
200.63277093
 20
860.4854381084
 11
201.9013795299
 21
860.4854381084
  0
LINE
  5
2DC
100
AcDbEntity
  8
0
100
AcDbLine
 62
7
  6
CONTINUOUS
 10
1076.687849063
 20
860.5178017616
 11
1075.9629296842
 21
860.5178017616
  0
LINE
  5
2DD
100
AcDbEntity
  8
0
100
AcDbLine
 62
7
  6
CONTINUOUS
 10
1075.2380103055
 20
860.5178017616
 11
1071.6134152892
 21
860.5178017616
  0
LINE
  5
2DE
100
AcDbEntity
  8
0
100
AcDbLine
 62
7
  6
CONTINUOUS
 10
1071.6134152892
 20
861.4239506722
 11
1075.2380103055
 21
861.4239506722
  0
LINE
  5
2DF
100
AcDbEntity
  8
0
100
AcDbLine
 62
7
  6
CONTINUOUS
 10
1075.9629296842
 20
861.4239506722
 11
1076.3253893736
 21
861.4239506722
  0
LINE
  5
2E0
100
AcDbEntity
  8
0
100
AcDbLine
 62
7
  6
CONTINUOUS
 10
205.7072047038
 20
862.4789642096
 11
200.0890817089
 21
862.4789642096
  0
LINE
  5
2E1
100
AcDbEntity
  8
0
100
AcDbLine
 62
7
  6
CONTINUOUS
 10
199.1829327984
 20
862.4789642096
 11
195.7395679398
 21
862.4789642096
  0
LINE
  5
2E2
100
AcDbEntity
  8
0
100
AcDbLine
 62
7
  6
CONTINUOUS
 10
200.9952306194
 20
863.3851131201
 11
202.4450687511
 21
863.3851131201
  0
LINE
  5
2E3
100
AcDbEntity
  8
0
100
AcDbLine
 62
7
  6
CONTINUOUS
 10
203.3512176616
 20
863.3851131201
 11
204.982285638
 21
863.3851131201
  0
LINE
  5
2E4
100
AcDbEntity
  8
0
100
AcDbLine
 62
7
  6
CONTINUOUS
 10
194.470958714
 20
864.4724928141
 11
199.1829327984
 21
864.4724928141
  0
LINE
  5
2E5
100
AcDbEntity
  8
0
100
AcDbLine
 62
7
  6
CONTINUOUS
 10
141.927219904
 20
865.0
 11
144.4603099965
 21
865.0
  0
LINE
  5
2E6
100
AcDbEntity
  8
0
100
AcDbLine
 62
7
  6
CONTINUOUS
 10
1132.8603099965
 20
865.0
 11
1135.3934000891
 21
865.0
  0
LINE
  5
2E7
100
AcDbEntity
  8
0
100
AcDbLine
 62
7
  6
CONTINUOUS
 10
1075.2380103055
 20
865.0485413074
 11
1074.875551242
 21
865.0485413074
  0
LINE
  5
2E8
100
AcDbEntity
  8
0
100
AcDbLine
 62
7
  6
CONTINUOUS
 10
1073.2444829527
 20
865.0485413074
 11
1071.6134152892
 21
865.0485413074
  0
LINE
  5
2E9
100
AcDbEntity
  8
0
100
AcDbLine
 62
7
  6
CONTINUOUS
 10
196.4644860668
 20
865.1974109411
 11
195.7395679397
 21
865.1974109411
  0
LINE
  5
2EA
100
AcDbEntity
  8
0
100
AcDbLine
 62
7
  6
CONTINUOUS
 10
202.4450687511
 20
865.5598700047
 11
203.3512176616
 21
865.5598700047
  0
LINE
  5
2EB
100
AcDbEntity
  8
0
100
AcDbLine
 62
7
  6
CONTINUOUS
 10
200.0890817089
 20
865.7411007881
 11
200.9952306194
 21
865.7411007881
  0
LINE
  5
2EC
100
AcDbEntity
  8
0
100
AcDbLine
 62
7
  6
CONTINUOUS
 10
204.982285638
 20
865.7411007881
 11
205.7072047038
 21
865.7411007881
  0
LINE
  5
2ED
100
AcDbEntity
  8
0
100
AcDbLine
 62
7
  6
CONTINUOUS
 10
1071.6134152892
 20
865.954690218
 11
1075.2380103055
 21
865.954690218
  0
LINE
  5
2EE
100
AcDbEntity
  8
0
100
AcDbLine
 62
7
  6
CONTINUOUS
 10
1081.037363458
 20
867.042069912
 11
1081.7622828368
 21
867.042069912
  0
LINE
  5
2EF
100
AcDbEntity
  8
0
100
AcDbLine
 62
7
  6
CONTINUOUS
 10
205.7072047038
 20
867.3721678257
 11
200.0890817089
 21
867.3721678257
  0
LINE
  5
2F0
100
AcDbEntity
  8
0
100
AcDbLine
 62
7
  6
CONTINUOUS
 10
1072.5195638868
 20
867.5857622623
 11
1071.6134152892
 21
867.5857622623
  0
LINE
  5
2F1
100
AcDbEntity
  8
0
100
AcDbLine
 62
7
  6
CONTINUOUS
 10
1087.7428648952
 20
867.766988039
 11
1078.1376871947
 21
867.766988039
  0
LINE
  5
2F2
100
AcDbEntity
  8
0
100
AcDbLine
 62
7
  6
CONTINUOUS
 10
1075.2380103055
 20
867.766988039
 11
1074.5130915526
 21
867.766988039
  0
LINE
  5
2F3
100
AcDbEntity
  8
0
100
AcDbLine
 62
7
  6
CONTINUOUS
 10
200.0890817089
 20
868.2783167362
 11
205.7072047038
 21
868.2783167362
  0
LINE
  5
2F4
100
AcDbEntity
  8
0
100
AcDbLine
 62
7
  6
CONTINUOUS
 10
1076.144159216
 20
868.854367733
 11
1075.2380103055
 21
868.854367733
  0
LINE
  5
2F5
100
AcDbEntity
  8
0
100
AcDbLine
 62
7
  6
CONTINUOUS
 10
1074.5130915526
 20
868.854367733
 11
1072.7007937315
 21
868.854367733
  0
LINE
  5
2F6
100
AcDbEntity
  8
0
100
AcDbLine
 62
7
  6
CONTINUOUS
 10
1072.8820235762
 20
869.7605166435
 11
1074.5130915526
 21
869.7605166435
  0
LINE
  5
2F7
100
AcDbEntity
  8
0
100
AcDbLine
 62
7
  6
CONTINUOUS
 10
1078.1376871947
 20
869.941747427
 11
1078.5001462582
 21
869.941747427
  0
LINE
  5
2F8
100
AcDbEntity
  8
0
100
AcDbLine
 62
7
  6
CONTINUOUS
 10
1080.1312145475
 20
869.941747427
 11
1083.0308908108
 21
869.941747427
  0
LINE
  5
2F9
100
AcDbEntity
  8
0
100
AcDbLine
 62
7
  6
CONTINUOUS
 10
1084.4807295683
 20
869.941747427
 11
1087.7428648952
 21
869.941747427
  0
LINE
  5
2FA
100
AcDbEntity
  8
0
100
AcDbLine
 62
7
  6
CONTINUOUS
 10
195.5583371563
 20
871.9029123783
 11
196.283256535
 21
871.9029123783
  0
LINE
  5
2FB
100
AcDbEntity
  8
0
100
AcDbLine
 62
7
  6
CONTINUOUS
 10
197.0081759138
 20
871.9029123783
 11
198.2767838878
 21
871.9029123783
  0
LINE
  5
2FC
100
AcDbEntity
  8
0
100
AcDbLine
 62
7
  6
CONTINUOUS
 10
1072.5195638868
 20
871.9352760315
 11
1071.6134152892
 21
871.9352760315
  0
LINE
  5
2FD
100
AcDbEntity
  8
0
100
AcDbLine
 62
7
  6
CONTINUOUS
 10
220.9098198545
 20
872.0
 11
1056.4108001385
 21
872.0
  0
LINE
  5
2FE
100
AcDbEntity
  8
0
100
AcDbLine
 62
7
  6
CONTINUOUS
 10
1075.2380103055
 20
872.116506815
 11
1074.1506318632
 21
872.116506815
  0
LINE
  5
2FF
100
AcDbEntity
  8
0
100
AcDbLine
 62
7
  6
CONTINUOUS
 10
191.3900529189
 20
872.4466022253
 11
191.0275926037
 21
872.4466022253
  0
LINE
  5
300
100
AcDbEntity
  8
0
100
AcDbLine
 62
7
  6
CONTINUOUS
 10
199.1829327984
 20
872.6278305054
 11
192.6586608929
 21
872.6278305054
  0
LINE
  5
301
100
AcDbEntity
  8
0
100
AcDbLine
 62
7
  6
CONTINUOUS
 10
218.7695980881
 20
873.0
 11
220.2149540423
 21
873.0
  0
LINE
  5
302
100
AcDbEntity
  8
0
100
AcDbLine
 62
7
  6
CONTINUOUS
 10
1057.1056659507
 20
873.0
 11
1058.5510219049
 21
873.0
  0
LINE
  5
303
100
AcDbEntity
  8
0
100
AcDbLine
 62
7
  6
CONTINUOUS
 10
204.6198262615
 20
873.1715203524
 11
205.525975172
 21
873.1715203524
  0
LINE
  5
304
100
AcDbEntity
  8
0
100
AcDbLine
 62
7
  6
CONTINUOUS
 10
1073.4257127974
 20
874.1100329161
 11
1073.0632534209
 21
874.1100329161
  0
LINE
  5
305
100
AcDbEntity
  8
0
100
AcDbLine
 62
7
  6
CONTINUOUS
 10
1081.2185929898
 20
874.6537227631
 11
1081.5810520533
 21
874.6537227631
  0
LINE
  5
306
100
AcDbEntity
  8
0
100
AcDbLine
 62
7
  6
CONTINUOUS
 10
189.9402141614
 20
874.8025898933
 11
190.8463630719
 21
874.8025898933
  0
LINE
  5
307
100
AcDbEntity
  8
0
100
AcDbLine
 62
7
  6
CONTINUOUS
 10
192.6586608929
 20
874.8025898933
 11
199.1829327984
 21
874.8025898933
  0
LINE
  5
308
100
AcDbEntity
  8
0
100
AcDbLine
 62
7
  6
CONTINUOUS
 10
204.2573665721
 20
874.9838181734
 11
203.5324478192
 21
874.9838181734
  0
LINE
  5
309
100
AcDbEntity
  8
0
100
AcDbLine
 62
7
  6
CONTINUOUS
 10
1058.0603099965
 20
875.0
 11
219.2603099965
 21
875.0
  0
LINE
  5
30A
100
AcDbEntity
  8
0
100
AcDbLine
 62
7
  6
CONTINUOUS
 10
1073.0632534209
 20
875.0161818266
 11
1073.7881721738
 21
875.0161818266
  0
LINE
  5
30B
100
AcDbEntity
  8
0
100
AcDbLine
 62
7
  6
CONTINUOUS
 10
1087.3804058317
 20
875.1974101067
 11
1086.4742569211
 21
875.1974101067
  0
LINE
  5
30C
100
AcDbEntity
  8
0
100
AcDbLine
 62
7
  6
CONTINUOUS
 10
1084.6619591001
 20
875.1974101067
 11
1078.1376871947
 21
875.1974101067
  0
LINE
  5
30D
100
AcDbEntity
  8
0
100
AcDbLine
 62
7
  6
CONTINUOUS
 10
196.1020270033
 20
875.3462772369
 11
195.7395679397
 21
875.3462772369
  0
LINE
  5
30E
100
AcDbEntity
  8
0
100
AcDbLine
 62
7
  6
CONTINUOUS
 10
203.8949071957
 20
875.8899670839
 11
204.2573665721
 21
875.8899670839
  0
LINE
  5
30F
100
AcDbEntity
  8
0
100
AcDbLine
 62
7
  6
CONTINUOUS
 10
1072.7007937315
 20
876.8284796476
 11
1071.794644821
 21
876.8284796476
  0
LINE
  5
310
100
AcDbEntity
  8
0
100
AcDbLine
 62
7
  6
CONTINUOUS
 10
1058.5510219049
 20
877.0
 11
1057.1056659507
 21
877.0
  0
LINE
  5
311
100
AcDbEntity
  8
0
100
AcDbLine
 62
7
  6
CONTINUOUS
 10
220.2149540423
 20
877.0
 11
218.7695980881
 21
877.0
  0
LINE
  5
312
100
AcDbEntity
  8
0
100
AcDbLine
 62
7
  6
CONTINUOUS
 10
1078.1376871947
 20
877.3721694946
 11
1084.6619591001
 21
877.3721694946
  0
LINE
  5
313
100
AcDbEntity
  8
0
100
AcDbLine
 62
7
  6
CONTINUOUS
 10
1085.9305670741
 20
877.5533977747
 11
1086.2930273894
 21
877.5533977747
  0
LINE
  5
314
100
AcDbEntity
  8
0
100
AcDbLine
 62
7
  6
CONTINUOUS
 10
202.0826096875
 20
877.883493185
 11
203.1699881298
 21
877.883493185
  0
LINE
  5
315
100
AcDbEntity
  8
0
100
AcDbLine
 62
7
  6
CONTINUOUS
 10
1056.4108001385
 20
878.0
 11
220.9098198545
 21
878.0
  0
LINE
  5
316
100
AcDbEntity
  8
0
100
AcDbLine
 62
7
  6
CONTINUOUS
 10
204.8010561062
 20
878.0647239685
 11
205.7072047038
 21
878.0647239685
  0
LINE
  5
317
100
AcDbEntity
  8
0
100
AcDbLine
 62
7
  6
CONTINUOUS
 10
1081.7622828368
 20
878.0970876217
 11
1081.037363458
 21
878.0970876217
  0
LINE
  5
318
100
AcDbEntity
  8
0
100
AcDbLine
 62
7
  6
CONTINUOUS
 10
1080.3124440792
 20
878.0970876217
 11
1079.0438361052
 21
878.0970876217
  0
LINE
  5
319
100
AcDbEntity
  8
0
100
AcDbLine
 62
7
  6
CONTINUOUS
 10
199.1829327984
 20
880.058252573
 11
198.8204737348
 21
880.058252573
  0
LINE
  5
31A
100
AcDbEntity
  8
0
100
AcDbLine
 62
7
  6
CONTINUOUS
 10
197.1894054456
 20
880.058252573
 11
194.2897291822
 21
880.058252573
  0
LINE
  5
31B
100
AcDbEntity
  8
0
100
AcDbLine
 62
7
  6
CONTINUOUS
 10
192.8398904247
 20
880.058252573
 11
189.5777550978
 21
880.058252573
  0
LINE
  5
31C
100
AcDbEntity
  8
0
100
AcDbLine
 62
7
  6
CONTINUOUS
 10
204.4385964168
 20
880.2394833565
 11
202.8075284405
 21
880.2394833565
  0
LINE
  5
31D
100
AcDbEntity
  8
0
100
AcDbLine
 62
7
  6
CONTINUOUS
 10
202.8075284405
 20
881.145632267
 11
204.6198262615
 21
881.145632267
  0
LINE
  5
31E
100
AcDbEntity
  8
0
100
AcDbLine
 62
7
  6
CONTINUOUS
 10
201.176460777
 20
881.145632267
 11
202.0826096875
 21
881.145632267
  0
LINE
  5
31F
100
AcDbEntity
  8
0
100
AcDbLine
 62
7
  6
CONTINUOUS
 10
1077.2315382841
 20
881.7216832638
 11
1071.6134152892
 21
881.7216832638
  0
LINE
  5
320
100
AcDbEntity
  8
0
100
AcDbLine
 62
7
  6
CONTINUOUS
 10
189.5777550978
 20
882.233011961
 11
199.1829327984
 21
882.233011961
  0
LINE
  5
321
100
AcDbEntity
  8
0
100
AcDbLine
 62
7
  6
CONTINUOUS
 10
202.0826096875
 20
882.233011961
 11
202.8075284405
 21
882.233011961
  0
LINE
  5
322
100
AcDbEntity
  8
0
100
AcDbLine
 62
7
  6
CONTINUOUS
 10
204.8010561062
 20
882.4142377377
 11
205.7072047038
 21
882.4142377377
  0
LINE
  5
323
100
AcDbEntity
  8
0
100
AcDbLine
 62
7
  6
CONTINUOUS
 10
1071.6134152892
 20
882.6278321743
 11
1077.2315382841
 21
882.6278321743
  0
LINE
  5
324
100
AcDbEntity
  8
0
100
AcDbLine
 62
7
  6
CONTINUOUS
 10
196.283256535
 20
882.957930088
 11
195.5583371562
 21
882.957930088
  0
LINE
  5
325
100
AcDbEntity
  8
0
100
AcDbLine
 62
7
  6
CONTINUOUS
 10
205.7072047038
 20
884.045309782
 11
202.0826096875
 21
884.045309782
  0
LINE
  5
326
100
AcDbEntity
  8
0
100
AcDbLine
 62
7
  6
CONTINUOUS
 10
1077.2315382841
 20
884.2588992119
 11
1076.3253893736
 21
884.2588992119
  0
LINE
  5
327
100
AcDbEntity
  8
0
100
AcDbLine
 62
7
  6
CONTINUOUS
 10
1072.3383343551
 20
884.2588992119
 11
1071.6134152892
 21
884.2588992119
  0
LINE
  5
328
100
AcDbEntity
  8
0
100
AcDbLine
 62
7
  6
CONTINUOUS
 10
1074.875551242
 20
884.4401299953
 11
1073.9694023314
 21
884.4401299953
  0
LINE
  5
329
100
AcDbEntity
  8
0
100
AcDbLine
 62
7
  6
CONTINUOUS
 10
1080.8561339262
 20
884.8025890589
 11
1081.5810520533
 21
884.8025890589
  0
LINE
  5
32A
100
AcDbEntity
  8
0
100
AcDbLine
 62
7
  6
CONTINUOUS
 10
202.0826096875
 20
884.9514586926
 11
202.4450687511
 21
884.9514586926
  0
LINE
  5
32B
100
AcDbEntity
  8
0
100
AcDbLine
 62
7
  6
CONTINUOUS
 10
204.0761370404
 20
884.9514586926
 11
205.7072047038
 21
884.9514586926
  0
LINE
  5
32C
100
AcDbEntity
  8
0
100
AcDbLine
 62
7
  6
CONTINUOUS
 10
1135.3934000891
 20
885.0
 11
1132.8603099965
 21
885.0
  0
LINE
  5
32D
100
AcDbEntity
  8
0
100
AcDbLine
 62
7
  6
CONTINUOUS
 10
144.4603099965
 20
885.0
 11
141.927219904
 21
885.0
  0
LINE
  5
32E
100
AcDbEntity
  8
0
100
AcDbLine
 62
7
  6
CONTINUOUS
 10
1082.849661279
 20
885.5275071859
 11
1078.1376871947
 21
885.5275071859
  0
LINE
  5
32F
100
AcDbEntity
  8
0
100
AcDbLine
 62
7
  6
CONTINUOUS
 10
1076.3253893736
 20
886.6148868799
 11
1074.875551242
 21
886.6148868799
  0
LINE
  5
330
100
AcDbEntity
  8
0
100
AcDbLine
 62
7
  6
CONTINUOUS
 10
1073.9694023314
 20
886.6148868799
 11
1072.3383343551
 21
886.6148868799
  0
LINE
  5
331
100
AcDbEntity
  8
0
100
AcDbLine
 62
7
  6
CONTINUOUS
 10
1071.6134152892
 20
887.5210357904
 11
1077.2315382841
 21
887.5210357904
  0
LINE
  5
332
100
AcDbEntity
  8
0
100
AcDbLine
 62
7
  6
CONTINUOUS
 10
1078.1376871947
 20
887.5210357904
 11
1081.5810520533
 21
887.5210357904
  0
LINE
  5
333
100
AcDbEntity
  8
0
100
AcDbLine
 62
7
  6
CONTINUOUS
 10
205.7072047038
 20
888.5760493279
 11
202.0826096875
 21
888.5760493279
  0
LINE
  5
334
100
AcDbEntity
  8
0
100
AcDbLine
 62
7
  6
CONTINUOUS
 10
201.3576903088
 20
888.5760493279
 11
200.9952306194
 21
888.5760493279
  0
LINE
  5
335
100
AcDbEntity
  8
0
100
AcDbLine
 62
7
  6
CONTINUOUS
 10
200.63277093
 20
889.4821982384
 11
201.3576903088
 21
889.4821982384
  0
LINE
  5
336
100
AcDbEntity
  8
0
100
AcDbLine
 62
7
  6
CONTINUOUS
 10
202.0826096875
 20
889.4821982384
 11
205.7072047038
 21
889.4821982384
  0
LINE
  5
337
100
AcDbEntity
  8
0
100
AcDbLine
 62
7
  6
CONTINUOUS
 10
1076.687849063
 20
889.5145618916
 11
1075.4192404631
 21
889.5145618916
  0
LINE
  5
338
100
AcDbEntity
  8
0
100
AcDbLine
 62
7
  6
CONTINUOUS
 10
195.7395679397
 20
889.6634290218
 11
196.283256535
 21
889.6634290218
  0
LINE
  5
339
100
AcDbEntity
  8
0
100
AcDbLine
 62
7
  6
CONTINUOUS
 10
197.0081759138
 20
889.6634290218
 11
198.2767838878
 21
889.6634290218
  0
LINE
  5
33A
100
AcDbEntity
  8
0
100
AcDbLine
 62
7
  6
CONTINUOUS
 10
1084.6619591001
 20
889.8770234585
 11
1083.9370397213
 21
889.8770234585
  0
LINE
  5
33B
100
AcDbEntity
  8
0
100
AcDbLine
 62
7
  6
CONTINUOUS
 10
1082.1247419003
 20
889.8770234585
 11
1079.225065637
 21
889.8770234585
  0
LINE
  5
33C
100
AcDbEntity
  8
0
100
AcDbLine
 62
7
  6
CONTINUOUS
 10
199.1829327984
 20
890.5695779324
 11
192.6586608929
 21
890.5695779324
  0
LINE
  5
33D
100
AcDbEntity
  8
0
100
AcDbLine
 62
7
  6
CONTINUOUS
 10
1073.6069426421
 20
892.0517803431
 11
1073.2444829527
 21
892.0517803431
  0
LINE
  5
33E
100
AcDbEntity
  8
0
100
AcDbLine
 62
7
  6
CONTINUOUS
 10
1080.1312145475
 20
892.0517803431
 11
1084.6619591001
 21
892.0517803431
  0
LINE
  5
33F
100
AcDbEntity
  8
0
100
AcDbLine
 62
7
  6
CONTINUOUS
 10
196.826946382
 20
892.7443373203
 11
199.1829327984
 21
892.7443373203
  0
LINE
  5
340
100
AcDbEntity
  8
0
100
AcDbLine
 62
7
  6
CONTINUOUS
 10
1082.6684317473
 20
892.7766984701
 11
1080.1312145475
 21
892.7766984701
  0
LINE
  5
341
100
AcDbEntity
  8
0
100
AcDbLine
 62
7
  6
CONTINUOUS
 10
202.0826096875
 20
894.1941735745
 11
203.1699881298
 21
894.1941735745
  0
LINE
  5
342
100
AcDbEntity
  8
0
100
AcDbLine
 62
7
  6
CONTINUOUS
 10
204.8010561062
 20
894.1941735745
 11
205.7072047038
 21
894.1941735745
  0
LINE
  5
343
100
AcDbEntity
  8
0
100
AcDbLine
 62
7
  6
CONTINUOUS
 10
1079.5875247005
 20
894.9514566064
 11
1081.9435123685
 21
894.9514566064
  0
LINE
  5
344
100
AcDbEntity
  8
0
100
AcDbLine
 62
7
  6
CONTINUOUS
 10
1087.7428648952
 20
897.126213491
 11
1083.9370397213
 21
897.126213491
  0
LINE
  5
345
100
AcDbEntity
  8
0
100
AcDbLine
 62
7
  6
CONTINUOUS
 10
1082.1247419003
 20
897.126213491
 11
1078.1376871947
 21
897.126213491
  0
LINE
  5
346
100
AcDbEntity
  8
0
100
AcDbLine
 62
7
  6
CONTINUOUS
 10
199.1829327984
 20
898.0
 11
192.6586608929
 21
898.0
  0
LINE
  5
347
100
AcDbEntity
  8
0
100
AcDbLine
 62
7
  6
CONTINUOUS
 10
1072.7007937315
 20
898.938511312
 11
1073.6069426421
 21
898.938511312
  0
LINE
  5
348
100
AcDbEntity
  8
0
100
AcDbLine
 62
7
  6
CONTINUOUS
 10
1078.1376871947
 20
899.3009703755
 11
1087.7428648952
 21
899.3009703755
  0
LINE
  5
349
100
AcDbEntity
  8
0
100
AcDbLine
 62
7
  6
CONTINUOUS
 10
1079.9499850157
 20
899.8446602225
 11
1078.6813764158
 21
899.8446602225
  0
LINE
  5
34A
100
AcDbEntity
  8
0
100
AcDbLine
 62
7
  6
CONTINUOUS
 10
1084.4807295683
 20
900.0258897543
 11
1082.6684317473
 21
900.0258897543
  0
LINE
  5
34B
100
AcDbEntity
  8
0
100
AcDbLine
 62
7
  6
CONTINUOUS
 10
1081.037363458
 20
905.8252429068
 11
1081.9435123685
 21
905.8252429068
  0
LINE
  5
34C
100
AcDbEntity
  8
0
100
AcDbLine
 62
7
  6
CONTINUOUS
 10
1081.037363458
 20
906.1877019703
 11
1080.493673611
 21
906.1877019703
  0
LINE
  5
34D
100
AcDbEntity
  8
0
100
AcDbLine
 62
7
  6
CONTINUOUS
 10
1085.5681080106
 20
910.8996763676
 11
1085.2056476954
 21
910.8996763676
  0
LINE
  5
34E
100
AcDbEntity
  8
0
100
AcDbLine
 62
7
  6
CONTINUOUS
 10
1084.4807295683
 20
913.4368932545
 11
1085.3868784788
 21
913.4368932545
  0
LINE
  5
34F
100
AcDbEntity
  8
0
100
AcDbLine
 62
7
  6
CONTINUOUS
 10
192.6586608929
 20
913.5857622623
 11
199.1829327984
 21
913.5857622623
  0
LINE
  5
350
100
AcDbEntity
  8
0
100
AcDbLine
 62
7
  6
CONTINUOUS
 10
1082.849661279
 20
906.7313918173
 11
1081.037363458
 21
906.1877019703
  0
LINE
  5
351
100
AcDbEntity
  8
0
100
AcDbLine
 62
7
  6
CONTINUOUS
 10
192.6586608929
 20
892.7443373203
 11
193.9272701187
 21
892.9255681038
  0
LINE
  5
352
100
AcDbEntity
  8
0
100
AcDbLine
 62
7
  6
CONTINUOUS
 10
220.9098198545
 20
972.0
 11
1056.4108001385
 21
972.0
  0
LINE
  5
353
100
AcDbEntity
  8
0
100
AcDbLine
 62
7
  6
CONTINUOUS
 10
218.2042592249
 20
972.2
 11
218.6603099965
 21
972.2
  0
LINE
  5
354
100
AcDbEntity
  8
0
100
AcDbLine
 62
7
  6
CONTINUOUS
 10
218.6603099965
 20
973.0
 11
220.2149540423
 21
973.0
  0
LINE
  5
355
100
AcDbEntity
  8
0
100
AcDbLine
 62
7
  6
CONTINUOUS
 10
1057.1056659507
 20
973.0
 11
1058.5510219049
 21
973.0
  0
LINE
  5
356
100
AcDbEntity
  8
0
100
AcDbLine
 62
7
  6
CONTINUOUS
 10
1058.9603099965
 20
974.0
 11
1058.6603099965
 21
974.0
  0
LINE
  5
357
100
AcDbEntity
  8
0
100
AcDbLine
 62
7
  6
CONTINUOUS
 10
218.3603099965
 20
974.0
 11
218.6603099965
 21
974.0
  0
LINE
  5
358
100
AcDbEntity
  8
0
100
AcDbLine
 62
7
  6
CONTINUOUS
 10
1058.0603099965
 20
975.0
 11
219.2603099965
 21
975.0
  0
LINE
  5
359
100
AcDbEntity
  8
0
100
AcDbLine
 62
7
  6
CONTINUOUS
 10
138.9603099965
 20
975.0
 11
218.3603099965
 21
975.0
  0
LINE
  5
35A
100
AcDbEntity
  8
0
100
AcDbLine
 62
7
  6
CONTINUOUS
 10
1058.9603099965
 20
975.0
 11
1138.3603099965
 21
975.0
  0
LINE
  5
35B
100
AcDbEntity
  8
0
100
AcDbLine
 62
7
  6
CONTINUOUS
 10
1079.0438361052
 20
913.2556634098
 11
1081.037363458
 21
913.0744337216
  0
LINE
  5
35C
100
AcDbEntity
  8
0
100
AcDbLine
 62
7
  6
CONTINUOUS
 10
1086.8367159847
 20
906.5501616597
 11
1085.0244181636
 21
906.7313918173
  0
LINE
  5
35D
100
AcDbEntity
  8
0
100
AcDbLine
 62
7
  6
CONTINUOUS
 10
1074.875551242
 20
889.8770234585
 11
1073.9694023314
 21
890.0582517386
  0
LINE
  5
35E
100
AcDbEntity
  8
0
100
AcDbLine
 62
7
  6
CONTINUOUS
 10
1076.3253893736
 20
891.1456314325
 11
1077.2315382841
 21
890.9644006491
  0
LINE
  5
35F
100
AcDbEntity
  8
0
100
AcDbLine
 62
7
  6
CONTINUOUS
 10
1073.9694023314
 20
897.126213491
 11
1074.6943210843
 21
896.9449839592
  0
LINE
  5
360
100
AcDbEntity
  8
0
100
AcDbLine
 62
7
  6
CONTINUOUS
 10
1074.5130915526
 20
893.1391575337
 11
1076.3253893736
 21
892.5954701901
  0
LINE
  5
361
100
AcDbEntity
  8
0
100
AcDbLine
 62
7
  6
CONTINUOUS
 10
1075.6004699949
 20
896.7637544274
 11
1076.144159216
 21
896.5825248957
  0
LINE
  5
362
100
AcDbEntity
  8
0
100
AcDbLine
 62
7
  6
CONTINUOUS
 10
1075.4192404631
 20
891.3268597126
 11
1074.875551242
 21
891.6893212795
  0
LINE
  5
363
100
AcDbEntity
  8
0
100
AcDbLine
 62
7
  6
CONTINUOUS
 10
1074.875551242
 20
863.0550177097
 11
1074.1506318632
 21
863.5987050533
  0
LINE
  5
364
100
AcDbEntity
  8
0
100
AcDbLine
 62
7
  6
CONTINUOUS
 10
1073.9694023314
 20
877.5533977747
 11
1074.5130915526
 21
878.0970876217
  0
LINE
  5
365
100
AcDbEntity
  8
0
100
AcDbLine
 62
7
  6
CONTINUOUS
 10
1120.9427740706
 20
875.0
 11
1121.1603099965
 21
875.1825343152
  0
LINE
  5
366
100
AcDbEntity
  8
0
100
AcDbLine
 62
7
  6
CONTINUOUS
 10
1122.4603099965
 20
876.2733638358
 11
1123.7603099965
 21
877.3641933563
  0
LINE
  5
367
100
AcDbEntity
  8
0
100
AcDbLine
 62
7
  6
CONTINUOUS
 10
1125.0603099965
 20
878.4550228768
 11
1126.3603099965
 21
879.5458523973
  0
LINE
  5
368
100
AcDbEntity
  8
0
100
AcDbLine
 62
7
  6
CONTINUOUS
 10
1127.6603099965
 20
880.6366819179
 11
1128.9603099965
 21
881.7275114384
  0
LINE
  5
369
100
AcDbEntity
  8
0
100
AcDbLine
 62
7
  6
CONTINUOUS
 10
1130.2603099965
 20
882.8183409589
 11
1131.5603099965
 21
883.9091704795
  0
LINE
  5
36A
100
AcDbEntity
  8
0
100
AcDbLine
 62
7
  6
CONTINUOUS
 10
1131.5603099965
 20
866.0908295205
 11
1130.2603099965
 21
867.1816590411
  0
LINE
  5
36B
100
AcDbEntity
  8
0
100
AcDbLine
 62
7
  6
CONTINUOUS
 10
1128.9603099965
 20
868.2724885616
 11
1127.6603099965
 21
869.3633180821
  0
LINE
  5
36C
100
AcDbEntity
  8
0
100
AcDbLine
 62
7
  6
CONTINUOUS
 10
1126.3603099965
 20
870.4541476027
 11
1125.0603099965
 21
871.5449771232
  0
LINE
  5
36D
100
AcDbEntity
  8
0
100
AcDbLine
 62
7
  6
CONTINUOUS
 10
1123.7603099965
 20
872.6358066437
 11
1122.4603099965
 21
873.7266361642
  0
LINE
  5
36E
100
AcDbEntity
  8
0
100
AcDbLine
 62
7
  6
CONTINUOUS
 10
1121.1603099965
 20
874.8174656848
 11
1120.9427740706
 21
875.0
  0
LINE
  5
36F
100
AcDbEntity
  8
0
100
AcDbLine
 62
7
  6
CONTINUOUS
 10
1076.3253893736
 20
861.4239506722
 11
1076.687849063
 21
861.0614891052
  0
LINE
  5
370
100
AcDbEntity
  8
0
100
AcDbLine
 62
7
  6
CONTINUOUS
 10
1074.6943210843
 20
870.3042089939
 11
1076.144159216
 21
868.854367733
  0
LINE
  5
371
100
AcDbEntity
  8
0
100
AcDbLine
 62
7
  6
CONTINUOUS
 10
1073.0632534209
 20
874.1100329161
 11
1072.3383343551
 21
873.2038840056
  0
LINE
  5
372
100
AcDbEntity
  8
0
100
AcDbLine
 62
7
  6
CONTINUOUS
 10
1072.7007937315
 20
868.854367733
 11
1072.3383343551
 21
868.4919111729
  0
LINE
  5
373
100
AcDbEntity
  8
0
100
AcDbLine
 62
7
  6
CONTINUOUS
 10
1085.3868784788
 20
877.0097079277
 11
1085.9305670741
 21
877.5533977747
  0
LINE
  5
374
100
AcDbEntity
  8
0
100
AcDbLine
 62
7
  6
CONTINUOUS
 10
1087.7428648952
 20
875.5598716736
 11
1087.3804058317
 21
875.1974101067
  0
LINE
  5
375
100
AcDbEntity
  8
0
100
AcDbLine
 62
7
  6
CONTINUOUS
 10
1074.5130915526
 20
878.6407774687
 11
1073.9694023314
 21
879.1844648123
  0
LINE
  5
376
100
AcDbEntity
  8
0
100
AcDbLine
 62
7
  6
CONTINUOUS
 10
1073.9694023314
 20
891.6893212795
 11
1073.6069426421
 21
892.0517803431
  0
LINE
  5
377
100
AcDbEntity
  8
0
100
AcDbLine
 62
7
  6
CONTINUOUS
 10
1083.2121203426
 20
888.7896437645
 11
1082.1247419003
 21
889.8770234585
  0
LINE
  5
378
100
AcDbEntity
  8
0
100
AcDbLine
 62
7
  6
CONTINUOUS
 10
1073.6069426421
 20
898.938511312
 11
1073.9694023314
 21
898.5760522485
  0
LINE
  5
379
100
AcDbEntity
  8
0
100
AcDbLine
 62
7
  6
CONTINUOUS
 10
1074.1506318632
 20
863.5987050533
 11
1074.5130915526
 21
864.3236231804
  0
LINE
  5
37A
100
AcDbEntity
  8
0
100
AcDbLine
 62
7
  6
CONTINUOUS
 10
1081.037363458
 20
860.3365709782
 11
1080.8561339262
 21
864.8673155308
  0
LINE
  5
37B
100
AcDbEntity
  8
0
100
AcDbLine
 62
7
  6
CONTINUOUS
 10
1055.6603099965
 20
972.0
 11
1055.6603099965
 21
878.0
  0
LINE
  5
37C
100
AcDbEntity
  8
0
100
AcDbLine
 62
7
  6
CONTINUOUS
 10
1055.6603099965
 20
872.0
 11
1055.6603099965
 21
778.0
  0
LINE
  5
37D
100
AcDbEntity
  8
0
100
AcDbLine
 62
7
  6
CONTINUOUS
 10
1058.0603099965
 20
775.0
 11
1058.0603099965
 21
776.9393628371
  0
LINE
  5
37E
100
AcDbEntity
  8
0
100
AcDbLine
 62
7
  6
CONTINUOUS
 10
1058.0603099965
 20
873.0
 11
1058.0603099965
 21
876.9393628371
  0
LINE
  5
37F
100
AcDbEntity
  8
0
100
AcDbLine
 62
7
  6
CONTINUOUS
 10
1058.0603099965
 20
973.0
 11
1058.0603099965
 21
975.0
  0
LINE
  5
380
100
AcDbEntity
  8
0
100
AcDbLine
 62
7
  6
CONTINUOUS
 10
1058.5603099965
 20
877.0
 11
1058.5603099965
 21
873.0
  0
LINE
  5
381
100
AcDbEntity
  8
0
100
AcDbLine
 62
7
  6
CONTINUOUS
 10
1058.6603099965
 20
776.0
 11
1058.6603099965
 21
974.0
  0
LINE
  5
382
100
AcDbEntity
  8
0
100
AcDbLine
 62
7
  6
CONTINUOUS
 10
1058.9603099965
 20
975.0
 11
1058.9603099965
 21
775.0
  0
LINE
  5
383
100
AcDbEntity
  8
0
100
AcDbLine
 62
7
  6
CONTINUOUS
 10
1064.8852597955
 20
775.0
 11
1064.8852597955
 21
975.0
  0
LINE
  5
384
100
AcDbEntity
  8
0
100
AcDbLine
 62
7
  6
CONTINUOUS
 10
1070.1635770011
 20
895.3139156699
 11
1070.1635770011
 21
896.7637544274
  0
LINE
  5
385
100
AcDbEntity
  8
0
100
AcDbLine
 62
7
  6
CONTINUOUS
 10
1071.6134152892
 20
860.5178017616
 11
1071.6134152892
 21
861.4239506722
  0
LINE
  5
386
100
AcDbEntity
  8
0
100
AcDbLine
 62
7
  6
CONTINUOUS
 10
1071.6134152892
 20
865.0485413074
 11
1071.6134152892
 21
865.954690218
  0
LINE
  5
387
100
AcDbEntity
  8
0
100
AcDbLine
 62
7
  6
CONTINUOUS
 10
1071.6134152892
 20
881.7216832638
 11
1071.6134152892
 21
882.6278321743
  0
LINE
  5
388
100
AcDbEntity
  8
0
100
AcDbLine
 62
7
  6
CONTINUOUS
 10
1071.6134152892
 20
884.2588992119
 11
1071.6134152892
 21
887.5210357904
  0
LINE
  5
389
100
AcDbEntity
  8
0
100
AcDbLine
 62
7
  6
CONTINUOUS
 10
1071.9758746657
 20
897.4886725545
 11
1071.9758746657
 21
896.9449839592
  0
LINE
  5
38A
100
AcDbEntity
  8
0
100
AcDbLine
 62
7
  6
CONTINUOUS
 10
1072.3383343551
 20
886.6148868799
 11
1072.3383343551
 21
884.2588992119
  0
LINE
  5
38B
100
AcDbEntity
  8
0
100
AcDbLine
 62
7
  6
CONTINUOUS
 10
1072.3383343551
 20
878.4595466852
 11
1072.3383343551
 21
878.0970876217
  0
LINE
  5
38C
100
AcDbEntity
  8
0
100
AcDbLine
 62
7
  6
CONTINUOUS
 10
1073.2444829527
 20
892.0517803431
 11
1073.2444829527
 21
890.6019415855
  0
LINE
  5
38D
100
AcDbEntity
  8
0
100
AcDbLine
 62
7
  6
CONTINUOUS
 10
1073.2444829527
 20
876.6472488642
 11
1073.2444829527
 21
879.1844648123
  0
LINE
  5
38E
100
AcDbEntity
  8
0
100
AcDbLine
 62
7
  6
CONTINUOUS
 10
1073.9694023314
 20
898.5760522485
 11
1073.9694023314
 21
897.126213491
  0
LINE
  5
38F
100
AcDbEntity
  8
0
100
AcDbLine
 62
7
  6
CONTINUOUS
 10
1073.9694023314
 20
879.1844648123
 11
1073.9694023314
 21
877.5533977747
  0
LINE
  5
390
100
AcDbEntity
  8
0
100
AcDbLine
 62
7
  6
CONTINUOUS
 10
1073.9694023314
 20
884.4401299953
 11
1073.9694023314
 21
886.6148868799
  0
LINE
  5
391
100
AcDbEntity
  8
0
100
AcDbLine
 62
7
  6
CONTINUOUS
 10
1073.9694023314
 20
890.0582517386
 11
1073.9694023314
 21
891.6893212795
  0
LINE
  5
392
100
AcDbEntity
  8
0
100
AcDbLine
 62
7
  6
CONTINUOUS
 10
1074.5130915526
 20
856.8932061195
 11
1074.5130915526
 21
857.2556626797
  0
LINE
  5
393
100
AcDbEntity
  8
0
100
AcDbLine
 62
7
  6
CONTINUOUS
 10
1074.5130915526
 20
867.766988039
 11
1074.5130915526
 21
868.854367733
  0
LINE
  5
394
100
AcDbEntity
  8
0
100
AcDbLine
 62
7
  6
CONTINUOUS
 10
1074.5130915526
 20
878.0970876217
 11
1074.5130915526
 21
878.6407774687
  0
LINE
  5
395
100
AcDbEntity
  8
0
100
AcDbLine
 62
7
  6
CONTINUOUS
 10
1074.875551242
 20
891.6893212795
 11
1074.875551242
 21
889.8770234585
  0
LINE
  5
396
100
AcDbEntity
  8
0
100
AcDbLine
 62
7
  6
CONTINUOUS
 10
1074.875551242
 20
886.6148868799
 11
1074.875551242
 21
884.4401299953
  0
LINE
  5
397
100
AcDbEntity
  8
0
100
AcDbLine
 62
7
  6
CONTINUOUS
 10
1075.2380103055
 20
868.854367733
 11
1075.2380103055
 21
867.766988039
  0
LINE
  5
398
100
AcDbEntity
  8
0
100
AcDbLine
 62
7
  6
CONTINUOUS
 10
1075.2380103055
 20
865.954690218
 11
1075.2380103055
 21
865.0485413074
  0
LINE
  5
399
100
AcDbEntity
  8
0
100
AcDbLine
 62
7
  6
CONTINUOUS
 10
1075.2380103055
 20
861.4239506722
 11
1075.2380103055
 21
860.5178017616
  0
LINE
  5
39A
100
AcDbEntity
  8
0
100
AcDbLine
 62
7
  6
CONTINUOUS
 10
1075.4192404631
 20
889.5145618916
 11
1075.4192404631
 21
891.3268597126
  0
LINE
  5
39B
100
AcDbEntity
  8
0
100
AcDbLine
 62
7
  6
CONTINUOUS
 10
1075.6004699949
 20
898.0323624015
 11
1075.6004699949
 21
896.7637544274
  0
LINE
  5
39C
100
AcDbEntity
  8
0
100
AcDbLine
 62
7
  6
CONTINUOUS
 10
1075.9629296842
 20
860.5178017616
 11
1075.9629296842
 21
861.4239506722
  0
LINE
  5
39D
100
AcDbEntity
  8
0
100
AcDbLine
 62
7
  6
CONTINUOUS
 10
1076.3253893736
 20
892.5954701901
 11
1076.3253893736
 21
891.1456314325
  0
LINE
  5
39E
100
AcDbEntity
  8
0
100
AcDbLine
 62
7
  6
CONTINUOUS
 10
1076.3253893736
 20
884.2588992119
 11
1076.3253893736
 21
886.6148868799
  0
LINE
  5
39F
100
AcDbEntity
  8
0
100
AcDbLine
 62
7
  6
CONTINUOUS
 10
1076.687849063
 20
861.0614891052
 11
1076.687849063
 21
860.5178017616
  0
LINE
  5
3A0
100
AcDbEntity
  8
0
100
AcDbLine
 62
7
  6
CONTINUOUS
 10
1077.2315382841
 20
887.5210357904
 11
1077.2315382841
 21
884.2588992119
  0
LINE
  5
3A1
100
AcDbEntity
  8
0
100
AcDbLine
 62
7
  6
CONTINUOUS
 10
1077.2315382841
 20
882.6278321743
 11
1077.2315382841
 21
881.7216832638
  0
LINE
  5
3A2
100
AcDbEntity
  8
0
100
AcDbLine
 62
7
  6
CONTINUOUS
 10
1077.2315382841
 20
890.9644006491
 11
1077.2315382841
 21
893.1391575336
  0
LINE
  5
3A3
100
AcDbEntity
  8
0
100
AcDbLine
 62
7
  6
CONTINUOUS
 10
1078.1376871947
 20
836.4142377377
 11
1078.1376871947
 21
852.0
  0
LINE
  5
3A4
100
AcDbEntity
  8
0
100
AcDbLine
 62
7
  6
CONTINUOUS
 10
1078.1376871947
 20
857.2556626797
 11
1078.1376871947
 21
859.4304220676
  0
LINE
  5
3A5
100
AcDbEntity
  8
0
100
AcDbLine
 62
7
  6
CONTINUOUS
 10
1078.1376871947
 20
867.766988039
 11
1078.1376871947
 21
869.941747427
  0
LINE
  5
3A6
100
AcDbEntity
  8
0
100
AcDbLine
 62
7
  6
CONTINUOUS
 10
1078.1376871947
 20
875.1974101067
 11
1078.1376871947
 21
877.3721694946
  0
LINE
  5
3A7
100
AcDbEntity
  8
0
100
AcDbLine
 62
7
  6
CONTINUOUS
 10
1078.1376871947
 20
885.5275071859
 11
1078.1376871947
 21
887.5210357904
  0
LINE
  5
3A8
100
AcDbEntity
  8
0
100
AcDbLine
 62
7
  6
CONTINUOUS
 10
1078.1376871947
 20
897.126213491
 11
1078.1376871947
 21
899.3009703755
  0
LINE
  5
3A9
100
AcDbEntity
  8
0
100
AcDbLine
 62
7
  6
CONTINUOUS
 10
1079.225065637
 20
892.9579292536
 11
1079.225065637
 21
892.0517803431
  0
LINE
  5
3AA
100
AcDbEntity
  8
0
100
AcDbLine
 62
7
  6
CONTINUOUS
 10
1079.4062951687
 20
880.8155343533
 11
1079.4062951687
 21
880.4530752897
  0
LINE
  5
3AB
100
AcDbEntity
  8
0
100
AcDbLine
 62
7
  6
CONTINUOUS
 10
1079.4062951687
 20
863.0550177097
 11
1079.4062951687
 21
862.5113253593
  0
LINE
  5
3AC
100
AcDbEntity
  8
0
100
AcDbLine
 62
7
  6
CONTINUOUS
 10
1079.9499850157
 20
910.3559871465
 11
1079.9499850157
 21
909.8122976124
  0
LINE
  5
3AD
100
AcDbEntity
  8
0
100
AcDbLine
 62
7
  6
CONTINUOUS
 10
1081.037363458
 20
878.0970876217
 11
1081.037363458
 21
882.6278321743
  0
LINE
  5
3AE
100
AcDbEntity
  8
0
100
AcDbLine
 62
7
  6
CONTINUOUS
 10
1082.1247419003
 20
882.4466013908
 11
1082.1247419003
 21
880.0906137228
  0
LINE
  5
3AF
100
AcDbEntity
  8
0
100
AcDbLine
 62
7
  6
CONTINUOUS
 10
1082.1247419003
 20
864.8673155308
 11
1082.1247419003
 21
862.3300995827
  0
LINE
  5
3B0
100
AcDbEntity
  8
0
100
AcDbLine
 62
7
  6
CONTINUOUS
 10
1083.2121203426
 20
888.2459539175
 11
1083.2121203426
 21
888.7896437645
  0
LINE
  5
3B1
100
AcDbEntity
  8
0
100
AcDbLine
 62
7
  6
CONTINUOUS
 10
1084.6619591001
 20
892.0517803431
 11
1084.6619591001
 21
889.8770234585
  0
LINE
  5
3B2
100
AcDbEntity
  8
0
100
AcDbLine
 62
7
  6
CONTINUOUS
 10
1084.6619591001
 20
877.3721694946
 11
1084.6619591001
 21
875.1974101067
  0
LINE
  5
3B3
100
AcDbEntity
  8
0
100
AcDbLine
 62
7
  6
CONTINUOUS
 10
1084.6619591001
 20
859.4304220676
 11
1084.6619591001
 21
857.2556626797
  0
LINE
  5
3B4
100
AcDbEntity
  8
0
100
AcDbLine
 62
7
  6
CONTINUOUS
 10
1084.6619591001
 20
852.0
 11
1084.6619591001
 21
836.4142377377
  0
LINE
  5
3B5
100
AcDbEntity
  8
0
100
AcDbLine
 62
7
  6
CONTINUOUS
 10
1074.6943210843
 20
896.9449839592
 11
1074.875551242
 21
898.5760522485
  0
LINE
  5
3B6
100
AcDbEntity
  8
0
100
AcDbLine
 62
7
  6
CONTINUOUS
 10
1084.8431886319
 20
902.3818774223
 11
1084.4807295683
 21
900.0258897543
  0
LINE
  5
3B7
100
AcDbEntity
  8
0
100
AcDbLine
 62
7
  6
CONTINUOUS
 10
1076.144159216
 20
896.5825248957
 11
1076.3253893736
 21
897.669903338
  0
LINE
  5
3B8
100
AcDbEntity
  8
0
100
AcDbLine
 62
7
  6
CONTINUOUS
 10
1083.0308908108
 20
869.941747427
 11
1083.2121203426
 21
871.029127121
  0
LINE
  5
3B9
100
AcDbEntity
  8
0
100
AcDbLine
 62
7
  6
CONTINUOUS
 10
1075.4192404631
 20
873.0226532221
 11
1075.2380103055
 21
872.116506815
  0
LINE
  5
3BA
100
AcDbEntity
  8
0
100
AcDbLine
 62
7
  6
CONTINUOUS
 10
1075.4192404631
 20
856.7119753361
 11
1075.2380103055
 21
855.8058264256
  0
LINE
  5
3BB
100
AcDbEntity
  8
0
100
AcDbLine
 62
7
  6
CONTINUOUS
 10
1084.8431886319
 20
871.5728144646
 11
1084.4807295683
 21
869.941747427
  0
LINE
  5
3BC
100
AcDbEntity
  8
0
100
AcDbLine
 62
7
  6
CONTINUOUS
 10
1082.6684317473
 20
900.0258897543
 11
1083.2121203426
 21
901.6569580436
  0
LINE
  5
3BD
100
AcDbEntity
  8
0
100
AcDbLine
 62
7
  6
CONTINUOUS
 10
1074.1506318632
 20
872.116506815
 11
1074.5130915526
 21
873.2038840055
  0
LINE
  5
3BE
100
AcDbEntity
  8
0
100
AcDbLine
 62
7
  6
CONTINUOUS
 10
1074.5130915526
 20
869.7605166435
 11
1074.6943210843
 21
870.3042089939
  0
LINE
  5
3BF
100
AcDbEntity
  8
0
100
AcDbLine
 62
7
  6
CONTINUOUS
 10
1074.1506318632
 20
855.8058264256
 11
1074.5130915526
 21
856.8932061195
  0
LINE
  5
3C0
100
AcDbEntity
  8
0
100
AcDbLine
 62
7
  6
CONTINUOUS
 10
1082.3059714321
 20
854.7184467316
 11
1082.6684317473
 21
855.8058264256
  0
LINE
  5
3C1
100
AcDbEntity
  8
0
100
AcDbLine
 62
7
  6
CONTINUOUS
 10
1085.9305670741
 20
909.9935274571
 11
1085.5681080106
 21
910.8996763676
  0
LINE
  5
3C2
100
AcDbEntity
  8
0
100
AcDbLine
 62
7
  6
CONTINUOUS
 10
1078.5001462582
 20
869.941747427
 11
1077.9564570371
 21
871.5728144646
  0
LINE
  5
3C3
100
AcDbEntity
  8
0
100
AcDbLine
 62
7
  6
CONTINUOUS
 10
1072.3383343551
 20
878.0970876217
 11
1072.7007937315
 21
876.8284796476
  0
LINE
  5
3C4
100
AcDbEntity
  8
0
100
AcDbLine
 62
7
  6
CONTINUOUS
 10
1071.794644821
 20
876.8284796476
 11
1071.4321854446
 21
878.2783159018
  0
LINE
  5
3C5
100
AcDbEntity
  8
0
100
AcDbLine
 62
7
  6
CONTINUOUS
 10
1080.1312145475
 20
892.7766984701
 11
1079.5875247005
 21
894.9514566064
  0
LINE
  5
3C6
100
AcDbEntity
  8
0
100
AcDbLine
 62
7
  6
CONTINUOUS
 10
1079.5875247005
 20
901.4757285118
 11
1079.9499850157
 21
899.8446602225
  0
LINE
  5
3C7
100
AcDbEntity
  8
0
100
AcDbLine
 62
7
  6
CONTINUOUS
 10
1072.3383343551
 20
856.7119753361
 11
1072.5195638868
 21
855.8058264256
  0
LINE
  5
3C8
100
AcDbEntity
  8
0
100
AcDbLine
 62
7
  6
CONTINUOUS
 10
1072.3383343551
 20
868.4919111729
 11
1072.5195638868
 21
867.5857622623
  0
LINE
  5
3C9
100
AcDbEntity
  8
0
100
AcDbLine
 62
7
  6
CONTINUOUS
 10
1071.6134152892
 20
867.5857622623
 11
1071.4321854446
 21
868.6731369495
  0
LINE
  5
3CA
100
AcDbEntity
  8
0
100
AcDbLine
 62
7
  6
CONTINUOUS
 10
1071.6134152892
 20
855.8058264256
 11
1071.4321854446
 21
857.0744318962
  0
LINE
  5
3CB
100
AcDbEntity
  8
0
100
AcDbLine
 62
7
  6
CONTINUOUS
 10
1071.6134152892
 20
871.9352760315
 11
1071.4321854446
 21
873.2038840055
  0
LINE
  5
3CC
100
AcDbEntity
  8
0
100
AcDbLine
 62
7
  6
CONTINUOUS
 10
1072.3383343551
 20
873.2038840056
 11
1072.5195638868
 21
871.9352760315
  0
LINE
  5
3CD
100
AcDbEntity
  8
0
100
AcDbLine
 62
7
  6
CONTINUOUS
 10
1087.7428648952
 20
910.5372166783
 11
1087.7428648952
 21
909.4498379231
  0
LINE
  5
3CE
100
AcDbEntity
  8
0
100
AcDbLine
 62
7
  6
CONTINUOUS
 10
1087.7428648952
 20
899.3009703755
 11
1087.7428648952
 21
897.126213491
  0
LINE
  5
3CF
100
AcDbEntity
  8
0
100
AcDbLine
 62
7
  6
CONTINUOUS
 10
1087.7428648952
 20
876.1035590172
 11
1087.7428648952
 21
875.5598716736
  0
LINE
  5
3D0
100
AcDbEntity
  8
0
100
AcDbLine
 62
7
  6
CONTINUOUS
 10
1087.7428648952
 20
869.941747427
 11
1087.7428648952
 21
867.766988039
  0
LINE
  5
3D1
100
AcDbEntity
  8
0
100
AcDbLine
 62
7
  6
CONTINUOUS
 10
1095.1603099965
 20
775.0
 11
1095.1603099965
 21
975.0
  0
LINE
  5
3D2
100
AcDbEntity
  8
0
100
AcDbLine
 62
7
  6
CONTINUOUS
 10
1096.4603099965
 20
775.0
 11
1096.4603099965
 21
975.0
  0
LINE
  5
3D3
100
AcDbEntity
  8
0
100
AcDbLine
 62
7
  6
CONTINUOUS
 10
1097.7603099965
 20
775.0
 11
1097.7603099965
 21
975.0
  0
LINE
  5
3D4
100
AcDbEntity
  8
0
100
AcDbLine
 62
7
  6
CONTINUOUS
 10
1099.0603099965
 20
775.0
 11
1099.0603099965
 21
975.0
  0
LINE
  5
3D5
100
AcDbEntity
  8
0
100
AcDbLine
 62
7
  6
CONTINUOUS
 10
1100.3603099965
 20
775.0
 11
1100.3603099965
 21
975.0
  0
LINE
  5
3D6
100
AcDbEntity
  8
0
100
AcDbLine
 62
7
  6
CONTINUOUS
 10
1101.6603099965
 20
775.0
 11
1101.6603099965
 21
975.0
  0
LINE
  5
3D7
100
AcDbEntity
  8
0
100
AcDbLine
 62
7
  6
CONTINUOUS
 10
1102.9603099965
 20
775.0
 11
1102.9603099965
 21
975.0
  0
LINE
  5
3D8
100
AcDbEntity
  8
0
100
AcDbLine
 62
7
  6
CONTINUOUS
 10
1104.2603099965
 20
775.0
 11
1104.2603099965
 21
975.0
  0
LINE
  5
3D9
100
AcDbEntity
  8
0
100
AcDbLine
 62
7
  6
CONTINUOUS
 10
1105.5603099965
 20
775.0
 11
1105.5603099965
 21
975.0
  0
LINE
  5
3DA
100
AcDbEntity
  8
0
100
AcDbLine
 62
7
  6
CONTINUOUS
 10
1106.8603099965
 20
775.0
 11
1106.8603099965
 21
975.0
  0
LINE
  5
3DB
100
AcDbEntity
  8
0
100
AcDbLine
 62
7
  6
CONTINUOUS
 10
1108.1603099965
 20
775.0
 11
1108.1603099965
 21
975.0
  0
LINE
  5
3DC
100
AcDbEntity
  8
0
100
AcDbLine
 62
7
  6
CONTINUOUS
 10
1109.4603099965
 20
775.0
 11
1109.4603099965
 21
975.0
  0
LINE
  5
3DD
100
AcDbEntity
  8
0
100
AcDbLine
 62
7
  6
CONTINUOUS
 10
1110.7603099965
 20
775.0
 11
1110.7603099965
 21
975.0
  0
LINE
  5
3DE
100
AcDbEntity
  8
0
100
AcDbLine
 62
7
  6
CONTINUOUS
 10
1112.0603099965
 20
775.0
 11
1112.0603099965
 21
975.0
  0
LINE
  5
3DF
100
AcDbEntity
  8
0
100
AcDbLine
 62
7
  6
CONTINUOUS
 10
1113.3603099965
 20
775.0
 11
1113.3603099965
 21
975.0
  0
LINE
  5
3E0
100
AcDbEntity
  8
0
100
AcDbLine
 62
7
  6
CONTINUOUS
 10
1114.6603099965
 20
775.0
 11
1114.6603099965
 21
975.0
  0
LINE
  5
3E1
100
AcDbEntity
  8
0
100
AcDbLine
 62
7
  6
CONTINUOUS
 10
1115.9603099965
 20
775.0
 11
1115.9603099965
 21
975.0
  0
LINE
  5
3E2
100
AcDbEntity
  8
0
100
AcDbLine
 62
7
  6
CONTINUOUS
 10
1117.2603099965
 20
775.0
 11
1117.2603099965
 21
975.0
  0
LINE
  5
3E3
100
AcDbEntity
  8
0
100
AcDbLine
 62
7
  6
CONTINUOUS
 10
1118.5603099965
 20
775.0
 11
1118.5603099965
 21
975.0
  0
LINE
  5
3E4
100
AcDbEntity
  8
0
100
AcDbLine
 62
7
  6
CONTINUOUS
 10
1119.8603099965
 20
775.0
 11
1119.8603099965
 21
975.0
  0
LINE
  5
3E5
100
AcDbEntity
  8
0
100
AcDbLine
 62
7
  6
CONTINUOUS
 10
1121.1603099965
 20
775.0
 11
1121.1603099965
 21
874.8174656848
  0
LINE
  5
3E6
100
AcDbEntity
  8
0
100
AcDbLine
 62
7
  6
CONTINUOUS
 10
1121.1603099965
 20
875.1825343152
 11
1121.1603099965
 21
975.0
  0
LINE
  5
3E7
100
AcDbEntity
  8
0
100
AcDbLine
 62
7
  6
CONTINUOUS
 10
1122.4603099965
 20
775.0
 11
1122.4603099965
 21
873.7266361642
  0
LINE
  5
3E8
100
AcDbEntity
  8
0
100
AcDbLine
 62
7
  6
CONTINUOUS
 10
1122.4603099965
 20
876.2733638358
 11
1122.4603099965
 21
975.0
  0
LINE
  5
3E9
100
AcDbEntity
  8
0
100
AcDbLine
 62
7
  6
CONTINUOUS
 10
1123.7603099965
 20
775.0
 11
1123.7603099965
 21
872.6358066437
  0
LINE
  5
3EA
100
AcDbEntity
  8
0
100
AcDbLine
 62
7
  6
CONTINUOUS
 10
1123.7603099965
 20
877.3641933563
 11
1123.7603099965
 21
975.0
  0
LINE
  5
3EB
100
AcDbEntity
  8
0
100
AcDbLine
 62
7
  6
CONTINUOUS
 10
1125.0603099965
 20
775.0
 11
1125.0603099965
 21
871.5449771232
  0
LINE
  5
3EC
100
AcDbEntity
  8
0
100
AcDbLine
 62
7
  6
CONTINUOUS
 10
1125.0603099965
 20
878.4550228768
 11
1125.0603099965
 21
975.0
  0
LINE
  5
3ED
100
AcDbEntity
  8
0
100
AcDbLine
 62
7
  6
CONTINUOUS
 10
1126.3603099965
 20
775.0
 11
1126.3603099965
 21
870.4541476027
  0
LINE
  5
3EE
100
AcDbEntity
  8
0
100
AcDbLine
 62
7
  6
CONTINUOUS
 10
1126.3603099965
 20
879.5458523973
 11
1126.3603099965
 21
975.0
  0
LINE
  5
3EF
100
AcDbEntity
  8
0
100
AcDbLine
 62
7
  6
CONTINUOUS
 10
1127.6603099965
 20
775.0
 11
1127.6603099965
 21
869.3633180821
  0
LINE
  5
3F0
100
AcDbEntity
  8
0
100
AcDbLine
 62
7
  6
CONTINUOUS
 10
1127.6603099965
 20
880.6366819179
 11
1127.6603099965
 21
975.0
  0
LINE
  5
3F1
100
AcDbEntity
  8
0
100
AcDbLine
 62
7
  6
CONTINUOUS
 10
1128.9603099965
 20
775.0
 11
1128.9603099965
 21
868.2724885616
  0
LINE
  5
3F2
100
AcDbEntity
  8
0
100
AcDbLine
 62
7
  6
CONTINUOUS
 10
1128.9603099965
 20
881.7275114384
 11
1128.9603099965
 21
975.0
  0
LINE
  5
3F3
100
AcDbEntity
  8
0
100
AcDbLine
 62
7
  6
CONTINUOUS
 10
1130.2603099965
 20
775.0
 11
1130.2603099965
 21
867.1816590411
  0
LINE
  5
3F4
100
AcDbEntity
  8
0
100
AcDbLine
 62
7
  6
CONTINUOUS
 10
1130.2603099965
 20
882.8183409589
 11
1130.2603099965
 21
975.0
  0
LINE
  5
3F5
100
AcDbEntity
  8
0
100
AcDbLine
 62
7
  6
CONTINUOUS
 10
1131.5603099965
 20
775.0
 11
1131.5603099965
 21
866.0908295205
  0
LINE
  5
3F6
100
AcDbEntity
  8
0
100
AcDbLine
 62
7
  6
CONTINUOUS
 10
1131.5603099965
 20
883.9091704795
 11
1131.5603099965
 21
975.0
  0
LINE
  5
3F7
100
AcDbEntity
  8
0
100
AcDbLine
 62
7
  6
CONTINUOUS
 10
1132.8603099965
 20
975.0
 11
1132.8603099965
 21
885.0
  0
LINE
  5
3F8
100
AcDbEntity
  8
0
100
AcDbLine
 62
7
  6
CONTINUOUS
 10
1132.8603099965
 20
865.0
 11
1132.8603099965
 21
775.0
  0
LINE
  5
3F9
100
AcDbEntity
  8
0
100
AcDbLine
 62
7
  6
CONTINUOUS
 10
1135.3934000891
 20
885.0
 11
1135.3934000891
 21
865.0
  0
LINE
  5
3FA
100
AcDbEntity
  8
0
100
AcDbLine
 62
7
  6
CONTINUOUS
 10
1138.3603099965
 20
775.0
 11
1138.3603099965
 21
975.0
  0
LINE
  5
3FB
100
AcDbEntity
  8
0
100
AcDbLine
 62
7
  6
CONTINUOUS
 10
1138.6603099965
 20
779.5
 11
1138.6603099965
 21
970.5
  0
ARC
  5
3FC
100
AcDbEntity
  8
0
100
AcDbCircle
 62
7
  6
CONTINUOUS
 10
206.394089193
 20
893.2660804073
 40
21.5884065943
100
AcDbArc
 50
313.5231979224
 51
314.2647242072
  0
ARC
  5
3FD
100
AcDbEntity
  8
0
100
AcDbCircle
 62
7
  6
CONTINUOUS
 10
1070.9265307975
 20
856.7339195953
 40
21.5884065907
100
AcDbArc
 50
133.5231979222
 51
134.2647242072
  0
ARC
  5
3FE
100
AcDbEntity
  8
0
100
AcDbCircle
 62
7
  6
CONTINUOUS
 10
206.3940891943
 20
793.2660804059
 40
21.5884065924
100
AcDbArc
 50
313.5231979223
 51
314.2647242072
  0
ARC
  5
3FF
100
AcDbEntity
  8
0
100
AcDbCircle
 62
7
  6
CONTINUOUS
 10
1070.9265307933
 20
956.7339195996
 40
21.5884065847
100
AcDbArc
 50
133.5231979221
 51
134.2647242073
  0
ARC
  5
400
100
AcDbEntity
  8
0
100
AcDbCircle
 62
7
  6
CONTINUOUS
 10
210.9374068187
 20
882.337090157
 40
11.5123705876
100
AcDbArc
 50
328.9773172603
 51
329.6732187635
  0
ARC
  5
401
100
AcDbEntity
  8
0
100
AcDbCircle
 62
7
  6
CONTINUOUS
 10
210.937406823
 20
782.3370901545
 40
11.5123705826
100
AcDbArc
 50
328.9773172601
 51
329.6732187637
  0
ARC
  5
402
100
AcDbEntity
  8
0
100
AcDbCircle
 62
7
  6
CONTINUOUS
 10
1066.38190266
 20
882.3363176921
 40
11.5108494201
100
AcDbArc
 50
210.3273142846
 51
211.0234032798
  0
ARC
  5
403
100
AcDbEntity
  8
0
100
AcDbCircle
 62
7
  6
CONTINUOUS
 10
210.9387173359
 20
967.6636823096
 40
11.5108494167
100
AcDbArc
 50
30.3273142845
 51
31.0234032799
  0
ARC
  5
404
100
AcDbEntity
  8
0
100
AcDbCircle
 62
7
  6
CONTINUOUS
 10
210.9387173345
 20
867.6636823088
 40
11.5108494184
100
AcDbArc
 50
30.3273142845
 51
31.0234032799
  0
ARC
  5
405
100
AcDbEntity
  8
0
100
AcDbCircle
 62
7
  6
CONTINUOUS
 10
1066.3819026552
 20
782.3363176893
 40
11.5108494145
100
AcDbArc
 50
210.3273142845
 51
211.0234032801
  0
ARC
  5
406
100
AcDbEntity
  8
0
100
AcDbCircle
 62
7
  6
CONTINUOUS
 10
1066.2545380332
 20
967.7396562502
 40
11.3625473605
100
AcDbArc
 50
148.9745569911
 51
149.543725026
  0
ARC
  5
407
100
AcDbEntity
  8
0
100
AcDbCircle
 62
7
  6
CONTINUOUS
 10
1066.2545380219
 20
867.7396562569
 40
11.3625473474
100
AcDbArc
 50
148.9745569907
 51
149.5437250263
  0
ARC
  5
408
100
AcDbEntity
  8
0
100
AcDbCircle
 62
7
  6
CONTINUOUS
 10
223.811962477
 20
882.3089176779
 40
10.6928918418
100
AcDbArc
 50
248.3507199995
 51
248.8949941552
  0
ARC
  5
409
100
AcDbEntity
  8
0
100
AcDbCircle
 62
7
  6
CONTINUOUS
 10
223.8119624731
 20
982.308917668
 40
10.6928918312
100
AcDbArc
 50
248.3507199993
 51
248.8949941556
  0
ARC
  5
40A
100
AcDbEntity
  8
0
100
AcDbCircle
 62
7
  6
CONTINUOUS
 10
215.7199235107
 20
779.2911473988
 40
5.8409075535
100
AcDbArc
 50
324.2544665296
 51
325.3746792654
  0
ARC
  5
40B
100
AcDbEntity
  8
0
100
AcDbCircle
 62
7
  6
CONTINUOUS
 10
1061.6006964798
 20
970.7088526029
 40
5.8409075504
100
AcDbArc
 50
144.2544665292
 51
145.3746792657
  0
ARC
  5
40C
100
AcDbEntity
  8
0
100
AcDbCircle
 62
7
  6
CONTINUOUS
 10
215.7199235119
 20
879.291147398
 40
5.840907552
100
AcDbArc
 50
324.2544665295
 51
325.3746792656
  0
ARC
  5
40D
100
AcDbEntity
  8
0
100
AcDbCircle
 62
7
  6
CONTINUOUS
 10
1061.6006964788
 20
870.7088526036
 40
5.8409075492
100
AcDbArc
 50
144.2544665291
 51
145.3746792658
  0
ARC
  5
40E
100
AcDbEntity
  8
0
100
AcDbCircle
 62
7
  6
CONTINUOUS
 10
1061.5982786435
 20
879.2894443228
 40
5.8379501184
100
AcDbArc
 50
214.62704964
 51
215.7527816997
  0
ARC
  5
40F
100
AcDbEntity
  8
0
100
AcDbCircle
 62
7
  6
CONTINUOUS
 10
215.7223413523
 20
870.7105556792
 40
5.8379501151
100
AcDbArc
 50
34.6270496397
 51
35.7527817002
  0
ARC
  5
410
100
AcDbEntity
  8
0
100
AcDbCircle
 62
7
  6
CONTINUOUS
 10
1061.5982786412
 20
779.2894443212
 40
5.8379501157
100
AcDbArc
 50
214.6270496398
 51
215.7527817
  0
ARC
  5
411
100
AcDbEntity
  8
0
100
AcDbCircle
 62
7
  6
CONTINUOUS
 10
215.7223413543
 20
970.7105556806
 40
5.8379501126
100
AcDbArc
 50
34.6270496395
 51
35.7527817004
  0
ARC
  5
412
100
AcDbEntity
  8
0
100
AcDbCircle
 62
7
  6
CONTINUOUS
 10
143.1603099965
 20
970.5
 40
4.5
100
AcDbArc
 50
165.0629061007
 51
180.0
  0
ARC
  5
413
100
AcDbEntity
  8
0
100
AcDbCircle
 62
7
  6
CONTINUOUS
 10
143.1603099965
 20
779.5
 40
4.5
100
AcDbArc
 50
180.0
 51
194.937704459
  0
ARC
  5
414
100
AcDbEntity
  8
0
100
AcDbCircle
 62
7
  6
CONTINUOUS
 10
214.1603099965
 20
970.5
 40
4.5
100
AcDbArc
 50
0.0
 51
14.937704459
  0
ARC
  5
415
100
AcDbEntity
  8
0
100
AcDbCircle
 62
7
  6
CONTINUOUS
 10
1134.1603099965
 20
779.5
 40
4.5
100
AcDbArc
 50
345.0629061007
 51
360.0
  0
ARC
  5
416
100
AcDbEntity
  8
0
100
AcDbCircle
 62
7
  6
CONTINUOUS
 10
1134.1603099965
 20
970.5
 40
4.5
100
AcDbArc
 50
0.0
 51
14.937704459
  0
ARC
  5
417
100
AcDbEntity
  8
0
100
AcDbCircle
 62
7
  6
CONTINUOUS
 10
1063.1603099965
 20
779.5
 40
4.5
100
AcDbArc
 50
180.0
 51
194.9377044591
  0
ARC
  5
418
100
AcDbEntity
  8
0
100
AcDbCircle
 62
7
  6
CONTINUOUS
 10
1077.2751682431
 20
892.0507402455
 40
2.8560464938
100
AcDbArc
 50
352.4005740365
 51
0.0208656274
  0
ARC
  5
419
100
AcDbEntity
  8
0
100
AcDbCircle
 62
7
  6
CONTINUOUS
 10
200.04545175
 20
857.9492597545
 40
2.8560464938
100
AcDbArc
 50
172.4005740365
 51
180.0208656274
  0
SPLINE
  5
41A
100
AcDbEntity
  8
0
100
AcDbSpline
 62
7
  6
CONTINUOUS
 70
0
 71
3
 72
8
 73
4
 74
0
 42
0.0000001
 43
0.0000001
 44
0.0000000001
 40
0.0
 40
0.0
 40
0.0
 40
0.0
 40
1.0
 40
1.0
 40
1.0
 40
1.0
 10
1072.6678382357
 20
897.2947995454
 30
0.0
 10
1072.4815210062
 20
897.4241811723
 30
0.0
 10
1072.2506006003
 20
897.4886725545
 30
0.0
 10
1071.9758746657
 20
897.4886725545
 30
0.0
  0
SPLINE
  5
41B
100
AcDbEntity
  8
0
100
AcDbSpline
 62
7
  6
CONTINUOUS
 70
0
 71
3
 72
8
 73
4
 74
0
 42
0.0000001
 43
0.0000001
 44
0.0000000001
 40
0.0
 40
0.0
 40
0.0
 40
0.0
 40
1.0
 40
1.0
 40
1.0
 40
1.0
 10
1071.9758746657
 20
896.9449839592
 30
0.0
 10
1071.9758746657
 20
894.4077667594
 30
0.0
 10
1072.8140623454
 20
893.1391575337
 30
0.0
 10
1074.5130915526
 20
893.1391575336
 30
0.0
  0
SPLINE
  5
41C
100
AcDbEntity
  8
0
100
AcDbSpline
 62
7
  6
CONTINUOUS
 70
0
 71
3
 72
8
 73
4
 74
0
 42
0.0000001
 43
0.0000001
 44
0.0000000001
 40
0.0
 40
0.0
 40
0.0
 40
0.0
 40
1.0
 40
1.0
 40
1.0
 40
1.0
 10
1077.2315382842
 20
893.1391575336
 30
0.0
 10
1077.2315382841
 20
893.2777945933
 30
0.0
 10
1077.2140493652
 20
893.411688885
 30
0.0
 10
1077.1791054341
 20
893.5408234572
 30
0.0
  0
SPLINE
  5
41D
100
AcDbEntity
  8
0
100
AcDbSpline
 62
7
  6
CONTINUOUS
 70
0
 71
3
 72
8
 73
4
 74
0
 42
0.0000001
 43
0.0000001
 44
0.0000000001
 40
0.0
 40
0.0
 40
0.0
 40
0.0
 40
1.0
 40
1.0
 40
1.0
 40
1.0
 10
1077.1791054341
 20
893.5408234572
 30
0.0
 10
1076.9085670638
 20
894.5405923908
 30
0.0
 10
1075.5917813371
 20
895.2550653934
 30
0.0
 10
1073.2444829527
 20
895.6763759851
 30
0.0
  0
SPLINE
  5
41E
100
AcDbEntity
  8
0
100
AcDbSpline
 62
7
  6
CONTINUOUS
 70
0
 71
3
 72
8
 73
4
 74
0
 42
0.0000001
 43
0.0000001
 44
0.0000000001
 40
0.0
 40
0.0
 40
0.0
 40
0.0
 40
1.0
 40
1.0
 40
1.0
 40
1.0
 10
1073.2444829527
 20
895.6763759852
 30
0.0
 10
1073.2444829527
 20
896.4911109353
 30
0.0
 10
1073.0499740956
 20
897.0294383688
 30
0.0
 10
1072.6678382357
 20
897.2947995454
 30
0.0
  0
SPLINE
  5
41F
100
AcDbEntity
  8
0
100
AcDbSpline
 62
7
  6
CONTINUOUS
 70
0
 71
3
 72
8
 73
4
 74
0
 42
0.0000001
 43
0.0000001
 44
0.0000000001
 40
0.0
 40
0.0
 40
0.0
 40
0.0
 40
1.0
 40
1.0
 40
1.0
 40
1.0
 10
1082.1247419003
 20
862.3300995827
 30
0.0
 10
1082.5438368176
 20
862.3300995827
 30
0.0
 10
1082.8609892841
 20
862.4377047381
 30
0.0
 10
1083.0733677848
 20
862.6500836904
 30
0.0
  0
SPLINE
  5
420
100
AcDbEntity
  8
0
100
AcDbSpline
 62
7
  6
CONTINUOUS
 70
0
 71
3
 72
8
 73
4
 74
0
 42
0.0000001
 43
0.0000001
 44
0.0000000001
 40
0.0
 40
0.0
 40
0.0
 40
0.0
 40
1.0
 40
1.0
 40
1.0
 40
1.0
 10
1083.0733677848
 20
862.6500836904
 30
0.0
 10
1083.2857453519
 20
862.8624617093
 30
0.0
 10
1083.3933498743
 20
863.179612604
 30
0.0
 10
1083.3933498743
 20
863.5987050533
 30
0.0
  0
SPLINE
  5
421
100
AcDbEntity
  8
0
100
AcDbSpline
 62
7
  6
CONTINUOUS
 70
0
 71
3
 72
8
 73
4
 74
0
 42
0.0000001
 43
0.0000001
 44
0.0000000001
 40
0.0
 40
0.0
 40
0.0
 40
0.0
 40
1.0
 40
1.0
 40
1.0
 40
1.0
 10
1083.3933498743
 20
863.5987050533
 30
0.0
 10
1083.3933498743
 20
864.2330102921
 30
0.0
 10
1082.9629298929
 20
864.6521036625
 30
0.0
 10
1082.1247419003
 20
864.8673155308
 30
0.0
  0
SPLINE
  5
422
100
AcDbEntity
  8
0
100
AcDbSpline
 62
7
  6
CONTINUOUS
 70
0
 71
3
 72
8
 73
4
 74
0
 42
0.0000001
 43
0.0000001
 44
0.0000000001
 40
0.0
 40
0.0
 40
0.0
 40
0.0
 40
1.0
 40
1.0
 40
1.0
 40
1.0
 10
1083.1666611697
 20
882.0814991724
 30
0.0
 10
1082.9592067007
 20
882.3249006514
 30
0.0
 10
1082.6104312291
 20
882.4466013908
 30
0.0
 10
1082.1247419003
 20
882.4466013908
 30
0.0
  0
SPLINE
  5
423
100
AcDbEntity
  8
0
100
AcDbSpline
 62
7
  6
CONTINUOUS
 70
0
 71
3
 72
8
 73
4
 74
0
 42
0.0000001
 43
0.0000001
 44
0.0000000001
 40
0.0
 40
0.0
 40
0.0
 40
0.0
 40
1.0
 40
1.0
 40
1.0
 40
1.0
 10
1082.1247419003
 20
880.0906137228
 30
0.0
 10
1082.9629298929
 20
880.0906137228
 30
0.0
 10
1083.3933498743
 20
880.521034956
 30
0.0
 10
1083.3933498743
 20
881.3592242003
 30
0.0
  0
SPLINE
  5
424
100
AcDbEntity
  8
0
100
AcDbSpline
 62
7
  6
CONTINUOUS
 70
0
 71
3
 72
8
 73
4
 74
0
 42
0.0000001
 43
0.0000001
 44
0.0000000001
 40
0.0
 40
0.0
 40
0.0
 40
0.0
 40
1.0
 40
1.0
 40
1.0
 40
1.0
 10
1083.3933498743
 20
881.3592242003
 30
0.0
 10
1083.3933498743
 20
881.6640873973
 30
0.0
 10
1083.3172253654
 20
881.9048457213
 30
0.0
 10
1083.1666611697
 20
882.0814991724
 30
0.0
  0
SPLINE
  5
425
100
AcDbEntity
  8
0
100
AcDbSpline
 62
7
  6
CONTINUOUS
 70
0
 71
3
 72
8
 73
4
 74
0
 42
0.0000001
 43
0.0000001
 44
0.0000000001
 40
0.0
 40
0.0
 40
0.0
 40
0.0
 40
1.0
 40
1.0
 40
1.0
 40
1.0
 10
1081.2185929898
 20
872.4789633751
 30
0.0
 10
1080.1312145475
 20
872.4789633751
 30
0.0
 10
1079.5875247005
 20
872.0032382011
 30
0.0
 10
1079.5875247005
 20
871.029127121
 30
0.0
  0
SPLINE
  5
426
100
AcDbEntity
  8
0
100
AcDbSpline
 62
7
  6
CONTINUOUS
 70
0
 71
3
 72
8
 73
4
 74
0
 42
0.0000001
 43
0.0000001
 44
0.0000000001
 40
0.0
 40
0.0
 40
0.0
 40
0.0
 40
1.0
 40
1.0
 40
1.0
 40
1.0
 10
1079.5875247005
 20
871.029127121
 30
0.0
 10
1079.5875247005
 20
870.4061472416
 30
0.0
 10
1079.7687554839
 20
870.0436906815
 30
0.0
 10
1080.1312145475
 20
869.941747427
 30
0.0
  0
SPLINE
  5
427
100
AcDbEntity
  8
0
100
AcDbSpline
 62
7
  6
CONTINUOUS
 70
0
 71
3
 72
8
 73
4
 74
0
 42
0.0000001
 43
0.0000001
 44
0.0000000001
 40
0.0
 40
0.0
 40
0.0
 40
0.0
 40
1.0
 40
1.0
 40
1.0
 40
1.0
 10
1083.2121203426
 20
871.029127121
 30
0.0
 10
1083.2121203426
 20
872.0032382011
 30
0.0
 10
1082.5438352707
 20
872.4789633751
 30
0.0
 10
1081.2185929898
 20
872.4789633751
 30
0.0
  0
SPLINE
  5
428
100
AcDbEntity
  8
0
100
AcDbSpline
 62
7
  6
CONTINUOUS
 70
0
 71
3
 72
8
 73
4
 74
0
 42
0.0000001
 43
0.0000001
 44
0.0000000001
 40
0.0
 40
0.0
 40
0.0
 40
0.0
 40
1.0
 40
1.0
 40
1.0
 40
1.0
 10
1074.6912845384
 20
858.5013253557
 30
0.0
 10
1075.1299455316
 20
858.1479211367
 30
0.0
 10
1075.373330401
 20
857.5514711301
 30
0.0
 10
1075.4192404631
 20
856.7119753361
 30
0.0
  0
SPLINE
  5
429
100
AcDbEntity
  8
0
100
AcDbSpline
 62
7
  6
CONTINUOUS
 70
0
 71
3
 72
8
 73
4
 74
0
 42
0.0000001
 43
0.0000001
 44
0.0000000001
 40
0.0
 40
0.0
 40
0.0
 40
0.0
 40
1.0
 40
1.0
 40
1.0
 40
1.0
 10
1074.5130915526
 20
857.2556626797
 30
0.0
 10
1074.5130915526
 20
857.4935252666
 30
0.0
 10
1074.1506318632
 20
857.7313928604
 30
0.0
 10
1073.4257127974
 20
857.9805808067
 30
0.0
  0
SPLINE
  5
42A
100
AcDbEntity
  8
0
100
AcDbSpline
 62
7
  6
CONTINUOUS
 70
0
 71
3
 72
8
 73
4
 74
0
 42
0.0000001
 43
0.0000001
 44
0.0000000001
 40
0.0
 40
0.0
 40
0.0
 40
0.0
 40
1.0
 40
1.0
 40
1.0
 40
1.0
 10
1073.4257127974
 20
857.9805808067
 30
0.0
 10
1072.7007937315
 20
857.9805808067
 30
0.0
 10
1072.3383343551
 20
857.5614874363
 30
0.0
 10
1072.3383343551
 20
856.7119753361
 30
0.0
  0
SPLINE
  5
42B
100
AcDbEntity
  8
0
100
AcDbSpline
 62
7
  6
CONTINUOUS
 70
0
 71
3
 72
8
 73
4
 74
0
 42
0.0000001
 43
0.0000001
 44
0.0000000001
 40
0.0
 40
0.0
 40
0.0
 40
0.0
 40
1.0
 40
1.0
 40
1.0
 40
1.0
 10
1071.4321854446
 20
857.0744318962
 30
0.0
 10
1071.4321854446
 20
858.0825240612
 30
0.0
 10
1072.0891432795
 20
858.6828482151
 30
0.0
 10
1073.4257127974
 20
858.8867297173
 30
0.0
  0
SPLINE
  5
42C
100
AcDbEntity
  8
0
100
AcDbSpline
 62
7
  6
CONTINUOUS
 70
0
 71
3
 72
8
 73
4
 74
0
 42
0.0000001
 43
0.0000001
 44
0.0000000001
 40
0.0
 40
0.0
 40
0.0
 40
0.0
 40
1.0
 40
1.0
 40
1.0
 40
1.0
 10
1073.4257127974
 20
858.8867297173
 30
0.0
 10
1073.9502249865
 20
858.8867297173
 30
0.0
 10
1074.3723638787
 20
858.7582615968
 30
0.0
 10
1074.6912845384
 20
858.5013253557
 30
0.0
  0
SPLINE
  5
42D
100
AcDbEntity
  8
0
100
AcDbSpline
 62
7
  6
CONTINUOUS
 70
0
 71
3
 72
8
 73
4
 74
0
 42
0.0000001
 43
0.0000001
 44
0.0000000001
 40
0.0
 40
0.0
 40
0.0
 40
0.0
 40
1.0
 40
1.0
 40
1.0
 40
1.0
 10
1075.4192404631
 20
863.7799358368
 30
0.0
 10
1075.2380103055
 20
863.3042056561
 30
0.0
 10
1075.0567807737
 20
863.0550177097
 30
0.0
 10
1074.875551242
 20
863.0550177097
 30
0.0
  0
SPLINE
  5
42E
100
AcDbEntity
  8
0
100
AcDbSpline
 62
7
  6
CONTINUOUS
 70
0
 71
3
 72
8
 73
4
 74
0
 42
0.0000001
 43
0.0000001
 44
0.0000000001
 40
0.0
 40
0.0
 40
0.0
 40
0.0
 40
1.0
 40
1.0
 40
1.0
 40
1.0
 10
1074.5130915526
 20
864.3236231804
 30
0.0
 10
1074.3092081729
 20
864.8106787205
 30
0.0
 10
1073.8901141766
 20
865.0485413075
 30
0.0
 10
1073.2444829527
 20
865.0485413074
 30
0.0
  0
SPLINE
  5
42F
100
AcDbEntity
  8
0
100
AcDbSpline
 62
7
  6
CONTINUOUS
 70
0
 71
3
 72
8
 73
4
 74
0
 42
0.0000001
 43
0.0000001
 44
0.0000000001
 40
0.0
 40
0.0
 40
0.0
 40
0.0
 40
1.0
 40
1.0
 40
1.0
 40
1.0
 10
1074.875551242
 20
865.0485413075
 30
0.0
 10
1075.2380103055
 20
864.6067972183
 30
0.0
 10
1075.4192404631
 20
864.1877038479
 30
0.0
 10
1075.4192404631
 20
863.7799358368
 30
0.0
  0
SPLINE
  5
430
100
AcDbEntity
  8
0
100
AcDbSpline
 62
7
  6
CONTINUOUS
 70
0
 71
3
 72
8
 73
4
 74
0
 42
0.0000001
 43
0.0000001
 44
0.0000000001
 40
0.0
 40
0.0
 40
0.0
 40
0.0
 40
1.0
 40
1.0
 40
1.0
 40
1.0
 10
1074.5130915526
 20
873.2038840055
 30
0.0
 10
1074.5130915526
 20
873.8155335188
 30
0.0
 10
1074.1506318632
 20
874.1100329161
 30
0.0
 10
1073.4257127974
 20
874.1100329161
 30
0.0
  0
SPLINE
  5
431
100
AcDbEntity
  8
0
100
AcDbSpline
 62
7
  6
CONTINUOUS
 70
0
 71
3
 72
8
 73
4
 74
0
 42
0.0000001
 43
0.0000001
 44
0.0000000001
 40
0.0
 40
0.0
 40
0.0
 40
0.0
 40
1.0
 40
1.0
 40
1.0
 40
1.0
 10
1071.4321854446
 20
873.2038840055
 30
0.0
 10
1071.5907614413
 20
874.4158576727
 30
0.0
 10
1072.1344506625
 20
875.0161818266
 30
0.0
 10
1073.0632534209
 20
875.0161818266
 30
0.0
  0
SPLINE
  5
432
100
AcDbEntity
  8
0
100
AcDbSpline
 62
7
  6
CONTINUOUS
 70
0
 71
3
 72
8
 73
4
 74
0
 42
0.0000001
 43
0.0000001
 44
0.0000000001
 40
0.0
 40
0.0
 40
0.0
 40
0.0
 40
1.0
 40
1.0
 40
1.0
 40
1.0
 10
1073.7881721738
 20
875.0161818266
 30
0.0
 10
1074.875551242
 20
875.0161818266
 30
0.0
 10
1075.4192404631
 20
874.3592233658
 30
0.0
 10
1075.4192404631
 20
873.0226532221
 30
0.0
  0
SPLINE
  5
433
100
AcDbEntity
  8
0
100
AcDbSpline
 62
7
  6
CONTINUOUS
 70
0
 71
3
 72
8
 73
4
 74
0
 42
0.0000001
 43
0.0000001
 44
0.0000000001
 40
0.0
 40
0.0
 40
0.0
 40
0.0
 40
1.0
 40
1.0
 40
1.0
 40
1.0
 10
1074.8290980434
 20
879.6371756058
 30
0.0
 10
1075.2219205242
 20
879.2774447464
 30
0.0
 10
1075.4192404631
 20
878.7036719578
 30
0.0
 10
1075.4192404631
 20
877.9158568382
 30
0.0
  0
SPLINE
  5
434
100
AcDbEntity
  8
0
100
AcDbSpline
 62
7
  6
CONTINUOUS
 70
0
 71
3
 72
8
 73
4
 74
0
 42
0.0000001
 43
0.0000001
 44
0.0000000001
 40
0.0
 40
0.0
 40
0.0
 40
0.0
 40
1.0
 40
1.0
 40
1.0
 40
1.0
 10
1075.4192404631
 20
877.9158568382
 30
0.0
 10
1075.1247416917
 20
877.0776700974
 30
0.0
 10
1074.3998229388
 20
876.6472488642
 30
0.0
 10
1073.2444829527
 20
876.6472488642
 30
0.0
  0
SPLINE
  5
435
100
AcDbEntity
  8
0
100
AcDbSpline
 62
7
  6
CONTINUOUS
 70
0
 71
3
 72
8
 73
4
 74
0
 42
0.0000001
 43
0.0000001
 44
0.0000000001
 40
0.0
 40
0.0
 40
0.0
 40
0.0
 40
1.0
 40
1.0
 40
1.0
 40
1.0
 10
1073.2444829527
 20
879.1844648123
 30
0.0
 10
1072.6894668076
 20
878.9579275846
 30
0.0
 10
1072.383641738
 20
878.7087371349
 30
0.0
 10
1072.3383343551
 20
878.4595466852
 30
0.0
  0
SPLINE
  5
436
100
AcDbEntity
  8
0
100
AcDbSpline
 62
7
  6
CONTINUOUS
 70
0
 71
3
 72
8
 73
4
 74
0
 42
0.0000001
 43
0.0000001
 44
0.0000000001
 40
0.0
 40
0.0
 40
0.0
 40
0.0
 40
1.0
 40
1.0
 40
1.0
 40
1.0
 10
1071.4321854446
 20
878.2783159018
 30
0.0
 10
1071.7040300551
 20
879.4902920723
 30
0.0
 10
1072.3156805071
 20
880.0906137228
 30
0.0
 10
1073.4257127974
 20
880.0906137228
 30
0.0
  0
SPLINE
  5
437
100
AcDbEntity
  8
0
100
AcDbSpline
 62
7
  6
CONTINUOUS
 70
0
 71
3
 72
8
 73
4
 74
0
 42
0.0000001
 43
0.0000001
 44
0.0000000001
 40
0.0
 40
0.0
 40
0.0
 40
0.0
 40
1.0
 40
1.0
 40
1.0
 40
1.0
 10
1085.3868784788
 20
913.4368932545
 30
0.0
 10
1085.7660646553
 20
913.4368932545
 30
0.0
 10
1086.1018560791
 20
913.35670726
 30
0.0
 10
1086.3937082363
 20
913.1960630216
 30
0.0
  0
SPLINE
  5
438
100
AcDbEntity
  8
0
100
AcDbSpline
 62
7
  6
CONTINUOUS
 70
0
 71
3
 72
8
 73
4
 74
0
 42
0.0000001
 43
0.0000001
 44
0.0000000001
 40
0.0
 40
0.0
 40
0.0
 40
0.0
 40
1.0
 40
1.0
 40
1.0
 40
1.0
 10
1082.6684317473
 20
912.3495144993
 30
0.0
 10
1083.3253889564
 20
913.0744337216
 30
0.0
 10
1083.9370397213
 20
913.4368932545
 30
0.0
 10
1084.4807295683
 20
913.4368932545
 30
0.0
  0
SPLINE
  5
439
100
AcDbEntity
  8
0
100
AcDbSpline
 62
7
  6
CONTINUOUS
 70
0
 71
3
 72
8
 73
4
 74
0
 42
0.0000001
 43
0.0000001
 44
0.0000000001
 40
0.0
 40
0.0
 40
0.0
 40
0.0
 40
1.0
 40
1.0
 40
1.0
 40
1.0
 10
1080.6749043945
 20
908.7249191701
 30
0.0
 10
1081.037363458
 20
908.7249191701
 30
0.0
 10
1081.6943206671
 20
909.9368931502
 30
0.0
 10
1082.6684317473
 20
912.3495144993
 30
0.0
  0
SPLINE
  5
43A
100
AcDbEntity
  8
0
100
AcDbSpline
 62
7
  6
CONTINUOUS
 70
0
 71
3
 72
8
 73
4
 74
0
 42
0.0000001
 43
0.0000001
 44
0.0000000001
 40
0.0
 40
0.0
 40
0.0
 40
0.0
 40
1.0
 40
1.0
 40
1.0
 40
1.0
 10
1079.9499850157
 20
909.8122976124
 30
0.0
 10
1079.9499850157
 20
909.2119740844
 30
0.0
 10
1080.1878488544
 20
908.849514395
 30
0.0
 10
1080.6749043945
 20
908.7249191701
 30
0.0
  0
SPLINE
  5
43B
100
AcDbEntity
  8
0
100
AcDbSpline
 62
7
  6
CONTINUOUS
 70
0
 71
3
 72
8
 73
4
 74
0
 42
0.0000001
 43
0.0000001
 44
0.0000000001
 40
0.0
 40
0.0
 40
0.0
 40
0.0
 40
1.0
 40
1.0
 40
1.0
 40
1.0
 10
1081.037363458
 20
913.0744337216
 30
0.0
 10
1080.3124440792
 20
911.9870551229
 30
0.0
 10
1079.9499850157
 20
911.0809062123
 30
0.0
 10
1079.9499850157
 20
910.3559871465
 30
0.0
  0
SPLINE
  5
43C
100
AcDbEntity
  8
0
100
AcDbSpline
 62
7
  6
CONTINUOUS
 70
0
 71
3
 72
8
 73
4
 74
0
 42
0.0000001
 43
0.0000001
 44
0.0000000001
 40
0.0
 40
0.0
 40
0.0
 40
0.0
 40
1.0
 40
1.0
 40
1.0
 40
1.0
 10
1077.9564570371
 20
909.9935274571
 30
0.0
 10
1077.9564570371
 20
911.3187703639
 30
0.0
 10
1078.3189167264
 20
912.4061488062
 30
0.0
 10
1079.0438361052
 20
913.2556634098
 30
0.0
  0
SPLINE
  5
43D
100
AcDbEntity
  8
0
100
AcDbSpline
 62
7
  6
CONTINUOUS
 70
0
 71
3
 72
8
 73
4
 74
0
 42
0.0000001
 43
0.0000001
 44
0.0000000001
 40
0.0
 40
0.0
 40
0.0
 40
0.0
 40
1.0
 40
1.0
 40
1.0
 40
1.0
 10
1080.493673611
 20
906.1877019703
 30
0.0
 10
1079.0438361052
 20
906.1877019703
 30
0.0
 10
1078.2056481126
 20
907.3996762633
 30
0.0
 10
1077.9564570371
 20
909.9935274571
 30
0.0
  0
SPLINE
  5
43E
100
AcDbEntity
  8
0
100
AcDbSpline
 62
7
  6
CONTINUOUS
 70
0
 71
3
 72
8
 73
4
 74
0
 42
0.0000001
 43
0.0000001
 44
0.0000000001
 40
0.0
 40
0.0
 40
0.0
 40
0.0
 40
1.0
 40
1.0
 40
1.0
 40
1.0
 10
1085.2056476954
 20
910.8996763676
 30
0.0
 10
1084.9564572457
 20
910.8996763677
 30
0.0
 10
1084.17490356
 20
909.5177994669
 30
0.0
 10
1082.849661279
 20
906.7313918173
 30
0.0
  0
SPLINE
  5
43F
100
AcDbEntity
  8
0
100
AcDbSpline
 62
7
  6
CONTINUOUS
 70
0
 71
3
 72
8
 73
4
 74
0
 42
0.0000001
 43
0.0000001
 44
0.0000000001
 40
0.0
 40
0.0
 40
0.0
 40
0.0
 40
1.0
 40
1.0
 40
1.0
 40
1.0
 10
1085.0244181636
 20
906.7313918173
 30
0.0
 10
1085.6247423175
 20
907.9999997914
 30
0.0
 10
1085.9305670741
 20
909.0873788595
 30
0.0
 10
1085.9305670741
 20
909.9935274571
 30
0.0
  0
SPLINE
  5
440
100
AcDbEntity
  8
0
100
AcDbSpline
 62
7
  6
CONTINUOUS
 70
0
 71
3
 72
8
 73
4
 74
0
 42
0.0000001
 43
0.0000001
 44
0.0000000001
 40
0.0
 40
0.0
 40
0.0
 40
0.0
 40
1.0
 40
1.0
 40
1.0
 40
1.0
 10
1087.7428648952
 20
909.4498379231
 30
0.0
 10
1087.7428648952
 20
907.6558620256
 30
0.0
 10
1087.312443662
 20
906.6974107325
 30
0.0
 10
1086.8367159847
 20
906.5501616597
 30
0.0
  0
SPLINE
  5
441
100
AcDbEntity
  8
0
100
AcDbSpline
 62
7
  6
CONTINUOUS
 70
0
 71
3
 72
8
 73
4
 74
0
 42
0.0000001
 43
0.0000001
 44
0.0000000001
 40
0.0
 40
0.0
 40
0.0
 40
0.0
 40
1.0
 40
1.0
 40
1.0
 40
1.0
 10
1086.3937082363
 20
913.1960630216
 30
0.0
 10
1087.1131511803
 20
912.800059905
 30
0.0
 10
1087.5655889344
 20
911.9151371869
 30
0.0
 10
1087.7428648952
 20
910.5372166783
 30
0.0
  0
SPLINE
  5
442
100
AcDbEntity
  8
0
100
AcDbSpline
 62
7
  6
CONTINUOUS
 70
0
 71
3
 72
8
 73
4
 74
0
 42
0.0000001
 43
0.0000001
 44
0.0000000001
 40
0.0
 40
0.0
 40
0.0
 40
0.0
 40
1.0
 40
1.0
 40
1.0
 40
1.0
 10
1082.8000076915
 20
896.5704111581
 30
0.0
 10
1082.6164381767
 20
896.7892431202
 30
0.0
 10
1082.3913494678
 20
896.9755223128
 30
0.0
 10
1082.1247419003
 20
897.126213491
 30
0.0
  0
SPLINE
  5
443
100
AcDbEntity
  8
0
100
AcDbSpline
 62
7
  6
CONTINUOUS
 70
0
 71
3
 72
8
 73
4
 74
0
 42
0.0000001
 43
0.0000001
 44
0.0000000001
 40
0.0
 40
0.0
 40
0.0
 40
0.0
 40
1.0
 40
1.0
 40
1.0
 40
1.0
 10
1083.2121203426
 20
895.8576055169
 30
0.0
 10
1083.1125619549
 20
896.1230951619
 30
0.0
 10
1082.9751909741
 20
896.3615763661
 30
0.0
 10
1082.8000076915
 20
896.5704111581
 30
0.0
  0
SPLINE
  5
444
100
AcDbEntity
  8
0
100
AcDbSpline
 62
7
  6
CONTINUOUS
 70
0
 71
3
 72
8
 73
4
 74
0
 42
0.0000001
 43
0.0000001
 44
0.0000000001
 40
0.0
 40
0.0
 40
0.0
 40
0.0
 40
1.0
 40
1.0
 40
1.0
 40
1.0
 10
1081.9435123685
 20
894.9514566064
 30
0.0
 10
1082.6117974404
 20
894.9514566064
 30
0.0
 10
1083.0308908108
 20
895.257281363
 30
0.0
 10
1083.2121203426
 20
895.8576055169
 30
0.0
  0
SPLINE
  5
445
100
AcDbEntity
  8
0
100
AcDbSpline
 62
7
  6
CONTINUOUS
 70
0
 71
3
 72
8
 73
4
 74
0
 42
0.0000001
 43
0.0000001
 44
0.0000000001
 40
0.0
 40
0.0
 40
0.0
 40
0.0
 40
1.0
 40
1.0
 40
1.0
 40
1.0
 10
1084.8431886319
 20
895.3139156699
 30
0.0
 10
1084.6393046263
 20
893.6262130737
 30
0.0
 10
1083.9143864993
 20
892.7766984701
 30
0.0
 10
1082.6684317473
 20
892.7766984701
 30
0.0
  0
SPLINE
  5
446
100
AcDbEntity
  8
0
100
AcDbSpline
 62
7
  6
CONTINUOUS
 70
0
 71
3
 72
8
 73
4
 74
0
 42
0.0000001
 43
0.0000001
 44
0.0000000001
 40
0.0
 40
0.0
 40
0.0
 40
0.0
 40
1.0
 40
1.0
 40
1.0
 40
1.0
 10
1083.9370397213
 20
897.126213491
 30
0.0
 10
1084.3561330918
 20
896.6731390357
 30
0.0
 10
1084.6619591001
 20
896.0728161335
 30
0.0
 10
1084.8431886319
 20
895.3139156699
 30
0.0
  0
SPLINE
  5
447
100
AcDbEntity
  8
0
100
AcDbSpline
 62
7
  6
CONTINUOUS
 70
0
 71
3
 72
8
 73
4
 74
0
 42
0.0000001
 43
0.0000001
 44
0.0000000001
 40
0.0
 40
0.0
 40
0.0
 40
0.0
 40
1.0
 40
1.0
 40
1.0
 40
1.0
 10
1086.2930273894
 20
877.5533977747
 30
0.0
 10
1087.2558093551
 20
877.5533977747
 30
0.0
 10
1087.7428648952
 20
877.0776700974
 30
0.0
 10
1087.7428648952
 20
876.1035590172
 30
0.0
  0
SPLINE
  5
448
100
AcDbEntity
  8
0
100
AcDbSpline
 62
7
  6
CONTINUOUS
 70
0
 71
3
 72
8
 73
4
 74
0
 42
0.0000001
 43
0.0000001
 44
0.0000000001
 40
0.0
 40
0.0
 40
0.0
 40
0.0
 40
1.0
 40
1.0
 40
1.0
 40
1.0
 10
1086.4742569211
 20
875.1974101067
 30
0.0
 10
1085.7493375424
 20
875.5598716736
 30
0.0
 10
1085.3868784788
 20
876.1035590172
 30
0.0
 10
1085.3868784788
 20
877.0097079277
 30
0.0
  0
SPLINE
  5
449
100
AcDbEntity
  8
0
100
AcDbSpline
 62
7
  6
CONTINUOUS
 70
0
 71
3
 72
8
 73
4
 74
0
 42
0.0000001
 43
0.0000001
 44
0.0000000001
 40
0.0
 40
0.0
 40
0.0
 40
0.0
 40
1.0
 40
1.0
 40
1.0
 40
1.0
 10
1081.5810520533
 20
874.6537227631
 30
0.0
 10
1083.7558101896
 20
874.325242281
 30
0.0
 10
1084.8431886319
 20
873.2944993973
 30
0.0
 10
1084.8431886319
 20
871.5728144646
 30
0.0
  0
SPLINE
  5
44A
100
AcDbEntity
  8
0
100
AcDbSpline
 62
7
  6
CONTINUOUS
 70
0
 71
3
 72
8
 73
4
 74
0
 42
0.0000001
 43
0.0000001
 44
0.0000000001
 40
0.0
 40
0.0
 40
0.0
 40
0.0
 40
1.0
 40
1.0
 40
1.0
 40
1.0
 10
1078.3793456026
 20
873.1632483516
 30
0.0
 10
1078.8804397474
 20
873.9456976634
 30
0.0
 10
1079.8268556525
 20
874.4435114264
 30
0.0
 10
1081.2185929898
 20
874.6537227631
 30
0.0
  0
SPLINE
  5
44B
100
AcDbEntity
  8
0
100
AcDbSpline
 62
7
  6
CONTINUOUS
 70
0
 71
3
 72
8
 73
4
 74
0
 42
0.0000001
 43
0.0000001
 44
0.0000000001
 40
0.0
 40
0.0
 40
0.0
 40
0.0
 40
1.0
 40
1.0
 40
1.0
 40
1.0
 10
1077.9564570371
 20
871.5728144646
 30
0.0
 10
1077.9564570371
 20
872.1927058033
 30
0.0
 10
1078.0974199117
 20
872.7230265586
 30
0.0
 10
1078.3793456026
 20
873.1632483516
 30
0.0
  0
SPLINE
  5
44C
100
AcDbEntity
  8
0
100
AcDbSpline
 62
7
  6
CONTINUOUS
 70
0
 71
3
 72
8
 73
4
 74
0
 42
0.0000001
 43
0.0000001
 44
0.0000000001
 40
0.0
 40
0.0
 40
0.0
 40
0.0
 40
1.0
 40
1.0
 40
1.0
 40
1.0
 10
1081.9435123685
 20
905.8252429068
 30
0.0
 10
1083.8690788034
 20
905.2928802967
 30
0.0
 10
1084.8431886319
 20
904.1488675475
 30
0.0
 10
1084.8431886319
 20
902.3818774223
 30
0.0
  0
SPLINE
  5
44D
100
AcDbEntity
  8
0
100
AcDbSpline
 62
7
  6
CONTINUOUS
 70
0
 71
3
 72
8
 73
4
 74
0
 42
0.0000001
 43
0.0000001
 44
0.0000000001
 40
0.0
 40
0.0
 40
0.0
 40
0.0
 40
1.0
 40
1.0
 40
1.0
 40
1.0
 10
1077.9564570371
 20
902.2006466389
 30
0.0
 10
1078.2169747237
 20
904.6245952249
 30
0.0
 10
1079.247718859
 20
905.8252429068
 30
0.0
 10
1081.037363458
 20
905.8252429068
 30
0.0
  0
SPLINE
  5
44E
100
AcDbEntity
  8
0
100
AcDbSpline
 62
7
  6
CONTINUOUS
 70
0
 71
3
 72
8
 73
4
 74
0
 42
0.0000001
 43
0.0000001
 44
0.0000000001
 40
0.0
 40
0.0
 40
0.0
 40
0.0
 40
1.0
 40
1.0
 40
1.0
 40
1.0
 10
1078.6813764158
 20
899.8446602225
 30
0.0
 10
1078.3415705744
 20
899.8446602225
 30
0.0
 10
1078.1037061098
 20
900.6375405192
 30
0.0
 10
1077.9564570371
 20
902.2006466389
 30
0.0
  0
SPLINE
  5
44F
100
AcDbEntity
  8
0
100
AcDbSpline
 62
7
  6
CONTINUOUS
 70
0
 71
3
 72
8
 73
4
 74
0
 42
0.0000001
 43
0.0000001
 44
0.0000000001
 40
0.0
 40
0.0
 40
0.0
 40
0.0
 40
1.0
 40
1.0
 40
1.0
 40
1.0
 10
1081.3998225215
 20
903.6504853964
 30
0.0
 10
1080.3464251641
 20
903.6504853964
 30
0.0
 10
1079.7461010102
 20
902.9255660176
 30
0.0
 10
1079.5875247005
 20
901.4757285118
 30
0.0
  0
SPLINE
  5
450
100
AcDbEntity
  8
0
100
AcDbSpline
 62
7
  6
CONTINUOUS
 70
0
 71
3
 72
8
 73
4
 74
0
 42
0.0000001
 43
0.0000001
 44
0.0000000001
 40
0.0
 40
0.0
 40
0.0
 40
0.0
 40
1.0
 40
1.0
 40
1.0
 40
1.0
 10
1083.2121203426
 20
901.6569580436
 30
0.0
 10
1082.8836411122
 20
902.9935269356
 30
0.0
 10
1082.28331821
 20
903.6504853964
 30
0.0
 10
1081.3998225215
 20
903.6504853964
 30
0.0
  0
SPLINE
  5
451
100
AcDbEntity
  8
0
100
AcDbSpline
 62
7
  6
CONTINUOUS
 70
0
 71
3
 72
8
 73
4
 74
0
 42
0.0000001
 43
0.0000001
 44
0.0000000001
 40
0.0
 40
0.0
 40
0.0
 40
0.0
 40
1.0
 40
1.0
 40
1.0
 40
1.0
 10
1083.9370397213
 20
889.8770234585
 30
0.0
 10
1084.5373638752
 20
889.0501620769
 30
0.0
 10
1084.8431886319
 20
888.3818782568
 30
0.0
 10
1084.8431886319
 20
887.883494854
 30
0.0
  0
SPLINE
  5
452
100
AcDbEntity
  8
0
100
AcDbSpline
 62
7
  6
CONTINUOUS
 70
0
 71
3
 72
8
 73
4
 74
0
 42
0.0000001
 43
0.0000001
 44
0.0000000001
 40
0.0
 40
0.0
 40
0.0
 40
0.0
 40
1.0
 40
1.0
 40
1.0
 40
1.0
 10
1079.225065637
 20
889.8770234585
 30
0.0
 10
1079.7260235707
 20
890.4441451746
 30
0.0
 10
1080.0219052894
 20
891.0428162731
 30
0.0
 10
1080.1061296957
 20
891.6730382087
 30
0.0
  0
SPLINE
  5
453
100
AcDbEntity
  8
0
100
AcDbSpline
 62
7
  6
CONTINUOUS
 70
0
 71
3
 72
8
 73
4
 74
0
 42
0.0000001
 43
0.0000001
 44
0.0000000001
 40
0.0
 40
0.0
 40
0.0
 40
0.0
 40
1.0
 40
1.0
 40
1.0
 40
1.0
 10
1083.1333251278
 20
888.0821220614
 30
0.0
 10
1083.1651443703
 20
888.1333391562
 30
0.0
 10
1083.1914094404
 20
888.1879634523
 30
0.0
 10
1083.2121203426
 20
888.2459539175
 30
0.0
  0
SPLINE
  5
454
100
AcDbEntity
  8
0
100
AcDbSpline
 62
7
  6
CONTINUOUS
 70
0
 71
3
 72
8
 73
4
 74
0
 42
0.0000001
 43
0.0000001
 44
0.0000000001
 40
0.0
 40
0.0
 40
0.0
 40
0.0
 40
1.0
 40
1.0
 40
1.0
 40
1.0
 10
1081.5810520533
 20
887.5210357904
 30
0.0
 10
1082.3866898325
 20
887.5210357904
 30
0.0
 10
1082.9041136257
 20
887.7131771609
 30
0.0
 10
1083.1333251278
 20
888.0821220614
 30
0.0
  0
SPLINE
  5
455
100
AcDbEntity
  8
0
100
AcDbSpline
 62
7
  6
CONTINUOUS
 70
0
 71
3
 72
8
 73
4
 74
0
 42
0.0000001
 43
0.0000001
 44
0.0000000001
 40
0.0
 40
0.0
 40
0.0
 40
0.0
 40
1.0
 40
1.0
 40
1.0
 40
1.0
 10
1084.8431886319
 20
887.883494854
 30
0.0
 10
1084.5486904863
 20
886.3203874826
 30
0.0
 10
1083.8804054144
 20
885.5275071859
 30
0.0
 10
1082.849661279
 20
885.5275071859
 30
0.0
  0
SPLINE
  5
456
100
AcDbEntity
  8
0
100
AcDbSpline
 62
7
  6
CONTINUOUS
 70
0
 71
3
 72
8
 73
4
 74
0
 42
0.0000001
 43
0.0000001
 44
0.0000000001
 40
0.0
 40
0.0
 40
0.0
 40
0.0
 40
1.0
 40
1.0
 40
1.0
 40
1.0
 10
1081.5810520533
 20
884.8025890589
 30
0.0
 10
1083.7558101896
 20
884.4854364395
 30
0.0
 10
1084.8431886319
 20
883.3980592489
 30
0.0
 10
1084.8431886319
 20
881.5404524803
 30
0.0
  0
SPLINE
  5
457
100
AcDbEntity
  8
0
100
AcDbSpline
 62
7
  6
CONTINUOUS
 70
0
 71
3
 72
8
 73
4
 74
0
 42
0.0000001
 43
0.0000001
 44
0.0000000001
 40
0.0
 40
0.0
 40
0.0
 40
0.0
 40
1.0
 40
1.0
 40
1.0
 40
1.0
 10
1077.9564570371
 20
881.1779934168
 30
0.0
 10
1078.2962628785
 20
883.6019407511
 30
0.0
 10
1079.2590467218
 20
884.8025890589
 30
0.0
 10
1080.8561339262
 20
884.8025890589
 30
0.0
  0
SPLINE
  5
458
100
AcDbEntity
  8
0
100
AcDbSpline
 62
7
  6
CONTINUOUS
 70
0
 71
3
 72
8
 73
4
 74
0
 42
0.0000001
 43
0.0000001
 44
0.0000000001
 40
0.0
 40
0.0
 40
0.0
 40
0.0
 40
1.0
 40
1.0
 40
1.0
 40
1.0
 10
1079.0438361052
 20
878.0970876217
 30
0.0
 10
1078.3189167264
 20
878.7653714418
 30
0.0
 10
1077.9564570371
 20
879.7961168289
 30
0.0
 10
1077.9564570371
 20
881.1779934168
 30
0.0
  0
SPLINE
  5
459
100
AcDbEntity
  8
0
100
AcDbSpline
 62
7
  6
CONTINUOUS
 70
0
 71
3
 72
8
 73
4
 74
0
 42
0.0000001
 43
0.0000001
 44
0.0000000001
 40
0.0
 40
0.0
 40
0.0
 40
0.0
 40
1.0
 40
1.0
 40
1.0
 40
1.0
 10
1079.4062951687
 20
880.4530752897
 30
0.0
 10
1079.4062951687
 20
879.7508078814
 30
0.0
 10
1079.7007933143
 20
879.0258897543
 30
0.0
 10
1080.3124440792
 20
878.0970876217
 30
0.0
  0
SPLINE
  5
45A
100
AcDbEntity
  8
0
100
AcDbSpline
 62
7
  6
CONTINUOUS
 70
0
 71
3
 72
8
 73
4
 74
0
 42
0.0000001
 43
0.0000001
 44
0.0000000001
 40
0.0
 40
0.0
 40
0.0
 40
0.0
 40
1.0
 40
1.0
 40
1.0
 40
1.0
 10
1081.037363458
 20
882.6278321743
 30
0.0
 10
1079.9499850157
 20
882.3786417246
 30
0.0
 10
1079.4062951687
 20
881.7783175707
 30
0.0
 10
1079.4062951687
 20
880.8155343533
 30
0.0
  0
SPLINE
  5
45B
100
AcDbEntity
  8
0
100
AcDbSpline
 62
7
  6
CONTINUOUS
 70
0
 71
3
 72
8
 73
4
 74
0
 42
0.0000001
 43
0.0000001
 44
0.0000000001
 40
0.0
 40
0.0
 40
0.0
 40
0.0
 40
1.0
 40
1.0
 40
1.0
 40
1.0
 10
1084.8431886319
 20
881.5404524803
 30
0.0
 10
1084.5486904863
 20
879.2524269819
 30
0.0
 10
1083.5179463509
 20
878.0970876217
 30
0.0
 10
1081.7622828368
 20
878.0970876217
 30
0.0
  0
SPLINE
  5
45C
100
AcDbEntity
  8
0
100
AcDbSpline
 62
7
  6
CONTINUOUS
 70
0
 71
3
 72
8
 73
4
 74
0
 42
0.0000001
 43
0.0000001
 44
0.0000000001
 40
0.0
 40
0.0
 40
0.0
 40
0.0
 40
1.0
 40
1.0
 40
1.0
 40
1.0
 10
1081.7622828368
 20
867.042069912
 30
0.0
 10
1082.373012789
 20
867.042069912
 30
0.0
 10
1082.8960213357
 20
866.9036347985
 30
0.0
 10
1083.3308316905
 20
866.6262876271
 30
0.0
  0
SPLINE
  5
45D
100
AcDbEntity
  8
0
100
AcDbSpline
 62
7
  6
CONTINUOUS
 70
0
 71
3
 72
8
 73
4
 74
0
 42
0.0000001
 43
0.0000001
 44
0.0000000001
 40
0.0
 40
0.0
 40
0.0
 40
0.0
 40
1.0
 40
1.0
 40
1.0
 40
1.0
 10
1077.9564570371
 20
863.4174742699
 30
0.0
 10
1078.2169747237
 20
865.8414216042
 30
0.0
 10
1079.247718859
 20
867.042069912
 30
0.0
 10
1081.037363458
 20
867.042069912
 30
0.0
  0
SPLINE
  5
45E
100
AcDbEntity
  8
0
100
AcDbSpline
 62
7
  6
CONTINUOUS
 70
0
 71
3
 72
8
 73
4
 74
0
 42
0.0000001
 43
0.0000001
 44
0.0000000001
 40
0.0
 40
0.0
 40
0.0
 40
0.0
 40
1.0
 40
1.0
 40
1.0
 40
1.0
 10
1079.0438361052
 20
860.3365709782
 30
0.0
 10
1078.3189167264
 20
861.0048522949
 30
0.0
 10
1077.9564570371
 20
862.0356001854
 30
0.0
 10
1077.9564570371
 20
863.4174742699
 30
0.0
  0
SPLINE
  5
45F
100
AcDbEntity
  8
0
100
AcDbSpline
 62
7
  6
CONTINUOUS
 70
0
 71
3
 72
8
 73
4
 74
0
 42
0.0000001
 43
0.0000001
 44
0.0000000001
 40
0.0
 40
0.0
 40
0.0
 40
0.0
 40
1.0
 40
1.0
 40
1.0
 40
1.0
 10
1079.4062951687
 20
862.5113253593
 30
0.0
 10
1079.4062951687
 20
862.0582509041
 30
0.0
 10
1079.7007933143
 20
861.3899695873
 30
0.0
 10
1080.3124440792
 20
860.3365709782
 30
0.0
  0
SPLINE
  5
460
100
AcDbEntity
  8
0
100
AcDbSpline
 62
7
  6
CONTINUOUS
 70
0
 71
3
 72
8
 73
4
 74
0
 42
0.0000001
 43
0.0000001
 44
0.0000000001
 40
0.0
 40
0.0
 40
0.0
 40
0.0
 40
1.0
 40
1.0
 40
1.0
 40
1.0
 10
1080.8561339262
 20
864.8673155308
 30
0.0
 10
1079.8820240978
 20
864.550160408
 30
0.0
 10
1079.4062951687
 20
863.9385108948
 30
0.0
 10
1079.4062951687
 20
863.0550177097
 30
0.0
  0
SPLINE
  5
461
100
AcDbEntity
  8
0
100
AcDbSpline
 62
7
  6
CONTINUOUS
 70
0
 71
3
 72
8
 73
4
 74
0
 42
0.0000001
 43
0.0000001
 44
0.0000000001
 40
0.0
 40
0.0
 40
0.0
 40
0.0
 40
1.0
 40
1.0
 40
1.0
 40
1.0
 10
1084.8431886319
 20
863.5987050533
 30
0.0
 10
1084.5033827904
 20
861.4239506721
 30
0.0
 10
1083.4160043481
 20
860.3365709782
 30
0.0
 10
1081.5810520533
 20
860.3365709782
 30
0.0
  0
SPLINE
  5
462
100
AcDbEntity
  8
0
100
AcDbSpline
 62
7
  6
CONTINUOUS
 70
0
 71
3
 72
8
 73
4
 74
0
 42
0.0000001
 43
0.0000001
 44
0.0000000001
 40
0.0
 40
0.0
 40
0.0
 40
0.0
 40
1.0
 40
1.0
 40
1.0
 40
1.0
 10
1083.3308316905
 20
866.6262876271
 30
0.0
 10
1084.1459693247
 20
866.1063457384
 30
0.0
 10
1084.6511354234
 20
865.0981990126
 30
0.0
 10
1084.8431886319
 20
863.5987050533
 30
0.0
  0
SPLINE
  5
463
100
AcDbEntity
  8
0
100
AcDbSpline
 62
7
  6
CONTINUOUS
 70
0
 71
3
 72
8
 73
4
 74
0
 42
0.0000001
 43
0.0000001
 44
0.0000000001
 40
0.0
 40
0.0
 40
0.0
 40
0.0
 40
1.0
 40
1.0
 40
1.0
 40
1.0
 10
1083.3933498743
 20
857.0744318962
 30
0.0
 10
1083.4980375088
 20
857.0744318962
 30
0.0
 10
1083.5982778453
 20
857.0597001893
 30
0.0
 10
1083.6940273379
 20
857.030193239
 30
0.0
  0
SPLINE
  5
464
100
AcDbEntity
  8
0
100
AcDbSpline
 62
7
  6
CONTINUOUS
 70
0
 71
3
 72
8
 73
4
 74
0
 42
0.0000001
 43
0.0000001
 44
0.0000000001
 40
0.0
 40
0.0
 40
0.0
 40
0.0
 40
1.0
 40
1.0
 40
1.0
 40
1.0
 10
1082.6684317473
 20
855.8058264256
 30
0.0
 10
1082.4645477417
 20
856.7799375057
 30
0.0
 10
1081.739628363
 20
857.2556626797
 30
0.0
 10
1080.493673611
 20
857.2556626797
 30
0.0
  0
SPLINE
  5
465
100
AcDbEntity
  8
0
100
AcDbSpline
 62
7
  6
CONTINUOUS
 70
0
 71
3
 72
8
 73
4
 74
0
 42
0.0000001
 43
0.0000001
 44
0.0000000001
 40
0.0
 40
0.0
 40
0.0
 40
0.0
 40
1.0
 40
1.0
 40
1.0
 40
1.0
 10
1084.1182692531
 20
853.9935286045
 30
0.0
 10
1082.906295586
 20
854.208735466
 30
0.0
 10
1082.3059714321
 20
854.4466030598
 30
0.0
 10
1082.3059714321
 20
854.7184467316
 30
0.0
  0
SPLINE
  5
466
100
AcDbEntity
  8
0
100
AcDbSpline
 62
7
  6
CONTINUOUS
 70
0
 71
3
 72
8
 73
4
 74
0
 42
0.0000001
 43
0.0000001
 44
0.0000000001
 40
0.0
 40
0.0
 40
0.0
 40
0.0
 40
1.0
 40
1.0
 40
1.0
 40
1.0
 10
1084.8431886319
 20
855.2621340752
 30
0.0
 10
1084.5486904863
 20
854.4239473343
 30
0.0
 10
1084.3108266476
 20
853.9935286045
 30
0.0
 10
1084.1182692531
 20
853.9935286045
 30
0.0
  0
SPLINE
  5
467
100
AcDbEntity
  8
0
100
AcDbSpline
 62
7
  6
CONTINUOUS
 70
0
 71
3
 72
8
 73
4
 74
0
 42
0.0000001
 43
0.0000001
 44
0.0000000001
 40
0.0
 40
0.0
 40
0.0
 40
0.0
 40
1.0
 40
1.0
 40
1.0
 40
1.0
 10
1083.6940273379
 20
857.030193239
 30
0.0
 10
1084.2095053019
 20
856.8713393146
 30
0.0
 10
1084.5948239636
 20
856.2842506565
 30
0.0
 10
1084.8431886319
 20
855.2621340752
 30
0.0
  0
SPLINE
  5
468
100
AcDbEntity
  8
0
100
AcDbSpline
 62
7
  6
CONTINUOUS
 70
0
 71
3
 72
8
 73
4
 74
0
 42
0.0000001
 43
0.0000001
 44
0.0000000001
 40
0.0
 40
0.0
 40
0.0
 40
0.0
 40
1.0
 40
1.0
 40
1.0
 40
1.0
 10
1076.3253893736
 20
897.669903338
 30
0.0
 10
1078.2509558085
 20
896.1067959666
 30
0.0
 10
1079.225065637
 20
894.5323619843
 30
0.0
 10
1079.225065637
 20
892.9579292536
 30
0.0
  0
SPLINE
  5
469
100
AcDbEntity
  8
0
100
AcDbSpline
 62
7
  6
CONTINUOUS
 70
0
 71
3
 72
8
 73
4
 74
0
 42
0.0000001
 43
0.0000001
 44
0.0000000001
 40
0.0
 40
0.0
 40
0.0
 40
0.0
 40
1.0
 40
1.0
 40
1.0
 40
1.0
 10
1074.875551242
 20
898.5760522485
 30
0.0
 10
1075.3512789193
 20
898.394821465
 30
0.0
 10
1075.6004699949
 20
898.2135919333
 30
0.0
 10
1075.6004699949
 20
898.0323624015
 30
0.0
  0
SPLINE
  5
46A
100
AcDbEntity
  8
0
100
AcDbSpline
 62
7
  6
CONTINUOUS
 70
0
 71
3
 72
8
 73
4
 74
0
 42
0.0000001
 43
0.0000001
 44
0.0000000001
 40
0.0
 40
0.0
 40
0.0
 40
0.0
 40
1.0
 40
1.0
 40
1.0
 40
1.0
 10
1070.1635770011
 20
896.7637544274
 30
0.0
 10
1070.1635770011
 20
898.0097091794
 30
0.0
 10
1071.0017646808
 20
898.7346273065
 30
0.0
 10
1072.7007937315
 20
898.938511312
 30
0.0
  0
SPLINE
  5
46B
100
AcDbEntity
  8
0
100
AcDbSpline
 62
7
  6
CONTINUOUS
 70
0
 71
3
 72
8
 73
4
 74
0
 42
0.0000001
 43
0.0000001
 44
0.0000000001
 40
0.0
 40
0.0
 40
0.0
 40
0.0
 40
1.0
 40
1.0
 40
1.0
 40
1.0
 10
1073.2444829527
 20
890.6019415855
 30
0.0
 10
1071.182994369
 20
892.1423957348
 30
0.0
 10
1070.1635770011
 20
893.7055006027
 30
0.0
 10
1070.1635770011
 20
895.3139156699
 30
0.0
  0
SPLINE
  5
46C
100
AcDbEntity
  8
0
100
AcDbSpline
 62
7
  6
CONTINUOUS
 70
0
 71
3
 72
8
 73
4
 74
0
 42
0.0000001
 43
0.0000001
 44
0.0000000001
 40
0.0
 40
0.0
 40
0.0
 40
0.0
 40
1.0
 40
1.0
 40
1.0
 40
1.0
 10
1079.225065637
 20
892.0517803431
 30
0.0
 10
1079.225065637
 20
890.3640764952
 30
0.0
 10
1078.3755510334
 20
889.5145618916
 30
0.0
 10
1076.687849063
 20
889.5145618916
 30
0.0
  0
SPLINE
  5
46D
100
AcDbEntity
  8
0
100
AcDbSpline
 62
7
  6
CONTINUOUS
 70
0
 71
3
 72
8
 73
4
 74
0
 42
0.0000001
 43
0.0000001
 44
0.0000000001
 40
0.0
 40
0.0
 40
0.0
 40
0.0
 40
1.0
 40
1.0
 40
1.0
 40
1.0
 10
1071.4321854446
 20
868.6731369495
 30
0.0
 10
1071.6813762072
 20
869.3980600834
 30
0.0
 10
1072.1571045104
 20
869.7605166435
 30
0.0
 10
1072.8820235762
 20
869.7605166435
 30
0.0
  0
SPLINE
  5
46E
100
AcDbEntity
  8
0
100
AcDbSpline
 62
7
  6
CONTINUOUS
 70
0
 71
3
 72
8
 73
4
 74
0
 42
0.0000001
 43
0.0000001
 44
0.0000000001
 40
0.0
 40
0.0
 40
0.0
 40
0.0
 40
1.0
 40
1.0
 40
1.0
 40
1.0
 10
1073.4257127974
 20
880.0906137228
 30
0.0
 10
1074.0308434842
 20
880.0906137228
 30
0.0
 10
1074.4989980473
 20
879.9394677632
 30
0.0
 10
1074.8290980434
 20
879.6371756058
 30
0.0
  0
SPLINE
  5
46F
100
AcDbEntity
  8
0
100
AcDbSpline
 62
7
  6
CONTINUOUS
 70
0
 71
3
 72
8
 73
4
 74
0
 42
0.0000001
 43
0.0000001
 44
0.0000000001
 40
0.0
 40
0.0
 40
0.0
 40
0.0
 40
1.0
 40
1.0
 40
1.0
 40
1.0
 10
204.6527817573
 20
852.7052004546
 30
0.0
 10
204.8390989868
 20
852.5758188277
 30
0.0
 10
205.0700193927
 20
852.5113274455
 30
0.0
 10
205.3447453273
 20
852.5113274455
 30
0.0
  0
SPLINE
  5
470
100
AcDbEntity
  8
0
100
AcDbSpline
 62
7
  6
CONTINUOUS
 70
0
 71
3
 72
8
 73
4
 74
0
 42
0.0000001
 43
0.0000001
 44
0.0000000001
 40
0.0
 40
0.0
 40
0.0
 40
0.0
 40
1.0
 40
1.0
 40
1.0
 40
1.0
 10
205.3447453273
 20
853.0550160408
 30
0.0
 10
205.3447453273
 20
855.5922332406
 30
0.0
 10
204.5065576477
 20
856.8608424663
 30
0.0
 10
202.8075284405
 20
856.8608424664
 30
0.0
  0
SPLINE
  5
471
100
AcDbEntity
  8
0
100
AcDbSpline
 62
7
  6
CONTINUOUS
 70
0
 71
3
 72
8
 73
4
 74
0
 42
0.0000001
 43
0.0000001
 44
0.0000000001
 40
0.0
 40
0.0
 40
0.0
 40
0.0
 40
1.0
 40
1.0
 40
1.0
 40
1.0
 10
200.0890817089
 20
856.8608424664
 30
0.0
 10
200.0890817089
 20
856.7222054067
 30
0.0
 10
200.1065706278
 20
856.588311115
 30
0.0
 10
200.1415145589
 20
856.4591765428
 30
0.0
  0
SPLINE
  5
472
100
AcDbEntity
  8
0
100
AcDbSpline
 62
7
  6
CONTINUOUS
 70
0
 71
3
 72
8
 73
4
 74
0
 42
0.0000001
 43
0.0000001
 44
0.0000000001
 40
0.0
 40
0.0
 40
0.0
 40
0.0
 40
1.0
 40
1.0
 40
1.0
 40
1.0
 10
200.1415145589
 20
856.4591765428
 30
0.0
 10
200.4120529292
 20
855.4594076092
 30
0.0
 10
201.7288386559
 20
854.7449346066
 30
0.0
 10
204.0761370404
 20
854.3236240149
 30
0.0
  0
SPLINE
  5
473
100
AcDbEntity
  8
0
100
AcDbSpline
 62
7
  6
CONTINUOUS
 70
0
 71
3
 72
8
 73
4
 74
0
 42
0.0000001
 43
0.0000001
 44
0.0000000001
 40
0.0
 40
0.0
 40
0.0
 40
0.0
 40
1.0
 40
1.0
 40
1.0
 40
1.0
 10
204.0761370404
 20
854.3236240149
 30
0.0
 10
204.0761370404
 20
853.5088890647
 30
0.0
 10
204.2706458974
 20
852.9705616312
 30
0.0
 10
204.6527817573
 20
852.7052004546
 30
0.0
  0
SPLINE
  5
474
100
AcDbEntity
  8
0
100
AcDbSpline
 62
7
  6
CONTINUOUS
 70
0
 71
3
 72
8
 73
4
 74
0
 42
0.0000001
 43
0.0000001
 44
0.0000000001
 40
0.0
 40
0.0
 40
0.0
 40
0.0
 40
1.0
 40
1.0
 40
1.0
 40
1.0
 10
195.1958780927
 20
887.6699004173
 30
0.0
 10
194.7767831754
 20
887.6699004173
 30
0.0
 10
194.4596307089
 20
887.5622952619
 30
0.0
 10
194.2472522082
 20
887.3499163096
 30
0.0
  0
SPLINE
  5
475
100
AcDbEntity
  8
0
100
AcDbSpline
 62
7
  6
CONTINUOUS
 70
0
 71
3
 72
8
 73
4
 74
0
 42
0.0000001
 43
0.0000001
 44
0.0000000001
 40
0.0
 40
0.0
 40
0.0
 40
0.0
 40
1.0
 40
1.0
 40
1.0
 40
1.0
 10
194.2472522082
 20
887.3499163096
 30
0.0
 10
194.0348746411
 20
887.1375382907
 30
0.0
 10
193.9272701187
 20
886.820387396
 30
0.0
 10
193.9272701187
 20
886.4012949467
 30
0.0
  0
SPLINE
  5
476
100
AcDbEntity
  8
0
100
AcDbSpline
 62
7
  6
CONTINUOUS
 70
0
 71
3
 72
8
 73
4
 74
0
 42
0.0000001
 43
0.0000001
 44
0.0000000001
 40
0.0
 40
0.0
 40
0.0
 40
0.0
 40
1.0
 40
1.0
 40
1.0
 40
1.0
 10
193.9272701187
 20
886.4012949467
 30
0.0
 10
193.9272701187
 20
885.7669897079
 30
0.0
 10
194.3576901002
 20
885.3478963375
 30
0.0
 10
195.1958780927
 20
885.1326844692
 30
0.0
  0
SPLINE
  5
477
100
AcDbEntity
  8
0
100
AcDbSpline
 62
7
  6
CONTINUOUS
 70
0
 71
3
 72
8
 73
4
 74
0
 42
0.0000001
 43
0.0000001
 44
0.0000000001
 40
0.0
 40
0.0
 40
0.0
 40
0.0
 40
1.0
 40
1.0
 40
1.0
 40
1.0
 10
194.1539588233
 20
867.9185008276
 30
0.0
 10
194.3614132923
 20
867.6750993486
 30
0.0
 10
194.7101887639
 20
867.5533986092
 30
0.0
 10
195.1958780927
 20
867.5533986092
 30
0.0
  0
SPLINE
  5
478
100
AcDbEntity
  8
0
100
AcDbSpline
 62
7
  6
CONTINUOUS
 70
0
 71
3
 72
8
 73
4
 74
0
 42
0.0000001
 43
0.0000001
 44
0.0000000001
 40
0.0
 40
0.0
 40
0.0
 40
0.0
 40
1.0
 40
1.0
 40
1.0
 40
1.0
 10
195.1958780927
 20
869.9093862772
 30
0.0
 10
194.3576901002
 20
869.9093862772
 30
0.0
 10
193.9272701187
 20
869.478965044
 30
0.0
 10
193.9272701187
 20
868.6407757998
 30
0.0
  0
SPLINE
  5
479
100
AcDbEntity
  8
0
100
AcDbSpline
 62
7
  6
CONTINUOUS
 70
0
 71
3
 72
8
 73
4
 74
0
 42
0.0000001
 43
0.0000001
 44
0.0000000001
 40
0.0
 40
0.0
 40
0.0
 40
0.0
 40
1.0
 40
1.0
 40
1.0
 40
1.0
 10
193.9272701187
 20
868.6407757998
 30
0.0
 10
193.9272701187
 20
868.3359126027
 30
0.0
 10
194.0033946277
 20
868.0951542787
 30
0.0
 10
194.1539588233
 20
867.9185008276
 30
0.0
  0
SPLINE
  5
47A
100
AcDbEntity
  8
0
100
AcDbSpline
 62
7
  6
CONTINUOUS
 70
0
 71
3
 72
8
 73
4
 74
0
 42
0.0000001
 43
0.0000001
 44
0.0000000001
 40
0.0
 40
0.0
 40
0.0
 40
0.0
 40
1.0
 40
1.0
 40
1.0
 40
1.0
 10
196.1020270033
 20
877.5210366249
 30
0.0
 10
197.1894054456
 20
877.5210366249
 30
0.0
 10
197.7330952925
 20
877.9967617989
 30
0.0
 10
197.7330952925
 20
878.970872879
 30
0.0
  0
SPLINE
  5
47B
100
AcDbEntity
  8
0
100
AcDbSpline
 62
7
  6
CONTINUOUS
 70
0
 71
3
 72
8
 73
4
 74
0
 42
0.0000001
 43
0.0000001
 44
0.0000000001
 40
0.0
 40
0.0
 40
0.0
 40
0.0
 40
1.0
 40
1.0
 40
1.0
 40
1.0
 10
197.7330952926
 20
878.970872879
 30
0.0
 10
197.7330952925
 20
879.5938527584
 30
0.0
 10
197.5518645091
 20
879.9563093185
 30
0.0
 10
197.1894054456
 20
880.058252573
 30
0.0
  0
SPLINE
  5
47C
100
AcDbEntity
  8
0
100
AcDbSpline
 62
7
  6
CONTINUOUS
 70
0
 71
3
 72
8
 73
4
 74
0
 42
0.0000001
 43
0.0000001
 44
0.0000000001
 40
0.0
 40
0.0
 40
0.0
 40
0.0
 40
1.0
 40
1.0
 40
1.0
 40
1.0
 10
194.1084996505
 20
878.970872879
 30
0.0
 10
194.1084996505
 20
877.9967617989
 30
0.0
 10
194.7767847223
 20
877.5210366249
 30
0.0
 10
196.1020270033
 20
877.5210366249
 30
0.0
  0
SPLINE
  5
47D
100
AcDbEntity
  8
0
100
AcDbSpline
 62
7
  6
CONTINUOUS
 70
0
 71
3
 72
8
 73
4
 74
0
 42
0.0000001
 43
0.0000001
 44
0.0000000001
 40
0.0
 40
0.0
 40
0.0
 40
0.0
 40
1.0
 40
1.0
 40
1.0
 40
1.0
 10
202.6293354547
 20
891.4986746443
 30
0.0
 10
202.1906744614
 20
891.8520788633
 30
0.0
 10
201.9472895921
 20
892.4485288699
 30
0.0
 10
201.9013795299
 20
893.2880246639
 30
0.0
  0
SPLINE
  5
47E
100
AcDbEntity
  8
0
100
AcDbSpline
 62
7
  6
CONTINUOUS
 70
0
 71
3
 72
8
 73
4
 74
0
 42
0.0000001
 43
0.0000001
 44
0.0000000001
 40
0.0
 40
0.0
 40
0.0
 40
0.0
 40
1.0
 40
1.0
 40
1.0
 40
1.0
 10
202.8075284405
 20
892.7443373203
 30
0.0
 10
202.8075284405
 20
892.5064747334
 30
0.0
 10
203.1699881298
 20
892.2686071396
 30
0.0
 10
203.8949071957
 20
892.0194191933
 30
0.0
  0
SPLINE
  5
47F
100
AcDbEntity
  8
0
100
AcDbSpline
 62
7
  6
CONTINUOUS
 70
0
 71
3
 72
8
 73
4
 74
0
 42
0.0000001
 43
0.0000001
 44
0.0000000001
 40
0.0
 40
0.0
 40
0.0
 40
0.0
 40
1.0
 40
1.0
 40
1.0
 40
1.0
 10
203.8949071957
 20
892.0194191933
 30
0.0
 10
204.6198262615
 20
892.0194191933
 30
0.0
 10
204.982285638
 20
892.4385125637
 30
0.0
 10
204.982285638
 20
893.2880246639
 30
0.0
  0
SPLINE
  5
480
100
AcDbEntity
  8
0
100
AcDbSpline
 62
7
  6
CONTINUOUS
 70
0
 71
3
 72
8
 73
4
 74
0
 42
0.0000001
 43
0.0000001
 44
0.0000000001
 40
0.0
 40
0.0
 40
0.0
 40
0.0
 40
1.0
 40
1.0
 40
1.0
 40
1.0
 10
205.8884345485
 20
892.9255681038
 30
0.0
 10
205.8884345485
 20
891.9174759388
 30
0.0
 10
205.2314767135
 20
891.3171517849
 30
0.0
 10
203.8949071957
 20
891.1132702827
 30
0.0
  0
SPLINE
  5
481
100
AcDbEntity
  8
0
100
AcDbSpline
 62
7
  6
CONTINUOUS
 70
0
 71
3
 72
8
 73
4
 74
0
 42
0.0000001
 43
0.0000001
 44
0.0000000001
 40
0.0
 40
0.0
 40
0.0
 40
0.0
 40
1.0
 40
1.0
 40
1.0
 40
1.0
 10
203.8949071957
 20
891.1132702827
 30
0.0
 10
203.3703950065
 20
891.1132702827
 30
0.0
 10
202.9482561143
 20
891.2417384033
 30
0.0
 10
202.6293354547
 20
891.4986746443
 30
0.0
  0
SPLINE
  5
482
100
AcDbEntity
  8
0
100
AcDbSpline
 62
7
  6
CONTINUOUS
 70
0
 71
3
 72
8
 73
4
 74
0
 42
0.0000001
 43
0.0000001
 44
0.0000000001
 40
0.0
 40
0.0
 40
0.0
 40
0.0
 40
1.0
 40
1.0
 40
1.0
 40
1.0
 10
201.9013795299
 20
886.2200641632
 30
0.0
 10
202.0826096875
 20
886.6957943439
 30
0.0
 10
202.2638392193
 20
886.9449822903
 30
0.0
 10
202.4450687511
 20
886.9449822903
 30
0.0
  0
SPLINE
  5
483
100
AcDbEntity
  8
0
100
AcDbSpline
 62
7
  6
CONTINUOUS
 70
0
 71
3
 72
8
 73
4
 74
0
 42
0.0000001
 43
0.0000001
 44
0.0000000001
 40
0.0
 40
0.0
 40
0.0
 40
0.0
 40
1.0
 40
1.0
 40
1.0
 40
1.0
 10
202.8075284405
 20
885.6763768196
 30
0.0
 10
203.0114118202
 20
885.1893212795
 30
0.0
 10
203.4305058164
 20
884.9514586926
 30
0.0
 10
204.0761370404
 20
884.9514586926
 30
0.0
  0
SPLINE
  5
484
100
AcDbEntity
  8
0
100
AcDbSpline
 62
7
  6
CONTINUOUS
 70
0
 71
3
 72
8
 73
4
 74
0
 42
0.0000001
 43
0.0000001
 44
0.0000000001
 40
0.0
 40
0.0
 40
0.0
 40
0.0
 40
1.0
 40
1.0
 40
1.0
 40
1.0
 10
202.4450687511
 20
884.9514586926
 30
0.0
 10
202.0826096875
 20
885.3932027817
 30
0.0
 10
201.9013795299
 20
885.8122961521
 30
0.0
 10
201.9013795299
 20
886.2200641632
 30
0.0
  0
SPLINE
  5
485
100
AcDbEntity
  8
0
100
AcDbSpline
 62
7
  6
CONTINUOUS
 70
0
 71
3
 72
8
 73
4
 74
0
 42
0.0000001
 43
0.0000001
 44
0.0000000001
 40
0.0
 40
0.0
 40
0.0
 40
0.0
 40
1.0
 40
1.0
 40
1.0
 40
1.0
 10
202.8075284405
 20
876.7961159945
 30
0.0
 10
202.8075284405
 20
876.1844664812
 30
0.0
 10
203.1699881298
 20
875.8899670839
 30
0.0
 10
203.8949071957
 20
875.8899670839
 30
0.0
  0
SPLINE
  5
486
100
AcDbEntity
  8
0
100
AcDbSpline
 62
7
  6
CONTINUOUS
 70
0
 71
3
 72
8
 73
4
 74
0
 42
0.0000001
 43
0.0000001
 44
0.0000000001
 40
0.0
 40
0.0
 40
0.0
 40
0.0
 40
1.0
 40
1.0
 40
1.0
 40
1.0
 10
205.8884345485
 20
876.7961159945
 30
0.0
 10
205.7298585517
 20
875.5841423273
 30
0.0
 10
205.1861693306
 20
874.9838181734
 30
0.0
 10
204.2573665721
 20
874.9838181734
 30
0.0
  0
SPLINE
  5
487
100
AcDbEntity
  8
0
100
AcDbSpline
 62
7
  6
CONTINUOUS
 70
0
 71
3
 72
8
 73
4
 74
0
 42
0.0000001
 43
0.0000001
 44
0.0000000001
 40
0.0
 40
0.0
 40
0.0
 40
0.0
 40
1.0
 40
1.0
 40
1.0
 40
1.0
 10
203.5324478192
 20
874.9838181734
 30
0.0
 10
202.4450687511
 20
874.9838181734
 30
0.0
 10
201.9013795299
 20
875.6407766342
 30
0.0
 10
201.9013795299
 20
876.9773467779
 30
0.0
  0
SPLINE
  5
488
100
AcDbEntity
  8
0
100
AcDbSpline
 62
7
  6
CONTINUOUS
 70
0
 71
3
 72
8
 73
4
 74
0
 42
0.0000001
 43
0.0000001
 44
0.0000000001
 40
0.0
 40
0.0
 40
0.0
 40
0.0
 40
1.0
 40
1.0
 40
1.0
 40
1.0
 10
202.4915219497
 20
870.3628243942
 30
0.0
 10
202.0986994688
 20
870.7225552536
 30
0.0
 10
201.9013795299
 20
871.2963280422
 30
0.0
 10
201.9013795299
 20
872.0841431618
 30
0.0
  0
SPLINE
  5
489
100
AcDbEntity
  8
0
100
AcDbSpline
 62
7
  6
CONTINUOUS
 70
0
 71
3
 72
8
 73
4
 74
0
 42
0.0000001
 43
0.0000001
 44
0.0000000001
 40
0.0
 40
0.0
 40
0.0
 40
0.0
 40
1.0
 40
1.0
 40
1.0
 40
1.0
 10
201.9013795299
 20
872.0841431618
 30
0.0
 10
202.1958783014
 20
872.9223299026
 30
0.0
 10
202.9207970543
 20
873.3527511358
 30
0.0
 10
204.0761370404
 20
873.3527511358
 30
0.0
  0
SPLINE
  5
48A
100
AcDbEntity
  8
0
100
AcDbSpline
 62
7
  6
CONTINUOUS
 70
0
 71
3
 72
8
 73
4
 74
0
 42
0.0000001
 43
0.0000001
 44
0.0000000001
 40
0.0
 40
0.0
 40
0.0
 40
0.0
 40
1.0
 40
1.0
 40
1.0
 40
1.0
 10
204.0761370404
 20
870.8155351877
 30
0.0
 10
204.6311531855
 20
871.0420724154
 30
0.0
 10
204.936978255
 20
871.2912628651
 30
0.0
 10
204.982285638
 20
871.5404533148
 30
0.0
  0
SPLINE
  5
48B
100
AcDbEntity
  8
0
100
AcDbSpline
 62
7
  6
CONTINUOUS
 70
0
 71
3
 72
8
 73
4
 74
0
 42
0.0000001
 43
0.0000001
 44
0.0000000001
 40
0.0
 40
0.0
 40
0.0
 40
0.0
 40
1.0
 40
1.0
 40
1.0
 40
1.0
 10
205.8884345485
 20
871.7216840982
 30
0.0
 10
205.6165899379
 20
870.5097079277
 30
0.0
 10
205.0049394859
 20
869.9093862772
 30
0.0
 10
203.8949071957
 20
869.9093862772
 30
0.0
  0
SPLINE
  5
48C
100
AcDbEntity
  8
0
100
AcDbSpline
 62
7
  6
CONTINUOUS
 70
0
 71
3
 72
8
 73
4
 74
0
 42
0.0000001
 43
0.0000001
 44
0.0000000001
 40
0.0
 40
0.0
 40
0.0
 40
0.0
 40
1.0
 40
1.0
 40
1.0
 40
1.0
 10
191.9337415142
 20
836.5631067455
 30
0.0
 10
191.5545553377
 20
836.5631067455
 30
0.0
 10
191.2187639139
 20
836.64329274
 30
0.0
 10
190.9269117567
 20
836.8039369784
 30
0.0
  0
SPLINE
  5
48D
100
AcDbEntity
  8
0
100
AcDbSpline
 62
7
  6
CONTINUOUS
 70
0
 71
3
 72
8
 73
4
 74
0
 42
0.0000001
 43
0.0000001
 44
0.0000000001
 40
0.0
 40
0.0
 40
0.0
 40
0.0
 40
1.0
 40
1.0
 40
1.0
 40
1.0
 10
194.6521882457
 20
837.6504855007
 30
0.0
 10
193.9952310366
 20
836.9255662784
 30
0.0
 10
193.3835802717
 20
836.5631067455
 30
0.0
 10
192.8398904247
 20
836.5631067455
 30
0.0
  0
SPLINE
  5
48E
100
AcDbEntity
  8
0
100
AcDbSpline
 62
7
  6
CONTINUOUS
 70
0
 71
3
 72
8
 73
4
 74
0
 42
0.0000001
 43
0.0000001
 44
0.0000000001
 40
0.0
 40
0.0
 40
0.0
 40
0.0
 40
1.0
 40
1.0
 40
1.0
 40
1.0
 10
196.6457155986
 20
841.2750808299
 30
0.0
 10
196.283256535
 20
841.2750808299
 30
0.0
 10
195.6262993259
 20
840.0631068498
 30
0.0
 10
194.6521882458
 20
837.6504855007
 30
0.0
  0
SPLINE
  5
48F
100
AcDbEntity
  8
0
100
AcDbSpline
 62
7
  6
CONTINUOUS
 70
0
 71
3
 72
8
 73
4
 74
0
 42
0.0000001
 43
0.0000001
 44
0.0000000001
 40
0.0
 40
0.0
 40
0.0
 40
0.0
 40
1.0
 40
1.0
 40
1.0
 40
1.0
 10
197.3706349773
 20
840.1877023876
 30
0.0
 10
197.3706349773
 20
840.7880259156
 30
0.0
 10
197.1327711386
 20
841.150485605
 30
0.0
 10
196.6457155986
 20
841.2750808299
 30
0.0
  0
SPLINE
  5
490
100
AcDbEntity
  8
0
100
AcDbSpline
 62
7
  6
CONTINUOUS
 70
0
 71
3
 72
8
 73
4
 74
0
 42
0.0000001
 43
0.0000001
 44
0.0000000001
 40
0.0
 40
0.0
 40
0.0
 40
0.0
 40
1.0
 40
1.0
 40
1.0
 40
1.0
 10
196.283256535
 20
836.9255662784
 30
0.0
 10
197.0081759138
 20
838.0129448771
 30
0.0
 10
197.3706349773
 20
838.9190937877
 30
0.0
 10
197.3706349773
 20
839.6440128535
 30
0.0
  0
SPLINE
  5
491
100
AcDbEntity
  8
0
100
AcDbSpline
 62
7
  6
CONTINUOUS
 70
0
 71
3
 72
8
 73
4
 74
0
 42
0.0000001
 43
0.0000001
 44
0.0000000001
 40
0.0
 40
0.0
 40
0.0
 40
0.0
 40
1.0
 40
1.0
 40
1.0
 40
1.0
 10
199.364162956
 20
840.0064725429
 30
0.0
 10
199.364162956
 20
838.6812296361
 30
0.0
 10
199.0017032666
 20
837.5938511938
 30
0.0
 10
198.2767838878
 20
836.7443365902
 30
0.0
  0
SPLINE
  5
492
100
AcDbEntity
  8
0
100
AcDbSpline
 62
7
  6
CONTINUOUS
 70
0
 71
3
 72
8
 73
4
 74
0
 42
0.0000001
 43
0.0000001
 44
0.0000000001
 40
0.0
 40
0.0
 40
0.0
 40
0.0
 40
1.0
 40
1.0
 40
1.0
 40
1.0
 10
196.826946382
 20
843.8122980297
 30
0.0
 10
198.2767838878
 20
843.8122980297
 30
0.0
 10
199.1149718804
 20
842.6003237367
 30
0.0
 10
199.364162956
 20
840.0064725429
 30
0.0
  0
SPLINE
  5
493
100
AcDbEntity
  8
0
100
AcDbSpline
 62
7
  6
CONTINUOUS
 70
0
 71
3
 72
8
 73
4
 74
0
 42
0.0000001
 43
0.0000001
 44
0.0000000001
 40
0.0
 40
0.0
 40
0.0
 40
0.0
 40
1.0
 40
1.0
 40
1.0
 40
1.0
 10
192.1149722976
 20
839.1003236324
 30
0.0
 10
192.3641627474
 20
839.1003236323
 30
0.0
 10
193.145716433
 20
840.4822005331
 30
0.0
 10
194.470958714
 20
843.2686081827
 30
0.0
  0
SPLINE
  5
494
100
AcDbEntity
  8
0
100
AcDbSpline
 62
7
  6
CONTINUOUS
 70
0
 71
3
 72
8
 73
4
 74
0
 42
0.0000001
 43
0.0000001
 44
0.0000000001
 40
0.0
 40
0.0
 40
0.0
 40
0.0
 40
1.0
 40
1.0
 40
1.0
 40
1.0
 10
192.2962018294
 20
843.2686081827
 30
0.0
 10
191.6958776755
 20
842.0000002086
 30
0.0
 10
191.3900529189
 20
840.9126211405
 30
0.0
 10
191.3900529189
 20
840.0064725429
 30
0.0
  0
SPLINE
  5
495
100
AcDbEntity
  8
0
100
AcDbSpline
 62
7
  6
CONTINUOUS
 70
0
 71
3
 72
8
 73
4
 74
0
 42
0.0000001
 43
0.0000001
 44
0.0000000001
 40
0.0
 40
0.0
 40
0.0
 40
0.0
 40
1.0
 40
1.0
 40
1.0
 40
1.0
 10
189.5777550978
 20
840.550162077
 30
0.0
 10
189.5777550978
 20
842.3441379744
 30
0.0
 10
190.008176331
 20
843.3025892675
 30
0.0
 10
190.4839040084
 20
843.4498383403
 30
0.0
  0
SPLINE
  5
496
100
AcDbEntity
  8
0
100
AcDbSpline
 62
7
  6
CONTINUOUS
 70
0
 71
3
 72
8
 73
4
 74
0
 42
0.0000001
 43
0.0000001
 44
0.0000000001
 40
0.0
 40
0.0
 40
0.0
 40
0.0
 40
1.0
 40
1.0
 40
1.0
 40
1.0
 10
190.9269117567
 20
836.8039369784
 30
0.0
 10
190.2074688127
 20
837.199940095
 30
0.0
 10
189.7550310587
 20
838.0848628131
 30
0.0
 10
189.5777550978
 20
839.4627833217
 30
0.0
  0
SPLINE
  5
497
100
AcDbEntity
  8
0
100
AcDbSpline
 62
7
  6
CONTINUOUS
 70
0
 71
3
 72
8
 73
4
 74
0
 42
0.0000001
 43
0.0000001
 44
0.0000000001
 40
0.0
 40
0.0
 40
0.0
 40
0.0
 40
1.0
 40
1.0
 40
1.0
 40
1.0
 10
194.5206123015
 20
853.4295888419
 30
0.0
 10
194.7041818163
 20
853.2107568798
 30
0.0
 10
194.9292705252
 20
853.0244776872
 30
0.0
 10
195.1958780927
 20
852.873786509
 30
0.0
  0
SPLINE
  5
498
100
AcDbEntity
  8
0
100
AcDbSpline
 62
7
  6
CONTINUOUS
 70
0
 71
3
 72
8
 73
4
 74
0
 42
0.0000001
 43
0.0000001
 44
0.0000000001
 40
0.0
 40
0.0
 40
0.0
 40
0.0
 40
1.0
 40
1.0
 40
1.0
 40
1.0
 10
194.1084996505
 20
854.1423944831
 30
0.0
 10
194.2080580381
 20
853.8769048381
 30
0.0
 10
194.345429019
 20
853.6384236339
 30
0.0
 10
194.5206123015
 20
853.4295888419
 30
0.0
  0
SPLINE
  5
499
100
AcDbEntity
  8
0
100
AcDbSpline
 62
7
  6
CONTINUOUS
 70
0
 71
3
 72
8
 73
4
 74
0
 42
0.0000001
 43
0.0000001
 44
0.0000000001
 40
0.0
 40
0.0
 40
0.0
 40
0.0
 40
1.0
 40
1.0
 40
1.0
 40
1.0
 10
195.3771076245
 20
855.0485433936
 30
0.0
 10
194.7088225527
 20
855.0485433936
 30
0.0
 10
194.2897291822
 20
854.742718637
 30
0.0
 10
194.1084996505
 20
854.1423944831
 30
0.0
  0
SPLINE
  5
49A
100
AcDbEntity
  8
0
100
AcDbSpline
 62
7
  6
CONTINUOUS
 70
0
 71
3
 72
8
 73
4
 74
0
 42
0.0000001
 43
0.0000001
 44
0.0000000001
 40
0.0
 40
0.0
 40
0.0
 40
0.0
 40
1.0
 40
1.0
 40
1.0
 40
1.0
 10
192.4774313612
 20
854.6860843301
 30
0.0
 10
192.6813153667
 20
856.3737869263
 30
0.0
 10
193.4062334938
 20
857.2233015299
 30
0.0
 10
194.6521882457
 20
857.2233015299
 30
0.0
  0
SPLINE
  5
49B
100
AcDbEntity
  8
0
100
AcDbSpline
 62
7
  6
CONTINUOUS
 70
0
 71
3
 72
8
 73
4
 74
0
 42
0.0000001
 43
0.0000001
 44
0.0000000001
 40
0.0
 40
0.0
 40
0.0
 40
0.0
 40
1.0
 40
1.0
 40
1.0
 40
1.0
 10
193.3835802717
 20
852.873786509
 30
0.0
 10
192.9644869013
 20
853.3268609643
 30
0.0
 10
192.6586608929
 20
853.9271838665
 30
0.0
 10
192.4774313612
 20
854.6860843301
 30
0.0
  0
SPLINE
  5
49C
100
AcDbEntity
  8
0
100
AcDbSpline
 62
7
  6
CONTINUOUS
 70
0
 71
3
 72
8
 73
4
 74
0
 42
0.0000001
 43
0.0000001
 44
0.0000000001
 40
0.0
 40
0.0
 40
0.0
 40
0.0
 40
1.0
 40
1.0
 40
1.0
 40
1.0
 10
191.0275926037
 20
872.4466022253
 30
0.0
 10
190.0648106379
 20
872.4466022253
 30
0.0
 10
189.5777550978
 20
872.9223299026
 30
0.0
 10
189.5777550978
 20
873.8964409828
 30
0.0
  0
SPLINE
  5
49D
100
AcDbEntity
  8
0
100
AcDbSpline
 62
7
  6
CONTINUOUS
 70
0
 71
3
 72
8
 73
4
 74
0
 42
0.0000001
 43
0.0000001
 44
0.0000000001
 40
0.0
 40
0.0
 40
0.0
 40
0.0
 40
1.0
 40
1.0
 40
1.0
 40
1.0
 10
190.8463630719
 20
874.8025898933
 30
0.0
 10
191.5712824507
 20
874.4401283264
 30
0.0
 10
191.9337415142
 20
873.8964409828
 30
0.0
 10
191.9337415142
 20
872.9902920723
 30
0.0
  0
SPLINE
  5
49E
100
AcDbEntity
  8
0
100
AcDbSpline
 62
7
  6
CONTINUOUS
 70
0
 71
3
 72
8
 73
4
 74
0
 42
0.0000001
 43
0.0000001
 44
0.0000000001
 40
0.0
 40
0.0
 40
0.0
 40
0.0
 40
1.0
 40
1.0
 40
1.0
 40
1.0
 10
195.7395679397
 20
875.3462772369
 30
0.0
 10
193.5648098035
 20
875.674757719
 30
0.0
 10
192.4774313612
 20
876.7055006027
 30
0.0
 10
192.4774313612
 20
878.4271855354
 30
0.0
  0
SPLINE
  5
49F
100
AcDbEntity
  8
0
100
AcDbSpline
 62
7
  6
CONTINUOUS
 70
0
 71
3
 72
8
 73
4
 74
0
 42
0.0000001
 43
0.0000001
 44
0.0000000001
 40
0.0
 40
0.0
 40
0.0
 40
0.0
 40
1.0
 40
1.0
 40
1.0
 40
1.0
 10
198.9412743904
 20
876.8367516484
 30
0.0
 10
198.4401802456
 20
876.0543023366
 30
0.0
 10
197.4937643406
 20
875.5564885736
 30
0.0
 10
196.1020270033
 20
875.3462772369
 30
0.0
  0
SPLINE
  5
4A0
100
AcDbEntity
  8
0
100
AcDbSpline
 62
7
  6
CONTINUOUS
 70
0
 71
3
 72
8
 73
4
 74
0
 42
0.0000001
 43
0.0000001
 44
0.0000000001
 40
0.0
 40
0.0
 40
0.0
 40
0.0
 40
1.0
 40
1.0
 40
1.0
 40
1.0
 10
199.364162956
 20
878.4271855354
 30
0.0
 10
199.364162956
 20
877.8072941967
 30
0.0
 10
199.2232000813
 20
877.2769734414
 30
0.0
 10
198.9412743904
 20
876.8367516484
 30
0.0
  0
SPLINE
  5
4A1
100
AcDbEntity
  8
0
100
AcDbSpline
 62
7
  6
CONTINUOUS
 70
0
 71
3
 72
8
 73
4
 74
0
 42
0.0000001
 43
0.0000001
 44
0.0000000001
 40
0.0
 40
0.0
 40
0.0
 40
0.0
 40
1.0
 40
1.0
 40
1.0
 40
1.0
 10
195.3771076245
 20
844.1747570932
 30
0.0
 10
193.4515411897
 20
844.7071197033
 30
0.0
 10
192.4774313612
 20
845.8511324525
 30
0.0
 10
192.4774313612
 20
847.6181225777
 30
0.0
  0
SPLINE
  5
4A2
100
AcDbEntity
  8
0
100
AcDbSpline
 62
7
  6
CONTINUOUS
 70
0
 71
3
 72
8
 73
4
 74
0
 42
0.0000001
 43
0.0000001
 44
0.0000000001
 40
0.0
 40
0.0
 40
0.0
 40
0.0
 40
1.0
 40
1.0
 40
1.0
 40
1.0
 10
199.364162956
 20
847.7993533611
 30
0.0
 10
199.1036452694
 20
845.3754047751
 30
0.0
 10
198.072901134
 20
844.1747570932
 30
0.0
 10
196.283256535
 20
844.1747570932
 30
0.0
  0
SPLINE
  5
4A3
100
AcDbEntity
  8
0
100
AcDbSpline
 62
7
  6
CONTINUOUS
 70
0
 71
3
 72
8
 73
4
 74
0
 42
0.0000001
 43
0.0000001
 44
0.0000000001
 40
0.0
 40
0.0
 40
0.0
 40
0.0
 40
1.0
 40
1.0
 40
1.0
 40
1.0
 10
198.6392435772
 20
850.1553397775
 30
0.0
 10
198.9790494187
 20
850.1553397775
 30
0.0
 10
199.2169138832
 20
849.3624594808
 30
0.0
 10
199.364162956
 20
847.7993533611
 30
0.0
  0
SPLINE
  5
4A4
100
AcDbEntity
  8
0
100
AcDbSpline
 62
7
  6
CONTINUOUS
 70
0
 71
3
 72
8
 73
4
 74
0
 42
0.0000001
 43
0.0000001
 44
0.0000000001
 40
0.0
 40
0.0
 40
0.0
 40
0.0
 40
1.0
 40
1.0
 40
1.0
 40
1.0
 10
195.9207974715
 20
846.3495146036
 30
0.0
 10
196.974194829
 20
846.3495146036
 30
0.0
 10
197.5745189829
 20
847.0744339824
 30
0.0
 10
197.7330952925
 20
848.5242714882
 30
0.0
  0
SPLINE
  5
4A5
100
AcDbEntity
  8
0
100
AcDbSpline
 62
7
  6
CONTINUOUS
 70
0
 71
3
 72
8
 73
4
 74
0
 42
0.0000001
 43
0.0000001
 44
0.0000000001
 40
0.0
 40
0.0
 40
0.0
 40
0.0
 40
1.0
 40
1.0
 40
1.0
 40
1.0
 10
194.1084996505
 20
848.3430419564
 30
0.0
 10
194.4369788809
 20
847.0064730644
 30
0.0
 10
195.0373017831
 20
846.3495146036
 30
0.0
 10
195.9207974715
 20
846.3495146036
 30
0.0
  0
SPLINE
  5
4A6
100
AcDbEntity
  8
0
100
AcDbSpline
 62
7
  6
CONTINUOUS
 70
0
 71
3
 72
8
 73
4
 74
0
 42
0.0000001
 43
0.0000001
 44
0.0000000001
 40
0.0
 40
0.0
 40
0.0
 40
0.0
 40
1.0
 40
1.0
 40
1.0
 40
1.0
 10
193.3835802717
 20
860.1229765415
 30
0.0
 10
192.7832561178
 20
860.9498379231
 30
0.0
 10
192.4774313612
 20
861.6181217432
 30
0.0
 10
192.4774313612
 20
862.116505146
 30
0.0
  0
SPLINE
  5
4A7
100
AcDbEntity
  8
0
100
AcDbSpline
 62
7
  6
CONTINUOUS
 70
0
 71
3
 72
8
 73
4
 74
0
 42
0.0000001
 43
0.0000001
 44
0.0000000001
 40
0.0
 40
0.0
 40
0.0
 40
0.0
 40
1.0
 40
1.0
 40
1.0
 40
1.0
 10
198.0955543561
 20
860.1229765415
 30
0.0
 10
197.5945964223
 20
859.5558548254
 30
0.0
 10
197.2987147036
 20
858.9571837269
 30
0.0
 10
197.2144902974
 20
858.3269617913
 30
0.0
  0
SPLINE
  5
4A8
100
AcDbEntity
  8
0
100
AcDbSpline
 62
7
  6
CONTINUOUS
 70
0
 71
3
 72
8
 73
4
 74
0
 42
0.0000001
 43
0.0000001
 44
0.0000000001
 40
0.0
 40
0.0
 40
0.0
 40
0.0
 40
1.0
 40
1.0
 40
1.0
 40
1.0
 10
194.1872948652
 20
861.9178779386
 30
0.0
 10
194.1554756227
 20
861.8666608438
 30
0.0
 10
194.1292105527
 20
861.8120365477
 30
0.0
 10
194.1084996505
 20
861.7540460825
 30
0.0
  0
SPLINE
  5
4A9
100
AcDbEntity
  8
0
100
AcDbSpline
 62
7
  6
CONTINUOUS
 70
0
 71
3
 72
8
 73
4
 74
0
 42
0.0000001
 43
0.0000001
 44
0.0000000001
 40
0.0
 40
0.0
 40
0.0
 40
0.0
 40
1.0
 40
1.0
 40
1.0
 40
1.0
 10
195.7395679398
 20
862.4789642096
 30
0.0
 10
194.9339301605
 20
862.4789642096
 30
0.0
 10
194.4165063673
 20
862.2868228391
 30
0.0
 10
194.1872948652
 20
861.9178779386
 30
0.0
  0
SPLINE
  5
4AA
100
AcDbEntity
  8
0
100
AcDbSpline
 62
7
  6
CONTINUOUS
 70
0
 71
3
 72
8
 73
4
 74
0
 42
0.0000001
 43
0.0000001
 44
0.0000000001
 40
0.0
 40
0.0
 40
0.0
 40
0.0
 40
1.0
 40
1.0
 40
1.0
 40
1.0
 10
192.4774313612
 20
862.116505146
 30
0.0
 10
192.7719295068
 20
863.6796125174
 30
0.0
 10
193.4402145786
 20
864.4724928141
 30
0.0
 10
194.470958714
 20
864.4724928141
 30
0.0
  0
SPLINE
  5
4AB
100
AcDbEntity
  8
0
100
AcDbSpline
 62
7
  6
CONTINUOUS
 70
0
 71
3
 72
8
 73
4
 74
0
 42
0.0000001
 43
0.0000001
 44
0.0000000001
 40
0.0
 40
0.0
 40
0.0
 40
0.0
 40
1.0
 40
1.0
 40
1.0
 40
1.0
 10
195.7395679397
 20
865.1974109411
 30
0.0
 10
193.5648098035
 20
865.5145635605
 30
0.0
 10
192.4774313612
 20
866.6019407511
 30
0.0
 10
192.4774313612
 20
868.4595475197
 30
0.0
  0
SPLINE
  5
4AC
100
AcDbEntity
  8
0
100
AcDbSpline
 62
7
  6
CONTINUOUS
 70
0
 71
3
 72
8
 73
4
 74
0
 42
0.0000001
 43
0.0000001
 44
0.0000000001
 40
0.0
 40
0.0
 40
0.0
 40
0.0
 40
1.0
 40
1.0
 40
1.0
 40
1.0
 10
199.364162956
 20
868.8220065832
 30
0.0
 10
199.0243571145
 20
866.3980592489
 30
0.0
 10
198.0615732713
 20
865.1974109411
 30
0.0
 10
196.4644860668
 20
865.1974109411
 30
0.0
  0
SPLINE
  5
4AD
100
AcDbEntity
  8
0
100
AcDbSpline
 62
7
  6
CONTINUOUS
 70
0
 71
3
 72
8
 73
4
 74
0
 42
0.0000001
 43
0.0000001
 44
0.0000000001
 40
0.0
 40
0.0
 40
0.0
 40
0.0
 40
1.0
 40
1.0
 40
1.0
 40
1.0
 10
198.2767838878
 20
871.9029123783
 30
0.0
 10
199.0017032666
 20
871.2346285582
 30
0.0
 10
199.364162956
 20
870.2038831711
 30
0.0
 10
199.364162956
 20
868.8220065832
 30
0.0
  0
SPLINE
  5
4AE
100
AcDbEntity
  8
0
100
AcDbSpline
 62
7
  6
CONTINUOUS
 70
0
 71
3
 72
8
 73
4
 74
0
 42
0.0000001
 43
0.0000001
 44
0.0000000001
 40
0.0
 40
0.0
 40
0.0
 40
0.0
 40
1.0
 40
1.0
 40
1.0
 40
1.0
 10
197.9143248243
 20
869.5469247103
 30
0.0
 10
197.9143248243
 20
870.2491921186
 30
0.0
 10
197.6198266787
 20
870.9741102457
 30
0.0
 10
197.0081759138
 20
871.9029123783
 30
0.0
  0
SPLINE
  5
4AF
100
AcDbEntity
  8
0
100
AcDbSpline
 62
7
  6
CONTINUOUS
 70
0
 71
3
 72
8
 73
4
 74
0
 42
0.0000001
 43
0.0000001
 44
0.0000000001
 40
0.0
 40
0.0
 40
0.0
 40
0.0
 40
1.0
 40
1.0
 40
1.0
 40
1.0
 10
196.283256535
 20
867.3721678257
 30
0.0
 10
197.3706349773
 20
867.6213582754
 30
0.0
 10
197.9143248243
 20
868.2216824293
 30
0.0
 10
197.9143248243
 20
869.1844656467
 30
0.0
  0
SPLINE
  5
4B0
100
AcDbEntity
  8
0
100
AcDbSpline
 62
7
  6
CONTINUOUS
 70
0
 71
3
 72
8
 73
4
 74
0
 42
0.0000001
 43
0.0000001
 44
0.0000000001
 40
0.0
 40
0.0
 40
0.0
 40
0.0
 40
1.0
 40
1.0
 40
1.0
 40
1.0
 10
192.4774313612
 20
868.4595475197
 30
0.0
 10
192.7719295068
 20
870.7475730181
 30
0.0
 10
193.8026736421
 20
871.9029123783
 30
0.0
 10
195.5583371563
 20
871.9029123783
 30
0.0
  0
SPLINE
  5
4B1
100
AcDbEntity
  8
0
100
AcDbSpline
 62
7
  6
CONTINUOUS
 70
0
 71
3
 72
8
 73
4
 74
0
 42
0.0000001
 43
0.0000001
 44
0.0000000001
 40
0.0
 40
0.0
 40
0.0
 40
0.0
 40
1.0
 40
1.0
 40
1.0
 40
1.0
 10
195.5583371562
 20
882.957930088
 30
0.0
 10
194.947607204
 20
882.9579300881
 30
0.0
 10
194.4245986574
 20
883.0963652015
 30
0.0
 10
193.9897883025
 20
883.3737123729
 30
0.0
  0
SPLINE
  5
4B2
100
AcDbEntity
  8
0
100
AcDbSpline
 62
7
  6
CONTINUOUS
 70
0
 71
3
 72
8
 73
4
 74
0
 42
0.0000001
 43
0.0000001
 44
0.0000000001
 40
0.0
 40
0.0
 40
0.0
 40
0.0
 40
1.0
 40
1.0
 40
1.0
 40
1.0
 10
199.364162956
 20
886.5825257301
 30
0.0
 10
199.1036452694
 20
884.1585783958
 30
0.0
 10
198.072901134
 20
882.957930088
 30
0.0
 10
196.283256535
 20
882.957930088
 30
0.0
  0
SPLINE
  5
4B3
100
AcDbEntity
  8
0
100
AcDbSpline
 62
7
  6
CONTINUOUS
 70
0
 71
3
 72
8
 73
4
 74
0
 42
0.0000001
 43
0.0000001
 44
0.0000000001
 40
0.0
 40
0.0
 40
0.0
 40
0.0
 40
1.0
 40
1.0
 40
1.0
 40
1.0
 10
198.2767838878
 20
889.6634290218
 30
0.0
 10
199.0017032666
 20
888.9951477051
 30
0.0
 10
199.364162956
 20
887.9643998146
 30
0.0
 10
199.364162956
 20
886.5825257301
 30
0.0
  0
SPLINE
  5
4B4
100
AcDbEntity
  8
0
100
AcDbSpline
 62
7
  6
CONTINUOUS
 70
0
 71
3
 72
8
 73
4
 74
0
 42
0.0000001
 43
0.0000001
 44
0.0000000001
 40
0.0
 40
0.0
 40
0.0
 40
0.0
 40
1.0
 40
1.0
 40
1.0
 40
1.0
 10
197.9143248243
 20
887.4886746407
 30
0.0
 10
197.9143248243
 20
887.9417490959
 30
0.0
 10
197.6198266787
 20
888.6100304127
 30
0.0
 10
197.0081759138
 20
889.6634290218
 30
0.0
  0
SPLINE
  5
4B5
100
AcDbEntity
  8
0
100
AcDbSpline
 62
7
  6
CONTINUOUS
 70
0
 71
3
 72
8
 73
4
 74
0
 42
0.0000001
 43
0.0000001
 44
0.0000000001
 40
0.0
 40
0.0
 40
0.0
 40
0.0
 40
1.0
 40
1.0
 40
1.0
 40
1.0
 10
196.4644860668
 20
885.1326844692
 30
0.0
 10
197.4385958953
 20
885.449839592
 30
0.0
 10
197.9143248243
 20
886.0614891052
 30
0.0
 10
197.9143248243
 20
886.9449822903
 30
0.0
  0
SPLINE
  5
4B6
100
AcDbEntity
  8
0
100
AcDbSpline
 62
7
  6
CONTINUOUS
 70
0
 71
3
 72
8
 73
4
 74
0
 42
0.0000001
 43
0.0000001
 44
0.0000000001
 40
0.0
 40
0.0
 40
0.0
 40
0.0
 40
1.0
 40
1.0
 40
1.0
 40
1.0
 10
192.4774313612
 20
886.4012949467
 30
0.0
 10
192.8172372026
 20
888.5760493279
 30
0.0
 10
193.9046156449
 20
889.6634290218
 30
0.0
 10
195.7395679397
 20
889.6634290218
 30
0.0
  0
SPLINE
  5
4B7
100
AcDbEntity
  8
0
100
AcDbSpline
 62
7
  6
CONTINUOUS
 70
0
 71
3
 72
8
 73
4
 74
0
 42
0.0000001
 43
0.0000001
 44
0.0000000001
 40
0.0
 40
0.0
 40
0.0
 40
0.0
 40
1.0
 40
1.0
 40
1.0
 40
1.0
 10
193.9897883025
 20
883.3737123729
 30
0.0
 10
193.1746506683
 20
883.8936542616
 30
0.0
 10
192.6694845696
 20
884.9018009874
 30
0.0
 10
192.4774313612
 20
886.4012949467
 30
0.0
  0
SPLINE
  5
4B8
100
AcDbEntity
  8
0
100
AcDbSpline
 62
7
  6
CONTINUOUS
 70
0
 71
3
 72
8
 73
4
 74
0
 42
0.0000001
 43
0.0000001
 44
0.0000000001
 40
0.0
 40
0.0
 40
0.0
 40
0.0
 40
1.0
 40
1.0
 40
1.0
 40
1.0
 10
193.9272701187
 20
892.9255681038
 30
0.0
 10
193.8225824843
 20
892.9255681038
 30
0.0
 10
193.7223421477
 20
892.9402998107
 30
0.0
 10
193.6265926551
 20
892.969806761
 30
0.0
  0
SPLINE
  5
4B9
100
AcDbEntity
  8
0
100
AcDbSpline
 62
7
  6
CONTINUOUS
 70
0
 71
3
 72
8
 73
4
 74
0
 42
0.0000001
 43
0.0000001
 44
0.0000000001
 40
0.0
 40
0.0
 40
0.0
 40
0.0
 40
1.0
 40
1.0
 40
1.0
 40
1.0
 10
194.6521882457
 20
894.1941735745
 30
0.0
 10
194.8560722513
 20
893.2200624943
 30
0.0
 10
195.5809916301
 20
892.7443373203
 30
0.0
 10
196.826946382
 20
892.7443373203
 30
0.0
  0
SPLINE
  5
4BA
100
AcDbEntity
  8
0
100
AcDbSpline
 62
7
  6
CONTINUOUS
 70
0
 71
3
 72
8
 73
4
 74
0
 42
0.0000001
 43
0.0000001
 44
0.0000000001
 40
0.0
 40
0.0
 40
0.0
 40
0.0
 40
1.0
 40
1.0
 40
1.0
 40
1.0
 10
193.2023507399
 20
896.0064713955
 30
0.0
 10
194.4143244071
 20
895.791264534
 30
0.0
 10
195.014648561
 20
895.5533969402
 30
0.0
 10
195.014648561
 20
895.2815532684
 30
0.0
  0
SPLINE
  5
4BB
100
AcDbEntity
  8
0
100
AcDbSpline
 62
7
  6
CONTINUOUS
 70
0
 71
3
 72
8
 73
4
 74
0
 42
0.0000001
 43
0.0000001
 44
0.0000000001
 40
0.0
 40
0.0
 40
0.0
 40
0.0
 40
1.0
 40
1.0
 40
1.0
 40
1.0
 10
192.4774313612
 20
894.7378659248
 30
0.0
 10
192.7719295068
 20
895.5760526657
 30
0.0
 10
193.0097933454
 20
896.0064713955
 30
0.0
 10
193.2023507399
 20
896.0064713955
 30
0.0
  0
SPLINE
  5
4BC
100
AcDbEntity
  8
0
100
AcDbSpline
 62
7
  6
CONTINUOUS
 70
0
 71
3
 72
8
 73
4
 74
0
 42
0.0000001
 43
0.0000001
 44
0.0000000001
 40
0.0
 40
0.0
 40
0.0
 40
0.0
 40
1.0
 40
1.0
 40
1.0
 40
1.0
 10
193.6265926551
 20
892.969806761
 30
0.0
 10
193.1111146912
 20
893.1286606854
 30
0.0
 10
192.7257960294
 20
893.7157493435
 30
0.0
 10
192.4774313612
 20
894.7378659248
 30
0.0
  0
SPLINE
  5
4BD
100
AcDbEntity
  8
0
100
AcDbSpline
 62
7
  6
CONTINUOUS
 70
0
 71
3
 72
8
 73
4
 74
0
 42
0.0000001
 43
0.0000001
 44
0.0000000001
 40
0.0
 40
0.0
 40
0.0
 40
0.0
 40
1.0
 40
1.0
 40
1.0
 40
1.0
 10
200.9952306194
 20
852.330096662
 30
0.0
 10
199.0696641845
 20
853.8932040334
 30
0.0
 10
198.0955543561
 20
855.4676380157
 30
0.0
 10
198.0955543561
 20
857.0420707464
 30
0.0
  0
SPLINE
  5
4BE
100
AcDbEntity
  8
0
100
AcDbSpline
 62
7
  6
CONTINUOUS
 70
0
 71
3
 72
8
 73
4
 74
0
 42
0.0000001
 43
0.0000001
 44
0.0000000001
 40
0.0
 40
0.0
 40
0.0
 40
0.0
 40
1.0
 40
1.0
 40
1.0
 40
1.0
 10
202.4450687511
 20
851.4239477515
 30
0.0
 10
201.9693410737
 20
851.605178535
 30
0.0
 10
201.7201499982
 20
851.7864080667
 30
0.0
 10
201.7201499982
 20
851.9676375985
 30
0.0
  0
SPLINE
  5
4BF
100
AcDbEntity
  8
0
100
AcDbSpline
 62
7
  6
CONTINUOUS
 70
0
 71
3
 72
8
 73
4
 74
0
 42
0.0000001
 43
0.0000001
 44
0.0000000001
 40
0.0
 40
0.0
 40
0.0
 40
0.0
 40
1.0
 40
1.0
 40
1.0
 40
1.0
 10
207.1570429919
 20
853.2362455726
 30
0.0
 10
207.1570429919
 20
851.9902908206
 30
0.0
 10
206.3188553123
 20
851.2653726935
 30
0.0
 10
204.6198262615
 20
851.061488688
 30
0.0
  0
SPLINE
  5
4C0
100
AcDbEntity
  8
0
100
AcDbSpline
 62
7
  6
CONTINUOUS
 70
0
 71
3
 72
8
 73
4
 74
0
 42
0.0000001
 43
0.0000001
 44
0.0000000001
 40
0.0
 40
0.0
 40
0.0
 40
0.0
 40
1.0
 40
1.0
 40
1.0
 40
1.0
 10
204.0761370404
 20
859.3980584145
 30
0.0
 10
206.137625624
 20
857.8576042652
 30
0.0
 10
207.1570429919
 20
856.2944993973
 30
0.0
 10
207.1570429919
 20
854.6860843301
 30
0.0
  0
SPLINE
  5
4C1
100
AcDbEntity
  8
0
100
AcDbSpline
 62
7
  6
CONTINUOUS
 70
0
 71
3
 72
8
 73
4
 74
0
 42
0.0000001
 43
0.0000001
 44
0.0000000001
 40
0.0
 40
0.0
 40
0.0
 40
0.0
 40
1.0
 40
1.0
 40
1.0
 40
1.0
 10
198.0955543561
 20
857.9482196569
 30
0.0
 10
198.0955543561
 20
859.6359235048
 30
0.0
 10
198.9450689597
 20
860.4854381084
 30
0.0
 10
200.63277093
 20
860.4854381084
 30
0.0
  0
SPLINE
  5
4C2
100
AcDbEntity
  8
0
100
AcDbSpline
 62
7
  6
CONTINUOUS
 70
0
 71
3
 72
8
 73
4
 74
0
 42
0.0000001
 43
0.0000001
 44
0.0000000001
 40
0.0
 40
0.0
 40
0.0
 40
0.0
 40
1.0
 40
1.0
 40
1.0
 40
1.0
 10
205.8884345485
 20
881.3268630505
 30
0.0
 10
205.6392437858
 20
880.6019399166
 30
0.0
 10
205.1635154826
 20
880.2394833565
 30
0.0
 10
204.4385964168
 20
880.2394833565
 30
0.0
  0
SPLINE
  5
4C3
100
AcDbEntity
  8
0
100
AcDbSpline
 62
7
  6
CONTINUOUS
 70
0
 71
3
 72
8
 73
4
 74
0
 42
0.0000001
 43
0.0000001
 44
0.0000000001
 40
0.0
 40
0.0
 40
0.0
 40
0.0
 40
1.0
 40
1.0
 40
1.0
 40
1.0
 10
203.8949071957
 20
869.9093862772
 30
0.0
 10
203.2897765088
 20
869.9093862772
 30
0.0
 10
202.8216219457
 20
870.0605322368
 30
0.0
 10
202.4915219497
 20
870.3628243942
 30
0.0
  0
SPLINE
  5
4C4
100
AcDbEntity
  8
0
100
AcDbSpline
 62
7
  6
CONTINUOUS
 70
0
 71
3
 72
9
 73
5
 74
0
 42
0.0000001
 43
0.0000001
 44
0.0000000001
 40
0.0
 40
0.0
 40
0.0
 40
0.0
 40
0.2043197065
 40
1.0
 40
1.0
 40
1.0
 40
1.0
 10
1057.1056659507
 20
877.0
 30
0.0
 10
1057.0749571292
 20
877.0730961016
 30
0.0
 10
1056.870469073
 20
877.4078677654
 30
0.0
 10
1056.5485073781
 20
877.6455685092
 30
0.0
 10
1056.2960342466
 20
877.8233006968
 30
0.0
  0
SPLINE
  5
4C5
100
AcDbEntity
  8
0
100
AcDbSpline
 62
7
  6
CONTINUOUS
 70
0
 71
3
 72
8
 73
4
 74
0
 42
0.0000001
 43
0.0000001
 44
0.0000000001
 40
0.0
 40
0.0
 40
0.0
 40
0.0
 40
1.0
 40
1.0
 40
1.0
 40
1.0
 10
1056.2960342466
 20
877.8233006968
 30
0.0
 10
1056.2102413235
 20
877.8836958913
 30
0.0
 10
1056.1232210369
 20
877.9423572817
 30
0.0
 10
1056.0355550675
 20
878.0
 30
0.0
  0
SPLINE
  5
4C6
100
AcDbEntity
  8
0
100
AcDbSpline
 62
7
  6
CONTINUOUS
 70
0
 71
3
 72
9
 73
5
 74
0
 42
0.0000001
 43
0.0000001
 44
0.0000000001
 40
0.0
 40
0.0
 40
0.0
 40
0.0
 40
0.275733523
 40
1.0
 40
1.0
 40
1.0
 40
1.0
 10
1056.0355550675
 20
972.0
 30
0.0
 10
1056.1183308409
 20
972.0544272837
 30
0.0
 10
1056.4154109859
 20
972.2553906393
 30
0.0
 10
1056.7059525986
 20
972.4741808249
 30
0.0
 10
1056.881342123
 20
972.6664080304
 30
0.0
  0
SPLINE
  5
4C7
100
AcDbEntity
  8
0
100
AcDbSpline
 62
7
  6
CONTINUOUS
 70
0
 71
3
 72
8
 73
4
 74
0
 42
0.0000001
 43
0.0000001
 44
0.0000000001
 40
0.0
 40
0.0
 40
0.0
 40
0.0
 40
1.0
 40
1.0
 40
1.0
 40
1.0
 10
1056.881342123
 20
972.6664080304
 30
0.0
 10
1056.9716600923
 20
972.7653966726
 30
0.0
 10
1057.0537645198
 20
972.8764592037
 30
0.0
 10
1057.1056659507
 20
973.0
 30
0.0
  0
SPLINE
  5
4C8
100
AcDbEntity
  8
0
100
AcDbSpline
 62
7
  6
CONTINUOUS
 70
0
 71
3
 72
9
 73
5
 74
0
 42
0.0000001
 43
0.0000001
 44
0.0000000001
 40
0.0
 40
0.0
 40
0.0
 40
0.0
 40
0.275733523
 40
1.0
 40
1.0
 40
1.0
 40
1.0
 10
221.2850649255
 20
878.0
 30
0.0
 10
221.2022891521
 20
877.9455727163
 30
0.0
 10
220.9052090071
 20
877.7446093607
 30
0.0
 10
220.6146673944
 20
877.5258191751
 30
0.0
 10
220.4392778701
 20
877.3335919696
 30
0.0
  0
SPLINE
  5
4C9
100
AcDbEntity
  8
0
100
AcDbSpline
 62
7
  6
CONTINUOUS
 70
0
 71
3
 72
8
 73
4
 74
0
 42
0.0000001
 43
0.0000001
 44
0.0000000001
 40
0.0
 40
0.0
 40
0.0
 40
0.0
 40
1.0
 40
1.0
 40
1.0
 40
1.0
 10
220.4392778701
 20
877.3335919696
 30
0.0
 10
220.3489599007
 20
877.2346033274
 30
0.0
 10
220.2668554732
 20
877.1235407963
 30
0.0
 10
220.2149540423
 20
877.0
 30
0.0
  0
SPLINE
  5
4CA
100
AcDbEntity
  8
0
100
AcDbSpline
 62
7
  6
CONTINUOUS
 70
0
 71
3
 72
9
 73
5
 74
0
 42
0.0000001
 43
0.0000001
 44
0.0000000001
 40
0.0
 40
0.0
 40
0.0
 40
0.0
 40
0.2043196871
 40
1.0
 40
1.0
 40
1.0
 40
1.0
 10
220.2149540423
 20
973.0
 30
0.0
 10
220.2456628608
 20
972.9269039058
 30
0.0
 10
220.4501509292
 20
972.5921322542
 30
0.0
 10
220.7721125882
 20
972.3544314734
 30
0.0
 10
221.0245857341
 20
972.1766992962
 30
0.0
  0
SPLINE
  5
4CB
100
AcDbEntity
  8
0
100
AcDbSpline
 62
7
  6
CONTINUOUS
 70
0
 71
3
 72
8
 73
4
 74
0
 42
0.0000001
 43
0.0000001
 44
0.0000000001
 40
0.0
 40
0.0
 40
0.0
 40
0.0
 40
1.0
 40
1.0
 40
1.0
 40
1.0
 10
221.0245857341
 20
972.1766992962
 30
0.0
 10
221.1103786621
 20
972.1163041052
 30
0.0
 10
221.1973989543
 20
972.0576427194
 30
0.0
 10
221.2850649255
 20
972.0
 30
0.0
  0
SPLINE
  5
4CC
100
AcDbEntity
  8
0
100
AcDbSpline
 62
7
  6
CONTINUOUS
 70
0
 71
3
 72
8
 73
4
 74
0
 42
0.0000001
 43
0.0000001
 44
0.0000000001
 40
0.0
 40
0.0
 40
0.0
 40
0.0
 40
1.0
 40
1.0
 40
1.0
 40
1.0
 10
221.6603099965
 20
972.0
 30
0.0
 10
221.3995957389
 20
972.2559556239
 30
0.0
 10
221.1390341435
 20
972.5129842159
 30
0.0
 10
220.8607058388
 20
972.7496666198
 30
0.0
  0
SPLINE
  5
4CD
100
AcDbEntity
  8
0
100
AcDbSpline
 62
7
  6
CONTINUOUS
 70
0
 71
3
 72
8
 73
4
 74
0
 42
0.0000001
 43
0.0000001
 44
0.0000000001
 40
0.0
 40
0.0
 40
0.0
 40
0.0
 40
1.0
 40
1.0
 40
1.0
 40
1.0
 10
220.8607058388
 20
972.7496666198
 30
0.0
 10
220.6141842524
 20
972.9593015031
 30
0.0
 10
220.3509124899
 20
973.1567072561
 30
0.0
 10
220.0602929158
 20
973.299044672
 30
0.0
  0
SPLINE
  5
4CE
100
AcDbEntity
  8
0
100
AcDbSpline
 62
7
  6
CONTINUOUS
 70
0
 71
3
 72
8
 73
4
 74
0
 42
0.0000001
 43
0.0000001
 44
0.0000000001
 40
0.0
 40
0.0
 40
0.0
 40
0.0
 40
1.0
 40
1.0
 40
1.0
 40
1.0
 10
220.0602929158
 20
973.299044672
 30
0.0
 10
219.8133722273
 20
973.4199795844
 30
0.0
 10
219.5352555901
 20
973.5
 30
0.0
 10
219.2603099965
 20
973.5
 30
0.0
  0
SPLINE
  5
4CF
100
AcDbEntity
  8
0
100
AcDbSpline
 62
7
  6
CONTINUOUS
 70
0
 71
3
 72
8
 73
4
 74
0
 42
0.0000001
 43
0.0000001
 44
0.0000000001
 40
0.0
 40
0.0
 40
0.0
 40
0.0
 40
1.0
 40
1.0
 40
1.0
 40
1.0
 10
1058.0603099965
 20
973.5
 30
0.0
 10
1057.7855019441
 20
973.5
 30
0.0
 10
1057.5075233014
 20
973.4200634924
 30
0.0
 10
1057.2607058388
 20
973.2992305258
 30
0.0
  0
SPLINE
  5
4D0
100
AcDbEntity
  8
0
100
AcDbSpline
 62
7
  6
CONTINUOUS
 70
0
 71
3
 72
8
 73
4
 74
0
 42
0.0000001
 43
0.0000001
 44
0.0000000001
 40
0.0
 40
0.0
 40
0.0
 40
0.0
 40
1.0
 40
1.0
 40
1.0
 40
1.0
 10
1057.2607058388
 20
973.2992305258
 30
0.0
 10
1056.9700854298
 20
973.1569532096
 30
0.0
 10
1056.7068097519
 20
972.9595894527
 30
0.0
 10
1056.4602929158
 20
972.7499886266
 30
0.0
  0
SPLINE
  5
4D1
100
AcDbEntity
  8
0
100
AcDbSpline
 62
7
  6
CONTINUOUS
 70
0
 71
3
 72
8
 73
4
 74
0
 42
0.0000001
 43
0.0000001
 44
0.0000000001
 40
0.0
 40
0.0
 40
0.0
 40
0.0
 40
1.0
 40
1.0
 40
1.0
 40
1.0
 10
1056.4602929158
 20
972.7499886266
 30
0.0
 10
1056.3231124866
 20
972.6333510301
 30
0.0
 10
1056.1903686141
 20
972.5114815542
 30
0.0
 10
1056.0597132652
 20
972.3875784514
 30
0.0
  0
SPLINE
  5
4D2
100
AcDbEntity
  8
0
100
AcDbSpline
 62
7
  6
CONTINUOUS
 70
0
 71
3
 72
8
 73
4
 74
0
 42
0.0000001
 43
0.0000001
 44
0.0000000001
 40
0.0
 40
0.0
 40
0.0
 40
0.0
 40
1.0
 40
1.0
 40
1.0
 40
1.0
 10
219.2603099965
 20
876.5
 30
0.0
 10
219.5351180489
 20
876.5
 30
0.0
 10
219.8130966917
 20
876.5799365076
 30
0.0
 10
220.0599141543
 20
876.7007694742
 30
0.0
  0
SPLINE
  5
4D3
100
AcDbEntity
  8
0
100
AcDbSpline
 62
7
  6
CONTINUOUS
 70
0
 71
3
 72
8
 73
4
 74
0
 42
0.0000001
 43
0.0000001
 44
0.0000000001
 40
0.0
 40
0.0
 40
0.0
 40
0.0
 40
1.0
 40
1.0
 40
1.0
 40
1.0
 10
220.0599141543
 20
876.7007694742
 30
0.0
 10
220.3505345632
 20
876.8430467904
 30
0.0
 10
220.6138102411
 20
877.0404105474
 30
0.0
 10
220.8603270773
 20
877.2500113734
 30
0.0
  0
SPLINE
  5
4D4
100
AcDbEntity
  8
0
100
AcDbSpline
 62
7
  6
CONTINUOUS
 70
0
 71
3
 72
8
 73
4
 74
0
 42
0.0000001
 43
0.0000001
 44
0.0000000001
 40
0.0
 40
0.0
 40
0.0
 40
0.0
 40
1.0
 40
1.0
 40
1.0
 40
1.0
 10
220.8603270773
 20
877.2500113734
 30
0.0
 10
220.9975075064
 20
877.3666489699
 30
0.0
 10
221.130251379
 20
877.4885184458
 30
0.0
 10
221.2609067279
 20
877.6124215486
 30
0.0
  0
SPLINE
  5
4D5
100
AcDbEntity
  8
0
100
AcDbSpline
 62
7
  6
CONTINUOUS
 70
0
 71
3
 72
8
 73
4
 74
0
 42
0.0000001
 43
0.0000001
 44
0.0000000001
 40
0.0
 40
0.0
 40
0.0
 40
0.0
 40
1.0
 40
1.0
 40
1.0
 40
1.0
 10
1055.6603099965
 20
878.0
 30
0.0
 10
1055.9210242542
 20
877.7440443761
 30
0.0
 10
1056.1815858495
 20
877.4870157841
 30
0.0
 10
1056.4599141543
 20
877.2503333802
 30
0.0
  0
SPLINE
  5
4D6
100
AcDbEntity
  8
0
100
AcDbSpline
 62
7
  6
CONTINUOUS
 70
0
 71
3
 72
8
 73
4
 74
0
 42
0.0000001
 43
0.0000001
 44
0.0000000001
 40
0.0
 40
0.0
 40
0.0
 40
0.0
 40
1.0
 40
1.0
 40
1.0
 40
1.0
 10
1056.4599141543
 20
877.2503333802
 30
0.0
 10
1056.7064357407
 20
877.0406984969
 30
0.0
 10
1056.9697075031
 20
876.8432927439
 30
0.0
 10
1057.2603270772
 20
876.700955328
 30
0.0
  0
SPLINE
  5
4D7
100
AcDbEntity
  8
0
100
AcDbSpline
 62
7
  6
CONTINUOUS
 70
0
 71
3
 72
8
 73
4
 74
0
 42
0.0000001
 43
0.0000001
 44
0.0000000001
 40
0.0
 40
0.0
 40
0.0
 40
0.0
 40
1.0
 40
1.0
 40
1.0
 40
1.0
 10
1057.2603270772
 20
876.700955328
 30
0.0
 10
1057.5072477657
 20
876.5800204156
 30
0.0
 10
1057.7853644029
 20
876.5
 30
0.0
 10
1058.0603099965
 20
876.5
 30
0.0
  0
LINE
  5
4D8
100
AcDbEntity
  8
0
100
AcDbLine
 62
7
  6
CONTINUOUS
 10
1055.6603099965
 20
972.0
 11
1055.7455302821
 21
972.1672408388
  0
LINE
  5
4D9
100
AcDbEntity
  8
0
100
AcDbLine
 62
7
  6
CONTINUOUS
 10
1055.7455302821
 20
972.1672408388
 11
1055.833422569
 21
972.3391724203
  0
SPLINE
  5
4DA
100
AcDbEntity
  8
0
100
AcDbSpline
 62
7
  6
CONTINUOUS
 70
0
 71
3
 72
8
 73
4
 74
0
 42
0.0000001
 43
0.0000001
 44
0.0000000001
 40
0.0
 40
0.0
 40
0.0
 40
0.0
 40
1.0
 40
1.0
 40
1.0
 40
1.0
 10
1055.833422569
 20
972.3391724203
 30
0.0
 10
1056.0338698826
 20
972.7302170708
 30
0.0
 10
1056.2370667407
 20
973.1203399631
 30
0.0
 10
1056.4598377351
 20
973.4991118314
 30
0.0
  0
SPLINE
  5
4DB
100
AcDbEntity
  8
0
100
AcDbSpline
 62
7
  6
CONTINUOUS
 70
0
 71
3
 72
8
 73
4
 74
0
 42
0.0000001
 43
0.0000001
 44
0.0000000001
 40
0.0
 40
0.0
 40
0.0
 40
0.0
 40
1.0
 40
1.0
 40
1.0
 40
1.0
 10
1056.5175336716
 20
973.5961252019
 30
0.0
 10
1056.6056314803
 20
973.7425662602
 30
0.0
 10
1056.6971633932
 20
973.8870910637
 30
0.0
 10
1056.7942992792
 20
974.0276998369
 30
0.0
  0
SPLINE
  5
4DC
100
AcDbEntity
  8
0
100
AcDbSpline
 62
7
  6
CONTINUOUS
 70
0
 71
3
 72
9
 73
5
 74
0
 42
0.0000001
 43
0.0000001
 44
0.0000000001
 40
0.0
 40
0.0
 40
0.0
 40
0.0
 40
0.3166673665
 40
1.0
 40
1.0
 40
1.0
 40
1.0
 10
1056.8601018679
 20
974.1210313405
 30
0.0
 10
1056.953326859
 20
974.2504897277
 30
0.0
 10
1057.2541450569
 20
974.6395173916
 30
0.0
 10
1057.7160584288
 20
975.0
 30
0.0
 10
1058.0603099965
 20
975.0
 30
0.0
  0
SPLINE
  5
4DD
100
AcDbEntity
  8
0
100
AcDbSpline
 62
7
  6
CONTINUOUS
 70
0
 71
3
 72
9
 73
5
 74
0
 42
0.0000001
 43
0.0000001
 44
0.0000000001
 40
0.0
 40
0.0
 40
0.0
 40
0.0
 40
0.2002267574
 40
1.0
 40
1.0
 40
1.0
 40
1.0
 10
219.2603099965
 20
975.0
 30
0.0
 10
219.3619698519
 20
975.0
 30
0.0
 10
219.8717937309
 20
974.8882398351
 30
0.0
 10
220.2227717455
 20
974.4510922261
 30
0.0
 10
220.4601041734
 20
974.1216061035
 30
0.0
  0
SPLINE
  5
4DE
100
AcDbEntity
  8
0
100
AcDbSpline
 62
7
  6
CONTINUOUS
 70
0
 71
3
 72
8
 73
4
 74
0
 42
0.0000001
 43
0.0000001
 44
0.0000000001
 40
0.0
 40
0.0
 40
0.0
 40
0.0
 40
1.0
 40
1.0
 40
1.0
 40
1.0
 10
220.5262048248
 20
974.0278674349
 30
0.0
 10
220.6233589507
 20
973.8872419417
 30
0.0
 10
220.7149065515
 20
973.7426983609
 30
0.0
 10
220.8030186451
 20
973.5962377434
 30
0.0
  0
SPLINE
  5
4DF
100
AcDbEntity
  8
0
100
AcDbSpline
 62
7
  6
CONTINUOUS
 70
0
 71
3
 72
8
 73
4
 74
0
 42
0.0000001
 43
0.0000001
 44
0.0000000001
 40
0.0
 40
0.0
 40
0.0
 40
0.0
 40
1.0
 40
1.0
 40
1.0
 40
1.0
 10
220.8743637812
 20
973.4759610373
 30
0.0
 10
221.0917789901
 20
973.1044236484
 30
0.0
 10
221.2908203547
 20
972.722276045
 30
0.0
 10
221.4871852434
 20
972.3391961122
 30
0.0
  0
LINE
  5
4E0
100
AcDbEntity
  8
0
100
AcDbLine
 62
7
  6
CONTINUOUS
 10
221.4871852434
 20
972.3391961122
 11
221.5750843658
 21
972.1672512972
  0
LINE
  5
4E1
100
AcDbEntity
  8
0
100
AcDbLine
 62
7
  6
CONTINUOUS
 10
221.5750843658
 20
972.1672512972
 11
221.6603099965
 21
972.0
  0
SPLINE
  5
4E2
100
AcDbEntity
  8
0
100
AcDbSpline
 62
7
  6
CONTINUOUS
 70
0
 71
3
 72
9
 73
5
 74
0
 42
0.0000001
 43
0.0000001
 44
0.0000000001
 40
0.0
 40
0.0
 40
0.0
 40
0.0
 40
0.2066653556
 40
1.0
 40
1.0
 40
1.0
 40
1.0
 10
218.7695980881
 20
877.0
 30
0.0
 10
218.7944516677
 20
877.0295794447
 30
0.0
 10
218.9268093136
 20
877.1625066206
 30
0.0
 10
219.0882926711
 20
877.2619535938
 30
0.0
 10
219.2183228464
 20
877.333281338
 30
0.0
  0
SPLINE
  5
4E3
100
AcDbEntity
  8
0
100
AcDbSpline
 62
7
  6
CONTINUOUS
 70
0
 71
3
 72
9
 73
5
 74
0
 42
0.0000001
 43
0.0000001
 44
0.0000000001
 40
0.0
 40
0.0
 40
0.0
 40
0.0
 40
0.2226431592
 40
1.0
 40
1.0
 40
1.0
 40
1.0
 10
219.2183228464
 20
877.333281338
 30
0.0
 10
219.271358527
 20
877.3623739348
 30
0.0
 10
219.5131444916
 20
877.4865284528
 30
0.0
 10
219.7646581385
 20
877.5906500401
 30
0.0
 10
219.9616877051
 20
877.666718662
 30
0.0
  0
SPLINE
  5
4E4
100
AcDbEntity
  8
0
100
AcDbSpline
 62
7
  6
CONTINUOUS
 70
0
 71
3
 72
8
 73
4
 74
0
 42
0.0000001
 43
0.0000001
 44
0.0000000001
 40
0.0
 40
0.0
 40
0.0
 40
0.0
 40
1.0
 40
1.0
 40
1.0
 40
1.0
 10
219.9616877051
 20
877.666718662
 30
0.0
 10
220.2742060966
 20
877.7873748851
 30
0.0
 10
220.5915763888
 20
877.8953732072
 30
0.0
 10
220.9098198545
 20
878.0
 30
0.0
  0
SPLINE
  5
4E5
100
AcDbEntity
  8
0
100
AcDbSpline
 62
7
  6
CONTINUOUS
 70
0
 71
3
 72
8
 73
4
 74
0
 42
0.0000001
 43
0.0000001
 44
0.0000000001
 40
0.0
 40
0.0
 40
0.0
 40
0.0
 40
1.0
 40
1.0
 40
1.0
 40
1.0
 10
220.9098198545
 20
972.0
 30
0.0
 10
220.5915751214
 20
972.1046272095
 30
0.0
 10
220.2742035692
 20
972.2126259828
 30
0.0
 10
219.9616839737
 20
972.3332827914
 30
0.0
  0
SPLINE
  5
4E6
100
AcDbEntity
  8
0
100
AcDbSpline
 62
7
  6
CONTINUOUS
 70
0
 71
3
 72
9
 73
5
 74
0
 42
0.0000001
 43
0.0000001
 44
0.0000000001
 40
0.0
 40
0.0
 40
0.0
 40
0.0
 40
0.3082712644
 40
1.0
 40
1.0
 40
1.0
 40
1.0
 10
219.8670968114
 20
972.3703075728
 30
0.0
 10
219.7530165643
 20
972.4156016107
 30
0.0
 10
219.3886681376
 20
972.5705982238
 30
0.0
 10
219.0189314125
 20
972.7506416267
 30
0.0
 10
218.822241447
 20
972.9434386347
 30
0.0
  0
SPLINE
  5
4E7
100
AcDbEntity
  8
0
100
AcDbSpline
 62
7
  6
CONTINUOUS
 70
0
 71
3
 72
9
 73
5
 74
0
 42
0.0000001
 43
0.0000001
 44
0.0000000001
 40
0.0
 40
0.0
 40
0.0
 40
0.0
 40
0.5115127924
 40
1.0
 40
1.0
 40
1.0
 40
1.0
 10
218.822241447
 20
972.9434386347
 30
0.0
 10
218.8128301432
 20
972.9526636666
 30
0.0
 10
218.7948098627
 20
972.9710903685
 30
0.0
 10
218.7776941673
 20
972.9903644654
 30
0.0
 10
218.7695980881
 20
973.0
 30
0.0
  0
SPLINE
  5
4E8
100
AcDbEntity
  8
0
100
AcDbSpline
 62
7
  6
CONTINUOUS
 70
0
 71
3
 72
9
 73
5
 74
0
 42
0.0000001
 43
0.0000001
 44
0.0000000001
 40
0.0
 40
0.0
 40
0.0
 40
0.0
 40
0.2066653556
 40
1.0
 40
1.0
 40
1.0
 40
1.0
 10
1058.5510219049
 20
973.0
 30
0.0
 10
1058.5261683253
 20
972.9704205553
 30
0.0
 10
1058.3938106794
 20
972.8374933794
 30
0.0
 10
1058.2323273219
 20
972.7380464062
 30
0.0
 10
1058.1022971466
 20
972.666718662
 30
0.0
  0
SPLINE
  5
4E9
100
AcDbEntity
  8
0
100
AcDbSpline
 62
7
  6
CONTINUOUS
 70
0
 71
3
 72
9
 73
5
 74
0
 42
0.0000001
 43
0.0000001
 44
0.0000000001
 40
0.0
 40
0.0
 40
0.0
 40
0.0
 40
0.2226431592
 40
1.0
 40
1.0
 40
1.0
 40
1.0
 10
1058.1022971466
 20
972.666718662
 30
0.0
 10
1058.049261466
 20
972.6376260652
 30
0.0
 10
1057.8074755014
 20
972.5134715472
 30
0.0
 10
1057.5559618545
 20
972.4093499599
 30
0.0
 10
1057.3589322879
 20
972.333281338
 30
0.0
  0
SPLINE
  5
4EA
100
AcDbEntity
  8
0
100
AcDbSpline
 62
7
  6
CONTINUOUS
 70
0
 71
3
 72
8
 73
4
 74
0
 42
0.0000001
 43
0.0000001
 44
0.0000000001
 40
0.0
 40
0.0
 40
0.0
 40
0.0
 40
1.0
 40
1.0
 40
1.0
 40
1.0
 10
1057.3589322879
 20
972.333281338
 30
0.0
 10
1057.0464138964
 20
972.2126251149
 30
0.0
 10
1056.7290436042
 20
972.1046267928
 30
0.0
 10
1056.4108001386
 20
972.0
 30
0.0
  0
SPLINE
  5
4EB
100
AcDbEntity
  8
0
100
AcDbSpline
 62
7
  6
CONTINUOUS
 70
0
 71
3
 72
8
 73
4
 74
0
 42
0.0000001
 43
0.0000001
 44
0.0000000001
 40
0.0
 40
0.0
 40
0.0
 40
0.0
 40
1.0
 40
1.0
 40
1.0
 40
1.0
 10
1056.4108001386
 20
878.0
 30
0.0
 10
1056.7437536768
 20
877.8905370742
 30
0.0
 10
1057.0758253405
 20
877.7774956085
 30
0.0
 10
1057.4022555497
 20
877.6498887544
 30
0.0
  0
SPLINE
  5
4EC
100
AcDbEntity
  8
0
100
AcDbSpline
 62
7
  6
CONTINUOUS
 70
0
 71
3
 72
9
 73
5
 74
0
 42
0.0000001
 43
0.0000001
 44
0.0000000001
 40
0.0
 40
0.0
 40
0.0
 40
0.0
 40
0.3092747015
 40
1.0
 40
1.0
 40
1.0
 40
1.0
 10
1057.4022555497
 20
877.6498887544
 30
0.0
 10
1057.5222103167
 20
877.6029964938
 30
0.0
 10
1057.9039882834
 20
877.442906207
 30
0.0
 10
1058.292959069
 20
877.2579149552
 30
0.0
 10
1058.498378304
 20
877.0565616017
 30
0.0
  0
SPLINE
  5
4ED
100
AcDbEntity
  8
0
100
AcDbSpline
 62
7
  6
CONTINUOUS
 70
0
 71
3
 72
9
 73
5
 74
0
 42
0.0000001
 43
0.0000001
 44
0.0000000001
 40
0.0
 40
0.0
 40
0.0
 40
0.0
 40
0.5115128434
 40
1.0
 40
1.0
 40
1.0
 40
1.0
 10
1058.498378304
 20
877.0565616017
 30
0.0
 10
1058.5077896533
 20
877.0473365321
 30
0.0
 10
1058.5258100185
 20
877.028909755
 30
0.0
 10
1058.5429257912
 20
877.0096355758
 30
0.0
 10
1058.5510219049
 20
877.0
 30
0.0
  0
LINE
  5
4EE
100
AcDbEntity
  8
0
100
AcDbLine
 62
7
  6
CONTINUOUS
 10
221.6603099965
 20
878.0
 11
221.5750897109
 21
877.8327591612
  0
LINE
  5
4EF
100
AcDbEntity
  8
0
100
AcDbLine
 62
7
  6
CONTINUOUS
 10
221.5750897109
 20
877.8327591612
 11
221.487197424
 21
877.6608275797
  0
SPLINE
  5
4F0
100
AcDbEntity
  8
0
100
AcDbSpline
 62
7
  6
CONTINUOUS
 70
0
 71
3
 72
8
 73
4
 74
0
 42
0.0000001
 43
0.0000001
 44
0.0000000001
 40
0.0
 40
0.0
 40
0.0
 40
0.0
 40
1.0
 40
1.0
 40
1.0
 40
1.0
 10
221.487197424
 20
877.6608275797
 30
0.0
 10
221.2908457194
 20
877.277772889
 30
0.0
 10
221.0918177036
 20
876.8956506224
 30
0.0
 10
220.8744203511
 20
876.5241357787
 30
0.0
  0
SPLINE
  5
4F1
100
AcDbEntity
  8
0
100
AcDbSpline
 62
7
  6
CONTINUOUS
 70
0
 71
3
 72
8
 73
4
 74
0
 42
0.0000001
 43
0.0000001
 44
0.0000000001
 40
0.0
 40
0.0
 40
0.0
 40
0.0
 40
1.0
 40
1.0
 40
1.0
 40
1.0
 10
220.8030863214
 20
876.4038747981
 30
0.0
 10
220.7149885127
 20
876.2574337398
 30
0.0
 10
220.6234565999
 20
876.1129089363
 30
0.0
 10
220.5263207138
 20
875.9723001631
 30
0.0
  0
SPLINE
  5
4F2
100
AcDbEntity
  8
0
100
AcDbSpline
 62
7
  6
CONTINUOUS
 70
0
 71
3
 72
9
 73
5
 74
0
 42
0.0000001
 43
0.0000001
 44
0.0000000001
 40
0.0
 40
0.0
 40
0.0
 40
0.0
 40
0.3166673665
 40
1.0
 40
1.0
 40
1.0
 40
1.0
 10
220.4605181252
 20
875.8789686595
 30
0.0
 10
220.3672931341
 20
875.7495102723
 30
0.0
 10
220.0664749362
 20
875.3604826084
 30
0.0
 10
219.6045615642
 20
875.0
 30
0.0
 10
219.2603099965
 20
875.0
 30
0.0
  0
SPLINE
  5
4F3
100
AcDbEntity
  8
0
100
AcDbSpline
 62
7
  6
CONTINUOUS
 70
0
 71
3
 72
9
 73
5
 74
0
 42
0.0000001
 43
0.0000001
 44
0.0000000001
 40
0.0
 40
0.0
 40
0.0
 40
0.0
 40
0.2002267574
 40
1.0
 40
1.0
 40
1.0
 40
1.0
 10
1058.0603099965
 20
875.0
 30
0.0
 10
1057.9586501411
 20
875.0
 30
0.0
 10
1057.4488262622
 20
875.1117601649
 30
0.0
 10
1057.0978482475
 20
875.5489077739
 30
0.0
 10
1056.8605158196
 20
875.8783938965
 30
0.0
  0
SPLINE
  5
4F4
100
AcDbEntity
  8
0
100
AcDbSpline
 62
7
  6
CONTINUOUS
 70
0
 71
3
 72
8
 73
4
 74
0
 42
0.0000001
 43
0.0000001
 44
0.0000000001
 40
0.0
 40
0.0
 40
0.0
 40
0.0
 40
1.0
 40
1.0
 40
1.0
 40
1.0
 10
1056.7944151683
 20
875.9721325652
 30
0.0
 10
1056.6972610423
 20
876.1127580583
 30
0.0
 10
1056.6057134415
 20
876.2573016391
 30
0.0
 10
1056.5176013479
 20
876.4037622566
 30
0.0
  0
SPLINE
  5
4F5
100
AcDbEntity
  8
0
100
AcDbSpline
 62
7
  6
CONTINUOUS
 70
0
 71
3
 72
8
 73
4
 74
0
 42
0.0000001
 43
0.0000001
 44
0.0000000001
 40
0.0
 40
0.0
 40
0.0
 40
0.0
 40
1.0
 40
1.0
 40
1.0
 40
1.0
 10
1056.4462562118
 20
876.5240389627
 30
0.0
 10
1056.228841003
 20
876.8955763516
 30
0.0
 10
1056.0297996383
 20
877.277723955
 30
0.0
 10
1055.8334347497
 20
877.6608038878
 30
0.0
  0
LINE
  5
4F6
100
AcDbEntity
  8
0
100
AcDbLine
 62
7
  6
CONTINUOUS
 10
1055.8334347497
 20
877.6608038878
 11
1055.7455356272
 21
877.8327487028
  0
LINE
  5
4F7
100
AcDbEntity
  8
0
100
AcDbLine
 62
7
  6
CONTINUOUS
 10
1055.7455356272
 20
877.8327487028
 11
1055.6603099965
 21
878.0
  0
SPLINE
  5
4F8
100
AcDbEntity
  8
0
100
AcDbSpline
 62
7
  6
CONTINUOUS
 70
0
 71
3
 72
9
 73
5
 74
0
 42
0.0000001
 43
0.0000001
 44
0.0000000001
 40
0.0
 40
0.0
 40
0.0
 40
0.0
 40
0.2043197065
 40
1.0
 40
1.0
 40
1.0
 40
1.0
 10
1057.1056659507
 20
777.0
 30
0.0
 10
1057.0749571292
 20
777.0730961016
 30
0.0
 10
1056.870469073
 20
777.4078677654
 30
0.0
 10
1056.5485073781
 20
777.6455685092
 30
0.0
 10
1056.2960342466
 20
777.8233006968
 30
0.0
  0
SPLINE
  5
4F9
100
AcDbEntity
  8
0
100
AcDbSpline
 62
7
  6
CONTINUOUS
 70
0
 71
3
 72
8
 73
4
 74
0
 42
0.0000001
 43
0.0000001
 44
0.0000000001
 40
0.0
 40
0.0
 40
0.0
 40
0.0
 40
1.0
 40
1.0
 40
1.0
 40
1.0
 10
1056.2960342466
 20
777.8233006968
 30
0.0
 10
1056.2102413235
 20
777.8836958913
 30
0.0
 10
1056.1232210369
 20
777.9423572817
 30
0.0
 10
1056.0355550675
 20
778.0
 30
0.0
  0
SPLINE
  5
4FA
100
AcDbEntity
  8
0
100
AcDbSpline
 62
7
  6
CONTINUOUS
 70
0
 71
3
 72
9
 73
5
 74
0
 42
0.0000001
 43
0.0000001
 44
0.0000000001
 40
0.0
 40
0.0
 40
0.0
 40
0.0
 40
0.275733523
 40
1.0
 40
1.0
 40
1.0
 40
1.0
 10
1056.0355550675
 20
872.0
 30
0.0
 10
1056.1183308409
 20
872.0544272837
 30
0.0
 10
1056.4154109859
 20
872.2553906393
 30
0.0
 10
1056.7059525986
 20
872.4741808249
 30
0.0
 10
1056.881342123
 20
872.6664080304
 30
0.0
  0
SPLINE
  5
4FB
100
AcDbEntity
  8
0
100
AcDbSpline
 62
7
  6
CONTINUOUS
 70
0
 71
3
 72
8
 73
4
 74
0
 42
0.0000001
 43
0.0000001
 44
0.0000000001
 40
0.0
 40
0.0
 40
0.0
 40
0.0
 40
1.0
 40
1.0
 40
1.0
 40
1.0
 10
1056.881342123
 20
872.6664080304
 30
0.0
 10
1056.9716600923
 20
872.7653966726
 30
0.0
 10
1057.0537645198
 20
872.8764592037
 30
0.0
 10
1057.1056659507
 20
873.0
 30
0.0
  0
SPLINE
  5
4FC
100
AcDbEntity
  8
0
100
AcDbSpline
 62
7
  6
CONTINUOUS
 70
0
 71
3
 72
9
 73
5
 74
0
 42
0.0000001
 43
0.0000001
 44
0.0000000001
 40
0.0
 40
0.0
 40
0.0
 40
0.0
 40
0.275733523
 40
1.0
 40
1.0
 40
1.0
 40
1.0
 10
221.2850649255
 20
778.0
 30
0.0
 10
221.2022891521
 20
777.9455727163
 30
0.0
 10
220.9052090071
 20
777.7446093607
 30
0.0
 10
220.6146673944
 20
777.5258191751
 30
0.0
 10
220.4392778701
 20
777.3335919696
 30
0.0
  0
SPLINE
  5
4FD
100
AcDbEntity
  8
0
100
AcDbSpline
 62
7
  6
CONTINUOUS
 70
0
 71
3
 72
8
 73
4
 74
0
 42
0.0000001
 43
0.0000001
 44
0.0000000001
 40
0.0
 40
0.0
 40
0.0
 40
0.0
 40
1.0
 40
1.0
 40
1.0
 40
1.0
 10
220.4392778701
 20
777.3335919696
 30
0.0
 10
220.3489599007
 20
777.2346033274
 30
0.0
 10
220.2668554732
 20
777.1235407963
 30
0.0
 10
220.2149540423
 20
777.0
 30
0.0
  0
SPLINE
  5
4FE
100
AcDbEntity
  8
0
100
AcDbSpline
 62
7
  6
CONTINUOUS
 70
0
 71
3
 72
9
 73
5
 74
0
 42
0.0000001
 43
0.0000001
 44
0.0000000001
 40
0.0
 40
0.0
 40
0.0
 40
0.0
 40
0.2043196871
 40
1.0
 40
1.0
 40
1.0
 40
1.0
 10
220.2149540423
 20
873.0
 30
0.0
 10
220.2456628608
 20
872.9269039058
 30
0.0
 10
220.4501509292
 20
872.5921322542
 30
0.0
 10
220.7721125882
 20
872.3544314734
 30
0.0
 10
221.0245857341
 20
872.1766992962
 30
0.0
  0
SPLINE
  5
4FF
100
AcDbEntity
  8
0
100
AcDbSpline
 62
7
  6
CONTINUOUS
 70
0
 71
3
 72
8
 73
4
 74
0
 42
0.0000001
 43
0.0000001
 44
0.0000000001
 40
0.0
 40
0.0
 40
0.0
 40
0.0
 40
1.0
 40
1.0
 40
1.0
 40
1.0
 10
221.0245857341
 20
872.1766992962
 30
0.0
 10
221.1103786621
 20
872.1163041052
 30
0.0
 10
221.1973989543
 20
872.0576427194
 30
0.0
 10
221.2850649255
 20
872.0
 30
0.0
  0
SPLINE
  5
500
100
AcDbEntity
  8
0
100
AcDbSpline
 62
7
  6
CONTINUOUS
 70
0
 71
3
 72
8
 73
4
 74
0
 42
0.0000001
 43
0.0000001
 44
0.0000000001
 40
0.0
 40
0.0
 40
0.0
 40
0.0
 40
1.0
 40
1.0
 40
1.0
 40
1.0
 10
221.6603099965
 20
872.0
 30
0.0
 10
221.3995957389
 20
872.2559556239
 30
0.0
 10
221.1390341435
 20
872.5129842159
 30
0.0
 10
220.8607058388
 20
872.7496666198
 30
0.0
  0
SPLINE
  5
501
100
AcDbEntity
  8
0
100
AcDbSpline
 62
7
  6
CONTINUOUS
 70
0
 71
3
 72
8
 73
4
 74
0
 42
0.0000001
 43
0.0000001
 44
0.0000000001
 40
0.0
 40
0.0
 40
0.0
 40
0.0
 40
1.0
 40
1.0
 40
1.0
 40
1.0
 10
220.8607058388
 20
872.7496666198
 30
0.0
 10
220.6141842524
 20
872.9593015031
 30
0.0
 10
220.3509124899
 20
873.1567072561
 30
0.0
 10
220.0602929158
 20
873.299044672
 30
0.0
  0
SPLINE
  5
502
100
AcDbEntity
  8
0
100
AcDbSpline
 62
7
  6
CONTINUOUS
 70
0
 71
3
 72
8
 73
4
 74
0
 42
0.0000001
 43
0.0000001
 44
0.0000000001
 40
0.0
 40
0.0
 40
0.0
 40
0.0
 40
1.0
 40
1.0
 40
1.0
 40
1.0
 10
220.0602929158
 20
873.299044672
 30
0.0
 10
219.8133722273
 20
873.4199795844
 30
0.0
 10
219.5352555901
 20
873.5
 30
0.0
 10
219.2603099965
 20
873.5
 30
0.0
  0
SPLINE
  5
503
100
AcDbEntity
  8
0
100
AcDbSpline
 62
7
  6
CONTINUOUS
 70
0
 71
3
 72
8
 73
4
 74
0
 42
0.0000001
 43
0.0000001
 44
0.0000000001
 40
0.0
 40
0.0
 40
0.0
 40
0.0
 40
1.0
 40
1.0
 40
1.0
 40
1.0
 10
1058.0603099965
 20
873.5
 30
0.0
 10
1057.7855019441
 20
873.5
 30
0.0
 10
1057.5075233014
 20
873.4200634924
 30
0.0
 10
1057.2607058388
 20
873.2992305258
 30
0.0
  0
SPLINE
  5
504
100
AcDbEntity
  8
0
100
AcDbSpline
 62
7
  6
CONTINUOUS
 70
0
 71
3
 72
8
 73
4
 74
0
 42
0.0000001
 43
0.0000001
 44
0.0000000001
 40
0.0
 40
0.0
 40
0.0
 40
0.0
 40
1.0
 40
1.0
 40
1.0
 40
1.0
 10
1057.2607058388
 20
873.2992305258
 30
0.0
 10
1056.9700854298
 20
873.1569532096
 30
0.0
 10
1056.7068097519
 20
872.9595894527
 30
0.0
 10
1056.4602929158
 20
872.7499886266
 30
0.0
  0
SPLINE
  5
505
100
AcDbEntity
  8
0
100
AcDbSpline
 62
7
  6
CONTINUOUS
 70
0
 71
3
 72
8
 73
4
 74
0
 42
0.0000001
 43
0.0000001
 44
0.0000000001
 40
0.0
 40
0.0
 40
0.0
 40
0.0
 40
1.0
 40
1.0
 40
1.0
 40
1.0
 10
1056.4602929158
 20
872.7499886266
 30
0.0
 10
1056.3231124866
 20
872.6333510301
 30
0.0
 10
1056.1903686141
 20
872.5114815542
 30
0.0
 10
1056.0597132652
 20
872.3875784514
 30
0.0
  0
SPLINE
  5
506
100
AcDbEntity
  8
0
100
AcDbSpline
 62
7
  6
CONTINUOUS
 70
0
 71
3
 72
8
 73
4
 74
0
 42
0.0000001
 43
0.0000001
 44
0.0000000001
 40
0.0
 40
0.0
 40
0.0
 40
0.0
 40
1.0
 40
1.0
 40
1.0
 40
1.0
 10
219.2603099965
 20
776.5
 30
0.0
 10
219.5351180489
 20
776.5
 30
0.0
 10
219.8130966917
 20
776.5799365076
 30
0.0
 10
220.0599141543
 20
776.7007694742
 30
0.0
  0
SPLINE
  5
507
100
AcDbEntity
  8
0
100
AcDbSpline
 62
7
  6
CONTINUOUS
 70
0
 71
3
 72
8
 73
4
 74
0
 42
0.0000001
 43
0.0000001
 44
0.0000000001
 40
0.0
 40
0.0
 40
0.0
 40
0.0
 40
1.0
 40
1.0
 40
1.0
 40
1.0
 10
220.0599141543
 20
776.7007694742
 30
0.0
 10
220.3505345632
 20
776.8430467904
 30
0.0
 10
220.6138102411
 20
777.0404105474
 30
0.0
 10
220.8603270773
 20
777.2500113734
 30
0.0
  0
SPLINE
  5
508
100
AcDbEntity
  8
0
100
AcDbSpline
 62
7
  6
CONTINUOUS
 70
0
 71
3
 72
8
 73
4
 74
0
 42
0.0000001
 43
0.0000001
 44
0.0000000001
 40
0.0
 40
0.0
 40
0.0
 40
0.0
 40
1.0
 40
1.0
 40
1.0
 40
1.0
 10
220.8603270773
 20
777.2500113734
 30
0.0
 10
220.9975075064
 20
777.3666489699
 30
0.0
 10
221.130251379
 20
777.4885184458
 30
0.0
 10
221.2609067279
 20
777.6124215486
 30
0.0
  0
SPLINE
  5
509
100
AcDbEntity
  8
0
100
AcDbSpline
 62
7
  6
CONTINUOUS
 70
0
 71
3
 72
8
 73
4
 74
0
 42
0.0000001
 43
0.0000001
 44
0.0000000001
 40
0.0
 40
0.0
 40
0.0
 40
0.0
 40
1.0
 40
1.0
 40
1.0
 40
1.0
 10
1055.6603099965
 20
778.0
 30
0.0
 10
1055.9210242542
 20
777.7440443761
 30
0.0
 10
1056.1815858495
 20
777.4870157841
 30
0.0
 10
1056.4599141543
 20
777.2503333802
 30
0.0
  0
SPLINE
  5
50A
100
AcDbEntity
  8
0
100
AcDbSpline
 62
7
  6
CONTINUOUS
 70
0
 71
3
 72
8
 73
4
 74
0
 42
0.0000001
 43
0.0000001
 44
0.0000000001
 40
0.0
 40
0.0
 40
0.0
 40
0.0
 40
1.0
 40
1.0
 40
1.0
 40
1.0
 10
1056.4599141543
 20
777.2503333802
 30
0.0
 10
1056.7064357407
 20
777.0406984969
 30
0.0
 10
1056.9697075031
 20
776.8432927439
 30
0.0
 10
1057.2603270772
 20
776.700955328
 30
0.0
  0
SPLINE
  5
50B
100
AcDbEntity
  8
0
100
AcDbSpline
 62
7
  6
CONTINUOUS
 70
0
 71
3
 72
8
 73
4
 74
0
 42
0.0000001
 43
0.0000001
 44
0.0000000001
 40
0.0
 40
0.0
 40
0.0
 40
0.0
 40
1.0
 40
1.0
 40
1.0
 40
1.0
 10
1057.2603270772
 20
776.700955328
 30
0.0
 10
1057.5072477657
 20
776.5800204156
 30
0.0
 10
1057.7853644029
 20
776.5
 30
0.0
 10
1058.0603099965
 20
776.5
 30
0.0
  0
LINE
  5
50C
100
AcDbEntity
  8
0
100
AcDbLine
 62
7
  6
CONTINUOUS
 10
1055.6603099965
 20
872.0
 11
1055.7455302821
 21
872.1672408388
  0
LINE
  5
50D
100
AcDbEntity
  8
0
100
AcDbLine
 62
7
  6
CONTINUOUS
 10
1055.7455302821
 20
872.1672408388
 11
1055.833422569
 21
872.3391724203
  0
SPLINE
  5
50E
100
AcDbEntity
  8
0
100
AcDbSpline
 62
7
  6
CONTINUOUS
 70
0
 71
3
 72
8
 73
4
 74
0
 42
0.0000001
 43
0.0000001
 44
0.0000000001
 40
0.0
 40
0.0
 40
0.0
 40
0.0
 40
1.0
 40
1.0
 40
1.0
 40
1.0
 10
1055.833422569
 20
872.3391724203
 30
0.0
 10
1056.0338698826
 20
872.7302170708
 30
0.0
 10
1056.2370667407
 20
873.1203399631
 30
0.0
 10
1056.4598377351
 20
873.4991118314
 30
0.0
  0
SPLINE
  5
50F
100
AcDbEntity
  8
0
100
AcDbSpline
 62
7
  6
CONTINUOUS
 70
0
 71
3
 72
8
 73
4
 74
0
 42
0.0000001
 43
0.0000001
 44
0.0000000001
 40
0.0
 40
0.0
 40
0.0
 40
0.0
 40
1.0
 40
1.0
 40
1.0
 40
1.0
 10
1056.5175336716
 20
873.5961252019
 30
0.0
 10
1056.6056314803
 20
873.7425662602
 30
0.0
 10
1056.6971633932
 20
873.8870910637
 30
0.0
 10
1056.7942992792
 20
874.0276998369
 30
0.0
  0
SPLINE
  5
510
100
AcDbEntity
  8
0
100
AcDbSpline
 62
7
  6
CONTINUOUS
 70
0
 71
3
 72
9
 73
5
 74
0
 42
0.0000001
 43
0.0000001
 44
0.0000000001
 40
0.0
 40
0.0
 40
0.0
 40
0.0
 40
0.3166673665
 40
1.0
 40
1.0
 40
1.0
 40
1.0
 10
1056.8601018679
 20
874.1210313405
 30
0.0
 10
1056.953326859
 20
874.2504897277
 30
0.0
 10
1057.2541450569
 20
874.6395173916
 30
0.0
 10
1057.7160584288
 20
875.0
 30
0.0
 10
1058.0603099965
 20
875.0
 30
0.0
  0
SPLINE
  5
511
100
AcDbEntity
  8
0
100
AcDbSpline
 62
7
  6
CONTINUOUS
 70
0
 71
3
 72
9
 73
5
 74
0
 42
0.0000001
 43
0.0000001
 44
0.0000000001
 40
0.0
 40
0.0
 40
0.0
 40
0.0
 40
0.2002267574
 40
1.0
 40
1.0
 40
1.0
 40
1.0
 10
219.2603099965
 20
875.0
 30
0.0
 10
219.3619698519
 20
875.0
 30
0.0
 10
219.8717937309
 20
874.8882398351
 30
0.0
 10
220.2227717455
 20
874.4510922261
 30
0.0
 10
220.4601041734
 20
874.1216061035
 30
0.0
  0
SPLINE
  5
512
100
AcDbEntity
  8
0
100
AcDbSpline
 62
7
  6
CONTINUOUS
 70
0
 71
3
 72
8
 73
4
 74
0
 42
0.0000001
 43
0.0000001
 44
0.0000000001
 40
0.0
 40
0.0
 40
0.0
 40
0.0
 40
1.0
 40
1.0
 40
1.0
 40
1.0
 10
220.5262048248
 20
874.0278674349
 30
0.0
 10
220.6233589507
 20
873.8872419417
 30
0.0
 10
220.7149065515
 20
873.7426983609
 30
0.0
 10
220.8030186451
 20
873.5962377434
 30
0.0
  0
SPLINE
  5
513
100
AcDbEntity
  8
0
100
AcDbSpline
 62
7
  6
CONTINUOUS
 70
0
 71
3
 72
8
 73
4
 74
0
 42
0.0000001
 43
0.0000001
 44
0.0000000001
 40
0.0
 40
0.0
 40
0.0
 40
0.0
 40
1.0
 40
1.0
 40
1.0
 40
1.0
 10
220.8743637812
 20
873.4759610373
 30
0.0
 10
221.0917789901
 20
873.1044236484
 30
0.0
 10
221.2908203547
 20
872.722276045
 30
0.0
 10
221.4871852434
 20
872.3391961122
 30
0.0
  0
LINE
  5
514
100
AcDbEntity
  8
0
100
AcDbLine
 62
7
  6
CONTINUOUS
 10
221.4871852434
 20
872.3391961122
 11
221.5750843658
 21
872.1672512972
  0
LINE
  5
515
100
AcDbEntity
  8
0
100
AcDbLine
 62
7
  6
CONTINUOUS
 10
221.5750843658
 20
872.1672512972
 11
221.6603099965
 21
872.0
  0
SPLINE
  5
516
100
AcDbEntity
  8
0
100
AcDbSpline
 62
7
  6
CONTINUOUS
 70
0
 71
3
 72
9
 73
5
 74
0
 42
0.0000001
 43
0.0000001
 44
0.0000000001
 40
0.0
 40
0.0
 40
0.0
 40
0.0
 40
0.2066653556
 40
1.0
 40
1.0
 40
1.0
 40
1.0
 10
218.7695980881
 20
777.0
 30
0.0
 10
218.7944516677
 20
777.0295794447
 30
0.0
 10
218.9268093136
 20
777.1625066206
 30
0.0
 10
219.0882926711
 20
777.2619535938
 30
0.0
 10
219.2183228464
 20
777.333281338
 30
0.0
  0
SPLINE
  5
517
100
AcDbEntity
  8
0
100
AcDbSpline
 62
7
  6
CONTINUOUS
 70
0
 71
3
 72
9
 73
5
 74
0
 42
0.0000001
 43
0.0000001
 44
0.0000000001
 40
0.0
 40
0.0
 40
0.0
 40
0.0
 40
0.2226431592
 40
1.0
 40
1.0
 40
1.0
 40
1.0
 10
219.2183228464
 20
777.333281338
 30
0.0
 10
219.271358527
 20
777.3623739348
 30
0.0
 10
219.5131444916
 20
777.4865284528
 30
0.0
 10
219.7646581385
 20
777.5906500401
 30
0.0
 10
219.9616877051
 20
777.666718662
 30
0.0
  0
SPLINE
  5
518
100
AcDbEntity
  8
0
100
AcDbSpline
 62
7
  6
CONTINUOUS
 70
0
 71
3
 72
8
 73
4
 74
0
 42
0.0000001
 43
0.0000001
 44
0.0000000001
 40
0.0
 40
0.0
 40
0.0
 40
0.0
 40
1.0
 40
1.0
 40
1.0
 40
1.0
 10
219.9616877051
 20
777.666718662
 30
0.0
 10
220.2742060966
 20
777.7873748851
 30
0.0
 10
220.5915763888
 20
777.8953732072
 30
0.0
 10
220.9098198545
 20
778.0
 30
0.0
  0
SPLINE
  5
519
100
AcDbEntity
  8
0
100
AcDbSpline
 62
7
  6
CONTINUOUS
 70
0
 71
3
 72
8
 73
4
 74
0
 42
0.0000001
 43
0.0000001
 44
0.0000000001
 40
0.0
 40
0.0
 40
0.0
 40
0.0
 40
1.0
 40
1.0
 40
1.0
 40
1.0
 10
220.9098198545
 20
872.0
 30
0.0
 10
220.5915751214
 20
872.1046272095
 30
0.0
 10
220.2742035692
 20
872.2126259828
 30
0.0
 10
219.9616839737
 20
872.3332827914
 30
0.0
  0
SPLINE
  5
51A
100
AcDbEntity
  8
0
100
AcDbSpline
 62
7
  6
CONTINUOUS
 70
0
 71
3
 72
9
 73
5
 74
0
 42
0.0000001
 43
0.0000001
 44
0.0000000001
 40
0.0
 40
0.0
 40
0.0
 40
0.0
 40
0.3082712644
 40
1.0
 40
1.0
 40
1.0
 40
1.0
 10
219.8670968114
 20
872.3703075728
 30
0.0
 10
219.7530165643
 20
872.4156016107
 30
0.0
 10
219.3886681376
 20
872.5705982238
 30
0.0
 10
219.0189314125
 20
872.7506416267
 30
0.0
 10
218.822241447
 20
872.9434386347
 30
0.0
  0
SPLINE
  5
51B
100
AcDbEntity
  8
0
100
AcDbSpline
 62
7
  6
CONTINUOUS
 70
0
 71
3
 72
9
 73
5
 74
0
 42
0.0000001
 43
0.0000001
 44
0.0000000001
 40
0.0
 40
0.0
 40
0.0
 40
0.0
 40
0.5115127924
 40
1.0
 40
1.0
 40
1.0
 40
1.0
 10
218.822241447
 20
872.9434386347
 30
0.0
 10
218.8128301432
 20
872.9526636666
 30
0.0
 10
218.7948098627
 20
872.9710903685
 30
0.0
 10
218.7776941673
 20
872.9903644654
 30
0.0
 10
218.7695980881
 20
873.0
 30
0.0
  0
SPLINE
  5
51C
100
AcDbEntity
  8
0
100
AcDbSpline
 62
7
  6
CONTINUOUS
 70
0
 71
3
 72
9
 73
5
 74
0
 42
0.0000001
 43
0.0000001
 44
0.0000000001
 40
0.0
 40
0.0
 40
0.0
 40
0.0
 40
0.2066653556
 40
1.0
 40
1.0
 40
1.0
 40
1.0
 10
1058.5510219049
 20
873.0
 30
0.0
 10
1058.5261683253
 20
872.9704205553
 30
0.0
 10
1058.3938106794
 20
872.8374933794
 30
0.0
 10
1058.2323273219
 20
872.7380464062
 30
0.0
 10
1058.1022971466
 20
872.666718662
 30
0.0
  0
SPLINE
  5
51D
100
AcDbEntity
  8
0
100
AcDbSpline
 62
7
  6
CONTINUOUS
 70
0
 71
3
 72
9
 73
5
 74
0
 42
0.0000001
 43
0.0000001
 44
0.0000000001
 40
0.0
 40
0.0
 40
0.0
 40
0.0
 40
0.2226431592
 40
1.0
 40
1.0
 40
1.0
 40
1.0
 10
1058.1022971466
 20
872.666718662
 30
0.0
 10
1058.049261466
 20
872.6376260652
 30
0.0
 10
1057.8074755014
 20
872.5134715472
 30
0.0
 10
1057.5559618545
 20
872.4093499599
 30
0.0
 10
1057.3589322879
 20
872.333281338
 30
0.0
  0
SPLINE
  5
51E
100
AcDbEntity
  8
0
100
AcDbSpline
 62
7
  6
CONTINUOUS
 70
0
 71
3
 72
8
 73
4
 74
0
 42
0.0000001
 43
0.0000001
 44
0.0000000001
 40
0.0
 40
0.0
 40
0.0
 40
0.0
 40
1.0
 40
1.0
 40
1.0
 40
1.0
 10
1057.3589322879
 20
872.333281338
 30
0.0
 10
1057.0464138964
 20
872.2126251149
 30
0.0
 10
1056.7290436042
 20
872.1046267928
 30
0.0
 10
1056.4108001386
 20
872.0
 30
0.0
  0
SPLINE
  5
51F
100
AcDbEntity
  8
0
100
AcDbSpline
 62
7
  6
CONTINUOUS
 70
0
 71
3
 72
8
 73
4
 74
0
 42
0.0000001
 43
0.0000001
 44
0.0000000001
 40
0.0
 40
0.0
 40
0.0
 40
0.0
 40
1.0
 40
1.0
 40
1.0
 40
1.0
 10
1056.4108001386
 20
778.0
 30
0.0
 10
1056.7437536768
 20
777.8905370742
 30
0.0
 10
1057.0758253405
 20
777.7774956085
 30
0.0
 10
1057.4022555497
 20
777.6498887544
 30
0.0
  0
SPLINE
  5
520
100
AcDbEntity
  8
0
100
AcDbSpline
 62
7
  6
CONTINUOUS
 70
0
 71
3
 72
9
 73
5
 74
0
 42
0.0000001
 43
0.0000001
 44
0.0000000001
 40
0.0
 40
0.0
 40
0.0
 40
0.0
 40
0.3092747015
 40
1.0
 40
1.0
 40
1.0
 40
1.0
 10
1057.4022555497
 20
777.6498887544
 30
0.0
 10
1057.5222103167
 20
777.6029964938
 30
0.0
 10
1057.9039882834
 20
777.442906207
 30
0.0
 10
1058.292959069
 20
777.2579149552
 30
0.0
 10
1058.498378304
 20
777.0565616017
 30
0.0
  0
SPLINE
  5
521
100
AcDbEntity
  8
0
100
AcDbSpline
 62
7
  6
CONTINUOUS
 70
0
 71
3
 72
9
 73
5
 74
0
 42
0.0000001
 43
0.0000001
 44
0.0000000001
 40
0.0
 40
0.0
 40
0.0
 40
0.0
 40
0.5115128434
 40
1.0
 40
1.0
 40
1.0
 40
1.0
 10
1058.498378304
 20
777.0565616017
 30
0.0
 10
1058.5077896533
 20
777.0473365321
 30
0.0
 10
1058.5258100185
 20
777.028909755
 30
0.0
 10
1058.5429257912
 20
777.0096355758
 30
0.0
 10
1058.5510219049
 20
777.0
 30
0.0
  0
LINE
  5
522
100
AcDbEntity
  8
0
100
AcDbLine
 62
7
  6
CONTINUOUS
 10
221.6603099965
 20
778.0
 11
221.5750897109
 21
777.8327591612
  0
LINE
  5
523
100
AcDbEntity
  8
0
100
AcDbLine
 62
7
  6
CONTINUOUS
 10
221.5750897109
 20
777.8327591612
 11
221.487197424
 21
777.6608275797
  0
SPLINE
  5
524
100
AcDbEntity
  8
0
100
AcDbSpline
 62
7
  6
CONTINUOUS
 70
0
 71
3
 72
8
 73
4
 74
0
 42
0.0000001
 43
0.0000001
 44
0.0000000001
 40
0.0
 40
0.0
 40
0.0
 40
0.0
 40
1.0
 40
1.0
 40
1.0
 40
1.0
 10
221.487197424
 20
777.6608275797
 30
0.0
 10
221.2908457194
 20
777.277772889
 30
0.0
 10
221.0918177036
 20
776.8956506224
 30
0.0
 10
220.8744203511
 20
776.5241357787
 30
0.0
  0
SPLINE
  5
525
100
AcDbEntity
  8
0
100
AcDbSpline
 62
7
  6
CONTINUOUS
 70
0
 71
3
 72
8
 73
4
 74
0
 42
0.0000001
 43
0.0000001
 44
0.0000000001
 40
0.0
 40
0.0
 40
0.0
 40
0.0
 40
1.0
 40
1.0
 40
1.0
 40
1.0
 10
220.8030863214
 20
776.4038747981
 30
0.0
 10
220.7149885127
 20
776.2574337398
 30
0.0
 10
220.6234565999
 20
776.1129089363
 30
0.0
 10
220.5263207138
 20
775.9723001631
 30
0.0
  0
SPLINE
  5
526
100
AcDbEntity
  8
0
100
AcDbSpline
 62
7
  6
CONTINUOUS
 70
0
 71
3
 72
9
 73
5
 74
0
 42
0.0000001
 43
0.0000001
 44
0.0000000001
 40
0.0
 40
0.0
 40
0.0
 40
0.0
 40
0.3166673665
 40
1.0
 40
1.0
 40
1.0
 40
1.0
 10
220.4605181252
 20
775.8789686595
 30
0.0
 10
220.3672931341
 20
775.7495102723
 30
0.0
 10
220.0664749362
 20
775.3604826084
 30
0.0
 10
219.6045615642
 20
775.0
 30
0.0
 10
219.2603099965
 20
775.0
 30
0.0
  0
SPLINE
  5
527
100
AcDbEntity
  8
0
100
AcDbSpline
 62
7
  6
CONTINUOUS
 70
0
 71
3
 72
9
 73
5
 74
0
 42
0.0000001
 43
0.0000001
 44
0.0000000001
 40
0.0
 40
0.0
 40
0.0
 40
0.0
 40
0.2002267574
 40
1.0
 40
1.0
 40
1.0
 40
1.0
 10
1058.0603099965
 20
775.0
 30
0.0
 10
1057.9586501411
 20
775.0
 30
0.0
 10
1057.4488262622
 20
775.1117601649
 30
0.0
 10
1057.0978482475
 20
775.5489077739
 30
0.0
 10
1056.8605158196
 20
775.8783938965
 30
0.0
  0
SPLINE
  5
528
100
AcDbEntity
  8
0
100
AcDbSpline
 62
7
  6
CONTINUOUS
 70
0
 71
3
 72
8
 73
4
 74
0
 42
0.0000001
 43
0.0000001
 44
0.0000000001
 40
0.0
 40
0.0
 40
0.0
 40
0.0
 40
1.0
 40
1.0
 40
1.0
 40
1.0
 10
1056.7944151683
 20
775.9721325652
 30
0.0
 10
1056.6972610423
 20
776.1127580583
 30
0.0
 10
1056.6057134415
 20
776.2573016391
 30
0.0
 10
1056.5176013479
 20
776.4037622566
 30
0.0
  0
SPLINE
  5
529
100
AcDbEntity
  8
0
100
AcDbSpline
 62
7
  6
CONTINUOUS
 70
0
 71
3
 72
8
 73
4
 74
0
 42
0.0000001
 43
0.0000001
 44
0.0000000001
 40
0.0
 40
0.0
 40
0.0
 40
0.0
 40
1.0
 40
1.0
 40
1.0
 40
1.0
 10
1056.4462562118
 20
776.5240389627
 30
0.0
 10
1056.228841003
 20
776.8955763516
 30
0.0
 10
1056.0297996383
 20
777.277723955
 30
0.0
 10
1055.8334347497
 20
777.6608038878
 30
0.0
  0
LINE
  5
52A
100
AcDbEntity
  8
0
100
AcDbLine
 62
7
  6
CONTINUOUS
 10
1055.8334347497
 20
777.6608038878
 11
1055.7455356272
 21
777.8327487028
  0
LINE
  5
52B
100
AcDbEntity
  8
0
100
AcDbLine
 62
7
  6
CONTINUOUS
 10
1055.7455356272
 20
777.8327487028
 11
1055.6603099965
 21
778.0
  0
ENDSEC
  0
SECTION
  2
OBJECTS
  0
DICTIONARY
  5
C
100
AcDbDictionary
280
0
281
1
  3
ACAD_GROUP
350
D
  3
ACAD_MLINESTYLE
350
17
  3
ACAD_LAYOUT
350
1A
  3
ACAD_PLOTSETTINGS
350
19
  3
ACAD_PLOTSTYLENAME
350
E
  0
DICTIONARY
  5
D
102
{ACAD_REACTORS
330
C
102
}
100
AcDbDictionary
280
0
281
1
  0
ACDBDICTIONARYWDFLT
  5
E
102
{ACAD_REACTORS
330
C
102
}
100
AcDbDictionary
281
1
  3
Normal
350
F
100
AcDbDictionaryWithDefault
340
F
  0
DICTIONARY
  5
17
102
{ACAD_REACTORS
330
C
102
}
100
AcDbDictionary
280
0
281
1
  3
Standard
350
18
  0
DICTIONARY
  5
19
102
{ACAD_REACTORS
330
C
102
}
100
AcDbDictionary
281
1
  0
DICTIONARY
  5
1A
102
{ACAD_REACTORS
330
C
102
}
100
AcDbDictionary
281
1
  3
Model
350
52C
  3
Layout1
350
52D
  0
ACDBPLACEHOLDER
  5
F
102
{ACAD_REACTORS
330
E
102
}
  0
MLINESTYLE
  5
18
102
{ACAD_REACTORS
330
17
102
}
100
AcDbMlineStyle
  2
STANDARD
 70
0
  3

 62
256
 51
90.0
 52
90.0
 71
2
 49
0.5
 62
256
  6
BYLAYER
 49
-0.5
 62
256
  6
BYLAYER
  0
LAYOUT
  5
52C
102
{ACAD_REACTORS
330
1A
102
}
100
AcDbPlotSettings
  1

  2
none_device
  4

  6

 40
0.0
 41
0.0
 42
0.0
 43
0.0
 44
210.0
 45
297.0
 46
0.0
 47
0.0
 48
0.0
 49
0.0
140
0.0
141
0.0
142
1.0
143
1.0
 70
1024
 72
1
 73
0
 74
0
  7

 75
0
147
1.0
148
0.0
149
0.0
100
AcDbLayout
  1
Model
 70
0
 71
0
 10
0.0
 20
0.0
 11
210.0
 21
297.0
 12
0.0
 22
0.0
 32
0.0
 14
0.0
 24
0.0
 34
0.0
 15
0.0
 25
0.0
 35
0.0
146
0.0
 13
0.0
 23
0.0
 33
0.0
 16
1.0
 26
0.0
 36
0.0
 17
0.0
 27
1.0
 37
0.0
 76
0
330
210
345
0
346
0
  0
LAYOUT
  5
52D
102
{ACAD_REACTORS
330
1A
102
}
100
AcDbPlotSettings
  1

  2
none_device
  4

  6

 40
0.0
 41
0.0
 42
0.0
 43
0.0
 44
210.0
 45
297.0
 46
0.0
 47
0.0
 48
0.0
 49
0.0
140
0.0
141
0.0
142
1.0
143
1.0
 70
0
 72
1
 73
0
 74
0
  7

 75
0
147
1.0
148
0.0
149
0.0
100
AcDbLayout
  1
Layout1
 70
0
 71
1
 10
0.0
 20
0.0
 11
210.0
 21
297.0
 12
0.0
 22
0.0
 32
0.0
 14
0.0
 24
0.0
 34
0.0
 15
0.0
 25
0.0
 35
0.0
146
0.0
 13
0.0
 23
0.0
 33
0.0
 16
1.0
 26
0.0
 36
0.0
 17
0.0
 27
1.0
 37
0.0
 76
0
330
211
345
0
346
0
  0
ENDSEC
  0
EOF
