999
DXF file: C:\Users\sesa63760\Dev\_Creo\CAD\MCADID0005431_3D-CAD\drw0001_2.dxf
999
Pro/ENGINEER 2019471 by Parametric Technology Corporation
  0
SECTION
  2
HEADER
  9
$ACADVER
  1
AC1024
  9
$DWGCODEPAGE
  3
ANSI_1252
  9
$EXTMAX
 10
98.4921646396
 20
139.2960614189
 30
0.0
  9
$EXTMIN
 10
0.0
 20
0.0
 30
0.0
  9
$LIMMIN
 10
0.0
 20
0.0
  9
$LIMMAX
 10
98.4921646396
 20
139.2960614189
  9
$VIEWCTR
 10
49.2460823198
 20
69.6480307094
  9
$VIEWSIZE
 40
139.2960614189
  9
$CLAYER
  8
0
  9
$LTSCALE
 40
9.0800395592
  9
$CELTYPE
  6
BYLAYER
  9
$DIMSCALE
 40
1.0
  9
$DIMASZ
 40
1.1725257695
  9
$DIMEXO
 40
1.0
  9
$DIMDLI
 40
6.2734818772
  9
$DIMEXE
 40
1.0
  9
$DIMCEN
 40
1.4858246551
  9
$DIMLFAC
 40
1.0
  9
$DIMBLK
  1
_FILLED
  9
$DIMALT
 70
0
  9
$DIMALTF
 40
0.0393700787
  9
$DIMTXT
 40
1.6415360773
  9
$DIMTOL
 70
1
  9
$DIMLIM
 70
0
  9
$DIMTFAC
 40
1.0
  9
$DIMTP
 40
0.01
  9
$DIMTM
 40
0.01
  9
$DIMGAP
 40
0.625
  9
$DIMDSEP
 70
46
  9
$AUNITS
 70
0
  9
$PDMODE
 70
3
  9
$PDSIZE
 40
0.3125
  9
$HANDSEED
  5
61E
  9
$TILEMODE
 70
1
  9
$MEASUREMENT
 70
1
  9
$INSUNITS
 70
4
  0
ENDSEC
  0
SECTION
  2
CLASSES
  0
CLASS
  1
ACDBDICTIONARYWDFLT
  2
AcDbDictionaryWithDefault
  3
AutoCAD 2000
 90
0
 91
1
280
0
281
0
  0
CLASS
  1
ACDBPLACEHOLDER
  2
AcDbPlaceHolder
  3
AutoCAD 2000
 90
0
 91
1
280
0
281
0
  0
CLASS
  1
LAYOUT
  2
AcDbLayout
  3
AutoCAD 2000
 90
0
 91
0
280
0
281
0
  0
ENDSEC
  0
SECTION
  2
TABLES
  0
TABLE
  2
VPORT
  5
8
100
AcDbSymbolTable
 70
2
  0
VPORT
  5
1F4
100
AcDbSymbolTableRecord
100
AcDbViewportTableRecord
  2
*ACTIVE
 70
0
 10
0.0
 20
0.0
 11
1.0
 21
1.0
 12
49.2460823198
 22
69.6480307094
 13
0.0
 23
0.0
 14
1.0
 24
1.0
 15
0.0
 25
0.0
 16
0.0
 26
0.0
 36
1.0
 17
0.0
 27
0.0
 37
0.0
 40
139.2960614189
 41
0.7070707071
 42
50.0
 43
0.0
 44
0.0
 50
0.0
 51
0.0
 71
0
 72
100
 73
1
 74
1
 75
0
 76
0
 77
0
 78
0
  0
ENDTAB
  0
TABLE
  2
LTYPE
  5
5
100
AcDbSymbolTable
 70
6
  0
LTYPE
  5
14
100
AcDbSymbolTableRecord
100
AcDbLinetypeTableRecord
  2
BYBLOCK
 70
0
  3

 72
65
 73
0
 40
0.0
  0
LTYPE
  5
15
100
AcDbSymbolTableRecord
100
AcDbLinetypeTableRecord
  2
BYLAYER
 70
0
  3

 72
65
 73
0
 40
0.0
  0
LTYPE
  5
16
100
AcDbSymbolTableRecord
100
AcDbLinetypeTableRecord
  2
CONTINUOUS
 70
64
  3
Solid line
 72
65
 73
0
 40
0.0
  0
LTYPE
  5
1F5
100
AcDbSymbolTableRecord
100
AcDbLinetypeTableRecord
  2
CENTER
 70
64
  3
____ _ ____ _ ____ _ ____ _ ____ _ ____ _ ____
 72
65
 73
4
 40
0.6
 49
0.375
 74
0
 49
-0.075
 74
0
 49
0.075
 74
0
 49
-0.075
 74
0
  0
LTYPE
  5
1F6
100
AcDbSymbolTableRecord
100
AcDbLinetypeTableRecord
  2
HIDDEN
 70
64
  3
- - - - - - - - - - - - - - - - - - - -
 72
65
 73
2
 40
0.2
 49
0.1
 74
0
 49
-0.1
 74
0
  0
LTYPE
  5
1F7
100
AcDbSymbolTableRecord
100
AcDbLinetypeTableRecord
  2
PHANTOM
 70
64
  3
_____ _ _ _____ _ _ _____ _ _ _____
 72
65
 73
6
 40
0.8
 49
0.45
 74
0
 49
-0.05
 74
0
 49
0.1
 74
0
 49
-0.05
 74
0
 49
0.1
 74
0
 49
-0.05
 74
0
  0
LTYPE
  5
1F8
100
AcDbSymbolTableRecord
100
AcDbLinetypeTableRecord
  2
DOT
 70
64
  3
. . . . . . . . . . . . . . . . . . . .
 72
65
 73
2
 40
0.2
 49
0.1
 74
0
 49
-0.1
 74
0
  0
LTYPE
  5
1F9
100
AcDbSymbolTableRecord
100
AcDbLinetypeTableRecord
  2
DASHED
 70
64
  3
- - - - - - - - - - - - - - - - - - - -
 72
65
 73
2
 40
0.2
 49
0.1
 74
0
 49
-0.1
 74
0
  0
ENDTAB
  0
TABLE
  2
LAYER
  5
2
100
AcDbSymbolTable
 70
36
  0
LAYER
  5
10
100
AcDbSymbolTableRecord
100
AcDbLayerTableRecord
  2
0
 70
0
 62
7
  6
CONTINUOUS
370
-3
390
F
  0
LAYER
  5
1FA
100
AcDbSymbolTableRecord
100
AcDbLayerTableRecord
  2
DEFAULT_1
 70
0
 62
7
  6
CENTER
370
-3
390
F
  0
LAYER
  5
1FB
100
AcDbSymbolTableRecord
100
AcDbLayerTableRecord
  2
DEFAULT_2
 70
0
 62
7
  6
HIDDEN
370
-3
390
F
  0
LAYER
  5
1FC
100
AcDbSymbolTableRecord
100
AcDbLayerTableRecord
  2
DEFAULT_3
 70
0
 62
7
  6
PHANTOM
370
-3
390
F
  0
LAYER
  5
1FD
100
AcDbSymbolTableRecord
100
AcDbLayerTableRecord
  2
00_COMPONENTS
 70
0
 62
7
  6
CONTINUOUS
370
-3
390
F
  0
LAYER
  5
1FE
100
AcDbSymbolTableRecord
100
AcDbLayerTableRecord
  2
01_1_DEFAULT_DATUMS
 70
0
 62
7
  6
CONTINUOUS
370
-3
390
F
  0
LAYER
  5
1FF
100
AcDbSymbolTableRecord
100
AcDbLayerTableRecord
  2
01_PLANES
 70
0
 62
7
  6
CONTINUOUS
370
-3
390
F
  0
LAYER
  5
200
100
AcDbSymbolTableRecord
100
AcDbLayerTableRecord
  2
02_COORD_SYS
 70
0
 62
7
  6
CONTINUOUS
370
-3
390
F
  0
LAYER
  5
201
100
AcDbSymbolTableRecord
100
AcDbLayerTableRecord
  2
03_AXES
 70
0
 62
7
  6
CONTINUOUS
370
-3
390
F
  0
LAYER
  5
202
100
AcDbSymbolTableRecord
100
AcDbLayerTableRecord
  2
04_POINTS
 70
0
 62
7
  6
CONTINUOUS
370
-3
390
F
  0
LAYER
  5
203
100
AcDbSymbolTableRecord
100
AcDbLayerTableRecord
  2
05_CURVES
 70
0
 62
7
  6
CONTINUOUS
370
-3
390
F
  0
LAYER
  5
204
100
AcDbSymbolTableRecord
100
AcDbLayerTableRecord
  2
06_SURFS
 70
0
 62
7
  6
CONTINUOUS
370
-3
390
F
  0
LAYER
  5
205
100
AcDbSymbolTableRecord
100
AcDbLayerTableRecord
  2
07_COSMETICS
 70
0
 62
7
  6
CONTINUOUS
370
-3
390
F
  0
LAYER
  5
206
100
AcDbSymbolTableRecord
100
AcDbLayerTableRecord
  2
10_NOTES
 70
0
 62
7
  6
CONTINUOUS
370
-3
390
F
  0
LAYER
  5
207
100
AcDbSymbolTableRecord
100
AcDbLayerTableRecord
  2
11_NOTES_PUB
 70
0
 62
7
  6
CONTINUOUS
370
-3
390
F
  0
LAYER
  5
208
100
AcDbSymbolTableRecord
100
AcDbLayerTableRecord
  2
13_REF_GTOL
 70
0
 62
7
  6
CONTINUOUS
370
-3
390
F
  0
LAYER
  5
209
100
AcDbSymbolTableRecord
100
AcDbLayerTableRecord
  2
16_MISC
 70
0
 62
7
  6
CONTINUOUS
370
-3
390
F
  0
LAYER
  5
20A
100
AcDbSymbolTableRecord
100
AcDbLayerTableRecord
  2
17_NO_PRINT
 70
0
 62
7
  6
CONTINUOUS
370
-3
390
F
  0
LAYER
  5
20B
100
AcDbSymbolTableRecord
100
AcDbLayerTableRecord
  2
18_DATUM_CAMS_JOINTS
 70
0
 62
7
  6
CONTINUOUS
370
-3
390
F
  0
LAYER
  5
20C
100
AcDbSymbolTableRecord
100
AcDbLayerTableRecord
  2
19_DATUM_FUNCTIONAL
 70
0
 62
7
  6
CONTINUOUS
370
-3
390
F
  0
LAYER
  5
20D
100
AcDbSymbolTableRecord
100
AcDbLayerTableRecord
  2
20_DATUM_KINEMATIC_SCHEME
 70
0
 62
7
  6
CONTINUOUS
370
-3
390
F
  0
ENDTAB
  0
TABLE
  2
STYLE
  5
3
100
AcDbSymbolTable
 70
1
  0
STYLE
  5
11
100
AcDbSymbolTableRecord
100
AcDbTextStyleTableRecord
  2
STANDARD
 70
0
 40
0.0
 41
1.0
 50
0.0
 71
0
 42
0.2
  3
ARIAL.TTF
  4

  0
STYLE
  5
20E
100
AcDbSymbolTableRecord
100
AcDbTextStyleTableRecord
  2
TEXTSTYLE_1
 70
0
 40
0.0
 41
0.8
 50
0.0
 71
0
 42
0.2
  3
gdt
  4

  0
ENDTAB
  0
TABLE
  2
VIEW
  5
6
100
AcDbSymbolTable
 70
0
  0
ENDTAB
  0
TABLE
  2
UCS
  5
7
100
AcDbSymbolTable
 70
0
  0
ENDTAB
  0
TABLE
  2
APPID
  5
9
100
AcDbSymbolTable
 70
1
  0
APPID
  5
20F
100
AcDbSymbolTableRecord
100
AcDbRegAppTableRecord
  2
ACAD
 70
0
  0
ENDTAB
  0
TABLE
  2
BLOCK_RECORD
  5
1
100
AcDbSymbolTable
 70
0
  0
BLOCK_RECORD
  5
210
100
AcDbSymbolTableRecord
100
AcDbBlockTableRecord
  2
*Model_Space
  0
BLOCK_RECORD
  5
211
100
AcDbSymbolTableRecord
100
AcDbBlockTableRecord
  2
*Paper_Space
  0
BLOCK_RECORD
  5
212
100
AcDbSymbolTableRecord
100
AcDbBlockTableRecord
  2
_FILLED
  0
ENDTAB
  0
TABLE
  2
DIMSTYLE
  5
A
100
AcDbSymbolTable
 70
1
100
AcDbDimStyleTable
 71
0
  0
DIMSTYLE
105
213
100
AcDbSymbolTableRecord
100
AcDbDimStyleTableRecord
  2
STANDARD
 70
0
  3

  4

 40
1.0
 41
1.1725257695
 42
1.0
 43
0.38
 44
1.0
 45
0.0
 46
0.0
 47
0.01
 48
0.01
140
1.6415360773
141
0.09
142
0.0
143
25.4
144
1.0
145
0.0
146
1.0
147
0.625
 71
1
 72
0
 73
0
 74
0
 75
0
 76
0
 77
1
 78
8
 79
2
170
0
171
1
172
0
173
0
174
0
175
0
176
0
177
0
178
0
270
2
179
2
271
2
272
2
273
2
274
2
275
0
280
0
281
0
282
0
283
1
284
8
285
0
286
0
287
3
288
0
340
11
278
46
341
212
342
212
343
212
344
212
  0
ENDTAB
  0
ENDSEC
  0
SECTION
  2
BLOCKS
  0
BLOCK
  5
20
100
AcDbEntity
  8
0
100
AcDbBlockBegin
  2
*Model_Space
 70
0
 10
0.0
 20
0.0
 30
0.0
  3
*Model_Space
  1

  0
ENDBLK
  5
21
100
AcDbEntity
  8
0
100
AcDbBlockEnd
  0
BLOCK
  5
1C
100
AcDbEntity
  8
0
100
AcDbBlockBegin
  2
*Paper_Space
 70
0
 10
0.0
 20
0.0
 30
0.0
  3
*Paper_Space
  1

  0
ENDBLK
  5
1D
100
AcDbEntity
  8
0
100
AcDbBlockEnd
  0
BLOCK
  5
214
100
AcDbEntity
  8
0
100
AcDbBlockBegin
  2
_FILLED
 70
64
 10
0.0
 20
0.0
  3
_FILLED
  1

  0
SOLID
  5
215
100
AcDbEntity
  8
0
  6
BYBLOCK
 62
0
100
AcDbTrace
 10
0.0
 20
0.0
 11
-1.0
 21
0.25
 12
-1.0
 22
-0.25
 13
-1.0
 23
-0.25
  0
ENDBLK
  5
216
100
AcDbEntity
  8
0
  6
BYBLOCK
 62
0
100
AcDbBlockEnd
  0
ENDSEC
  0
SECTION
  2
ENTITIES
  0
LINE
  5
217
100
AcDbEntity
  8
0
100
AcDbLine
 62
7
  6
BYLAYER
 10
37.753375332
 20
9.2920873284
 11
56.7527657877
 21
9.2920873284
  0
LINE
  5
218
100
AcDbEntity
  8
0
100
AcDbLine
 62
7
  6
BYLAYER
 10
37.2530705598
 20
9.7920873284
 11
37.4102140226
 21
9.7920873284
  0
LINE
  5
219
100
AcDbEntity
  8
0
100
AcDbLine
 62
7
  6
BYLAYER
 10
57.0959270971
 20
9.7920873284
 11
57.2530705598
 21
9.7920873284
  0
LINE
  5
21A
100
AcDbEntity
  8
0
100
AcDbLine
 62
7
  6
BYLAYER
 10
54.4459270793
 20
14.1490801005
 11
54.5157650098
 21
14.1491259439
  0
LINE
  5
21B
100
AcDbEntity
  8
0
100
AcDbLine
 62
7
  6
BYLAYER
 10
57.2530705598
 20
10.7920873284
 11
57.0959270971
 21
10.7920873284
  0
LINE
  5
21C
100
AcDbEntity
  8
0
100
AcDbLine
 62
7
  6
BYLAYER
 10
37.4102140226
 20
10.7920873284
 11
37.2530705598
 21
10.7920873284
  0
LINE
  5
21D
100
AcDbEntity
  8
0
100
AcDbLine
 62
7
  6
BYLAYER
 10
37.753375332
 20
11.2920873284
 11
40.0602140226
 21
11.2920873284
  0
LINE
  5
21E
100
AcDbEntity
  8
0
100
AcDbLine
 62
7
  6
BYLAYER
 10
54.4459270971
 20
11.2920873284
 11
56.7527657877
 21
11.2920873284
  0
LINE
  5
21F
100
AcDbEntity
  8
0
100
AcDbLine
 62
7
  6
BYLAYER
 10
50.2530705598
 20
12.9920873284
 11
44.2530705598
 21
12.9920873284
  0
LINE
  5
220
100
AcDbEntity
  8
0
100
AcDbLine
 62
7
  6
BYLAYER
 10
39.9903724819
 20
14.1490631364
 11
40.0602140229
 21
14.1490616408
  0
LINE
  5
221
100
AcDbEntity
  8
0
100
AcDbLine
 62
7
  6
BYLAYER
 10
40.4105233864
 20
14.2920873284
 11
41.1780705598
 21
14.2920873284
  0
LINE
  5
222
100
AcDbEntity
  8
0
100
AcDbLine
 62
7
  6
BYLAYER
 10
53.3280705598
 20
14.2920873284
 11
54.0956226489
 21
14.2920873284
  0
LINE
  5
223
100
AcDbEntity
  8
0
100
AcDbLine
 62
7
  6
BYLAYER
 10
29.8842820921
 20
121.1925053617
 11
29.9232788231
 21
121.2315978817
  0
LINE
  5
224
100
AcDbEntity
  8
0
100
AcDbLine
 62
7
  6
BYLAYER
 10
29.423345581
 20
121.7314282856
 11
29.3843375035
 21
121.6924563972
  0
LINE
  5
225
100
AcDbEntity
  8
0
100
AcDbLine
 62
7
  6
BYLAYER
 10
49.7530705598
 20
15.7920873284
 11
48.5759505598
 21
15.7920873284
  0
LINE
  5
226
100
AcDbEntity
  8
0
100
AcDbLine
 62
7
  6
BYLAYER
 10
45.9301905599
 20
15.7920873284
 11
44.7530705598
 21
15.7920873284
  0
LINE
  5
227
100
AcDbEntity
  8
0
100
AcDbLine
 62
7
  6
BYLAYER
 10
42.8030705598
 20
17.2920873284
 11
43.5367050068
 21
17.2920834258
  0
LINE
  5
228
100
AcDbEntity
  8
0
100
AcDbLine
 62
7
  6
BYLAYER
 10
50.9693960102
 20
17.2920834256
 11
51.7030705597
 21
17.2920873284
  0
LINE
  5
229
100
AcDbEntity
  8
0
100
AcDbLine
 62
7
  6
BYLAYER
 10
34.8530705592
 20
123.7925788125
 11
34.9145813204
 21
123.8541141549
  0
LINE
  5
22A
100
AcDbEntity
  8
0
100
AcDbLine
 62
7
  6
BYLAYER
 10
30.8137957133
 20
118.092504397
 11
30.7663561765
 21
118.0450648656
  0
LINE
  5
22B
100
AcDbEntity
  8
0
100
AcDbLine
 62
7
  6
BYLAYER
 10
30.8530705601
 20
115.4924332333
 11
30.7694952379
 21
115.4088544039
  0
LINE
  5
22C
100
AcDbEntity
  8
0
100
AcDbLine
 62
7
  6
BYLAYER
 10
34.4029717448
 20
124.3423341917
 11
34.3531293301
 21
124.2925053519
  0
LINE
  5
22D
100
AcDbEntity
  8
0
100
AcDbLine
 62
7
  6
BYLAYER
 10
29.7530486286
 20
19.492527953
 11
39.9030705598
 21
19.4925279519
  0
LINE
  5
22E
100
AcDbEntity
  8
0
100
AcDbLine
 62
7
  6
BYLAYER
 10
42.3030705598
 20
19.4925279517
 11
44.9537637368
 21
19.4925279514
  0
LINE
  5
22F
100
AcDbEntity
  8
0
100
AcDbLine
 62
7
  6
BYLAYER
 10
49.5514743876
 20
19.4925279509
 11
52.2030705598
 21
19.4925279507
  0
LINE
  5
230
100
AcDbEntity
  8
0
100
AcDbLine
 62
7
  6
BYLAYER
 10
54.6030705598
 20
19.4925279504
 11
64.753092491
 21
19.4925279494
  0
LINE
  5
231
100
AcDbEntity
  8
0
100
AcDbLine
 62
7
  6
BYLAYER
 10
29.7650320246
 20
19.5560173312
 11
39.9030705598
 21
19.5560173313
  0
LINE
  5
232
100
AcDbEntity
  8
0
100
AcDbLine
 62
7
  6
BYLAYER
 10
42.3030705598
 20
19.5560173313
 11
45.0127854143
 21
19.5560173313
  0
LINE
  5
233
100
AcDbEntity
  8
0
100
AcDbLine
 62
7
  6
BYLAYER
 10
49.4921185898
 20
19.5560173314
 11
52.2030705598
 21
19.5560173314
  0
LINE
  5
234
100
AcDbEntity
  8
0
100
AcDbLine
 62
7
  6
BYLAYER
 10
54.6030705598
 20
19.5560173314
 11
64.741109228
 21
19.5560173314
  0
LINE
  5
235
100
AcDbEntity
  8
0
100
AcDbLine
 62
7
  6
BYLAYER
 10
39.5030705598
 20
21.5920873284
 11
39.9030705598
 21
21.5920873284
  0
LINE
  5
236
100
AcDbEntity
  8
0
100
AcDbLine
 62
7
  6
BYLAYER
 10
42.3030705598
 20
21.5920873284
 11
52.2030705598
 21
21.5920873284
  0
LINE
  5
237
100
AcDbEntity
  8
0
100
AcDbLine
 62
7
  6
BYLAYER
 10
54.6030705598
 20
21.5920873284
 11
55.0030705598
 21
21.5920873284
  0
LINE
  5
238
100
AcDbEntity
  8
0
100
AcDbLine
 62
7
  6
BYLAYER
 10
39.4372028256
 20
122.5702752809
 11
39.4594328975
 21
122.5925053528
  0
LINE
  5
239
100
AcDbEntity
  8
0
100
AcDbLine
 62
7
  6
BYLAYER
 10
41.4808404879
 20
122.5702752809
 11
41.5030705598
 21
122.5925053528
  0
LINE
  5
23A
100
AcDbEntity
  8
0
100
AcDbLine
 62
7
  6
BYLAYER
 10
31.2708349316
 20
114.9103420033
 11
31.3530122054
 21
114.9925053538
  0
LINE
  5
23B
100
AcDbEntity
  8
0
100
AcDbLine
 62
7
  6
BYLAYER
 10
67.1030708491
 20
27.2425053531
 11
70.1971391605
 21
28.0823238947
  0
LINE
  5
23C
100
AcDbEntity
  8
0
100
AcDbLine
 62
7
  6
BYLAYER
 10
67.1030709757
 20
27.5216484502
 11
70.0867692825
 21
28.3315094191
  0
LINE
  5
23D
100
AcDbEntity
  8
0
100
AcDbLine
 62
7
  6
BYLAYER
 10
70.0530708492
 20
28.4556615417
 11
67.1030708491
 21
27.6549472555
  0
LINE
  5
23E
100
AcDbEntity
  8
0
100
AcDbLine
 62
7
  6
BYLAYER
 10
67.1030708491
 20
28.0611694771
 11
69.49353036
 21
28.4532048361
  0
LINE
  5
23F
100
AcDbEntity
  8
0
100
AcDbLine
 62
7
  6
BYLAYER
 10
67.1030708492
 20
28.1625053529
 11
69.4773465554
 21
28.5518865689
  0
LINE
  5
240
100
AcDbEntity
  8
0
100
AcDbLine
 62
7
  6
BYLAYER
 10
34.4029757309
 20
23.8393522427
 11
31.3031655358
 21
23.8393522427
  0
LINE
  5
241
100
AcDbEntity
  8
0
100
AcDbLine
 62
7
  6
BYLAYER
 10
31.3031694279
 20
24.6426765145
 11
34.4029716893
 21
24.6426765117
  0
LINE
  5
242
100
AcDbEntity
  8
0
100
AcDbLine
 62
7
  6
BYLAYER
 10
31.3530122031
 20
24.6925053538
 11
34.3531288979
 21
24.692505354
  0
LINE
  5
243
100
AcDbEntity
  8
0
100
AcDbLine
 62
7
  6
BYLAYER
 10
64.5993166055
 20
24.9155143741
 11
63.6207063496
 21
24.9155143741
  0
LINE
  5
244
100
AcDbEntity
  8
0
100
AcDbLine
 62
7
  6
BYLAYER
 10
39.5030705598
 20
25.6047723134
 11
39.9030705598
 21
25.6047723134
  0
LINE
  5
245
100
AcDbEntity
  8
0
100
AcDbLine
 62
7
  6
BYLAYER
 10
54.6030705598
 20
25.6047723134
 11
55.0030705598
 21
25.6047723134
  0
LINE
  5
246
100
AcDbEntity
  8
0
100
AcDbLine
 62
7
  6
BYLAYER
 10
60.8637211975
 20
25.6555211853
 11
62.4424199221
 21
25.6555211853
  0
LINE
  5
247
100
AcDbEntity
  8
0
100
AcDbLine
 62
7
  6
BYLAYER
 10
63.6280673313
 20
25.6698673185
 11
64.5993077189
 21
25.669867138
  0
LINE
  5
248
100
AcDbEntity
  8
0
100
AcDbLine
 62
7
  6
BYLAYER
 10
64.6219176796
 20
25.6925053072
 11
63.6507053522
 21
25.6925053416
  0
LINE
  5
249
100
AcDbEntity
  8
0
100
AcDbLine
 62
7
  6
BYLAYER
 10
62.4054357546
 20
25.6925053529
 11
60.9007053651
 21
25.6925053529
  0
LINE
  5
24A
100
AcDbEntity
  8
0
100
AcDbLine
 62
7
  6
BYLAYER
 10
65.2530708491
 20
25.8443921449
 11
63.7530708491
 21
25.8443921449
  0
LINE
  5
24B
100
AcDbEntity
  8
0
100
AcDbLine
 62
7
  6
BYLAYER
 10
62.2530708491
 20
25.8443921449
 11
61.2530708491
 21
25.8443921449
  0
LINE
  5
24C
100
AcDbEntity
  8
0
100
AcDbLine
 62
7
  6
BYLAYER
 10
42.3030705598
 20
25.9920873284
 11
43.6030705598
 21
25.9920873284
  0
LINE
  5
24D
100
AcDbEntity
  8
0
100
AcDbLine
 62
7
  6
BYLAYER
 10
50.9030705598
 20
25.9920873284
 11
52.2030705598
 21
25.9920873284
  0
LINE
  5
24E
100
AcDbEntity
  8
0
100
AcDbLine
 62
7
  6
BYLAYER
 10
55.0467082222
 20
26.3925053529
 11
53.0030705598
 21
26.3925053529
  0
LINE
  5
24F
100
AcDbEntity
  8
0
100
AcDbLine
 62
7
  6
BYLAYER
 10
39.4594328975
 20
26.3925053529
 11
41.5030705598
 21
26.3925053529
  0
LINE
  5
250
100
AcDbEntity
  8
0
100
AcDbLine
 62
7
  6
BYLAYER
 10
55.0689382941
 20
26.4147354248
 11
53.0253006318
 21
26.4147354248
  0
LINE
  5
251
100
AcDbEntity
  8
0
100
AcDbLine
 62
7
  6
BYLAYER
 10
41.4808404879
 20
26.4147354248
 11
39.4372028256
 21
26.4147354248
  0
LINE
  5
252
100
AcDbEntity
  8
0
100
AcDbLine
 62
7
  6
BYLAYER
 10
30.2747900501
 20
27.0982317308
 11
29.9232788231
 21
27.0982317308
  0
LINE
  5
253
100
AcDbEntity
  8
0
100
AcDbLine
 62
7
  6
BYLAYER
 10
60.9530705598
 20
27.2634430642
 11
61.2530708491
 21
27.2634430642
  0
LINE
  5
254
100
AcDbEntity
  8
0
100
AcDbLine
 62
7
  6
BYLAYER
 10
62.2530708491
 20
27.2634430642
 11
62.3530705598
 21
27.2634430642
  0
LINE
  5
255
100
AcDbEntity
  8
0
100
AcDbLine
 62
7
  6
BYLAYER
 10
63.703070467
 20
27.2634355129
 11
63.7530708491
 21
27.263435258
  0
LINE
  5
256
100
AcDbEntity
  8
0
100
AcDbLine
 62
7
  6
BYLAYER
 10
42.3030705598
 20
27.2920873284
 11
43.6030705599
 21
27.2920873284
  0
LINE
  5
257
100
AcDbEntity
  8
0
100
AcDbLine
 62
7
  6
BYLAYER
 10
50.9030705598
 20
27.2920873284
 11
52.2030705598
 21
27.2920873284
  0
LINE
  5
258
100
AcDbEntity
  8
0
100
AcDbLine
 62
7
  6
BYLAYER
 10
62.4543147132
 20
27.401004705
 11
63.6018263744
 21
27.401004705
  0
LINE
  5
259
100
AcDbEntity
  8
0
100
AcDbLine
 62
7
  6
BYLAYER
 10
61.2530708491
 20
27.4667471294
 11
62.2530708491
 21
27.4667471294
  0
LINE
  5
25A
100
AcDbEntity
  8
0
100
AcDbLine
 62
7
  6
BYLAYER
 10
63.7530708491
 20
27.4667471294
 11
65.2530708491
 21
27.4667471294
  0
LINE
  5
25B
100
AcDbEntity
  8
0
100
AcDbLine
 62
7
  6
BYLAYER
 10
29.3843393266
 20
27.2925382133
 11
29.4233515301
 21
27.2546039432
  0
LINE
  5
25C
100
AcDbEntity
  8
0
100
AcDbLine
 62
7
  6
BYLAYER
 10
34.3531288979
 20
24.692505354
 11
34.4029716893
 21
24.6426765117
  0
LINE
  5
25D
100
AcDbEntity
  8
0
100
AcDbLine
 62
7
  6
BYLAYER
 10
29.9232922505
 20
27.753412829
 11
29.8842451329
 21
27.792505179
  0
LINE
  5
25E
100
AcDbEntity
  8
0
100
AcDbLine
 62
7
  6
BYLAYER
 10
34.9145805005
 20
25.1308273725
 11
34.853070555
 21
25.1924372273
  0
LINE
  5
25F
100
AcDbEntity
  8
0
100
AcDbLine
 62
7
  6
BYLAYER
 10
68.0246862932
 20
28.9308871139
 11
67.1798110565
 21
28.9008463187
  0
LINE
  5
260
100
AcDbEntity
  8
0
100
AcDbLine
 62
7
  6
BYLAYER
 10
67.1830094289
 20
28.8450633878
 11
69.4479785076
 21
28.9175423983
  0
LINE
  5
261
100
AcDbEntity
  8
0
100
AcDbLine
 62
7
  6
BYLAYER
 10
69.4682353069
 20
29.0174925452
 11
68.3927647574
 21
28.9830731061
  0
LINE
  5
262
100
AcDbEntity
  8
0
100
AcDbLine
 62
7
  6
BYLAYER
 10
61.2530708491
 20
27.6276506375
 11
62.2530708491
 21
27.6276506375
  0
LINE
  5
263
100
AcDbEntity
  8
0
100
AcDbLine
 62
7
  6
BYLAYER
 10
63.7530708491
 20
27.6276506375
 11
65.2530708491
 21
27.6276506375
  0
LINE
  5
264
100
AcDbEntity
  8
0
100
AcDbLine
 62
7
  6
BYLAYER
 10
29.9232922505
 20
27.753412829
 11
30.7747041367
 21
27.7534128258
  0
LINE
  5
265
100
AcDbEntity
  8
0
100
AcDbLine
 62
7
  6
BYLAYER
 10
30.8137934899
 20
27.7925031531
 11
29.8842451329
 21
27.792505179
  0
LINE
  5
266
100
AcDbEntity
  8
0
100
AcDbLine
 62
7
  6
BYLAYER
 10
66.4030708491
 20
27.8025053529
 11
67.1030708491
 21
27.8025053529
  0
LINE
  5
267
100
AcDbEntity
  8
0
100
AcDbLine
 62
7
  6
BYLAYER
 10
66.4030708491
 20
27.8684950896
 11
67.1030708491
 21
27.8684950896
  0
LINE
  5
268
100
AcDbEntity
  8
0
100
AcDbLine
 62
7
  6
BYLAYER
 10
66.4030708491
 20
27.9638929378
 11
67.1030708491
 21
27.9638929377
  0
LINE
  5
269
100
AcDbEntity
  8
0
100
AcDbLine
 62
7
  6
BYLAYER
 10
62.4054375426
 20
28.0425053529
 11
63.6507038159
 21
28.0425053529
  0
LINE
  5
26A
100
AcDbEntity
  8
0
100
AcDbLine
 62
7
  6
BYLAYER
 10
63.7530708491
 20
28.0925053529
 11
62.2530708491
 21
28.0925053529
  0
LINE
  5
26B
100
AcDbEntity
  8
0
100
AcDbLine
 62
7
  6
BYLAYER
 10
66.4030708491
 20
28.1625053529
 11
67.1030708491
 21
28.1625053529
  0
LINE
  5
26C
100
AcDbEntity
  8
0
100
AcDbLine
 62
7
  6
BYLAYER
 10
63.9549939261
 20
28.6225053529
 11
64.1103424841
 21
28.6225053529
  0
LINE
  5
26D
100
AcDbEntity
  8
0
100
AcDbLine
 62
7
  6
BYLAYER
 10
64.8957992141
 20
28.6225053529
 11
65.0511477721
 21
28.6225053529
  0
LINE
  5
26E
100
AcDbEntity
  8
0
100
AcDbLine
 62
7
  6
BYLAYER
 10
69.6030708491
 20
28.6999091686
 11
69.7030708491
 21
28.6999091686
  0
LINE
  5
26F
100
AcDbEntity
  8
0
100
AcDbLine
 62
7
  6
BYLAYER
 10
69.7030708491
 20
28.7676285725
 11
69.6030708491
 21
28.7676285725
  0
LINE
  5
270
100
AcDbEntity
  8
0
100
AcDbLine
 62
7
  6
BYLAYER
 10
65.353070849
 20
28.8425053529
 11
67.0230913188
 21
28.8425053529
  0
LINE
  5
271
100
AcDbEntity
  8
0
100
AcDbLine
 62
7
  6
BYLAYER
 10
67.0230917337
 20
28.8980609058
 11
65.3530708487
 21
28.8980609058
  0
LINE
  5
272
100
AcDbEntity
  8
0
100
AcDbLine
 62
7
  6
BYLAYER
 10
67.8052781641
 20
29.3425053438
 11
67.8995181932
 21
29.3425053474
  0
LINE
  5
273
100
AcDbEntity
  8
0
100
AcDbLine
 62
7
  6
BYLAYER
 10
62.7822807261
 20
29.7831456339
 11
63.2238609721
 21
29.7831456339
  0
LINE
  5
274
100
AcDbEntity
  8
0
100
AcDbLine
 62
7
  6
BYLAYER
 10
62.310005844
 20
29.7837566849
 11
62.4251007672
 21
29.7837566849
  0
LINE
  5
275
100
AcDbEntity
  8
0
100
AcDbLine
 62
7
  6
BYLAYER
 10
65.3530708477
 20
29.7869498
 11
67.0230917596
 21
29.7869498
  0
LINE
  5
276
100
AcDbEntity
  8
0
100
AcDbLine
 62
7
  6
BYLAYER
 10
67.0230913188
 20
29.8425053529
 11
65.353070849
 21
29.8425053529
  0
LINE
  5
277
100
AcDbEntity
  8
0
100
AcDbLine
 62
7
  6
BYLAYER
 10
69.6030708491
 20
29.9173821332
 11
69.703070849
 21
29.9173821332
  0
LINE
  5
278
100
AcDbEntity
  8
0
100
AcDbLine
 62
7
  6
BYLAYER
 10
69.703070849
 20
29.9851015371
 11
69.6030708491
 21
29.9851015371
  0
LINE
  5
279
100
AcDbEntity
  8
0
100
AcDbLine
 62
7
  6
BYLAYER
 10
65.0703785411
 20
30.1225053529
 11
64.9150299841
 21
30.1225053529
  0
LINE
  5
27A
100
AcDbEntity
  8
0
100
AcDbLine
 62
7
  6
BYLAYER
 10
64.0911117141
 20
30.1225053529
 11
63.9357631571
 21
30.1225053529
  0
LINE
  5
27B
100
AcDbEntity
  8
0
100
AcDbLine
 62
7
  6
BYLAYER
 10
66.4030708491
 20
30.5225053529
 11
67.1030708491
 21
30.5225053529
  0
LINE
  5
27C
100
AcDbEntity
  8
0
100
AcDbLine
 62
7
  6
BYLAYER
 10
63.7530708491
 20
30.5925053529
 11
62.2530708491
 21
30.5925053529
  0
LINE
  5
27D
100
AcDbEntity
  8
0
100
AcDbLine
 62
7
  6
BYLAYER
 10
62.4054375696
 20
30.6425053529
 11
63.6507040674
 21
30.6425053529
  0
LINE
  5
27E
100
AcDbEntity
  8
0
100
AcDbLine
 62
7
  6
BYLAYER
 10
67.1030708491
 20
30.7211177675
 11
66.4030708491
 21
30.7211177672
  0
LINE
  5
27F
100
AcDbEntity
  8
0
100
AcDbLine
 62
7
  6
BYLAYER
 10
67.1030708491
 20
30.8165156165
 11
66.4030708491
 21
30.8165156165
  0
LINE
  5
280
100
AcDbEntity
  8
0
100
AcDbLine
 62
7
  6
BYLAYER
 10
66.4030708491
 20
30.8825053529
 11
67.1030708491
 21
30.8825053529
  0
LINE
  5
281
100
AcDbEntity
  8
0
100
AcDbLine
 62
7
  6
BYLAYER
 10
29.8842479419
 20
30.8925059361
 11
30.8137937263
 21
30.8925083056
  0
LINE
  5
282
100
AcDbEntity
  8
0
100
AcDbLine
 62
7
  6
BYLAYER
 10
29.9316267339
 20
30.9399457455
 11
30.7663561744
 21
30.9399458423
  0
LINE
  5
283
100
AcDbEntity
  8
0
100
AcDbLine
 62
7
  6
BYLAYER
 10
65.2530708491
 20
31.0573600662
 11
63.7530708491
 21
31.0573600653
  0
LINE
  5
284
100
AcDbEntity
  8
0
100
AcDbLine
 62
7
  6
BYLAYER
 10
62.2530708491
 20
31.0573600659
 11
61.2530708491
 21
31.0573600653
  0
LINE
  5
285
100
AcDbEntity
  8
0
100
AcDbLine
 62
7
  6
BYLAYER
 10
63.5943204868
 20
31.1724225216
 11
62.4618206162
 21
31.1724225216
  0
LINE
  5
286
100
AcDbEntity
  8
0
100
AcDbLine
 62
7
  6
BYLAYER
 10
65.2530708491
 20
31.2182635773
 11
63.7530708491
 21
31.2182635773
  0
LINE
  5
287
100
AcDbEntity
  8
0
100
AcDbLine
 62
7
  6
BYLAYER
 10
62.2530708491
 20
31.2182635773
 11
61.2530708491
 21
31.2182635773
  0
LINE
  5
288
100
AcDbEntity
  8
0
100
AcDbLine
 62
7
  6
BYLAYER
 10
63.7530708491
 20
31.4215678242
 11
63.7030705598
 21
31.4215676415
  0
LINE
  5
289
100
AcDbEntity
  8
0
100
AcDbLine
 62
7
  6
BYLAYER
 10
62.3530705598
 20
31.4215676415
 11
62.2530708491
 21
31.4215676415
  0
LINE
  5
28A
100
AcDbEntity
  8
0
100
AcDbLine
 62
7
  6
BYLAYER
 10
61.2530708491
 20
31.4215676415
 11
60.9530705598
 21
31.4215676415
  0
LINE
  5
28B
100
AcDbEntity
  8
0
100
AcDbLine
 62
7
  6
BYLAYER
 10
41.4677211571
 20
31.4608434094
 11
35.439819441
 21
31.4608434094
  0
LINE
  5
28C
100
AcDbEntity
  8
0
100
AcDbLine
 62
7
  6
BYLAYER
 10
63.594688668
 20
31.4608553047
 11
62.4614523113
 21
31.4608553047
  0
LINE
  5
28D
100
AcDbEntity
  8
0
100
AcDbLine
 62
7
  6
BYLAYER
 10
60.8446888084
 20
31.4608553047
 11
53.0384199384
 21
31.4608553047
  0
LINE
  5
28E
100
AcDbEntity
  8
0
100
AcDbLine
 62
7
  6
BYLAYER
 10
29.9316267836
 20
31.4828887632
 11
30.2664180115
 21
31.4828887632
  0
LINE
  5
28F
100
AcDbEntity
  8
0
100
AcDbLine
 62
7
  6
BYLAYER
 10
68.3927647547
 20
29.7019368123
 11
69.4682352854
 21
29.6675174122
  0
LINE
  5
290
100
AcDbEntity
  8
0
100
AcDbLine
 62
7
  6
BYLAYER
 10
69.4479784857
 20
29.7674683081
 11
67.183009429
 21
29.8399473179
  0
LINE
  5
291
100
AcDbEntity
  8
0
100
AcDbLine
 62
7
  6
BYLAYER
 10
67.1798110877
 20
29.7841643872
 11
68.0246817257
 21
29.7541233493
  0
LINE
  5
292
100
AcDbEntity
  8
0
100
AcDbLine
 62
7
  6
BYLAYER
 10
31.3530384662
 20
33.9925053518
 11
31.2708401223
 21
34.0746686972
  0
LINE
  5
293
100
AcDbEntity
  8
0
100
AcDbLine
 62
7
  6
BYLAYER
 10
30.8137925481
 20
30.8925089255
 11
30.7663561744
 21
30.9399458423
  0
LINE
  5
294
100
AcDbEntity
  8
0
100
AcDbLine
 62
7
  6
BYLAYER
 10
39.4594328975
 20
26.3925053529
 11
39.4372028256
 21
26.4147354248
  0
LINE
  5
295
100
AcDbEntity
  8
0
100
AcDbLine
 62
7
  6
BYLAYER
 10
30.7694952511
 20
33.5761680123
 11
30.8530705599
 21
33.4925815054
  0
LWPOLYLINE
  5
296
100
AcDbEntity
  8
0
100
AcDbPolyline
 62
7
  6
BYLAYER
 90
4
 70
0
 10
70.197105795
 20
118.3823149456
 10
70.3968495551
 20
118.4838639374
 10
70.549398499
 20
118.676291033
 10
70.6030708491
 20
118.9131200067
  0
LINE
  5
297
100
AcDbEntity
  8
0
100
AcDbLine
 62
7
  6
BYLAYER
 10
65.2530708491
 20
32.8406185609
 11
63.7530708491
 21
32.8406185609
  0
LINE
  5
298
100
AcDbEntity
  8
0
100
AcDbLine
 62
7
  6
BYLAYER
 10
62.2530708491
 20
32.8406185609
 11
61.2530708491
 21
32.8406185609
  0
LINE
  5
299
100
AcDbEntity
  8
0
100
AcDbLine
 62
7
  6
BYLAYER
 10
60.9007053651
 20
32.9925053529
 11
62.4054357546
 21
32.9925053529
  0
LINE
  5
29A
100
AcDbEntity
  8
0
100
AcDbLine
 62
7
  6
BYLAYER
 10
63.65070536
 20
32.9925053579
 11
64.6219939227
 21
32.9925053619
  0
LINE
  5
29B
100
AcDbEntity
  8
0
100
AcDbLine
 62
7
  6
BYLAYER
 10
64.5776053139
 20
33.03686311
 11
63.6063463641
 21
33.0368643496
  0
LINE
  5
29C
100
AcDbEntity
  8
0
100
AcDbLine
 62
7
  6
BYLAYER
 10
62.459106258
 20
33.0461758563
 11
60.8470348617
 21
33.0461758563
  0
LINE
  5
29D
100
AcDbEntity
  8
0
100
AcDbLine
 62
7
  6
BYLAYER
 10
64.5759819146
 20
33.5777023064
 11
63.5977731877
 21
33.5777023064
  0
LINE
  5
29E
100
AcDbEntity
  8
0
100
AcDbLine
 62
7
  6
BYLAYER
 10
31.3530384661
 20
33.9925053509
 11
34.3531052041
 21
33.992505351
  0
LINE
  5
29F
100
AcDbEntity
  8
0
100
AcDbLine
 62
7
  6
BYLAYER
 10
34.4353009974
 20
34.0746686972
 11
31.2708401223
 21
34.0746686972
  0
LINE
  5
2A0
100
AcDbEntity
  8
0
100
AcDbLine
 62
7
  6
BYLAYER
 10
31.2708310519
 20
34.6143743835
 11
34.4353100678
 21
34.6143743835
  0
LINE
  5
2A1
100
AcDbEntity
  8
0
100
AcDbLine
 62
7
  6
BYLAYER
 10
67.1030708492
 20
30.5225053529
 11
69.4773465553
 21
30.1331241368
  0
LINE
  5
2A2
100
AcDbEntity
  8
0
100
AcDbLine
 62
7
  6
BYLAYER
 10
69.4935303706
 20
30.2318058684
 11
67.1030708491
 21
30.6238412286
  0
LINE
  5
2A3
100
AcDbEntity
  8
0
100
AcDbLine
 62
7
  6
BYLAYER
 10
41.4808404879
 20
26.4147354248
 11
41.5030705598
 21
26.3925053529
  0
LINE
  5
2A4
100
AcDbEntity
  8
0
100
AcDbLine
 62
7
  6
BYLAYER
 10
44.1472153001
 20
115.9672515663
 11
42.4030705598
 21
113.4763547321
  0
LINE
  5
2A5
100
AcDbEntity
  8
0
100
AcDbLine
 62
7
  6
BYLAYER
 10
62.4424199226
 20
123.3294895203
 11
62.4054357546
 21
123.2925053528
  0
LINE
  5
2A6
100
AcDbEntity
  8
0
100
AcDbLine
 62
7
  6
BYLAYER
 10
52.2030705598
 20
40.2920873284
 11
50.9030705598
 21
40.2920873284
  0
LINE
  5
2A7
100
AcDbEntity
  8
0
100
AcDbLine
 62
7
  6
BYLAYER
 10
43.6030705599
 20
40.2920873284
 11
42.3030705598
 21
40.2920873284
  0
LINE
  5
2A8
100
AcDbEntity
  8
0
100
AcDbLine
 62
7
  6
BYLAYER
 10
67.1030708491
 20
31.0300634483
 11
70.0530708491
 21
30.2293491637
  0
LINE
  5
2A9
100
AcDbEntity
  8
0
100
AcDbLine
 62
7
  6
BYLAYER
 10
70.0867692428
 20
30.3535011405
 11
67.1030710006
 21
31.1633620919
  0
LINE
  5
2AA
100
AcDbEntity
  8
0
100
AcDbLine
 62
7
  6
BYLAYER
 10
70.197137712
 20
30.6026872045
 11
67.1030708491
 21
31.442505353
  0
LINE
  5
2AB
100
AcDbEntity
  8
0
100
AcDbLine
 62
7
  6
BYLAYER
 10
39.4594328975
 20
123.2492189442
 11
39.5030705598
 21
123.3802383924
  0
LINE
  5
2AC
100
AcDbEntity
  8
0
100
AcDbLine
 62
7
  6
BYLAYER
 10
45.0530705598
 20
112.5536406018
 11
46.3589258196
 21
114.4185951882
  0
LINE
  5
2AD
100
AcDbEntity
  8
0
100
AcDbLine
 62
7
  6
BYLAYER
 10
60.8470348617
 20
115.9388348495
 11
60.9007053651
 21
115.9925053528
  0
LINE
  5
2AE
100
AcDbEntity
  8
0
100
AcDbLine
 62
7
  6
BYLAYER
 10
41.884090008
 20
95.9925053528
 11
41.7530705598
 21
95.8833529956
  0
LINE
  5
2AF
100
AcDbEntity
  8
0
100
AcDbLine
 62
7
  6
BYLAYER
 10
42.3030705598
 20
41.5920873284
 11
43.6030705598
 21
41.5920873284
  0
LINE
  5
2B0
100
AcDbEntity
  8
0
100
AcDbLine
 62
7
  6
BYLAYER
 10
50.9030705599
 20
41.5920873284
 11
52.2030705598
 21
41.5920873284
  0
LINE
  5
2B1
100
AcDbEntity
  8
0
100
AcDbLine
 62
7
  6
BYLAYER
 10
42.4030705598
 20
35.5086559736
 11
44.1472153002
 21
33.0177591392
  0
LINE
  5
2B2
100
AcDbEntity
  8
0
100
AcDbLine
 62
7
  6
BYLAYER
 10
29.2530705598
 20
128.9923757949
 11
29.2530705598
 21
83.3726540067
  0
LINE
  5
2B3
100
AcDbEntity
  8
0
100
AcDbLine
 62
7
  6
BYLAYER
 10
29.2530705598
 20
65.6123851074
 11
29.2530705598
 21
19.9926349391
  0
LINE
  5
2B4
100
AcDbEntity
  8
0
100
AcDbLine
 62
7
  6
BYLAYER
 10
29.2530705598
 20
65.6132807008
 11
29.2530705598
 21
83.3717300049
  0
LINE
  5
2B5
100
AcDbEntity
  8
0
100
AcDbLine
 62
7
  6
BYLAYER
 10
29.2967082222
 20
82.7680230695
 11
29.2967082222
 21
66.2169876362
  0
LINE
  5
2B6
100
AcDbEntity
  8
0
100
AcDbLine
 62
7
  6
BYLAYER
 10
29.8560898397
 20
92.2925063667
 11
29.9085797843
 21
93.1007485551
  0
LINE
  5
2B7
100
AcDbEntity
  8
0
100
AcDbLine
 62
7
  6
BYLAYER
 10
29.405616178
 20
93.488217527
 11
29.3527167261
 21
92.6761697644
  0
LINE
  5
2B8
100
AcDbEntity
  8
0
100
AcDbLine
 62
7
  6
BYLAYER
 10
49.4530705598
 20
110.8322061527
 11
48.1472153001
 21
108.9672515664
  0
LINE
  5
2B9
100
AcDbEntity
  8
0
100
AcDbLine
 62
7
  6
BYLAYER
 10
50.3589258196
 20
107.4185951882
 11
52.1030705598
 21
109.9094920224
  0
LINE
  5
2BA
100
AcDbEntity
  8
0
100
AcDbLine
 62
7
  6
BYLAYER
 10
64.6219176832
 20
115.9925053074
 11
64.5775881499
 21
115.9481475987
  0
LINE
  5
2BB
100
AcDbEntity
  8
0
100
AcDbLine
 62
7
  6
BYLAYER
 10
63.6063475468
 20
115.9481475346
 11
63.6507053565
 21
115.9925053442
  0
LINE
  5
2BC
100
AcDbEntity
  8
0
100
AcDbLine
 62
7
  6
BYLAYER
 10
65.0775206956
 20
115.448223858
 11
65.1218039729
 21
115.4925112825
  0
LINE
  5
2BD
100
AcDbEntity
  8
0
100
AcDbLine
 62
7
  6
BYLAYER
 10
51.7030705598
 20
44.7920873284
 11
42.8030705599
 21
44.7920873284
  0
LINE
  5
2BE
100
AcDbEntity
  8
0
100
AcDbLine
 62
7
  6
BYLAYER
 10
32.2253713742
 20
47.2425053529
 11
41.4871320831
 21
47.2425053529
  0
LINE
  5
2BF
100
AcDbEntity
  8
0
100
AcDbLine
 62
7
  6
BYLAYER
 10
53.0190090366
 20
47.2425053525
 11
62.2807724036
 21
47.2425053426
  0
LINE
  5
2C0
100
AcDbEntity
  8
0
100
AcDbLine
 62
7
  6
BYLAYER
 10
62.4424199221
 20
25.6555211853
 11
62.4054357546
 21
25.6925053529
  0
LINE
  5
2C1
100
AcDbEntity
  8
0
100
AcDbLine
 62
7
  6
BYLAYER
 10
46.3589258196
 20
34.5664155176
 11
45.9030706935
 21
35.2174441072
  0
LINE
  5
2C2
100
AcDbEntity
  8
0
100
AcDbLine
 62
7
  6
BYLAYER
 10
39.4594328975
 20
25.7357917616
 11
39.5030705598
 21
25.6047723134
  0
LINE
  5
2C3
100
AcDbEntity
  8
0
100
AcDbLine
 62
7
  6
BYLAYER
 10
29.9105961361
 20
56.4303585382
 11
29.8563664705
 21
56.6925040763
  0
LINE
  5
2C4
100
AcDbEntity
  8
0
100
AcDbLine
 62
7
  6
BYLAYER
 10
29.3527167602
 20
56.2343405105
 11
29.4053058826
 21
55.97077689
  0
LINE
  5
2C5
100
AcDbEntity
  8
0
100
AcDbLine
 62
7
  6
BYLAYER
 10
32.2253713742
 20
101.7425053528
 11
32.2530705598
 21
98.9939394212
  0
LINE
  5
2C6
100
AcDbEntity
  8
0
100
AcDbLine
 62
7
  6
BYLAYER
 10
29.3527167261
 20
92.6761697644
 11
29.3527167602
 21
56.2343405105
  0
LINE
  5
2C7
100
AcDbEntity
  8
0
100
AcDbLine
 62
7
  6
BYLAYER
 10
29.8560898397
 20
92.2925104071
 11
29.8563664705
 21
56.6924752281
  0
LINE
  5
2C8
100
AcDbEntity
  8
0
100
AcDbLine
 62
7
  6
BYLAYER
 10
29.9192856626
 20
117.5021335474
 11
29.9192856626
 21
93.1007599711
  0
LINE
  5
2C9
100
AcDbEntity
  8
0
100
AcDbLine
 62
7
  6
BYLAYER
 10
29.9232788231
 20
121.8867647813
 11
29.9232788231
 21
121.2315978817
  0
LINE
  5
2CA
100
AcDbEntity
  8
0
100
AcDbLine
 62
7
  6
BYLAYER
 10
29.9232788231
 20
27.7534128274
 11
29.9232788231
 21
27.0982317308
  0
LINE
  5
2CB
100
AcDbEntity
  8
0
100
AcDbLine
 62
7
  6
BYLAYER
 10
29.9316267836
 20
30.9399457939
 11
29.9316267836
 21
31.4828887632
  0
LINE
  5
2CC
100
AcDbEntity
  8
0
100
AcDbLine
 62
7
  6
BYLAYER
 10
29.9316267836
 20
117.5021335474
 11
29.9316267836
 21
118.0450648678
  0
LINE
  5
2CD
100
AcDbEntity
  8
0
100
AcDbLine
 62
7
  6
BYLAYER
 10
30.8530705599
 20
33.4925815054
 11
30.85307056
 21
30.8925083056
  0
LINE
  5
2CE
100
AcDbEntity
  8
0
100
AcDbLine
 62
7
  6
BYLAYER
 10
30.8530705603
 20
27.7925031531
 11
30.8530705604
 21
25.1924265096
  0
LINE
  5
2CF
100
AcDbEntity
  8
0
100
AcDbLine
 62
7
  6
BYLAYER
 10
30.8530705602
 20
115.4924332333
 11
30.8530705612
 21
118.092504397
  0
LINE
  5
2D0
100
AcDbEntity
  8
0
100
AcDbLine
 62
7
  6
BYLAYER
 10
30.8530705623
 20
121.1925060621
 11
30.8530705633
 21
123.792588035
  0
LINE
  5
2D1
100
AcDbEntity
  8
0
100
AcDbLine
 62
7
  6
BYLAYER
 10
31.2708310519
 20
114.9103420033
 11
31.2708310519
 21
114.3706363244
  0
LINE
  5
2D2
100
AcDbEntity
  8
0
100
AcDbLine
 62
7
  6
BYLAYER
 10
31.2708310519
 20
34.6143743835
 11
31.2708310519
 21
34.0746686972
  0
LINE
  5
2D3
100
AcDbEntity
  8
0
100
AcDbLine
 62
7
  6
BYLAYER
 10
31.3031655358
 20
24.6426765131
 11
31.3031655358
 21
23.8393522427
  0
LINE
  5
2D4
100
AcDbEntity
  8
0
100
AcDbLine
 62
7
  6
BYLAYER
 10
31.3031634775
 20
125.1456584631
 11
31.3031722183
 21
124.3423341931
  0
LINE
  5
2D5
100
AcDbEntity
  8
0
100
AcDbLine
 62
7
  6
BYLAYER
 10
32.2530705598
 20
98.9939394212
 11
32.2530705598
 21
93.632251315
  0
LINE
  5
2D6
100
AcDbEntity
  8
0
100
AcDbLine
 62
7
  6
BYLAYER
 10
32.2530705598
 20
56.2550620352
 11
32.2530705598
 21
49.9910712845
  0
LINE
  5
2D7
100
AcDbEntity
  8
0
100
AcDbLine
 62
7
  6
BYLAYER
 10
29.8468939531
 20
21.1896734369
 11
29.8473357409
 21
21.2525651954
  0
LINE
  5
2D8
100
AcDbEntity
  8
0
100
AcDbLine
 62
7
  6
BYLAYER
 10
32.2530705598
 20
49.9910712845
 11
32.2253713742
 21
47.2425053529
  0
LINE
  5
2D9
100
AcDbEntity
  8
0
100
AcDbLine
 62
7
  6
BYLAYER
 10
29.8515498895
 20
21.3954745637
 11
29.8508308961
 21
21.3665229696
  0
LINE
  5
2DA
100
AcDbEntity
  8
0
100
AcDbLine
 62
7
  6
BYLAYER
 10
29.8455267082
 20
21.1612184797
 11
29.8450825648
 21
21.1447618727
  0
LINE
  5
2DB
100
AcDbEntity
  8
0
100
AcDbLine
 62
7
  6
BYLAYER
 10
32.2530705598
 20
93.632251315
 11
32.2184464654
 21
93.1007556179
  0
LINE
  5
2DC
100
AcDbEntity
  8
0
100
AcDbLine
 62
7
  6
BYLAYER
 10
29.2884374535
 20
65.7176728688
 11
29.2530707772
 21
65.6114908183
  0
LINE
  5
2DD
100
AcDbEntity
  8
0
100
AcDbLine
 62
7
  6
BYLAYER
 10
41.5030705598
 20
95.8833529956
 11
41.4594328975
 21
95.7742006383
  0
LINE
  5
2DE
100
AcDbEntity
  8
0
100
AcDbLine
 62
7
  6
BYLAYER
 10
41.6780705598
 20
49.0920873284
 11
52.8280705598
 21
49.0920873284
  0
LINE
  5
2DF
100
AcDbEntity
  8
0
100
AcDbLine
 62
7
  6
BYLAYER
 10
62.2530705598
 20
49.9910712845
 11
53.0467082222
 21
49.9910712845
  0
LINE
  5
2E0
100
AcDbEntity
  8
0
100
AcDbLine
 62
7
  6
BYLAYER
 10
41.4594328975
 20
49.9910712845
 11
32.2530705599
 21
49.9910712845
  0
LINE
  5
2E1
100
AcDbEntity
  8
0
100
AcDbLine
 62
7
  6
BYLAYER
 10
53.0030705598
 20
51.2920873284
 11
52.8280705598
 21
51.2920873284
  0
LINE
  5
2E2
100
AcDbEntity
  8
0
100
AcDbLine
 62
7
  6
BYLAYER
 10
41.6780705598
 20
51.2920873284
 11
41.5030705598
 21
51.2920873284
  0
LINE
  5
2E3
100
AcDbEntity
  8
0
100
AcDbLine
 62
7
  6
BYLAYER
 10
53.0030705598
 20
51.7920873284
 11
41.5030705598
 21
51.7920873284
  0
LINE
  5
2E4
100
AcDbEntity
  8
0
100
AcDbLine
 62
7
  6
BYLAYER
 10
55.0903458845
 20
52.4488676905
 11
53.0467082222
 21
52.4488676905
  0
LINE
  5
2E5
100
AcDbEntity
  8
0
100
AcDbLine
 62
7
  6
BYLAYER
 10
39.4157952352
 20
52.4488676905
 11
41.4594328975
 21
52.4488676905
  0
LINE
  5
2E6
100
AcDbEntity
  8
0
100
AcDbLine
 62
7
  6
BYLAYER
 10
55.0467082222
 20
52.4925053529
 11
53.0030705598
 21
52.4925053529
  0
LINE
  5
2E7
100
AcDbEntity
  8
0
100
AcDbLine
 62
7
  6
BYLAYER
 10
39.4594328975
 20
52.4925053529
 11
41.5030705598
 21
52.4925053529
  0
LINE
  5
2E8
100
AcDbEntity
  8
0
100
AcDbLine
 62
7
  6
BYLAYER
 10
62.6286218706
 20
29.6667289304
 11
62.7315782681
 21
29.5637725328
  0
LINE
  5
2E9
100
AcDbEntity
  8
0
100
AcDbLine
 62
7
  6
BYLAYER
 10
60.8470348617
 20
33.0461758563
 11
60.9007053651
 21
32.9925053529
  0
LINE
  5
2EA
100
AcDbEntity
  8
0
100
AcDbLine
 62
7
  6
BYLAYER
 10
48.1472153
 20
40.0177591394
 11
48.6103461847
 21
39.3563396896
  0
LINE
  5
2EB
100
AcDbEntity
  8
0
100
AcDbLine
 62
7
  6
BYLAYER
 10
32.2180966837
 20
56.4303491762
 11
32.2530705598
 21
56.2550620352
  0
LINE
  5
2EC
100
AcDbEntity
  8
0
100
AcDbLine
 62
7
  6
BYLAYER
 10
35.4399152604
 20
31.4608434094
 11
35.4402944003
 21
30.897950523
  0
LINE
  5
2ED
100
AcDbEntity
  8
0
100
AcDbLine
 62
7
  6
BYLAYER
 10
35.4404098605
 20
30.6265461091
 11
35.4402944003
 21
30.897950523
  0
LINE
  5
2EE
100
AcDbEntity
  8
0
100
AcDbLine
 62
7
  6
BYLAYER
 10
34.4029757309
 20
23.8393522427
 11
34.4029755839
 21
24.6426765131
  0
LINE
  5
2EF
100
AcDbEntity
  8
0
100
AcDbLine
 62
7
  6
BYLAYER
 10
34.4029755839
 20
124.3423341931
 11
34.4029755839
 21
125.1456584631
  0
LINE
  5
2F0
100
AcDbEntity
  8
0
100
AcDbLine
 62
7
  6
BYLAYER
 10
34.4353100678
 20
34.0746686972
 11
34.4353100678
 21
34.6143743835
  0
LINE
  5
2F1
100
AcDbEntity
  8
0
100
AcDbLine
 62
7
  6
BYLAYER
 10
34.4353100678
 20
114.3706363244
 11
34.4353100678
 21
114.9103420033
  0
LINE
  5
2F2
100
AcDbEntity
  8
0
100
AcDbLine
 62
7
  6
BYLAYER
 10
34.853070559
 20
123.7925788125
 11
34.8530705518
 21
115.4924372273
  0
LINE
  5
2F3
100
AcDbEntity
  8
0
100
AcDbLine
 62
7
  6
BYLAYER
 10
34.853070555
 20
25.1924372273
 11
34.8530705599
 21
33.4925814212
  0
LINE
  5
2F4
100
AcDbEntity
  8
0
100
AcDbLine
 62
7
  6
BYLAYER
 10
37.2530705598
 20
9.7920873284
 11
37.2530705598
 21
10.7920873284
  0
LINE
  5
2F5
100
AcDbEntity
  8
0
100
AcDbLine
 62
7
  6
BYLAYER
 10
37.4102140226
 20
9.7920873284
 11
37.4102140226
 21
10.7920873284
  0
LINE
  5
2F6
100
AcDbEntity
  8
0
100
AcDbLine
 62
7
  6
BYLAYER
 10
35.4397587821
 20
117.5241678037
 11
35.4404131955
 21
118.3730262034
  0
LINE
  5
2F7
100
AcDbEntity
  8
0
100
AcDbLine
 62
7
  6
BYLAYER
 10
40.9413564121
 20
92.6542367626
 11
40.87060591
 21
92.2925053529
  0
LINE
  5
2F8
100
AcDbEntity
  8
0
100
AcDbLine
 62
7
  6
BYLAYER
 10
63.9549939261
 20
118.9225053528
 11
64.4252463301
 21
119.6574813148
  0
LINE
  5
2F9
100
AcDbEntity
  8
0
100
AcDbLine
 62
7
  6
BYLAYER
 10
64.5030708491
 20
119.7788755448
 11
64.9150299841
 21
120.4225053528
  0
LINE
  5
2FA
100
AcDbEntity
  8
0
100
AcDbLine
 62
7
  6
BYLAYER
 10
64.5030708491
 20
119.5360870838
 11
64.1103424841
 21
118.9225053528
  0
LINE
  5
2FB
100
AcDbEntity
  8
0
100
AcDbLine
 62
7
  6
BYLAYER
 10
65.0703785411
 20
120.4225053528
 11
64.5805948871
 21
119.6574813148
  0
LINE
  5
2FC
100
AcDbEntity
  8
0
100
AcDbLine
 62
7
  6
BYLAYER
 10
39.5030705598
 20
53.2802383923
 11
41.8840900081
 21
53.2802383923
  0
LINE
  5
2FD
100
AcDbEntity
  8
0
100
AcDbLine
 62
7
  6
BYLAYER
 10
52.6220511116
 20
53.2802383923
 11
55.0030705598
 21
53.2802383923
  0
LINE
  5
2FE
100
AcDbEntity
  8
0
100
AcDbLine
 62
7
  6
BYLAYER
 10
62.2530705598
 20
56.2550620352
 11
55.0903458845
 21
56.2550620352
  0
LINE
  5
2FF
100
AcDbEntity
  8
0
100
AcDbLine
 62
7
  6
BYLAYER
 10
39.4157952352
 20
56.2550620352
 11
32.2530705599
 21
56.2550620352
  0
LINE
  5
300
100
AcDbEntity
  8
0
100
AcDbLine
 62
7
  6
BYLAYER
 10
62.287956259
 20
56.4303583374
 11
64.5976461512
 21
56.4303585178
  0
LINE
  5
301
100
AcDbEntity
  8
0
100
AcDbLine
 62
7
  6
BYLAYER
 10
29.9105961361
 20
56.4303585382
 11
32.2180966896
 21
56.4303587291
  0
LINE
  5
302
100
AcDbEntity
  8
0
100
AcDbLine
 62
7
  6
BYLAYER
 10
29.8563664705
 20
56.6925040763
 11
39.5030705598
 21
56.6925053529
  0
LINE
  5
303
100
AcDbEntity
  8
0
100
AcDbLine
 62
7
  6
BYLAYER
 10
55.0030705598
 20
56.6925053529
 11
64.6497708079
 21
56.6925041109
  0
LINE
  5
304
100
AcDbEntity
  8
0
100
AcDbLine
 62
7
  6
BYLAYER
 10
64.5776053139
 20
33.03686311
 11
64.6219939227
 21
32.9925053619
  0
LINE
  5
305
100
AcDbEntity
  8
0
100
AcDbLine
 62
7
  6
BYLAYER
 10
63.6063454582
 20
33.0368652597
 11
63.6507053612
 21
32.9925053528
  0
LINE
  5
306
100
AcDbEntity
  8
0
100
AcDbLine
 62
7
  6
BYLAYER
 10
65.1218034384
 20
33.492500897
 11
65.0775206739
 21
33.5367875852
  0
LINE
  5
307
100
AcDbEntity
  8
0
100
AcDbLine
 62
7
  6
BYLAYER
 10
62.6194758159
 20
29.5096582506
 11
62.4958640474
 21
29.6608953757
  0
LINE
  5
308
100
AcDbEntity
  8
0
100
AcDbLine
 62
7
  6
BYLAYER
 10
52.1030705598
 20
39.0755186833
 11
51.2512200238
 21
40.2920873284
  0
LINE
  5
309
100
AcDbEntity
  8
0
100
AcDbLine
 62
7
  6
BYLAYER
 10
50.3835120654
 20
41.5313027197
 11
50.3589258197
 21
41.5664155174
  0
LINE
  5
30A
100
AcDbEntity
  8
0
100
AcDbLine
 62
7
  6
BYLAYER
 10
29.2530707069
 20
83.3735205395
 11
29.2884374535
 21
83.2673378369
  0
LINE
  5
30B
100
AcDbEntity
  8
0
100
AcDbLine
 62
7
  6
BYLAYER
 10
41.4871320831
 20
47.2425053529
 11
41.4594328975
 21
49.9910712845
  0
LINE
  5
30C
100
AcDbEntity
  8
0
100
AcDbLine
 62
7
  6
BYLAYER
 10
39.4157952352
 20
52.4488676905
 11
39.4157952352
 21
56.2550620352
  0
LINE
  5
30D
100
AcDbEntity
  8
0
100
AcDbLine
 62
7
  6
BYLAYER
 10
39.4594328975
 20
123.2492189441
 11
39.4594328975
 21
122.5925053528
  0
LINE
  5
30E
100
AcDbEntity
  8
0
100
AcDbLine
 62
7
  6
BYLAYER
 10
39.4594328975
 20
25.7357917616
 11
39.4594328975
 21
26.3925053529
  0
LINE
  5
30F
100
AcDbEntity
  8
0
100
AcDbLine
 62
7
  6
BYLAYER
 10
39.4594328975
 20
52.4925053529
 11
39.4594328975
 21
53.1492189441
  0
LINE
  5
310
100
AcDbEntity
  8
0
100
AcDbLine
 62
7
  6
BYLAYER
 10
39.5030705598
 20
56.6925053529
 11
39.5030705598
 21
53.2802383923
  0
LINE
  5
311
100
AcDbEntity
  8
0
100
AcDbLine
 62
7
  6
BYLAYER
 10
39.5030705598
 20
25.6047723134
 11
39.5030705598
 21
21.5920873284
  0
LINE
  5
312
100
AcDbEntity
  8
0
100
AcDbLine
 62
7
  6
BYLAYER
 10
39.5030705598
 20
123.3802383923
 11
39.5030705598
 21
127.3929233773
  0
LINE
  5
313
100
AcDbEntity
  8
0
100
AcDbLine
 62
7
  6
BYLAYER
 10
39.9030705598
 20
26.3925053529
 11
39.9030705598
 21
11.2920873284
  0
LINE
  5
314
100
AcDbEntity
  8
0
100
AcDbLine
 62
7
  6
BYLAYER
 10
39.9833883284
 20
26.3925053529
 11
39.9833883277
 21
14.1420831856
  0
LINE
  5
315
100
AcDbEntity
  8
0
100
AcDbLine
 62
7
  6
BYLAYER
 10
40.0602140226
 20
11.2920873284
 11
40.0602142594
 21
14.1490616408
  0
LINE
  5
316
100
AcDbEntity
  8
0
100
AcDbLine
 62
7
  6
BYLAYER
 10
40.87060591
 20
92.2925053529
 11
40.87060591
 21
88.0115594891
  0
LINE
  5
317
100
AcDbEntity
  8
0
100
AcDbLine
 62
7
  6
BYLAYER
 10
41.4594328975
 20
52.4488676905
 11
41.4594328975
 21
49.9910712845
  0
LINE
  5
318
100
AcDbEntity
  8
0
100
AcDbLine
 62
7
  6
BYLAYER
 10
41.4594328975
 20
95.7742006383
 11
41.4594328975
 21
98.9939394212
  0
LINE
  5
319
100
AcDbEntity
  8
0
100
AcDbLine
 62
7
  6
BYLAYER
 10
41.5030705598
 20
122.5925053528
 11
41.5030705598
 21
95.8833529956
  0
LINE
  5
31A
100
AcDbEntity
  8
0
100
AcDbLine
 62
7
  6
BYLAYER
 10
41.5030705598
 20
26.3925053529
 11
41.5030705598
 21
52.4925053529
  0
LINE
  5
31B
100
AcDbEntity
  8
0
100
AcDbLine
 62
7
  6
BYLAYER
 10
41.6780705598
 20
14.7920873284
 11
41.6780705598
 21
51.2920873284
  0
LINE
  5
31C
100
AcDbEntity
  8
0
100
AcDbLine
 62
7
  6
BYLAYER
 10
41.884090008
 20
123.3802383923
 11
41.884090008
 21
95.9925053528
  0
LINE
  5
31D
100
AcDbEntity
  8
0
100
AcDbLine
 62
7
  6
BYLAYER
 10
41.8840900081
 20
51.7920873284
 11
41.8840900081
 21
53.2802383923
  0
LINE
  5
31E
100
AcDbEntity
  8
0
100
AcDbLine
 62
7
  6
BYLAYER
 10
41.4594328975
 20
98.9939394212
 11
41.4871320831
 21
101.7425053528
  0
LINE
  5
31F
100
AcDbEntity
  8
0
100
AcDbLine
 62
7
  6
BYLAYER
 10
42.2530705598
 20
92.6542367626
 11
42.3167815468
 21
93.632251315
  0
LINE
  5
320
100
AcDbEntity
  8
0
100
AcDbLine
 62
7
  6
BYLAYER
 10
29.7530486286
 20
19.492527953
 11
29.7650320246
 21
19.5560173312
  0
LINE
  5
321
100
AcDbEntity
  8
0
100
AcDbLine
 62
7
  6
BYLAYER
 10
29.2652967379
 20
20.0544563806
 11
29.2530699121
 21
19.9926700644
  0
LINE
  5
322
100
AcDbEntity
  8
0
100
AcDbLine
 62
7
  6
BYLAYER
 10
42.2817666499
 20
89.8067488722
 11
42.3167815468
 21
89.982251315
  0
LINE
  5
323
100
AcDbEntity
  8
0
100
AcDbLine
 62
7
  6
BYLAYER
 10
65.2094328975
 20
60.1102985934
 11
65.2530705598
 21
60.1102985934
  0
LINE
  5
324
100
AcDbEntity
  8
0
100
AcDbLine
 62
7
  6
BYLAYER
 10
53.0030705598
 20
52.4925053529
 11
53.0467082222
 21
52.4488676905
  0
LINE
  5
325
100
AcDbEntity
  8
0
100
AcDbLine
 62
7
  6
BYLAYER
 10
55.0467082222
 20
52.4925053529
 11
55.0903458845
 21
52.4488676905
  0
LINE
  5
326
100
AcDbEntity
  8
0
100
AcDbLine
 62
7
  6
BYLAYER
 10
64.5805948871
 20
29.3574813149
 11
65.0511477721
 21
28.6225053529
  0
LINE
  5
327
100
AcDbEntity
  8
0
100
AcDbLine
 62
7
  6
BYLAYER
 10
64.8957992141
 20
28.6225053529
 11
64.5030708491
 21
29.2360870839
  0
LINE
  5
328
100
AcDbEntity
  8
0
100
AcDbLine
 62
7
  6
BYLAYER
 10
64.0911117141
 20
30.1225053529
 11
64.5030708491
 21
29.4788755449
  0
LINE
  5
329
100
AcDbEntity
  8
0
100
AcDbLine
 62
7
  6
BYLAYER
 10
64.4252463301
 20
29.3574813149
 11
63.9357631571
 21
30.1225053529
  0
LINE
  5
32A
100
AcDbEntity
  8
0
100
AcDbLine
 62
7
  6
BYLAYER
 10
29.2530699136
 20
128.9923406218
 11
29.2651408553
 21
128.9313931263
  0
LINE
  5
32B
100
AcDbEntity
  8
0
100
AcDbLine
 62
7
  6
BYLAYER
 10
29.7650331268
 20
129.4289933764
 11
29.7530485994
 21
129.4924830448
  0
LINE
  5
32C
100
AcDbEntity
  8
0
100
AcDbLine
 62
7
  6
BYLAYER
 10
42.2530705598
 20
92.6542367626
 11
42.2817666499
 21
89.8067488722
  0
LINE
  5
32D
100
AcDbEntity
  8
0
100
AcDbLine
 62
7
  6
BYLAYER
 10
42.3030705598
 20
44.2920873284
 11
42.3030705598
 21
17.7920873284
  0
LINE
  5
32E
100
AcDbEntity
  8
0
100
AcDbLine
 62
7
  6
BYLAYER
 10
42.3167815468
 20
93.632251315
 11
42.3167815468
 21
89.982251315
  0
LINE
  5
32F
100
AcDbEntity
  8
0
100
AcDbLine
 62
7
  6
BYLAYER
 10
42.4030705598
 20
35.5086559736
 11
42.4030705598
 21
39.0755186833
  0
LINE
  5
330
100
AcDbEntity
  8
0
100
AcDbLine
 62
7
  6
BYLAYER
 10
42.4030705598
 20
109.9094920224
 11
42.4030705598
 21
113.4763547321
  0
LINE
  5
331
100
AcDbEntity
  8
0
100
AcDbLine
 62
7
  6
BYLAYER
 10
44.2530705598
 20
15.2920873285
 11
44.2530705598
 21
12.9920873284
  0
LINE
  5
332
100
AcDbEntity
  8
0
100
AcDbLine
 62
7
  6
BYLAYER
 10
44.6030705598
 20
28.2920873284
 11
44.6030704144
 21
32.7243795716
  0
LINE
  5
333
100
AcDbEntity
  8
0
100
AcDbLine
 62
7
  6
BYLAYER
 10
44.6030705598
 20
34.8597951536
 11
44.6030705598
 21
39.2920873284
  0
LINE
  5
334
100
AcDbEntity
  8
0
100
AcDbLine
 62
7
  6
BYLAYER
 10
45.0530705598
 20
112.5536406018
 11
45.0530705598
 21
110.8322061527
  0
LINE
  5
335
100
AcDbEntity
  8
0
100
AcDbLine
 62
7
  6
BYLAYER
 10
45.9030705598
 20
39.2920873284
 11
45.9030707053
 21
34.8597950853
  0
LINE
  5
336
100
AcDbEntity
  8
0
100
AcDbLine
 62
7
  6
BYLAYER
 10
45.9030705598
 20
32.7243795032
 11
45.9030705598
 21
28.2920873284
  0
LINE
  5
337
100
AcDbEntity
  8
0
100
AcDbLine
 62
7
  6
BYLAYER
 10
39.4157952352
 20
56.2550620352
 11
39.5030705598
 21
56.6925053529
  0
LINE
  5
338
100
AcDbEntity
  8
0
100
AcDbLine
 62
7
  6
BYLAYER
 10
39.5030705598
 20
53.2802383923
 11
39.4594328975
 21
53.1492189441
  0
LINE
  5
339
100
AcDbEntity
  8
0
100
AcDbLine
 62
7
  6
BYLAYER
 10
48.6030705598
 20
28.2920873284
 11
48.6030704144
 21
32.7243795716
  0
LINE
  5
33A
100
AcDbEntity
  8
0
100
AcDbLine
 62
7
  6
BYLAYER
 10
48.6030705598
 20
34.8597951536
 11
48.6030705598
 21
39.2920873284
  0
LINE
  5
33B
100
AcDbEntity
  8
0
100
AcDbLine
 62
7
  6
BYLAYER
 10
49.4530705598
 20
110.8322061527
 11
49.4530705598
 21
112.5536406018
  0
LINE
  5
33C
100
AcDbEntity
  8
0
100
AcDbLine
 62
7
  6
BYLAYER
 10
49.9030705598
 20
39.2920873284
 11
49.9030707053
 21
34.8597950853
  0
LINE
  5
33D
100
AcDbEntity
  8
0
100
AcDbLine
 62
7
  6
BYLAYER
 10
49.9030705598
 20
32.7243795032
 11
49.9030705598
 21
28.2920873284
  0
LINE
  5
33E
100
AcDbEntity
  8
0
100
AcDbLine
 62
7
  6
BYLAYER
 10
50.2530705598
 20
12.9920873284
 11
50.2530705598
 21
15.2920873285
  0
LINE
  5
33F
100
AcDbEntity
  8
0
100
AcDbLine
 62
7
  6
BYLAYER
 10
29.2530705598
 20
66.1132807008
 11
29.2967082222
 21
66.1132807008
  0
LINE
  5
340
100
AcDbEntity
  8
0
100
AcDbLine
 62
7
  6
BYLAYER
 10
65.2094328975
 20
67.035247538
 11
70.353493455
 21
67.0352470883
  0
LINE
  5
341
100
AcDbEntity
  8
0
100
AcDbLine
 62
7
  6
BYLAYER
 10
67.2530715135
 20
67.5925036362
 11
65.2094328975
 21
67.5925036362
  0
LINE
  5
342
100
AcDbEntity
  8
0
100
AcDbLine
 62
7
  6
BYLAYER
 10
55.0467082222
 20
53.1492189441
 11
55.0030705598
 21
53.2802383923
  0
LINE
  5
343
100
AcDbEntity
  8
0
100
AcDbLine
 62
7
  6
BYLAYER
 10
52.1893595729
 20
93.632251315
 11
52.2530705598
 21
92.6542367626
  0
LINE
  5
344
100
AcDbEntity
  8
0
100
AcDbLine
 62
7
  6
BYLAYER
 10
53.0190090366
 20
101.7425053528
 11
53.0467082222
 21
98.9939394212
  0
LINE
  5
345
100
AcDbEntity
  8
0
100
AcDbLine
 62
7
  6
BYLAYER
 10
52.1030705598
 20
113.4763547321
 11
52.1030705598
 21
109.9094920224
  0
LINE
  5
346
100
AcDbEntity
  8
0
100
AcDbLine
 62
7
  6
BYLAYER
 10
52.1030705598
 20
39.0755186833
 11
52.1030705598
 21
35.5086559736
  0
LINE
  5
347
100
AcDbEntity
  8
0
100
AcDbLine
 62
7
  6
BYLAYER
 10
52.1893595729
 20
89.982251315
 11
52.1893595729
 21
93.632251315
  0
LINE
  5
348
100
AcDbEntity
  8
0
100
AcDbLine
 62
7
  6
BYLAYER
 10
52.2030705598
 20
17.7920873284
 11
52.2030705598
 21
44.2920873285
  0
LINE
  5
349
100
AcDbEntity
  8
0
100
AcDbLine
 62
7
  6
BYLAYER
 10
52.6220511116
 20
53.2802383923
 11
52.6220511116
 21
51.7920873284
  0
LINE
  5
34A
100
AcDbEntity
  8
0
100
AcDbLine
 62
7
  6
BYLAYER
 10
52.6220511116
 20
95.9925053528
 11
52.6220511116
 21
123.3802383923
  0
LINE
  5
34B
100
AcDbEntity
  8
0
100
AcDbLine
 62
7
  6
BYLAYER
 10
52.8280705598
 20
14.7920873284
 11
52.8280705598
 21
51.2920873284
  0
LINE
  5
34C
100
AcDbEntity
  8
0
100
AcDbLine
 62
7
  6
BYLAYER
 10
53.0030705598
 20
122.5925053528
 11
53.0030705598
 21
95.8833529956
  0
LINE
  5
34D
100
AcDbEntity
  8
0
100
AcDbLine
 62
7
  6
BYLAYER
 10
53.0030705598
 20
26.3925053529
 11
53.0030705598
 21
52.4925053529
  0
LINE
  5
34E
100
AcDbEntity
  8
0
100
AcDbLine
 62
7
  6
BYLAYER
 10
53.0467082222
 20
98.9939394212
 11
53.0467082222
 21
95.7742006383
  0
LINE
  5
34F
100
AcDbEntity
  8
0
100
AcDbLine
 62
7
  6
BYLAYER
 10
53.0467082222
 20
52.4488676905
 11
53.0467082222
 21
49.9910712845
  0
LINE
  5
350
100
AcDbEntity
  8
0
100
AcDbLine
 62
7
  6
BYLAYER
 10
53.6355352097
 20
88.0115594891
 11
53.6355352097
 21
92.2925053528
  0
LINE
  5
351
100
AcDbEntity
  8
0
100
AcDbLine
 62
7
  6
BYLAYER
 10
54.4459270971
 20
11.2920873284
 11
54.4459270793
 21
14.1490801005
  0
LINE
  5
352
100
AcDbEntity
  8
0
100
AcDbLine
 62
7
  6
BYLAYER
 10
54.5227528621
 20
14.1419532295
 11
54.5227528383
 21
26.3925053529
  0
LINE
  5
353
100
AcDbEntity
  8
0
100
AcDbLine
 62
7
  6
BYLAYER
 10
54.6030705598
 20
11.2920873284
 11
54.6030705598
 21
26.3925053529
  0
LINE
  5
354
100
AcDbEntity
  8
0
100
AcDbLine
 62
7
  6
BYLAYER
 10
52.2530705598
 20
92.6542367626
 11
52.2243744698
 21
89.8067488722
  0
LINE
  5
355
100
AcDbEntity
  8
0
100
AcDbLine
 62
7
  6
BYLAYER
 10
53.0467082222
 20
49.9910712845
 11
53.0190090366
 21
47.2425053524
  0
LINE
  5
356
100
AcDbEntity
  8
0
100
AcDbLine
 62
7
  6
BYLAYER
 10
64.7530925198
 20
129.4924830397
 11
64.7411073907
 21
129.4289933767
  0
LINE
  5
357
100
AcDbEntity
  8
0
100
AcDbLine
 62
7
  6
BYLAYER
 10
65.2408567794
 20
128.9305366141
 11
65.253071204
 21
128.9923406454
  0
LINE
  5
358
100
AcDbEntity
  8
0
100
AcDbLine
 62
7
  6
BYLAYER
 10
69.5389153636
 20
119.3024278906
 11
69.5045775572
 21
119.2085081634
  0
LINE
  5
359
100
AcDbEntity
  8
0
100
AcDbLine
 62
7
  6
BYLAYER
 10
39.4157952352
 20
52.4488676905
 11
39.4594328975
 21
52.4925053529
  0
LINE
  5
35A
100
AcDbEntity
  8
0
100
AcDbLine
 62
7
  6
BYLAYER
 10
69.504577557
 20
29.7765025425
 11
69.5389153625
 21
29.6825828162
  0
LINE
  5
35B
100
AcDbEntity
  8
0
100
AcDbLine
 62
7
  6
BYLAYER
 10
55.0030705598
 20
56.6925053529
 11
55.0903458845
 21
56.2550620352
  0
LINE
  5
35C
100
AcDbEntity
  8
0
100
AcDbLine
 62
7
  6
BYLAYER
 10
55.0030705598
 20
56.6925053529
 11
55.0030705598
 21
53.2802383923
  0
LINE
  5
35D
100
AcDbEntity
  8
0
100
AcDbLine
 62
7
  6
BYLAYER
 10
55.0030705598
 20
25.6047723134
 11
55.0030705598
 21
21.5920873284
  0
LINE
  5
35E
100
AcDbEntity
  8
0
100
AcDbLine
 62
7
  6
BYLAYER
 10
55.0030705598
 20
123.3802383923
 11
55.0030705598
 21
127.3929233773
  0
LINE
  5
35F
100
AcDbEntity
  8
0
100
AcDbLine
 62
7
  6
BYLAYER
 10
55.0467082222
 20
53.1492189441
 11
55.0467082222
 21
52.4925053529
  0
LINE
  5
360
100
AcDbEntity
  8
0
100
AcDbLine
 62
7
  6
BYLAYER
 10
55.0467082222
 20
26.3925053529
 11
55.0467082222
 21
25.7357917616
  0
LINE
  5
361
100
AcDbEntity
  8
0
100
AcDbLine
 62
7
  6
BYLAYER
 10
55.0467082222
 20
122.5925053528
 11
55.0467082222
 21
123.2492189441
  0
LINE
  5
362
100
AcDbEntity
  8
0
100
AcDbLine
 62
7
  6
BYLAYER
 10
55.0903458845
 20
56.2550620352
 11
55.0903458845
 21
52.4488676905
  0
LINE
  5
363
100
AcDbEntity
  8
0
100
AcDbLine
 62
7
  6
BYLAYER
 10
57.0959270971
 20
9.7920873284
 11
57.0959270971
 21
10.7920873284
  0
LINE
  5
364
100
AcDbEntity
  8
0
100
AcDbLine
 62
7
  6
BYLAYER
 10
57.2530705598
 20
9.7920873284
 11
57.2530705598
 21
10.7920873284
  0
LINE
  5
365
100
AcDbEntity
  8
0
100
AcDbLine
 62
7
  6
BYLAYER
 10
70.053070849
 20
120.5293491632
 11
70.0867692428
 21
120.6535011405
  0
LINE
  5
366
100
AcDbEntity
  8
0
100
AcDbLine
 62
7
  6
BYLAYER
 10
65.2177036662
 20
89.2673378369
 11
65.2530701379
 21
89.3735186611
  0
LINE
  5
367
100
AcDbEntity
  8
0
100
AcDbLine
 62
7
  6
BYLAYER
 10
41.5030705598
 20
52.4925053529
 11
41.4594328975
 21
52.4488676905
  0
LINE
  5
368
100
AcDbEntity
  8
0
100
AcDbLine
 62
7
  6
BYLAYER
 10
70.0867692825
 20
28.3315094191
 11
70.0530708493
 21
28.4556615414
  0
LINE
  5
369
100
AcDbEntity
  8
0
100
AcDbLine
 62
7
  6
BYLAYER
 10
52.2243744698
 20
89.8067488722
 11
52.1893595729
 21
89.982251315
  0
LINE
  5
36A
100
AcDbEntity
  8
0
100
AcDbLine
 62
7
  6
BYLAYER
 10
65.2530712085
 20
19.9926700856
 11
65.2408634555
 21
20.0544400567
  0
LINE
  5
36B
100
AcDbEntity
  8
0
100
AcDbLine
 62
7
  6
BYLAYER
 10
53.6355352097
 20
92.2925053529
 11
53.5647847076
 21
92.6542367626
  0
LINE
  5
36C
100
AcDbEntity
  8
0
100
AcDbLine
 62
7
  6
BYLAYER
 10
64.741109228
 20
19.5560173314
 11
64.753092491
 21
19.4925279494
  0
LINE
  5
36D
100
AcDbEntity
  8
0
100
AcDbLine
 62
7
  6
BYLAYER
 10
62.2807697466
 20
47.2425053309
 11
62.2530705598
 21
49.9910712845
  0
LINE
  5
36E
100
AcDbEntity
  8
0
100
AcDbLine
 62
7
  6
BYLAYER
 10
60.9530705598
 20
31.4215676415
 11
60.9530705598
 21
27.2634430642
  0
LINE
  5
36F
100
AcDbEntity
  8
0
100
AcDbLine
 62
7
  6
BYLAYER
 10
60.9530705598
 20
117.5634430642
 11
60.9530705598
 21
121.7215676415
  0
LINE
  5
370
100
AcDbEntity
  8
0
100
AcDbLine
 62
7
  6
BYLAYER
 10
61.2530708491
 20
25.844394167
 11
61.2530708491
 21
32.8406165387
  0
LINE
  5
371
100
AcDbEntity
  8
0
100
AcDbLine
 62
7
  6
BYLAYER
 10
61.2530708491
 20
116.144394167
 11
61.2530708491
 21
123.1406165387
  0
LINE
  5
372
100
AcDbEntity
  8
0
100
AcDbLine
 62
7
  6
BYLAYER
 10
62.2530705598
 20
49.9910712845
 11
62.2530705598
 21
56.2550620352
  0
LINE
  5
373
100
AcDbEntity
  8
0
100
AcDbLine
 62
7
  6
BYLAYER
 10
62.2530705598
 20
93.632251315
 11
62.2530705598
 21
98.9939394212
  0
LINE
  5
374
100
AcDbEntity
  8
0
100
AcDbLine
 62
7
  6
BYLAYER
 10
62.2530708491
 20
25.844394167
 11
62.2530708491
 21
32.8406165387
  0
LINE
  5
375
100
AcDbEntity
  8
0
100
AcDbLine
 62
7
  6
BYLAYER
 10
62.2530708491
 20
116.144394167
 11
62.2530708491
 21
123.1406165387
  0
LINE
  5
376
100
AcDbEntity
  8
0
100
AcDbLine
 62
7
  6
BYLAYER
 10
62.3100058441
 20
120.0837566848
 11
62.3100058441
 21
120.0490272858
  0
LINE
  5
377
100
AcDbEntity
  8
0
100
AcDbLine
 62
7
  6
BYLAYER
 10
62.3100058441
 20
29.7837566848
 11
62.3100058441
 21
29.7490272859
  0
LINE
  5
378
100
AcDbEntity
  8
0
100
AcDbLine
 62
7
  6
BYLAYER
 10
62.3530705598
 20
121.7215676415
 11
62.3530705598
 21
120.8925053528
  0
LINE
  5
379
100
AcDbEntity
  8
0
100
AcDbLine
 62
7
  6
BYLAYER
 10
62.3530705598
 20
118.3925053528
 11
62.3530705598
 21
117.5634430642
  0
LINE
  5
37A
100
AcDbEntity
  8
0
100
AcDbLine
 62
7
  6
BYLAYER
 10
62.3530705598
 20
27.2634430642
 11
62.3530705598
 21
28.0925053529
  0
LINE
  5
37B
100
AcDbEntity
  8
0
100
AcDbLine
 62
7
  6
BYLAYER
 10
62.3530705598
 20
30.5925053529
 11
62.3530705598
 21
31.4215676415
  0
LINE
  5
37C
100
AcDbEntity
  8
0
100
AcDbLine
 62
7
  6
BYLAYER
 10
62.7822807261
 20
120.0831456338
 11
62.7822807261
 21
120.0490272788
  0
LINE
  5
37D
100
AcDbEntity
  8
0
100
AcDbLine
 62
7
  6
BYLAYER
 10
62.7822807261
 20
29.7831456338
 11
62.7822807261
 21
29.7490272789
  0
LINE
  5
37E
100
AcDbEntity
  8
0
100
AcDbLine
 62
7
  6
BYLAYER
 10
62.8913814531
 20
119.9399265907
 11
62.8913814531
 21
119.8346613228
  0
LINE
  5
37F
100
AcDbEntity
  8
0
100
AcDbLine
 62
7
  6
BYLAYER
 10
62.8913814531
 20
119.7311144239
 11
62.8913814531
 21
119.1314981537
  0
LINE
  5
380
100
AcDbEntity
  8
0
100
AcDbLine
 62
7
  6
BYLAYER
 10
62.8913814531
 20
29.6399265907
 11
62.8913814531
 21
29.5346613228
  0
LINE
  5
381
100
AcDbEntity
  8
0
100
AcDbLine
 62
7
  6
BYLAYER
 10
62.8913814531
 20
29.4311144239
 11
62.8913814531
 21
28.8314981538
  0
LINE
  5
382
100
AcDbEntity
  8
0
100
AcDbLine
 62
7
  6
BYLAYER
 10
63.1147602851
 20
28.8314981623
 11
63.1147602851
 21
29.4311144154
  0
LINE
  5
383
100
AcDbEntity
  8
0
100
AcDbLine
 62
7
  6
BYLAYER
 10
63.1147602851
 20
29.5324825792
 11
63.1147602851
 21
29.6399265913
  0
LINE
  5
384
100
AcDbEntity
  8
0
100
AcDbLine
 62
7
  6
BYLAYER
 10
63.1147602851
 20
119.1314981623
 11
63.1147602851
 21
119.7311144154
  0
LINE
  5
385
100
AcDbEntity
  8
0
100
AcDbLine
 62
7
  6
BYLAYER
 10
63.1147602851
 20
119.8324825792
 11
63.1147602851
 21
119.9399265912
  0
LINE
  5
386
100
AcDbEntity
  8
0
100
AcDbLine
 62
7
  6
BYLAYER
 10
62.2530705598
 20
98.9939394212
 11
62.2807697454
 21
101.7425053528
  0
LINE
  5
387
100
AcDbEntity
  8
0
100
AcDbLine
 62
7
  6
BYLAYER
 10
69.4773465554
 20
120.433124136
 11
69.4935303597
 21
120.5318058695
  0
LINE
  5
388
100
AcDbEntity
  8
0
100
AcDbLine
 62
7
  6
BYLAYER
 10
44.1472153
 20
41.5664155174
 11
44.1226290543
 21
41.5313027197
  0
LINE
  5
389
100
AcDbEntity
  8
0
100
AcDbLine
 62
7
  6
BYLAYER
 10
43.2549210959
 20
40.2920873284
 11
42.4030705598
 21
39.0755186833
  0
LINE
  5
38A
100
AcDbEntity
  8
0
100
AcDbLine
 62
7
  6
BYLAYER
 10
29.8842479419
 20
30.8925059361
 11
29.9316267339
 21
30.9399457455
  0
LINE
  5
38B
100
AcDbEntity
  8
0
100
AcDbLine
 62
7
  6
BYLAYER
 10
29.4317034603
 20
31.4398666316
 11
29.3843406567
 21
31.3924787277
  0
LINE
  5
38C
100
AcDbEntity
  8
0
100
AcDbLine
 62
7
  6
BYLAYER
 10
67.2530715135
 20
81.392506688
 11
65.2094328975
 21
81.392506688
  0
LINE
  5
38D
100
AcDbEntity
  8
0
100
AcDbLine
 62
7
  6
BYLAYER
 10
65.2094328975
 20
81.935247538
 11
70.3534947576
 21
81.9352470883
  0
LINE
  5
38E
100
AcDbEntity
  8
0
100
AcDbLine
 62
7
  6
BYLAYER
 10
53.0467082222
 20
95.7742006383
 11
53.0030705598
 21
95.8833529956
  0
LINE
  5
38F
100
AcDbEntity
  8
0
100
AcDbLine
 62
7
  6
BYLAYER
 10
65.2530701379
 20
59.6114920446
 11
65.2177036662
 21
59.7176728688
  0
LWPOLYLINE
  5
390
100
AcDbEntity
  8
0
100
AcDbPolyline
 62
7
  6
BYLAYER
 90
4
 70
0
 10
70.6030708491
 20
30.0718905314
 10
70.5491311664
 20
30.309278414
 10
70.3959128953
 20
30.5018967019
 10
70.1971044368
 20
30.6026961299
  0
LINE
  5
391
100
AcDbEntity
  8
0
100
AcDbLine
 62
7
  6
BYLAYER
 10
69.4935303596
 20
28.4532048364
 11
69.4773465553
 21
28.5518865696
  0
LINE
  5
392
100
AcDbEntity
  8
0
100
AcDbLine
 62
7
  6
BYLAYER
 10
70.1771250717
 20
28.3491234998
 11
70.197105795
 21
28.0823149456
  0
LINE
  5
393
100
AcDbEntity
  8
0
100
AcDbLine
 62
7
  6
BYLAYER
 10
62.2530705598
 20
93.632251315
 11
62.2876946327
 21
93.1007466523
  0
LINE
  5
394
100
AcDbEntity
  8
0
100
AcDbLine
 62
7
  6
BYLAYER
 10
65.1534244057
 20
92.6761703062
 11
65.1005250655
 21
93.4882202917
  0
LINE
  5
395
100
AcDbEntity
  8
0
100
AcDbLine
 62
7
  6
BYLAYER
 10
64.5990168636
 20
93.1007510627
 11
64.650013232
 21
92.2925071813
  0
LINE
  5
396
100
AcDbEntity
  8
0
100
AcDbLine
 62
7
  6
BYLAYER
 10
64.6604763096
 20
21.1611283736
 11
64.6602224746
 21
21.1782558626
  0
LINE
  5
397
100
AcDbEntity
  8
0
100
AcDbLine
 62
7
  6
BYLAYER
 10
63.2238609721
 20
29.7490272789
 11
63.2238609721
 21
29.7831456338
  0
LINE
  5
398
100
AcDbEntity
  8
0
100
AcDbLine
 62
7
  6
BYLAYER
 10
63.2238609721
 20
120.0490272788
 11
63.2238609721
 21
120.0831456338
  0
LINE
  5
399
100
AcDbEntity
  8
0
100
AcDbLine
 62
7
  6
BYLAYER
 10
63.5977731844
 20
115.4073088113
 11
63.5977731844
 21
115.4409981875
  0
LINE
  5
39A
100
AcDbEntity
  8
0
100
AcDbLine
 62
7
  6
BYLAYER
 10
63.5977721242
 20
33.546151864
 11
63.5977731877
 21
33.5777023064
  0
LINE
  5
39B
100
AcDbEntity
  8
0
100
AcDbLine
 62
7
  6
BYLAYER
 10
63.7030705191
 20
121.7215734054
 11
63.7030705272
 21
120.8925053523
  0
LINE
  5
39C
100
AcDbEntity
  8
0
100
AcDbLine
 62
7
  6
BYLAYER
 10
63.7030705517
 20
118.3925053523
 11
63.7030705598
 21
117.5634430642
  0
LINE
  5
39D
100
AcDbEntity
  8
0
100
AcDbLine
 62
7
  6
BYLAYER
 10
63.7030705598
 20
31.4215676415
 11
63.7030705487
 21
30.5925053535
  0
LINE
  5
39E
100
AcDbEntity
  8
0
100
AcDbLine
 62
7
  6
BYLAYER
 10
63.7030705151
 20
28.0925053535
 11
63.7030705039
 21
27.2634355129
  0
LINE
  5
39F
100
AcDbEntity
  8
0
100
AcDbLine
 62
7
  6
BYLAYER
 10
63.7530708491
 20
25.844394167
 11
63.7530708491
 21
32.8406165387
  0
LINE
  5
3A0
100
AcDbEntity
  8
0
100
AcDbLine
 62
7
  6
BYLAYER
 10
63.7530708491
 20
116.144394167
 11
63.7530708491
 21
123.1406165387
  0
LINE
  5
3A1
100
AcDbEntity
  8
0
100
AcDbLine
 62
7
  6
BYLAYER
 10
64.5775970057
 20
33.0368637308
 11
64.5775970057
 21
33.5777023064
  0
LINE
  5
3A2
100
AcDbEntity
  8
0
100
AcDbLine
 62
7
  6
BYLAYER
 10
64.5775970057
 20
115.4073088113
 11
64.5775970057
 21
115.9481475666
  0
LINE
  5
3A3
100
AcDbEntity
  8
0
100
AcDbLine
 62
7
  6
BYLAYER
 10
64.5993166055
 20
24.9155143741
 11
64.5993166055
 21
25.6698672282
  0
LINE
  5
3A4
100
AcDbEntity
  8
0
100
AcDbLine
 62
7
  6
BYLAYER
 10
64.5993166055
 20
123.3151435052
 11
64.5993166055
 21
124.0695191699
  0
LINE
  5
3A5
100
AcDbEntity
  8
0
100
AcDbLine
 62
7
  6
BYLAYER
 10
64.6497708079
 20
56.6924748495
 11
64.650013232
 21
92.2925112561
  0
LINE
  5
3A6
100
AcDbEntity
  8
0
100
AcDbLine
 62
7
  6
BYLAYER
 10
65.1534244101
 20
56.2343377933
 11
65.1534244057
 21
92.6761703062
  0
LINE
  5
3A7
100
AcDbEntity
  8
0
100
AcDbLine
 62
7
  6
BYLAYER
 10
65.2094328975
 20
60.2169876362
 11
65.2094328975
 21
88.7680230695
  0
LINE
  5
3A8
100
AcDbEntity
  8
0
100
AcDbLine
 62
7
  6
BYLAYER
 10
65.2530712085
 20
19.9926700856
 11
65.2530693326
 21
59.6123857596
  0
LINE
  5
3A9
100
AcDbEntity
  8
0
100
AcDbLine
 62
7
  6
BYLAYER
 10
65.2530705598
 20
59.6132807008
 11
65.2530705598
 21
67.0352475342
  0
LINE
  5
3AA
100
AcDbEntity
  8
0
100
AcDbLine
 62
7
  6
BYLAYER
 10
65.2530705598
 20
81.9352475342
 11
65.2530705598
 21
89.3717300049
  0
LINE
  5
3AB
100
AcDbEntity
  8
0
100
AcDbLine
 62
7
  6
BYLAYER
 10
65.2530705598
 20
89.3726249461
 11
65.2530705598
 21
128.9923757712
  0
LINE
  5
3AC
100
AcDbEntity
  8
0
100
AcDbLine
 62
7
  6
BYLAYER
 10
65.353070849
 20
120.1425053528
 11
65.3530708489
 21
119.1425053528
  0
LINE
  5
3AD
100
AcDbEntity
  8
0
100
AcDbLine
 62
7
  6
BYLAYER
 10
65.353070849
 20
29.8425053529
 11
65.3530708489
 21
28.8425053529
  0
LINE
  5
3AE
100
AcDbEntity
  8
0
100
AcDbLine
 62
7
  6
BYLAYER
 10
66.4030708491
 20
121.1825046479
 11
66.4030708491
 21
120.8225053528
  0
LINE
  5
3AF
100
AcDbEntity
  8
0
100
AcDbLine
 62
7
  6
BYLAYER
 10
66.4030708491
 20
30.882504648
 11
66.4030708491
 21
30.5225053529
  0
LINE
  5
3B0
100
AcDbEntity
  8
0
100
AcDbLine
 62
7
  6
BYLAYER
 10
66.4030708491
 20
27.8025060577
 11
66.4030708491
 21
28.1625053529
  0
LINE
  5
3B1
100
AcDbEntity
  8
0
100
AcDbLine
 62
7
  6
BYLAYER
 10
66.4030708491
 20
118.1025060577
 11
66.4030708491
 21
118.4625053528
  0
LINE
  5
3B2
100
AcDbEntity
  8
0
100
AcDbLine
 62
7
  6
BYLAYER
 10
67.0230913188
 20
28.8425053529
 11
67.0230913188
 21
28.8980609058
  0
LINE
  5
3B3
100
AcDbEntity
  8
0
100
AcDbLine
 62
7
  6
BYLAYER
 10
67.0230913188
 20
29.7869498
 11
67.0230913188
 21
29.8425053529
  0
LINE
  5
3B4
100
AcDbEntity
  8
0
100
AcDbLine
 62
7
  6
BYLAYER
 10
67.0230913188
 20
119.1425053528
 11
67.0230913188
 21
119.1980609057
  0
LINE
  5
3B5
100
AcDbEntity
  8
0
100
AcDbLine
 62
7
  6
BYLAYER
 10
67.0230913188
 20
120.0869498
 11
67.0230913188
 21
120.1425053528
  0
LINE
  5
3B6
100
AcDbEntity
  8
0
100
AcDbLine
 62
7
  6
BYLAYER
 10
67.1030708491
 20
27.2426236667
 11
67.1030708491
 21
28.1625053533
  0
LINE
  5
3B7
100
AcDbEntity
  8
0
100
AcDbLine
 62
7
  6
BYLAYER
 10
67.1030708491
 20
30.5225053524
 11
67.1030708491
 21
31.4423871287
  0
LINE
  5
3B8
100
AcDbEntity
  8
0
100
AcDbLine
 62
7
  6
BYLAYER
 10
67.1030708491
 20
117.5426236667
 11
67.1030708491
 21
118.4625053532
  0
LINE
  5
3B9
100
AcDbEntity
  8
0
100
AcDbLine
 62
7
  6
BYLAYER
 10
67.1030708491
 20
120.8225053524
 11
67.1030708491
 21
121.7423871287
  0
LINE
  5
3BA
100
AcDbEntity
  8
0
100
AcDbLine
 62
7
  6
BYLAYER
 10
67.2530715135
 20
81.392506688
 11
67.2530715135
 21
67.5925036362
  0
LINE
  5
3BB
100
AcDbEntity
  8
0
100
AcDbLine
 62
7
  6
BYLAYER
 10
70.1971044367
 20
120.9026961289
 11
70.1771089478
 21
120.6358917806
  0
LINE
  5
3BC
100
AcDbEntity
  8
0
100
AcDbLine
 62
7
  6
BYLAYER
 10
64.6497708079
 20
56.6925041109
 11
64.5976461512
 21
56.4303585178
  0
LINE
  5
3BD
100
AcDbEntity
  8
0
100
AcDbLine
 62
7
  6
BYLAYER
 10
62.287956259
 20
56.4303583374
 11
62.2530705598
 21
56.2550620352
  0
LINE
  5
3BE
100
AcDbEntity
  8
0
100
AcDbLine
 62
7
  6
BYLAYER
 10
65.1008353794
 20
55.9707453142
 11
65.1534244101
 21
56.2343377933
  0
LINE
  5
3BF
100
AcDbEntity
  8
0
100
AcDbLine
 62
7
  6
BYLAYER
 10
45.895794935
 20
39.3563396896
 11
46.3589258197
 21
40.0177591394
  0
LINE
  5
3C0
100
AcDbEntity
  8
0
100
AcDbLine
 62
7
  6
BYLAYER
 10
34.8530705599
 20
33.4925814212
 11
34.9366457001
 21
33.5761560404
  0
LINE
  5
3C1
100
AcDbEntity
  8
0
100
AcDbLine
 62
7
  6
BYLAYER
 10
30.7747041367
 20
27.7534128258
 11
30.8137935009
 21
27.7925021904
  0
LINE
  5
3C2
100
AcDbEntity
  8
0
100
AcDbLine
 62
7
  6
BYLAYER
 10
34.4353009974
 20
34.0746686972
 11
34.3531052041
 21
33.9925053519
  0
LINE
  5
3C3
100
AcDbEntity
  8
0
100
AcDbLine
 62
7
  6
BYLAYER
 10
29.2967082222
 20
82.8717300049
 11
29.2530705598
 21
82.8717300049
  0
LINE
  5
3C4
100
AcDbEntity
  8
0
100
AcDbLine
 62
7
  6
BYLAYER
 10
42.4030705598
 20
109.9094920224
 11
44.1472153001
 21
107.4185951882
  0
LINE
  5
3C5
100
AcDbEntity
  8
0
100
AcDbLine
 62
7
  6
BYLAYER
 10
69.4682352854
 20
29.6675174122
 11
69.4682353069
 21
29.0174925452
  0
LINE
  5
3C6
100
AcDbEntity
  8
0
100
AcDbLine
 62
7
  6
BYLAYER
 10
69.4682352854
 20
119.9675174121
 11
69.4682353069
 21
119.3174925451
  0
LINE
  5
3C7
100
AcDbEntity
  8
0
100
AcDbLine
 62
7
  6
BYLAYER
 10
69.5389153623
 20
119.9825828161
 11
69.5389153627
 21
119.3024278909
  0
LINE
  5
3C8
100
AcDbEntity
  8
0
100
AcDbLine
 62
7
  6
BYLAYER
 10
69.5389153623
 20
29.6825828161
 11
69.5389153627
 21
29.0024278909
  0
LINE
  5
3C9
100
AcDbEntity
  8
0
100
AcDbLine
 62
7
  6
BYLAYER
 10
69.6030708491
 20
28.6999091685
 11
69.6030708491
 21
28.7676285727
  0
LINE
  5
3CA
100
AcDbEntity
  8
0
100
AcDbLine
 62
7
  6
BYLAYER
 10
69.6030708491
 20
29.9173821331
 11
69.6030708491
 21
29.9851015372
  0
LINE
  5
3CB
100
AcDbEntity
  8
0
100
AcDbLine
 62
7
  6
BYLAYER
 10
69.6030708491
 20
118.9999091685
 11
69.6030708491
 21
119.0676285726
  0
LINE
  5
3CC
100
AcDbEntity
  8
0
100
AcDbLine
 62
7
  6
BYLAYER
 10
69.6030708491
 20
120.2173821331
 11
69.6030708491
 21
120.2851015371
  0
LINE
  5
3CD
100
AcDbEntity
  8
0
100
AcDbLine
 62
7
  6
BYLAYER
 10
69.7030708492
 20
120.2851015402
 11
69.7030708487
 21
120.2173821456
  0
LINE
  5
3CE
100
AcDbEntity
  8
0
100
AcDbLine
 62
7
  6
BYLAYER
 10
69.7030708494
 20
119.0676285788
 11
69.7030708488
 21
118.999909175
  0
LINE
  5
3CF
100
AcDbEntity
  8
0
100
AcDbLine
 62
7
  6
BYLAYER
 10
69.7030708492
 20
29.9851015403
 11
69.7030708487
 21
29.9173821456
  0
LINE
  5
3D0
100
AcDbEntity
  8
0
100
AcDbLine
 62
7
  6
BYLAYER
 10
69.7030708494
 20
28.7676285788
 11
69.7030708488
 21
28.6999091751
  0
LINE
  5
3D1
100
AcDbEntity
  8
0
100
AcDbLine
 62
7
  6
BYLAYER
 10
70.0530708492
 20
28.4556615417
 11
70.0530708491
 21
30.2293491637
  0
LINE
  5
3D2
100
AcDbEntity
  8
0
100
AcDbLine
 62
7
  6
BYLAYER
 10
70.0530708492
 20
118.7556615416
 11
70.0530708491
 21
120.5293491637
  0
LINE
  5
3D3
100
AcDbEntity
  8
0
100
AcDbLine
 62
7
  6
BYLAYER
 10
70.353493455
 20
67.0352470883
 11
70.3534947576
 21
81.9352470883
  0
LINE
  5
3D4
100
AcDbEntity
  8
0
100
AcDbLine
 62
7
  6
BYLAYER
 10
70.6030708491
 20
28.6132054556
 11
70.6030708491
 21
30.0717975696
  0
LINE
  5
3D5
100
AcDbEntity
  8
0
100
AcDbLine
 62
7
  6
BYLAYER
 10
70.6030708491
 20
118.9132054556
 11
70.6030708491
 21
120.3717975696
  0
LINE
  5
3D6
100
AcDbEntity
  8
0
100
AcDbLine
 62
7
  6
BYLAYER
 10
55.0030705598
 20
25.6047723134
 11
55.0467082222
 21
25.7357917616
  0
LINE
  5
3D7
100
AcDbEntity
  8
0
100
AcDbLine
 62
7
  6
BYLAYER
 10
48.6030705598
 20
35.2174442981
 11
48.1472153001
 21
34.5664155175
  0
LINE
  5
3D8
100
AcDbEntity
  8
0
100
AcDbLine
 62
7
  6
BYLAYER
 10
50.3589258196
 20
33.0177591393
 11
52.1030705598
 21
35.5086559736
  0
LINE
  5
3D9
100
AcDbEntity
  8
0
100
AcDbLine
 62
7
  6
BYLAYER
 10
30.8530705604
 20
25.1924265096
 11
30.7915613695
 21
25.1309032885
  0
LINE
  5
3DA
100
AcDbEntity
  8
0
100
AcDbLine
 62
7
  6
BYLAYER
 10
31.3031694279
 20
24.6426765145
 11
31.3530122031
 21
24.6925053538
  0
LINE
  5
3DB
100
AcDbEntity
  8
0
100
AcDbLine
 62
7
  6
BYLAYER
 10
40.87060591
 20
88.0115594891
 11
53.6355352097
 21
88.0115594891
  0
LINE
  5
3DC
100
AcDbEntity
  8
0
100
AcDbLine
 62
7
  6
BYLAYER
 10
65.2530705598
 20
88.8747121123
 11
65.2094328975
 21
88.8747121123
  0
LINE
  5
3DD
100
AcDbEntity
  8
0
100
AcDbLine
 62
7
  6
BYLAYER
 10
42.2817666499
 20
89.8067488722
 11
52.2243744698
 21
89.8067488722
  0
LINE
  5
3DE
100
AcDbEntity
  8
0
100
AcDbLine
 62
7
  6
BYLAYER
 10
42.3167815468
 20
89.982251315
 11
52.1893595729
 21
89.982251315
  0
LINE
  5
3DF
100
AcDbEntity
  8
0
100
AcDbLine
 62
7
  6
BYLAYER
 10
34.3531289138
 20
114.992505354
 11
34.4353061881
 21
114.9103420033
  0
LINE
  5
3E0
100
AcDbEntity
  8
0
100
AcDbLine
 62
7
  6
BYLAYER
 10
29.3843405165
 20
117.5925234997
 11
29.4317031411
 21
117.5451400016
  0
LINE
  5
3E1
100
AcDbEntity
  8
0
100
AcDbLine
 62
7
  6
BYLAYER
 10
29.9316442089
 20
118.0450648699
 11
29.8842633142
 21
118.0925049316
  0
LINE
  5
3E2
100
AcDbEntity
  8
0
100
AcDbLine
 62
7
  6
BYLAYER
 10
46.3589258196
 20
108.9672515664
 11
45.0530705598
 21
110.8322061527
  0
LINE
  5
3E3
100
AcDbEntity
  8
0
100
AcDbLine
 62
7
  6
BYLAYER
 10
70.1771250717
 20
118.6491234998
 11
70.197105795
 21
118.3823149456
  0
LINE
  5
3E4
100
AcDbEntity
  8
0
100
AcDbLine
 62
7
  6
BYLAYER
 10
70.1971044367
 20
30.6026961289
 11
70.1771089478
 21
30.3358917806
  0
LINE
  5
3E5
100
AcDbEntity
  8
0
100
AcDbLine
 62
7
  6
BYLAYER
 10
69.4773465554
 20
30.133124136
 11
69.4935303597
 21
30.2318058695
  0
LINE
  5
3E6
100
AcDbEntity
  8
0
100
AcDbLine
 62
7
  6
BYLAYER
 10
29.8560898397
 20
92.2925104071
 11
40.87060591
 21
92.2925053529
  0
LINE
  5
3E7
100
AcDbEntity
  8
0
100
AcDbLine
 62
7
  6
BYLAYER
 10
53.6355352097
 20
92.2925053528
 11
64.650013232
 21
92.2925112561
  0
LINE
  5
3E8
100
AcDbEntity
  8
0
100
AcDbLine
 62
7
  6
BYLAYER
 10
40.9413564121
 20
92.6542367626
 11
42.2530705598
 21
92.6542367626
  0
LINE
  5
3E9
100
AcDbEntity
  8
0
100
AcDbLine
 62
7
  6
BYLAYER
 10
52.2530705598
 20
92.6542367626
 11
53.5647847076
 21
92.6542367626
  0
LINE
  5
3EA
100
AcDbEntity
  8
0
100
AcDbLine
 62
7
  6
BYLAYER
 10
32.2184464726
 20
93.1007451077
 11
29.9085797843
 21
93.1007485551
  0
LINE
  5
3EB
100
AcDbEntity
  8
0
100
AcDbLine
 62
7
  6
BYLAYER
 10
62.2876946327
 20
93.1007466523
 11
64.5990168636
 21
93.1007510627
  0
LINE
  5
3EC
100
AcDbEntity
  8
0
100
AcDbLine
 62
7
  6
BYLAYER
 10
32.2530705599
 20
93.632251315
 11
42.3167815468
 21
93.632251315
  0
LINE
  5
3ED
100
AcDbEntity
  8
0
100
AcDbLine
 62
7
  6
BYLAYER
 10
52.1893595729
 20
93.632251315
 11
62.2530705598
 21
93.632251315
  0
LINE
  5
3EE
100
AcDbEntity
  8
0
100
AcDbLine
 62
7
  6
BYLAYER
 10
52.7530705598
 20
95.8833529956
 11
52.6220511116
 21
95.9925053528
  0
LINE
  5
3EF
100
AcDbEntity
  8
0
100
AcDbLine
 62
7
  6
BYLAYER
 10
30.7747041349
 20
121.2315978817
 11
30.8137956256
 21
121.1925060621
  0
LINE
  5
3F0
100
AcDbEntity
  8
0
100
AcDbLine
 62
7
  6
BYLAYER
 10
31.353012223
 20
124.2925053519
 11
31.3031722183
 21
124.3423341946
  0
LINE
  5
3F1
100
AcDbEntity
  8
0
100
AcDbLine
 62
7
  6
BYLAYER
 10
34.9366456987
 20
115.4088540981
 11
34.853070555
 21
115.4924372273
  0
LINE
  5
3F2
100
AcDbEntity
  8
0
100
AcDbLine
 62
7
  6
BYLAYER
 10
30.7915620086
 20
123.85416978
 11
30.853070562
 21
123.792588035
  0
LINE
  5
3F3
100
AcDbEntity
  8
0
100
AcDbLine
 62
7
  6
BYLAYER
 10
48.1472153
 20
114.4185951882
 11
49.4530705598
 21
112.5536406018
  0
LINE
  5
3F4
100
AcDbEntity
  8
0
100
AcDbLine
 62
7
  6
BYLAYER
 10
55.0030705598
 20
123.3802383924
 11
55.0467082222
 21
123.2492189442
  0
LINE
  5
3F5
100
AcDbEntity
  8
0
100
AcDbLine
 62
7
  6
BYLAYER
 10
70.053070849
 20
30.2293491632
 11
70.0867692428
 21
30.3535011405
  0
LINE
  5
3F6
100
AcDbEntity
  8
0
100
AcDbLine
 62
7
  6
BYLAYER
 10
53.0467082222
 20
95.7742006383
 11
41.4594328975
 21
95.7742006383
  0
LINE
  5
3F7
100
AcDbEntity
  8
0
100
AcDbLine
 62
7
  6
BYLAYER
 10
53.0030705598
 20
95.8833529956
 11
52.7530705598
 21
95.8833529956
  0
LINE
  5
3F8
100
AcDbEntity
  8
0
100
AcDbLine
 62
7
  6
BYLAYER
 10
41.5030705598
 20
95.8833529956
 11
41.7530705598
 21
95.8833529956
  0
LINE
  5
3F9
100
AcDbEntity
  8
0
100
AcDbLine
 62
7
  6
BYLAYER
 10
41.884090008
 20
95.9925053528
 11
52.6220511116
 21
95.9925053528
  0
LINE
  5
3FA
100
AcDbEntity
  8
0
100
AcDbLine
 62
7
  6
BYLAYER
 10
32.2530705598
 20
98.9939394212
 11
41.4594328975
 21
98.9939394212
  0
LINE
  5
3FB
100
AcDbEntity
  8
0
100
AcDbLine
 62
7
  6
BYLAYER
 10
53.0467082222
 20
98.9939394212
 11
62.2530705598
 21
98.9939394212
  0
LINE
  5
3FC
100
AcDbEntity
  8
0
100
AcDbLine
 62
7
  6
BYLAYER
 10
52.1030705598
 20
113.4763547321
 11
50.3589258196
 21
115.9672515664
  0
LINE
  5
3FD
100
AcDbEntity
  8
0
100
AcDbLine
 62
7
  6
BYLAYER
 10
69.4935303596
 20
118.7532048364
 11
69.4773465553
 21
118.8518865696
  0
LINE
  5
3FE
100
AcDbEntity
  8
0
100
AcDbLine
 62
7
  6
BYLAYER
 10
69.5389153636
 20
29.0024278906
 11
69.5045775572
 21
28.9085081634
  0
LINE
  5
3FF
100
AcDbEntity
  8
0
100
AcDbLine
 62
7
  6
BYLAYER
 10
63.9549939261
 20
28.6225053529
 11
64.4252463301
 21
29.3574813149
  0
LINE
  5
400
100
AcDbEntity
  8
0
100
AcDbLine
 62
7
  6
BYLAYER
 10
64.5030708491
 20
29.4788755449
 11
64.9150299841
 21
30.1225053529
  0
LINE
  5
401
100
AcDbEntity
  8
0
100
AcDbLine
 62
7
  6
BYLAYER
 10
64.5030708491
 20
29.2360870839
 11
64.1103424841
 21
28.6225053529
  0
LINE
  5
402
100
AcDbEntity
  8
0
100
AcDbLine
 62
7
  6
BYLAYER
 10
65.0703785411
 20
30.1225053529
 11
64.5805948871
 21
29.3574813149
  0
LINE
  5
403
100
AcDbEntity
  8
0
100
AcDbLine
 62
7
  6
BYLAYER
 10
53.0253006318
 20
26.4147354248
 11
53.0030705598
 21
26.3925053529
  0
LINE
  5
404
100
AcDbEntity
  8
0
100
AcDbLine
 62
7
  6
BYLAYER
 10
55.0689382941
 20
26.4147354248
 11
55.0467082222
 21
26.3925053529
  0
LINE
  5
405
100
AcDbEntity
  8
0
100
AcDbLine
 62
7
  6
BYLAYER
 10
62.2807697454
 20
101.7425053528
 11
53.0190090366
 21
101.7425053528
  0
LINE
  5
406
100
AcDbEntity
  8
0
100
AcDbLine
 62
7
  6
BYLAYER
 10
41.4871320831
 20
101.7425053528
 11
32.2253713742
 21
101.7425053528
  0
LINE
  5
407
100
AcDbEntity
  8
0
100
AcDbLine
 62
7
  6
BYLAYER
 10
70.0867692825
 20
118.6315094191
 11
70.0530708493
 21
118.7556615414
  0
LWPOLYLINE
  5
408
100
AcDbEntity
  8
0
100
AcDbPolyline
 62
7
  6
BYLAYER
 90
4
 70
0
 10
70.6030708491
 20
120.3718905314
 10
70.5491311664
 20
120.609278414
 10
70.3959128953
 20
120.8018967018
 10
70.1971044368
 20
120.9026961299
  0
LINE
  5
409
100
AcDbEntity
  8
0
100
AcDbLine
 62
7
  6
BYLAYER
 10
62.4054357546
 20
32.9925053529
 11
62.459106258
 21
33.0461758563
  0
LINE
  5
40A
100
AcDbEntity
  8
0
100
AcDbLine
 62
7
  6
BYLAYER
 10
60.9007053651
 20
25.6925053529
 11
60.8637211975
 21
25.6555211853
  0
LINE
  5
40B
100
AcDbEntity
  8
0
100
AcDbLine
 62
7
  6
BYLAYER
 10
69.504577557
 20
120.0765025424
 11
69.5389153625
 21
119.9825828161
  0
LINE
  5
40C
100
AcDbEntity
  8
0
100
AcDbLine
 62
7
  6
BYLAYER
 10
64.6219176796
 20
25.6925053072
 11
64.5993077189
 21
25.669867138
  0
LINE
  5
40D
100
AcDbEntity
  8
0
100
AcDbLine
 62
7
  6
BYLAYER
 10
63.6507053538
 20
25.6925053507
 11
63.6280678838
 21
25.6698678716
  0
LINE
  5
40E
100
AcDbEntity
  8
0
100
AcDbLine
 62
7
  6
BYLAYER
 10
65.0992504227
 20
25.1700378655
 11
65.1218039046
 21
25.192510145
  0
LINE
  5
40F
100
AcDbEntity
  8
0
100
AcDbLine
 62
7
  6
BYLAYER
 10
67.1030708491
 20
117.542505353
 11
70.1971391605
 21
118.3823238946
  0
LINE
  5
410
100
AcDbEntity
  8
0
100
AcDbLine
 62
7
  6
BYLAYER
 10
67.1030709757
 20
117.8216484502
 11
70.0867692825
 21
118.6315094191
  0
LINE
  5
411
100
AcDbEntity
  8
0
100
AcDbLine
 62
7
  6
BYLAYER
 10
70.0530708492
 20
118.7556615416
 11
67.1030708491
 21
117.9549472555
  0
LINE
  5
412
100
AcDbEntity
  8
0
100
AcDbLine
 62
7
  6
BYLAYER
 10
53.0253006318
 20
122.5702752809
 11
53.0030705598
 21
122.5925053528
  0
LINE
  5
413
100
AcDbEntity
  8
0
100
AcDbLine
 62
7
  6
BYLAYER
 10
55.0467082222
 20
122.5925053528
 11
55.0689382941
 21
122.5702752809
  0
LINE
  5
414
100
AcDbEntity
  8
0
100
AcDbLine
 62
7
  6
BYLAYER
 10
62.4054357546
 20
115.9925053528
 11
62.459106258
 21
115.9388348495
  0
LINE
  5
415
100
AcDbEntity
  8
0
100
AcDbLine
 62
7
  6
BYLAYER
 10
62.6194758159
 20
119.8096582505
 11
62.4958640474
 21
119.9608953757
  0
LINE
  5
416
100
AcDbEntity
  8
0
100
AcDbLine
 62
7
  6
BYLAYER
 10
64.5805948871
 20
119.6574813148
 11
65.0511477721
 21
118.9225053528
  0
LINE
  5
417
100
AcDbEntity
  8
0
100
AcDbLine
 62
7
  6
BYLAYER
 10
64.8957992141
 20
118.9225053528
 11
64.5030708491
 21
119.5360870838
  0
LINE
  5
418
100
AcDbEntity
  8
0
100
AcDbLine
 62
7
  6
BYLAYER
 10
64.0911117141
 20
120.4225053528
 11
64.5030708491
 21
119.7788755448
  0
LINE
  5
419
100
AcDbEntity
  8
0
100
AcDbLine
 62
7
  6
BYLAYER
 10
64.4252463301
 20
119.6574813148
 11
63.9357631571
 21
120.4225053528
  0
LWPOLYLINE
  5
41A
100
AcDbEntity
  8
0
100
AcDbPolyline
 62
7
  6
BYLAYER
 90
4
 70
0
 10
70.197105795
 20
28.0823149456
 10
70.3968495551
 20
28.1838639374
 10
70.549398499
 20
28.376291033
 10
70.6030708491
 20
28.6131200068
  0
LINE
  5
41B
100
AcDbEntity
  8
0
100
AcDbLine
 62
7
  6
BYLAYER
 10
67.1030708491
 20
118.361169477
 11
69.49353036
 21
118.753204836
  0
LINE
  5
41C
100
AcDbEntity
  8
0
100
AcDbLine
 62
7
  6
BYLAYER
 10
67.1030708492
 20
118.4625053528
 11
69.4773465554
 21
118.8518865689
  0
LINE
  5
41D
100
AcDbEntity
  8
0
100
AcDbLine
 62
7
  6
BYLAYER
 10
34.4353100678
 20
114.3706363244
 11
31.2708310519
 21
114.3706363244
  0
LINE
  5
41E
100
AcDbEntity
  8
0
100
AcDbLine
 62
7
  6
BYLAYER
 10
31.2708349316
 20
114.9103420033
 11
34.4353061881
 21
114.9103420033
  0
LINE
  5
41F
100
AcDbEntity
  8
0
100
AcDbLine
 62
7
  6
BYLAYER
 10
31.3530122054
 20
114.9925053538
 11
34.3531289138
 21
114.992505354
  0
LINE
  5
420
100
AcDbEntity
  8
0
100
AcDbLine
 62
7
  6
BYLAYER
 10
63.5977731844
 20
115.4073088113
 11
64.5775764347
 21
115.4073088113
  0
LINE
  5
421
100
AcDbEntity
  8
0
100
AcDbLine
 62
7
  6
BYLAYER
 10
60.8470348617
 20
115.9388348495
 11
62.459106258
 21
115.9388348495
  0
LINE
  5
422
100
AcDbEntity
  8
0
100
AcDbLine
 62
7
  6
BYLAYER
 10
63.6063475468
 20
115.9481475346
 11
64.5775881499
 21
115.9481475987
  0
LINE
  5
423
100
AcDbEntity
  8
0
100
AcDbLine
 62
7
  6
BYLAYER
 10
64.6219176832
 20
115.9925053074
 11
63.6507053565
 21
115.9925053442
  0
LINE
  5
424
100
AcDbEntity
  8
0
100
AcDbLine
 62
7
  6
BYLAYER
 10
62.4054357546
 20
115.9925053528
 11
60.9007053651
 21
115.9925053528
  0
LINE
  5
425
100
AcDbEntity
  8
0
100
AcDbLine
 62
7
  6
BYLAYER
 10
65.2530708491
 20
116.1443921448
 11
63.7530708491
 21
116.1443921448
  0
LINE
  5
426
100
AcDbEntity
  8
0
100
AcDbLine
 62
7
  6
BYLAYER
 10
62.2530708491
 20
116.1443921448
 11
61.2530708491
 21
116.1443921448
  0
LINE
  5
427
100
AcDbEntity
  8
0
100
AcDbLine
 62
7
  6
BYLAYER
 10
62.6286218706
 20
119.9667289304
 11
62.7315782681
 21
119.8637725328
  0
LINE
  5
428
100
AcDbEntity
  8
0
100
AcDbLine
 62
7
  6
BYLAYER
 10
60.9007053651
 20
123.2925053528
 11
60.8637211975
 21
123.3294895203
  0
LINE
  5
429
100
AcDbEntity
  8
0
100
AcDbLine
 62
7
  6
BYLAYER
 10
68.0246862932
 20
119.2308871139
 11
67.1798110565
 21
119.2008463186
  0
LINE
  5
42A
100
AcDbEntity
  8
0
100
AcDbLine
 62
7
  6
BYLAYER
 10
67.1830094289
 20
119.1450633878
 11
69.4479785076
 21
119.2175423983
  0
LINE
  5
42B
100
AcDbEntity
  8
0
100
AcDbLine
 62
7
  6
BYLAYER
 10
69.4682353069
 20
119.3174925451
 11
68.3927647574
 21
119.2830731061
  0
LINE
  5
42C
100
AcDbEntity
  8
0
100
AcDbLine
 62
7
  6
BYLAYER
 10
30.2664279472
 20
117.5021335474
 11
29.9316267836
 21
117.5021335474
  0
LINE
  5
42D
100
AcDbEntity
  8
0
100
AcDbLine
 62
7
  6
BYLAYER
 10
53.0384199384
 20
117.524155401
 11
60.8446888084
 21
117.524155401
  0
LINE
  5
42E
100
AcDbEntity
  8
0
100
AcDbLine
 62
7
  6
BYLAYER
 10
62.4614523112
 20
117.5241553984
 11
63.5946896435
 21
117.5241553984
  0
LINE
  5
42F
100
AcDbEntity
  8
0
100
AcDbLine
 62
7
  6
BYLAYER
 10
35.4397587796
 20
117.5241678037
 11
41.4677211561
 21
117.5241678037
  0
LINE
  5
430
100
AcDbEntity
  8
0
100
AcDbLine
 62
7
  6
BYLAYER
 10
60.9530705598
 20
117.5634430642
 11
61.2530708491
 21
117.5634430642
  0
LINE
  5
431
100
AcDbEntity
  8
0
100
AcDbLine
 62
7
  6
BYLAYER
 10
62.2530708491
 20
117.5634430642
 11
62.3530705598
 21
117.5634430642
  0
LINE
  5
432
100
AcDbEntity
  8
0
100
AcDbLine
 62
7
  6
BYLAYER
 10
63.7030705598
 20
117.5634430642
 11
63.7530708491
 21
117.5634427451
  0
LINE
  5
433
100
AcDbEntity
  8
0
100
AcDbLine
 62
7
  6
BYLAYER
 10
61.2530708491
 20
117.7667471293
 11
62.2530708491
 21
117.7667471293
  0
LINE
  5
434
100
AcDbEntity
  8
0
100
AcDbLine
 62
7
  6
BYLAYER
 10
63.7530708491
 20
117.7667471293
 11
65.2530708491
 21
117.7667471293
  0
LINE
  5
435
100
AcDbEntity
  8
0
100
AcDbLine
 62
7
  6
BYLAYER
 10
62.4618206149
 20
117.8125874627
 11
63.5943205484
 21
117.8125874627
  0
LINE
  5
436
100
AcDbEntity
  8
0
100
AcDbLine
 62
7
  6
BYLAYER
 10
61.2530708491
 20
117.9276506374
 11
62.2530708491
 21
117.9276506375
  0
LINE
  5
437
100
AcDbEntity
  8
0
100
AcDbLine
 62
7
  6
BYLAYER
 10
63.7530708491
 20
117.9276506374
 11
65.2530708491
 21
117.9276506374
  0
LINE
  5
438
100
AcDbEntity
  8
0
100
AcDbLine
 62
7
  6
BYLAYER
 10
29.9316442089
 20
118.0450648699
 11
30.7663561765
 21
118.0450648656
  0
LINE
  5
439
100
AcDbEntity
  8
0
100
AcDbLine
 62
7
  6
BYLAYER
 10
30.8137957133
 20
118.092504397
 11
29.8842633142
 21
118.0925049316
  0
LINE
  5
43A
100
AcDbEntity
  8
0
100
AcDbLine
 62
7
  6
BYLAYER
 10
66.4030708491
 20
118.1025053528
 11
67.1030708491
 21
118.1025053528
  0
LINE
  5
43B
100
AcDbEntity
  8
0
100
AcDbLine
 62
7
  6
BYLAYER
 10
66.4030708491
 20
118.1684950895
 11
67.1030708491
 21
118.1684950895
  0
LINE
  5
43C
100
AcDbEntity
  8
0
100
AcDbLine
 62
7
  6
BYLAYER
 10
66.4030708491
 20
118.2638929377
 11
67.1030708491
 21
118.2638929377
  0
LINE
  5
43D
100
AcDbEntity
  8
0
100
AcDbLine
 62
7
  6
BYLAYER
 10
63.6507030309
 20
118.3425053528
 11
62.4054367708
 21
118.3425053528
  0
LINE
  5
43E
100
AcDbEntity
  8
0
100
AcDbLine
 62
7
  6
BYLAYER
 10
63.7530708491
 20
118.3925053528
 11
62.2530708491
 21
118.3925053528
  0
LINE
  5
43F
100
AcDbEntity
  8
0
100
AcDbLine
 62
7
  6
BYLAYER
 10
66.4030708491
 20
118.4625053528
 11
67.1030708491
 21
118.4625053528
  0
LINE
  5
440
100
AcDbEntity
  8
0
100
AcDbLine
 62
7
  6
BYLAYER
 10
63.9549939261
 20
118.9225053528
 11
64.1103424841
 21
118.9225053528
  0
LINE
  5
441
100
AcDbEntity
  8
0
100
AcDbLine
 62
7
  6
BYLAYER
 10
64.8957992141
 20
118.9225053528
 11
65.0511477721
 21
118.9225053528
  0
LINE
  5
442
100
AcDbEntity
  8
0
100
AcDbLine
 62
7
  6
BYLAYER
 10
69.6030708491
 20
118.9999091686
 11
69.7030708491
 21
118.9999091686
  0
LINE
  5
443
100
AcDbEntity
  8
0
100
AcDbLine
 62
7
  6
BYLAYER
 10
69.7030708491
 20
119.0676285725
 11
69.6030708491
 21
119.0676285725
  0
LINE
  5
444
100
AcDbEntity
  8
0
100
AcDbLine
 62
7
  6
BYLAYER
 10
65.353070849
 20
119.1425053528
 11
67.0230913188
 21
119.1425053528
  0
LINE
  5
445
100
AcDbEntity
  8
0
100
AcDbLine
 62
7
  6
BYLAYER
 10
67.0230917337
 20
119.1980609058
 11
65.3530708487
 21
119.1980609058
  0
LINE
  5
446
100
AcDbEntity
  8
0
100
AcDbLine
 62
7
  6
BYLAYER
 10
67.8052781641
 20
119.6425053437
 11
67.8995181932
 21
119.6425053474
  0
LINE
  5
447
100
AcDbEntity
  8
0
100
AcDbLine
 62
7
  6
BYLAYER
 10
62.7822807261
 20
120.0831456338
 11
63.2238609721
 21
120.0831456338
  0
LINE
  5
448
100
AcDbEntity
  8
0
100
AcDbLine
 62
7
  6
BYLAYER
 10
62.310005844
 20
120.0837566848
 11
62.4251007672
 21
120.0837566848
  0
LINE
  5
449
100
AcDbEntity
  8
0
100
AcDbLine
 62
7
  6
BYLAYER
 10
65.3530708477
 20
120.0869497999
 11
67.0230917596
 21
120.0869497999
  0
LINE
  5
44A
100
AcDbEntity
  8
0
100
AcDbLine
 62
7
  6
BYLAYER
 10
67.0230913188
 20
120.1425053528
 11
65.353070849
 21
120.1425053528
  0
LINE
  5
44B
100
AcDbEntity
  8
0
100
AcDbLine
 62
7
  6
BYLAYER
 10
69.6030708491
 20
120.2173821332
 11
69.703070849
 21
120.2173821332
  0
LINE
  5
44C
100
AcDbEntity
  8
0
100
AcDbLine
 62
7
  6
BYLAYER
 10
69.703070849
 20
120.2851015371
 11
69.6030708491
 21
120.2851015371
  0
LINE
  5
44D
100
AcDbEntity
  8
0
100
AcDbLine
 62
7
  6
BYLAYER
 10
65.0703785411
 20
120.4225053528
 11
64.9150299841
 21
120.4225053528
  0
LINE
  5
44E
100
AcDbEntity
  8
0
100
AcDbLine
 62
7
  6
BYLAYER
 10
64.0911117141
 20
120.4225053528
 11
63.9357631571
 21
120.4225053528
  0
LINE
  5
44F
100
AcDbEntity
  8
0
100
AcDbLine
 62
7
  6
BYLAYER
 10
68.3927647547
 20
120.0019368123
 11
69.4682352854
 21
119.9675174121
  0
LINE
  5
450
100
AcDbEntity
  8
0
100
AcDbLine
 62
7
  6
BYLAYER
 10
69.4479784857
 20
120.067468308
 11
67.183009429
 21
120.1399473178
  0
LINE
  5
451
100
AcDbEntity
  8
0
100
AcDbLine
 62
7
  6
BYLAYER
 10
67.1798110877
 20
120.0841643871
 11
68.0246817257
 21
120.0541233493
  0
LINE
  5
452
100
AcDbEntity
  8
0
100
AcDbLine
 62
7
  6
BYLAYER
 10
65.1218061771
 20
123.7924585947
 11
65.0992499763
 21
123.8149287633
  0
LINE
  5
453
100
AcDbEntity
  8
0
100
AcDbLine
 62
7
  6
BYLAYER
 10
64.5993248803
 20
123.3151435735
 11
64.6219939218
 21
123.2925053621
  0
LINE
  5
454
100
AcDbEntity
  8
0
100
AcDbLine
 62
7
  6
BYLAYER
 10
63.6507053575
 20
123.292505359
 11
63.6280672815
 21
123.3151434368
  0
LINE
  5
455
100
AcDbEntity
  8
0
100
AcDbLine
 62
7
  6
BYLAYER
 10
66.4030708491
 20
120.8225053528
 11
67.1030708491
 21
120.8225053528
  0
LINE
  5
456
100
AcDbEntity
  8
0
100
AcDbLine
 62
7
  6
BYLAYER
 10
63.7530708491
 20
120.8925053528
 11
62.2530708491
 21
120.8925053528
  0
LINE
  5
457
100
AcDbEntity
  8
0
100
AcDbLine
 62
7
  6
BYLAYER
 10
62.4054369289
 20
120.9425053528
 11
63.6507030291
 21
120.9425053528
  0
LINE
  5
458
100
AcDbEntity
  8
0
100
AcDbLine
 62
7
  6
BYLAYER
 10
67.1030708491
 20
121.0211177675
 11
66.4030708491
 21
121.0211177672
  0
LINE
  5
459
100
AcDbEntity
  8
0
100
AcDbLine
 62
7
  6
BYLAYER
 10
67.1030708491
 20
121.1165156164
 11
66.4030708491
 21
121.1165156164
  0
LINE
  5
45A
100
AcDbEntity
  8
0
100
AcDbLine
 62
7
  6
BYLAYER
 10
66.4030708491
 20
121.1825053528
 11
67.1030708491
 21
121.1825053528
  0
LINE
  5
45B
100
AcDbEntity
  8
0
100
AcDbLine
 62
7
  6
BYLAYER
 10
29.8842820921
 20
121.1925053617
 11
30.8137956256
 21
121.1925060621
  0
LINE
  5
45C
100
AcDbEntity
  8
0
100
AcDbLine
 62
7
  6
BYLAYER
 10
30.7747041349
 20
121.2315978817
 11
29.9232788231
 21
121.2315978817
  0
LINE
  5
45D
100
AcDbEntity
  8
0
100
AcDbLine
 62
7
  6
BYLAYER
 10
65.2530708491
 20
121.3573600662
 11
63.7530708491
 21
121.3573600652
  0
LINE
  5
45E
100
AcDbEntity
  8
0
100
AcDbLine
 62
7
  6
BYLAYER
 10
62.2530708491
 20
121.3573600658
 11
61.2530708491
 21
121.3573600652
  0
LINE
  5
45F
100
AcDbEntity
  8
0
100
AcDbLine
 62
7
  6
BYLAYER
 10
65.2530708491
 20
121.5182635773
 11
63.7530708491
 21
121.5182635773
  0
LINE
  5
460
100
AcDbEntity
  8
0
100
AcDbLine
 62
7
  6
BYLAYER
 10
62.2530708491
 20
121.5182635773
 11
61.2530708491
 21
121.5182635773
  0
LINE
  5
461
100
AcDbEntity
  8
0
100
AcDbLine
 62
7
  6
BYLAYER
 10
63.6018263958
 20
121.5840067737
 11
62.4543147178
 21
121.5840067737
  0
LINE
  5
462
100
AcDbEntity
  8
0
100
AcDbLine
 62
7
  6
BYLAYER
 10
63.7530708491
 20
121.7215735418
 11
63.7030704904
 21
121.7215734054
  0
LINE
  5
463
100
AcDbEntity
  8
0
100
AcDbLine
 62
7
  6
BYLAYER
 10
62.3530705598
 20
121.7215676415
 11
62.2530708491
 21
121.7215676415
  0
LINE
  5
464
100
AcDbEntity
  8
0
100
AcDbLine
 62
7
  6
BYLAYER
 10
61.2530708491
 20
121.7215676415
 11
60.9530705598
 21
121.7215676415
  0
LINE
  5
465
100
AcDbEntity
  8
0
100
AcDbLine
 62
7
  6
BYLAYER
 10
29.9232788231
 20
121.8867647813
 11
30.2748017152
 21
121.8867647813
  0
LINE
  5
466
100
AcDbEntity
  8
0
100
AcDbLine
 62
7
  6
BYLAYER
 10
39.4372028256
 20
122.5702752809
 11
41.4808404879
 21
122.5702752809
  0
LINE
  5
467
100
AcDbEntity
  8
0
100
AcDbLine
 62
7
  6
BYLAYER
 10
53.0253006318
 20
122.5702752809
 11
55.0689382941
 21
122.5702752809
  0
LINE
  5
468
100
AcDbEntity
  8
0
100
AcDbLine
 62
7
  6
BYLAYER
 10
55.0467082222
 20
122.5925053528
 11
53.0030705598
 21
122.5925053528
  0
LINE
  5
469
100
AcDbEntity
  8
0
100
AcDbLine
 62
7
  6
BYLAYER
 10
39.4594328975
 20
122.5925053528
 11
41.5030705598
 21
122.5925053528
  0
LINE
  5
46A
100
AcDbEntity
  8
0
100
AcDbLine
 62
7
  6
BYLAYER
 10
65.2530708491
 20
123.1406185608
 11
63.7530708491
 21
123.1406185608
  0
LINE
  5
46B
100
AcDbEntity
  8
0
100
AcDbLine
 62
7
  6
BYLAYER
 10
62.2530708491
 20
123.1406185608
 11
61.2530708491
 21
123.1406185608
  0
LINE
  5
46C
100
AcDbEntity
  8
0
100
AcDbLine
 62
7
  6
BYLAYER
 10
60.9007053651
 20
123.2925053528
 11
62.4054357546
 21
123.2925053528
  0
LINE
  5
46D
100
AcDbEntity
  8
0
100
AcDbLine
 62
7
  6
BYLAYER
 10
63.6507053575
 20
123.292505359
 11
64.6219939218
 21
123.2925053621
  0
LINE
  5
46E
100
AcDbEntity
  8
0
100
AcDbLine
 62
7
  6
BYLAYER
 10
64.5993248803
 20
123.3151435735
 11
63.6280672815
 21
123.3151434368
  0
LINE
  5
46F
100
AcDbEntity
  8
0
100
AcDbLine
 62
7
  6
BYLAYER
 10
62.4424199226
 20
123.3294895203
 11
60.8637211975
 21
123.3294895203
  0
LINE
  5
470
100
AcDbEntity
  8
0
100
AcDbLine
 62
7
  6
BYLAYER
 10
39.5030705598
 20
123.3802383924
 11
41.8840900081
 21
123.3802383924
  0
LINE
  5
471
100
AcDbEntity
  8
0
100
AcDbLine
 62
7
  6
BYLAYER
 10
52.6220511116
 20
123.3802383924
 11
55.0030705598
 21
123.3802383924
  0
LINE
  5
472
100
AcDbEntity
  8
0
100
AcDbLine
 62
7
  6
BYLAYER
 10
63.6207065771
 20
124.0695191699
 11
64.5993166055
 21
124.0695191699
  0
LINE
  5
473
100
AcDbEntity
  8
0
100
AcDbLine
 62
7
  6
BYLAYER
 10
31.3530122232
 20
124.2925053513
 11
34.3531293301
 21
124.2925053513
  0
LINE
  5
474
100
AcDbEntity
  8
0
100
AcDbLine
 62
7
  6
BYLAYER
 10
34.4029717448
 20
124.3423341917
 11
31.3031722183
 21
124.3423341946
  0
LINE
  5
475
100
AcDbEntity
  8
0
100
AcDbLine
 62
7
  6
BYLAYER
 10
67.1030708492
 20
120.8225053528
 11
69.4773465553
 21
120.4331241368
  0
LINE
  5
476
100
AcDbEntity
  8
0
100
AcDbLine
 62
7
  6
BYLAYER
 10
69.4935303706
 20
120.5318058684
 11
67.1030708491
 21
120.9238412286
  0
LINE
  5
477
100
AcDbEntity
  8
0
100
AcDbLine
 62
7
  6
BYLAYER
 10
67.1030708491
 20
121.3300634483
 11
70.0530708491
 21
120.5293491637
  0
LINE
  5
478
100
AcDbEntity
  8
0
100
AcDbLine
 62
7
  6
BYLAYER
 10
70.0867692428
 20
120.6535011405
 11
67.1030710006
 21
121.4633620918
  0
LINE
  5
479
100
AcDbEntity
  8
0
100
AcDbLine
 62
7
  6
BYLAYER
 10
70.197137712
 20
120.9026872045
 11
67.1030708491
 21
121.7425053529
  0
LINE
  5
47A
100
AcDbEntity
  8
0
100
AcDbLine
 62
7
  6
BYLAYER
 10
31.3031634775
 20
125.1456584631
 11
34.4029755839
 21
125.1456584631
  0
LINE
  5
47B
100
AcDbEntity
  8
0
100
AcDbLine
 62
7
  6
BYLAYER
 10
55.0030705598
 20
127.3929233773
 11
39.5030705598
 21
127.3929233773
  0
LINE
  5
47C
100
AcDbEntity
  8
0
100
AcDbLine
 62
7
  6
BYLAYER
 10
64.7411073907
 20
129.4289933767
 11
29.7650331268
 21
129.4289933764
  0
LINE
  5
47D
100
AcDbEntity
  8
0
100
AcDbLine
 62
7
  6
BYLAYER
 10
64.7530925198
 20
129.4924830397
 11
29.7530485994
 21
129.4924830448
  0
ARC
  5
47E
100
AcDbEntity
  8
0
100
AcDbCircle
 62
7
  6
BYLAYER
 10
47.2530705598
 20
17.2920873284
 40
3.25
100
AcDbArc
 50
7.6507851664
 51
172.3436939782
  0
ARC
  5
47F
100
AcDbEntity
  8
0
100
AcDbCircle
 62
7
  6
BYLAYER
 10
47.2530705599
 20
17.2920873284
 40
2.0000028736
100
AcDbArc
 50
311.4097154536
 51
228.5902845468
  0
ARC
  5
480
100
AcDbEntity
  8
0
100
AcDbCircle
 62
7
  6
BYLAYER
 10
30.9002288454
 20
21.2229565797
 40
1.0533093372
100
AcDbArc
 50
176.5902391478
 51
178.3891985448
  0
ARC
  5
481
100
AcDbEntity
  8
0
100
AcDbCircle
 62
7
  6
BYLAYER
 10
29.1216346702
 20
21.2102614149
 40
0.7255514401
100
AcDbArc
 50
356.1241929719
 51
358.3739780019
  0
ARC
  5
482
100
AcDbEntity
  8
0
100
AcDbCircle
 62
7
  6
BYLAYER
 10
40.3406294289
 20
13.7916555144
 40
0.5004226476
100
AcDbArc
 50
89.9938734533
 51
134.4211482542
  0
ARC
  5
483
100
AcDbEntity
  8
0
100
AcDbCircle
 62
7
  6
BYLAYER
 10
40.4104633586
 20
13.7917199554
 40
0.5003673766
100
AcDbArc
 50
89.9931263741
 51
134.4257109423
  0
ARC
  5
484
100
AcDbEntity
  8
0
100
AcDbCircle
 62
7
  6
BYLAYER
 10
29.7531367831
 20
19.9925683671
 40
0.5000539895
100
AcDbArc
 50
179.9883477272
 51
269.9898989772
  0
ARC
  5
485
100
AcDbEntity
  8
0
100
AcDbCircle
 62
7
  6
BYLAYER
 10
43.5365505598
 20
17.7920873284
 40
0.5000087815
100
AcDbArc
 50
270.0176981748
 51
352.2991151518
  0
ARC
  5
486
100
AcDbEntity
  8
0
100
AcDbCircle
 62
7
  6
BYLAYER
 10
41.1780705598
 20
14.7920873284
 40
0.5
100
AcDbArc
 50
269.9999999965
 51
360.0
  0
ARC
  5
487
100
AcDbEntity
  8
0
100
AcDbCircle
 62
7
  6
BYLAYER
 10
42.8030705598
 20
17.7920873284
 40
0.5
100
AcDbArc
 50
180.0000000065
 51
269.9999999979
  0
ARC
  5
488
100
AcDbEntity
  8
0
100
AcDbCircle
 62
7
  6
BYLAYER
 10
44.7530705598
 20
15.2920873284
 40
0.5
100
AcDbArc
 50
90.0
 51
179.999999995
  0
ARC
  5
489
100
AcDbEntity
  8
0
100
AcDbCircle
 62
7
  6
BYLAYER
 10
43.6030705598
 20
28.2920873284
 40
2.3
100
AcDbArc
 50
269.9999999991
 51
359.9999999994
  0
ARC
  5
48A
100
AcDbEntity
  8
0
100
AcDbCircle
 62
7
  6
BYLAYER
 10
43.6030705598
 20
28.2920873284
 40
1.0
100
AcDbArc
 50
270.000000003
 51
360.0
  0
ARC
  5
48B
100
AcDbEntity
  8
0
100
AcDbCircle
 62
7
  6
BYLAYER
 10
30.5303162337
 20
21.3267121021
 40
0.6806505926
100
AcDbArc
 50
176.646888622
 51
178.4284363681
  0
ARC
  5
48C
100
AcDbEntity
  8
0
100
AcDbCircle
 62
7
  6
BYLAYER
 10
29.9234605
 20
27.2533039757
 40
0.5001081073
100
AcDbArc
 50
90.0164786645
 51
179.8515506122
  0
ARC
  5
48D
100
AcDbEntity
  8
0
100
AcDbCircle
 62
7
  6
BYLAYER
 10
29.884438277
 20
27.2924108663
 40
0.5000981537
100
AcDbArc
 50
90.0247100825
 51
179.9852963755
  0
ARC
  5
48E
100
AcDbEntity
  8
0
100
AcDbCircle
 62
7
  6
BYLAYER
 10
31.3529639464
 20
25.1923987386
 40
0.499892351
100
AcDbArc
 50
179.9968169983
 51
270.0055309871
  0
ARC
  5
48F
100
AcDbEntity
  8
0
100
AcDbCircle
 62
7
  6
BYLAYER
 10
34.3531771787
 20
25.192398727
 40
0.4998923391
100
AcDbArc
 50
269.9944662451
 51
0.0044127547
  0
ARC
  5
490
100
AcDbEntity
  8
0
100
AcDbCircle
 62
7
  6
BYLAYER
 10
54.0956574774
 20
13.7916510661
 40
0.5004362636
100
AcDbArc
 50
45.580839193
 51
90.0039875737
  0
ARC
  5
491
100
AcDbEntity
  8
0
100
AcDbCircle
 62
7
  6
BYLAYER
 10
54.1654569672
 20
13.7920873284
 40
0.5001159532
100
AcDbArc
 50
45.5490317186
 51
89.9996925302
  0
ARC
  5
492
100
AcDbEntity
  8
0
100
AcDbCircle
 62
7
  6
BYLAYER
 10
64.7530013453
 20
19.9925700282
 40
0.5000569926
100
AcDbArc
 50
270.0104437365
 51
0.0114643045
  0
ARC
  5
493
100
AcDbEntity
  8
0
100
AcDbCircle
 62
7
  6
BYLAYER
 10
50.9695905598
 20
17.7920873284
 40
0.5000087815
100
AcDbArc
 50
187.7367814254
 51
269.9777064235
  0
ARC
  5
494
100
AcDbEntity
  8
0
100
AcDbCircle
 62
7
  6
BYLAYER
 10
53.3280705598
 20
14.7920873284
 40
0.5
100
AcDbArc
 50
180.0
 51
270.0000000004
  0
ARC
  5
495
100
AcDbEntity
  8
0
100
AcDbCircle
 62
7
  6
BYLAYER
 10
51.7030705598
 20
17.7920873284
 40
0.5
100
AcDbArc
 50
269.9999999878
 51
360.0
  0
ARC
  5
496
100
AcDbEntity
  8
0
100
AcDbCircle
 62
7
  6
BYLAYER
 10
49.7530705598
 20
15.2920873284
 40
0.5
100
AcDbArc
 50
0.0000000075
 51
90.0000000001
  0
ARC
  5
497
100
AcDbEntity
  8
0
100
AcDbCircle
 62
7
  6
BYLAYER
 10
64.8708467915
 20
21.1673108502
 40
0.2104613092
100
AcDbArc
 50
181.6833534997
 51
183.6132121952
  0
ARC
  5
498
100
AcDbEntity
  8
0
100
AcDbCircle
 62
7
  6
BYLAYER
 10
67.0230913191
 20
24.8425053529
 40
5.0
100
AcDbArc
 50
88.1671608719
 51
90.0000000041
  0
ARC
  5
499
100
AcDbEntity
  8
0
100
AcDbCircle
 62
7
  6
BYLAYER
 10
67.023080452
 20
25.3760727938
 40
4.4108770183
100
AcDbArc
 50
87.9636941432
 51
89.9998531174
  0
ARC
  5
49A
100
AcDbEntity
  8
0
100
AcDbCircle
 62
7
  6
BYLAYER
 10
50.9030705598
 20
28.2920873284
 40
2.3
100
AcDbArc
 50
180.0000000002
 51
270.0000000002
  0
ARC
  5
49B
100
AcDbEntity
  8
0
100
AcDbCircle
 62
7
  6
BYLAYER
 10
70.2962840242
 20
27.2267392242
 40
1.252760023
100
AcDbArc
 50
97.0918309405
 51
101.1946163538
  0
ARC
  5
49C
100
AcDbEntity
  8
0
100
AcDbCircle
 62
7
  6
BYLAYER
 10
70.2912223983
 20
27.2663355324
 40
1.2128416132
100
AcDbArc
 50
95.3968968402
 51
97.0854845043
  0
ARC
  5
49D
100
AcDbEntity
  8
0
100
AcDbCircle
 62
7
  6
BYLAYER
 10
50.9030705598
 20
28.2920873284
 40
1.0
100
AcDbArc
 50
180.0000000002
 51
269.9999999951
  0
ARC
  5
49E
100
AcDbEntity
  8
0
100
AcDbCircle
 62
7
  6
BYLAYER
 10
70.2539901317
 20
27.7163193977
 40
0.6375118735
100
AcDbArc
 50
99.2428730414
 51
105.2080989222
  0
ARC
  5
49F
100
AcDbEntity
  8
0
100
AcDbCircle
 62
7
  6
BYLAYER
 10
70.2476309005
 20
27.7518179847
 40
0.6014527678
100
AcDbArc
 50
96.7320300206
 51
99.188115275
  0
ARC
  5
4A0
100
AcDbEntity
  8
0
100
AcDbCircle
 62
7
  6
BYLAYER
 10
64.5991337965
 20
25.1697604749
 40
0.5001077268
100
AcDbArc
 50
0.020944236
 51
89.9816897039
  0
ARC
  5
4A1
100
AcDbEntity
  8
0
100
AcDbCircle
 62
7
  6
BYLAYER
 10
64.6216982074
 20
25.1924042209
 40
0.5001046691
100
AcDbArc
 50
0.0117936726
 51
89.9732401581
  0
ARC
  5
4A2
100
AcDbEntity
  8
0
100
AcDbCircle
 62
7
  6
BYLAYER
 10
69.4530708454
 20
28.7676285703
 40
0.2500000043
100
AcDbArc
 50
0.0000019584
 51
69.9171818531
  0
ARC
  5
4A3
100
AcDbEntity
  8
0
100
AcDbCircle
 62
7
  6
BYLAYER
 10
69.4530708503
 20
28.6999091674
 40
0.2499999982
100
AcDbArc
 50
279.3135987784
 51
0.0000017641
  0
ARC
  5
4A4
100
AcDbEntity
  8
0
100
AcDbCircle
 62
7
  6
BYLAYER
 10
62.571528349
 20
28.0761337302
 40
0.1705360881
100
AcDbArc
 50
186.9817450162
 51
188.1205038632
  0
ARC
  5
4A5
100
AcDbEntity
  8
0
100
AcDbCircle
 62
7
  6
BYLAYER
 10
63.4925830901
 20
28.0750317479
 40
0.1624902945
100
AcDbArc
 50
351.9196282898
 51
352.7130830702
  0
ARC
  5
4A6
100
AcDbEntity
  8
0
100
AcDbCircle
 62
7
  6
BYLAYER
 10
69.4530708491
 20
28.7676285729
 40
0.15
100
AcDbArc
 50
0.0000005873
 51
91.9456278577
  0
ARC
  5
4A7
100
AcDbEntity
  8
0
100
AcDbCircle
 62
7
  6
BYLAYER
 10
69.4530708503
 20
28.6999091671
 40
0.1499999983
100
AcDbArc
 50
279.3135985313
 51
0.0000005545
  0
ARC
  5
4A8
100
AcDbEntity
  8
0
100
AcDbCircle
 62
7
  6
BYLAYER
 10
65.3530708493
 20
28.7425053513
 40
0.1000000006
100
AcDbArc
 50
90.0000001368
 51
179.9999994604
  0
ARC
  5
4A9
100
AcDbEntity
  8
0
100
AcDbCircle
 62
7
  6
BYLAYER
 10
63.1427602851
 20
28.8314981619
 40
0.028
100
AcDbArc
 50
179.9999990704
 51
282.5430957771
  0
ARC
  5
4AA
100
AcDbEntity
  8
0
100
AcDbCircle
 62
7
  6
BYLAYER
 10
62.8633814531
 20
28.8314981529
 40
0.028
100
AcDbArc
 50
257.4570460493
 51
0.0000018488
  0
ARC
  5
4AB
100
AcDbEntity
  8
0
100
AcDbCircle
 62
7
  6
BYLAYER
 10
45.2530705598
 20
33.7920873284
 40
1.35
100
AcDbArc
 50
215.0000000099
 51
235.5370555898
  0
ARC
  5
4AC
100
AcDbEntity
  8
0
100
AcDbCircle
 62
7
  6
BYLAYER
 10
45.2530705598
 20
33.7920873284
 40
1.35
100
AcDbArc
 50
300.2091431255
 51
35.000000004
  0
ARC
  5
4AD
100
AcDbEntity
  8
0
100
AcDbCircle
 62
7
  6
BYLAYER
 10
49.2530705598
 20
33.7920873284
 40
1.35
100
AcDbArc
 50
144.9999999999
 51
239.7910871592
  0
ARC
  5
4AE
100
AcDbEntity
  8
0
100
AcDbCircle
 62
7
  6
BYLAYER
 10
49.2530705598
 20
33.7920873284
 40
1.35
100
AcDbArc
 50
304.4630961166
 51
324.9999999985
  0
ARC
  5
4AF
100
AcDbEntity
  8
0
100
AcDbCircle
 62
7
  6
BYLAYER
 10
45.2530705598
 20
33.7920873284
 40
1.25
100
AcDbArc
 50
121.3322514977
 51
238.6677411797
  0
ARC
  5
4B0
100
AcDbEntity
  8
0
100
AcDbCircle
 62
7
  6
BYLAYER
 10
45.2530705598
 20
33.7920873284
 40
1.25
100
AcDbArc
 50
301.3322514973
 51
58.6677411801
  0
ARC
  5
4B1
100
AcDbEntity
  8
0
100
AcDbCircle
 62
7
  6
BYLAYER
 10
49.2530705598
 20
33.7920873284
 40
1.25
100
AcDbArc
 50
121.3322514978
 51
238.6677411797
  0
ARC
  5
4B2
100
AcDbEntity
  8
0
100
AcDbCircle
 62
7
  6
BYLAYER
 10
49.2530705598
 20
33.7920873284
 40
1.25
100
AcDbArc
 50
301.3322514973
 51
58.6677411803
  0
ARC
  5
4B3
100
AcDbEntity
  8
0
100
AcDbCircle
 62
7
  6
BYLAYER
 10
29.9318096908
 20
31.440052598
 40
0.5001077289
100
AcDbArc
 50
180.0228060163
 51
269.9790418477
  0
ARC
  5
4B4
100
AcDbEntity
  8
0
100
AcDbCircle
 62
7
  6
BYLAYER
 10
29.8843551388
 20
31.3925167283
 40
0.5000134138
100
AcDbArc
 50
180.0030962982
 51
269.9807243288
  0
ARC
  5
4B5
100
AcDbEntity
  8
0
100
AcDbCircle
 62
7
  6
BYLAYER
 10
34.3532503361
 20
33.4926431589
 40
0.4998202275
100
AcDbArc
 50
359.9929228311
 51
90.0101761137
  0
ARC
  5
4B6
100
AcDbEntity
  8
0
100
AcDbCircle
 62
7
  6
BYLAYER
 10
31.3528889236
 20
33.4926435837
 40
0.4998183676
100
AcDbArc
 50
89.9894653286
 51
180.0071162487
  0
ARC
  5
4B7
100
AcDbEntity
  8
0
100
AcDbCircle
 62
7
  6
BYLAYER
 10
43.6030705598
 20
39.2920873284
 40
2.3
100
AcDbArc
 50
0.0000000001
 51
90.0000000004
  0
ARC
  5
4B8
100
AcDbEntity
  8
0
100
AcDbCircle
 62
7
  6
BYLAYER
 10
45.2530705598
 20
40.7920873284
 40
1.35
100
AcDbArc
 50
325.0000000043
 51
145.000000003
  0
ARC
  5
4B9
100
AcDbEntity
  8
0
100
AcDbCircle
 62
7
  6
BYLAYER
 10
49.2530705598
 20
40.7920873284
 40
1.35
100
AcDbArc
 50
34.9999999964
 51
215.0
  0
ARC
  5
4BA
100
AcDbEntity
  8
0
100
AcDbCircle
 62
7
  6
BYLAYER
 10
43.6030705598
 20
39.2920873284
 40
1.0
100
AcDbArc
 50
0.0
 51
89.9999999954
  0
ARC
  5
4BB
100
AcDbEntity
  8
0
100
AcDbCircle
 62
7
  6
BYLAYER
 10
42.8030705598
 20
44.2920873284
 40
0.5
100
AcDbArc
 50
89.9999999934
 51
180.0000000001
  0
ARC
  5
4BC
100
AcDbEntity
  8
0
100
AcDbCircle
 62
7
  6
BYLAYER
 10
67.0230913191
 20
33.8425053529
 40
5.0
100
AcDbArc
 50
269.9999999959
 51
271.8328391281
  0
ARC
  5
4BD
100
AcDbEntity
  8
0
100
AcDbCircle
 62
7
  6
BYLAYER
 10
67.023080452
 20
33.3089379075
 40
4.4108770134
100
AcDbArc
 50
270.0001465461
 51
272.0363054527
  0
ARC
  5
4BE
100
AcDbEntity
  8
0
100
AcDbCircle
 62
7
  6
BYLAYER
 10
70.2960873289
 20
31.4583554474
 40
1.2528028206
100
AcDbArc
 50
258.8149536662
 51
264.5522804048
  0
ARC
  5
4BF
100
AcDbEntity
  8
0
100
AcDbCircle
 62
7
  6
BYLAYER
 10
64.5774142099
 20
33.5369698146
 40
0.5001077297
100
AcDbArc
 50
270.0236560798
 51
359.9790557431
  0
ARC
  5
4C0
100
AcDbEntity
  8
0
100
AcDbCircle
 62
7
  6
BYLAYER
 10
64.6217903948
 20
33.4925114932
 40
0.5000098209
100
AcDbArc
 50
270.0215545999
 51
359.9991421878
  0
ARC
  5
4C1
100
AcDbEntity
  8
0
100
AcDbCircle
 62
7
  6
BYLAYER
 10
62.3100058441
 20
29.3481129049
 40
0.450591105
100
AcDbArc
 50
44.9999999096
 51
75.200876352
  0
ARC
  5
4C2
100
AcDbEntity
  8
0
100
AcDbCircle
 62
7
  6
BYLAYER
 10
69.4530708459
 20
29.9851015348
 40
0.2500000035
100
AcDbArc
 50
0.0000012607
 51
80.6863979331
  0
ARC
  5
4C3
100
AcDbEntity
  8
0
100
AcDbCircle
 62
7
  6
BYLAYER
 10
69.45307085
 20
29.9173821323
 40
0.2499999983
100
AcDbArc
 50
290.082817418
 51
0.0000030624
  0
ARC
  5
4C4
100
AcDbEntity
  8
0
100
AcDbCircle
 62
7
  6
BYLAYER
 10
62.3100058441
 20
29.5089865029
 40
0.240040783
100
AcDbArc
 50
39.2604160554
 51
90.0000000132
  0
ARC
  5
4C5
100
AcDbEntity
  8
0
100
AcDbCircle
 62
7
  6
BYLAYER
 10
62.8697494381
 20
29.7019436999
 40
0.19540354
100
AcDbArc
 50
224.9999993769
 51
267.9341164431
  0
ARC
  5
4C6
100
AcDbEntity
  8
0
100
AcDbCircle
 62
7
  6
BYLAYER
 10
62.5757039223
 20
30.6083189482
 40
0.1747484076
100
AcDbArc
 50
171.942337075
 51
173.0794768634
  0
ARC
  5
4C7
100
AcDbEntity
  8
0
100
AcDbCircle
 62
7
  6
BYLAYER
 10
63.4962175469
 20
30.6104691171
 40
0.1588223906
100
AcDbArc
 50
7.3476243957
 51
8.1410068187
  0
ARC
  5
4C8
100
AcDbEntity
  8
0
100
AcDbCircle
 62
7
  6
BYLAYER
 10
69.4530708466
 20
29.9851015357
 40
0.1500000023
100
AcDbArc
 50
0.0000005473
 51
80.6864002723
  0
ARC
  5
4C9
100
AcDbEntity
  8
0
100
AcDbCircle
 62
7
  6
BYLAYER
 10
69.4530708493
 20
29.9173821326
 40
0.1499999994
100
AcDbArc
 50
268.0544908483
 51
0.0000002012
  0
ARC
  5
4CA
100
AcDbEntity
  8
0
100
AcDbCircle
 62
7
  6
BYLAYER
 10
62.7822807661
 20
29.6399265919
 40
0.109100687
100
AcDbArc
 50
359.9999995729
 51
90.0000209906
  0
ARC
  5
4CB
100
AcDbEntity
  8
0
100
AcDbCircle
 62
7
  6
BYLAYER
 10
63.2238609721
 20
29.6399265919
 40
0.109100687
100
AcDbArc
 50
90.0000000161
 51
180.0000002139
  0
ARC
  5
4CC
100
AcDbEntity
  8
0
100
AcDbCircle
 62
7
  6
BYLAYER
 10
65.3530708494
 20
29.9425053544
 40
0.1000000007
100
AcDbArc
 50
180.0000005021
 51
269.9999998237
  0
ARC
  5
4CD
100
AcDbEntity
  8
0
100
AcDbCircle
 62
7
  6
BYLAYER
 10
62.5761162871
 20
29.4742188789
 40
0.055999979
100
AcDbArc
 50
297.2060553863
 51
39.2604194666
  0
ARC
  5
4CE
100
AcDbEntity
  8
0
100
AcDbCircle
 62
7
  6
BYLAYER
 10
63.1427602851
 20
29.4311144159
 40
0.028
100
AcDbArc
 50
77.4572944528
 51
180.0000009616
  0
ARC
  5
4CF
100
AcDbEntity
  8
0
100
AcDbCircle
 62
7
  6
BYLAYER
 10
62.8633814531
 20
29.4311144249
 40
0.028
100
AcDbArc
 50
359.9999980748
 51
102.5427031222
  0
ARC
  5
4D0
100
AcDbEntity
  8
0
100
AcDbCircle
 62
7
  6
BYLAYER
 10
62.8633814531
 20
29.5346613219
 40
0.028
100
AcDbArc
 50
268.6158375224
 51
0.0000013329
  0
ARC
  5
4D1
100
AcDbEntity
  8
0
100
AcDbCircle
 62
7
  6
BYLAYER
 10
63.1427602851
 20
29.5324825789
 40
0.028
100
AcDbArc
 50
179.9999994535
 51
262.2202672125
  0
ARC
  5
4D2
100
AcDbEntity
  8
0
100
AcDbCircle
 62
7
  6
BYLAYER
 10
50.9030705598
 20
39.2920873284
 40
2.3
100
AcDbArc
 50
89.9999999996
 51
179.9999999999
  0
ARC
  5
4D3
100
AcDbEntity
  8
0
100
AcDbCircle
 62
7
  6
BYLAYER
 10
50.9030705598
 20
39.2920873284
 40
1.0
100
AcDbArc
 50
90.0000000047
 51
180.0000000013
  0
ARC
  5
4D4
100
AcDbEntity
  8
0
100
AcDbCircle
 62
7
  6
BYLAYER
 10
51.7030705598
 20
44.2920873284
 40
0.5
100
AcDbArc
 50
0.0000000076
 51
90.0000000021
  0
ARC
  5
4D5
100
AcDbEntity
  8
0
100
AcDbCircle
 62
7
  6
BYLAYER
 10
431.5154980141
 20
28.5082264636
 40
366.9337690176
100
AcDbArc
 50
180.5610018667
 51
180.7915957391
  0
ARC
  5
4D6
100
AcDbEntity
  8
0
100
AcDbCircle
 62
7
  6
BYLAYER
 10
537.2656439309
 20
29.8285402112
 40
506.9982077888
100
AcDbArc
 50
180.3085531793
 51
180.559854735
  0
ARC
  5
4D7
100
AcDbEntity
  8
0
100
AcDbCircle
 62
7
  6
BYLAYER
 10
559.9624101878
 20
29.9285837361
 40
496.3670192417
100
AcDbArc
 50
180.2917598711
 51
180.5786678578
  0
ARC
  5
4D8
100
AcDbEntity
  8
0
100
AcDbCircle
 62
7
  6
BYLAYER
 10
487.0423064738
 20
29.8284224745
 40
456.2749270942
100
AcDbArc
 50
180.2635243679
 51
180.5898916695
  0
ARC
  5
4D9
100
AcDbEntity
  8
0
100
AcDbCircle
 62
7
  6
BYLAYER
 10
67.0230913191
 20
115.1425053528
 40
5.0
100
AcDbArc
 50
88.1671608719
 51
90.0000000041
  0
ARC
  5
4DA
100
AcDbEntity
  8
0
100
AcDbCircle
 62
7
  6
BYLAYER
 10
67.023080452
 20
115.6760727937
 40
4.4108770184
100
AcDbArc
 50
87.9636941432
 51
89.9998531174
  0
ARC
  5
4DB
100
AcDbEntity
  8
0
100
AcDbCircle
 62
7
  6
BYLAYER
 10
49.2530705598
 20
108.1929233773
 40
1.35
100
AcDbArc
 50
144.9999999979
 51
325.0000000005
  0
ARC
  5
4DC
100
AcDbEntity
  8
0
100
AcDbCircle
 62
7
  6
BYLAYER
 10
49.2530705598
 20
115.1929233773
 40
1.35
100
AcDbArc
 50
35.0000000016
 51
214.9999999983
  0
ARC
  5
4DD
100
AcDbEntity
  8
0
100
AcDbCircle
 62
7
  6
BYLAYER
 10
45.2530705598
 20
115.1929233773
 40
1.35
100
AcDbArc
 50
324.9999999996
 51
145.0000000001
  0
ARC
  5
4DE
100
AcDbEntity
  8
0
100
AcDbCircle
 62
7
  6
BYLAYER
 10
45.2530705598
 20
108.1929233773
 40
1.35
100
AcDbArc
 50
215.0000000014
 51
35.0000000016
  0
ARC
  5
4DF
100
AcDbEntity
  8
0
100
AcDbCircle
 62
7
  6
BYLAYER
 10
70.2962840242
 20
117.5267392241
 40
1.252760023
100
AcDbArc
 50
97.0918309405
 51
101.1946163537
  0
ARC
  5
4E0
100
AcDbEntity
  8
0
100
AcDbCircle
 62
7
  6
BYLAYER
 10
70.2912223983
 20
117.5663355323
 40
1.2128416133
100
AcDbArc
 50
95.3968968402
 51
97.0854845043
  0
ARC
  5
4E1
100
AcDbEntity
  8
0
100
AcDbCircle
 62
7
  6
BYLAYER
 10
70.2539901317
 20
118.0163193977
 40
0.6375118735
100
AcDbArc
 50
99.2428730413
 51
105.2080989222
  0
ARC
  5
4E2
100
AcDbEntity
  8
0
100
AcDbCircle
 62
7
  6
BYLAYER
 10
70.2476309005
 20
118.0518179847
 40
0.6014527678
100
AcDbArc
 50
96.7320300204
 51
99.1881152751
  0
ARC
  5
4E3
100
AcDbEntity
  8
0
100
AcDbCircle
 62
7
  6
BYLAYER
 10
64.577414214
 20
115.4480408923
 40
0.5001077249
100
AcDbArc
 50
0.0212193315
 51
89.9816914379
  0
ARC
  5
4E4
100
AcDbEntity
  8
0
100
AcDbCircle
 62
7
  6
BYLAYER
 10
29.9318095895
 20
117.5449582071
 40
0.5001077221
100
AcDbArc
 50
90.0155587809
 51
179.9790561317
  0
ARC
  5
4E5
100
AcDbEntity
  8
0
100
AcDbCircle
 62
7
  6
BYLAYER
 10
64.6216981929
 20
115.4924041939
 40
0.5001046962
100
AcDbArc
 50
0.0120735285
 51
89.9732399769
  0
ARC
  5
4E6
100
AcDbEntity
  8
0
100
AcDbCircle
 62
7
  6
BYLAYER
 10
29.8844378528
 20
117.5924109737
 40
0.5000977699
100
AcDbArc
 50
90.0233753424
 51
179.9891486576
  0
ARC
  5
4E7
100
AcDbEntity
  8
0
100
AcDbCircle
 62
7
  6
BYLAYER
 10
31.3529639472
 20
115.4923987402
 40
0.4998923527
100
AcDbArc
 50
179.9960465463
 51
270.0055311589
  0
ARC
  5
4E8
100
AcDbEntity
  8
0
100
AcDbCircle
 62
7
  6
BYLAYER
 10
34.3531771787
 20
115.4923987269
 40
0.4998923391
100
AcDbArc
 50
269.9944680682
 51
0.0044127589
  0
ARC
  5
4E9
100
AcDbEntity
  8
0
100
AcDbCircle
 62
7
  6
BYLAYER
 10
62.5789289153
 20
118.3771027175
 40
0.1780002053
100
AcDbArc
 50
186.8725328296
 51
188.0070988124
  0
ARC
  5
4EA
100
AcDbEntity
  8
0
100
AcDbCircle
 62
7
  6
BYLAYER
 10
63.493092798
 20
118.374959388
 40
0.1619753205
100
AcDbArc
 50
351.9126677739
 51
352.7051725326
  0
ARC
  5
4EB
100
AcDbEntity
  8
0
100
AcDbCircle
 62
7
  6
BYLAYER
 10
29.9234617411
 20
121.7317046514
 40
0.5001077362
100
AcDbArc
 50
180.0285041271
 51
269.979043617
  0
ARC
  5
4EC
100
AcDbEntity
  8
0
100
AcDbCircle
 62
7
  6
BYLAYER
 10
29.8843571069
 20
121.6925190479
 40
0.5000162974
100
AcDbArc
 50
180.0091669962
 51
269.9804323238
  0
ARC
  5
4ED
100
AcDbEntity
  8
0
100
AcDbCircle
 62
7
  6
BYLAYER
 10
34.3531772767
 20
123.7926120702
 40
0.4998923514
100
AcDbArc
 50
359.9961881429
 51
90.0054954451
  0
ARC
  5
4EE
100
AcDbEntity
  8
0
100
AcDbCircle
 62
7
  6
BYLAYER
 10
31.3529638404
 20
123.7926120759
 40
0.4998923459
100
AcDbArc
 50
89.9944545544
 51
180.002755471
  0
ARC
  5
4EF
100
AcDbEntity
  8
0
100
AcDbCircle
 62
7
  6
BYLAYER
 10
28.7920992235
 20
127.6574301669
 40
1.0580515601
100
AcDbArc
 50
1.5937140589
 51
3.4553172613
  0
ARC
  5
4F0
100
AcDbEntity
  8
0
100
AcDbCircle
 62
7
  6
BYLAYER
 10
30.7549465029
 20
127.776152032
 40
0.9083828712
100
AcDbArc
 50
181.6429284918
 51
183.4682481882
  0
ARC
  5
4F1
100
AcDbEntity
  8
0
100
AcDbCircle
 62
7
  6
BYLAYER
 10
29.7531338782
 20
128.99244565
 40
0.5000509336
100
AcDbArc
 50
90.0097793282
 51
180.0120339708
  0
ARC
  5
4F2
100
AcDbEntity
  8
0
100
AcDbCircle
 62
7
  6
BYLAYER
 10
62.3100058441
 20
119.6481129048
 40
0.450591105
100
AcDbArc
 50
44.9999999096
 51
75.200876352
  0
ARC
  5
4F3
100
AcDbEntity
  8
0
100
AcDbCircle
 62
7
  6
BYLAYER
 10
69.4530708454
 20
119.0676285702
 40
0.2500000043
100
AcDbArc
 50
0.0000019584
 51
69.9171818531
  0
ARC
  5
4F4
100
AcDbEntity
  8
0
100
AcDbCircle
 62
7
  6
BYLAYER
 10
69.4530708459
 20
120.2851015347
 40
0.2500000035
100
AcDbArc
 50
0.0000012607
 51
80.6863979331
  0
ARC
  5
4F5
100
AcDbEntity
  8
0
100
AcDbCircle
 62
7
  6
BYLAYER
 10
69.4530708503
 20
118.9999091673
 40
0.2499999982
100
AcDbArc
 50
279.3135987784
 51
0.0000017641
  0
ARC
  5
4F6
100
AcDbEntity
  8
0
100
AcDbCircle
 62
7
  6
BYLAYER
 10
69.45307085
 20
120.2173821322
 40
0.2499999983
100
AcDbArc
 50
290.082817418
 51
0.0000030624
  0
ARC
  5
4F7
100
AcDbEntity
  8
0
100
AcDbCircle
 62
7
  6
BYLAYER
 10
62.3100058441
 20
119.8089865028
 40
0.240040783
100
AcDbArc
 50
39.2604160554
 51
90.0000000132
  0
ARC
  5
4F8
100
AcDbEntity
  8
0
100
AcDbCircle
 62
7
  6
BYLAYER
 10
62.8697494381
 20
120.0019436998
 40
0.19540354
100
AcDbArc
 50
224.9999993769
 51
267.9341164431
  0
ARC
  5
4F9
100
AcDbEntity
  8
0
100
AcDbCircle
 62
7
  6
BYLAYER
 10
62.5789128018
 20
120.9079146062
 40
0.1779838845
100
AcDbArc
 50
171.9931191948
 51
173.1282977129
  0
ARC
  5
4FA
100
AcDbEntity
  8
0
100
AcDbCircle
 62
7
  6
BYLAYER
 10
63.4891516584
 20
120.9095224554
 40
0.1659521969
100
AcDbArc
 50
7.2309350655
 51
8.0236084797
  0
ARC
  5
4FB
100
AcDbEntity
  8
0
100
AcDbCircle
 62
7
  6
BYLAYER
 10
69.4530708466
 20
120.2851015357
 40
0.1500000023
100
AcDbArc
 50
0.0000005473
 51
80.6864002723
  0
ARC
  5
4FC
100
AcDbEntity
  8
0
100
AcDbCircle
 62
7
  6
BYLAYER
 10
69.4530708491
 20
119.0676285728
 40
0.15
100
AcDbArc
 50
0.0000005873
 51
91.9456278577
  0
ARC
  5
4FD
100
AcDbEntity
  8
0
100
AcDbCircle
 62
7
  6
BYLAYER
 10
69.4530708493
 20
120.2173821325
 40
0.1499999994
100
AcDbArc
 50
268.0544908483
 51
0.0000002012
  0
ARC
  5
4FE
100
AcDbEntity
  8
0
100
AcDbCircle
 62
7
  6
BYLAYER
 10
69.4530708503
 20
118.9999091671
 40
0.1499999983
100
AcDbArc
 50
279.3135985313
 51
0.0000005545
  0
ARC
  5
4FF
100
AcDbEntity
  8
0
100
AcDbCircle
 62
7
  6
BYLAYER
 10
62.7822807661
 20
119.9399265918
 40
0.109100687
100
AcDbArc
 50
359.9999995729
 51
90.0000209906
  0
ARC
  5
500
100
AcDbEntity
  8
0
100
AcDbCircle
 62
7
  6
BYLAYER
 10
63.2238609721
 20
119.9399265918
 40
0.109100687
100
AcDbArc
 50
90.0000000161
 51
180.0000002139
  0
ARC
  5
501
100
AcDbEntity
  8
0
100
AcDbCircle
 62
7
  6
BYLAYER
 10
65.3530708493
 20
119.0425053513
 40
0.1000000006
100
AcDbArc
 50
90.0000001368
 51
179.9999994604
  0
ARC
  5
502
100
AcDbEntity
  8
0
100
AcDbCircle
 62
7
  6
BYLAYER
 10
65.3530708494
 20
120.2425053543
 40
0.1000000007
100
AcDbArc
 50
180.0000005021
 51
269.9999998237
  0
ARC
  5
503
100
AcDbEntity
  8
0
100
AcDbCircle
 62
7
  6
BYLAYER
 10
62.5761162871
 20
119.7742188788
 40
0.055999979
100
AcDbArc
 50
297.2060553863
 51
39.2604194666
  0
ARC
  5
504
100
AcDbEntity
  8
0
100
AcDbCircle
 62
7
  6
BYLAYER
 10
63.1427602851
 20
119.7311144158
 40
0.028
100
AcDbArc
 50
77.4572944528
 51
180.0000009616
  0
ARC
  5
505
100
AcDbEntity
  8
0
100
AcDbCircle
 62
7
  6
BYLAYER
 10
63.1427602851
 20
119.1314981618
 40
0.028
100
AcDbArc
 50
179.9999990704
 51
282.5430957771
  0
ARC
  5
506
100
AcDbEntity
  8
0
100
AcDbCircle
 62
7
  6
BYLAYER
 10
62.8633814531
 20
119.7311144248
 40
0.028
100
AcDbArc
 50
359.9999980748
 51
102.5427031222
  0
ARC
  5
507
100
AcDbEntity
  8
0
100
AcDbCircle
 62
7
  6
BYLAYER
 10
62.8633814531
 20
119.1314981528
 40
0.028
100
AcDbArc
 50
257.4570460493
 51
0.0000018488
  0
ARC
  5
508
100
AcDbEntity
  8
0
100
AcDbCircle
 62
7
  6
BYLAYER
 10
62.8633814531
 20
119.8346613218
 40
0.028
100
AcDbArc
 50
268.6158375224
 51
0.0000013329
  0
ARC
  5
509
100
AcDbEntity
  8
0
100
AcDbCircle
 62
7
  6
BYLAYER
 10
63.1427602851
 20
119.8324825788
 40
0.028
100
AcDbArc
 50
179.9999994535
 51
262.2202672125
  0
ARC
  5
50A
100
AcDbEntity
  8
0
100
AcDbCircle
 62
7
  6
BYLAYER
 10
67.023080452
 20
123.6089379073
 40
4.4108770133
100
AcDbArc
 50
270.000146546
 51
272.0363054527
  0
ARC
  5
50B
100
AcDbEntity
  8
0
100
AcDbCircle
 62
7
  6
BYLAYER
 10
70.2960873289
 20
121.7583554473
 40
1.2528028206
100
AcDbArc
 50
258.8149536662
 51
264.5522804048
  0
ARC
  5
50C
100
AcDbEntity
  8
0
100
AcDbCircle
 62
7
  6
BYLAYER
 10
64.5991336726
 20
123.815250357
 40
0.5001077395
100
AcDbArc
 50
270.0236716076
 51
359.9691853037
  0
ARC
  5
50D
100
AcDbEntity
  8
0
100
AcDbCircle
 62
7
  6
BYLAYER
 10
64.6217898404
 20
123.79251257
 40
0.5000109675
100
AcDbArc
 50
270.0216197433
 51
359.9890823473
  0
ARC
  5
50E
100
AcDbEntity
  8
0
100
AcDbCircle
 62
7
  6
BYLAYER
 10
87.9584191731
 20
121.4398359429
 40
24.3570194445
100
AcDbArc
 50
179.6608657438
 51
180.6979583917
  0
ARC
  5
50F
100
AcDbEntity
  8
0
100
AcDbCircle
 62
7
  6
BYLAYER
 10
67.0230913191
 20
124.1425053528
 40
5.0
100
AcDbArc
 50
269.9999999959
 51
271.8328391281
  0
ARC
  5
510
100
AcDbEntity
  8
0
100
AcDbCircle
 62
7
  6
BYLAYER
 10
64.7530036241
 20
128.9924423533
 40
0.5000543579
100
AcDbArc
 50
359.9883465309
 51
89.9898061986
  0
ARC
  5
511
100
AcDbEntity
  8
0
100
AcDbCircle
 62
7
  6
BYLAYER
 10
559.9630167931
 20
119.0564219682
 40
496.3676258627
100
AcDbArc
 50
179.4213296197
 51
179.708239556
  0
ARC
  5
512
100
AcDbEntity
  8
0
100
AcDbCircle
 62
7
  6
BYLAYER
 10
510.0402362553
 20
119.3638446351
 40
479.7720770947
100
AcDbArc
 50
179.4331526363
 51
179.6987041352
  0
ARC
  5
513
100
AcDbEntity
  8
0
100
AcDbCircle
 62
7
  6
BYLAYER
 10
507.5957487905
 20
119.0035210758
 40
476.828859577
100
AcDbArc
 50
179.417135757
 51
179.7294498686
  0
ARC
  5
514
100
AcDbEntity
  8
0
100
AcDbCircle
 62
7
  6
BYLAYER
 10
400.0183000735
 20
120.8418932088
 40
335.4345113156
100
AcDbArc
 50
179.1962622393
 51
179.4486786742
  0
ARC
  5
515
100
AcDbEntity
  8
0
100
AcDbCircle
 62
7
  6
BYLAYER
 10
12363.3058962086
 20
54.3538090217
 40
12333.3954748924
100
AcDbArc
 50
179.99035327
 51
180.1062487583
  0
SPLINE
  5
516
100
AcDbEntity
  8
0
100
AcDbSpline
 62
7
  6
BYLAYER
 70
0
 71
3
 72
10
 73
6
 74
0
 42
0.0000001
 43
0.0000001
 44
0.0000000001
 40
0.0
 40
0.0
 40
0.0
 40
0.0
 40
0.1069513798
 40
0.5661160598
 40
1.0
 40
1.0
 40
1.0
 40
1.0
 10
63.5237276086
 20
119.6424756117
 30
0.0
 10
63.514019522
 20
119.6514885266
 30
0.0
 10
63.4592568161
 20
119.6979395081
 30
0.0
 10
63.3323300882
 20
119.7654499495
 30
0.0
 10
63.2012705575
 20
119.7962142006
 30
0.0
 10
63.1389698954
 20
119.8047390834
 30
0.0
  0
SPLINE
  5
517
100
AcDbEntity
  8
0
100
AcDbSpline
 62
7
  6
BYLAYER
 70
0
 71
3
 72
9
 73
5
 74
0
 42
0.0000001
 43
0.0000001
 44
0.0000000001
 40
0.0
 40
0.0
 40
0.0
 40
0.0
 40
0.5428488299
 40
1.0
 40
1.0
 40
1.0
 40
1.0
 10
63.6275063004
 20
119.4313062889
 30
0.0
 10
63.6274786511
 20
119.4690161387
 30
0.0
 10
63.6105033631
 20
119.5422368506
 30
0.0
 10
63.5556983715
 20
119.6127941947
 30
0.0
 10
63.5237276086
 20
119.6424756117
 30
0.0
  0
SPLINE
  5
518
100
AcDbEntity
  8
0
100
AcDbSpline
 62
7
  6
BYLAYER
 70
0
 71
3
 72
9
 73
5
 74
0
 42
0.0000001
 43
0.0000001
 44
0.0000000001
 40
0.0
 40
0.0
 40
0.0
 40
0.0
 40
0.4904279008
 40
1.0
 40
1.0
 40
1.0
 40
1.0
 10
63.3855037874
 20
119.6425003877
 30
0.0
 10
63.3549896851
 20
119.6700420556
 30
0.0
 10
63.2805340243
 20
119.7192764427
 30
0.0
 10
63.1931985957
 20
119.7485645202
 30
0.0
 10
63.1488407973
 20
119.7584448283
 30
0.0
  0
SPLINE
  5
519
100
AcDbEntity
  8
0
100
AcDbSpline
 62
7
  6
BYLAYER
 70
0
 71
3
 72
10
 73
6
 74
0
 42
0.0000001
 43
0.0000001
 44
0.0000000001
 40
0.0
 40
0.0
 40
0.0
 40
0.0
 40
0.4509722236
 40
0.9488574126
 40
1.0
 40
1.0
 40
1.0
 40
1.0
 10
63.4884498728
 20
119.4313062881
 30
0.0
 10
63.48843107
 20
119.4632382799
 30
0.0
 10
63.4749963282
 20
119.5336019791
 30
0.0
 10
63.4256532662
 20
119.6050221557
 30
0.0
 10
63.3889970073
 20
119.6393474487
 30
0.0
 10
63.3855037874
 20
119.6425003877
 30
0.0
  0
SPLINE
  5
51A
100
AcDbEntity
  8
0
100
AcDbSpline
 62
7
  6
BYLAYER
 70
0
 71
3
 72
11
 73
7
 74
0
 42
0.0000001
 43
0.0000001
 44
0.0000000001
 40
0.0
 40
0.0
 40
0.0
 40
0.0
 40
0.2428025286
 40
0.5033078896
 40
0.7638132505
 40
1.0
 40
1.0
 40
1.0
 40
1.0
 10
63.1488407952
 20
119.1041677585
 30
0.0
 10
63.1931791
 20
119.1140437495
 30
0.0
 10
63.2853903251
 20
119.1449620812
 30
0.0
 10
63.403549875
 20
119.225629708
 30
0.0
 10
63.4749806801
 20
119.328960896
 30
0.0
 10
63.4884312121
 20
119.3993487293
 30
0.0
 10
63.4884499269
 20
119.4313062894
 30
0.0
  0
SPLINE
  5
51B
100
AcDbEntity
  8
0
100
AcDbSpline
 62
7
  6
BYLAYER
 70
0
 71
3
 72
13
 73
9
 74
0
 42
0.0000001
 43
0.0000001
 44
0.0000000001
 40
0.0
 40
0.0
 40
0.0
 40
0.0
 40
0.1454837983
 40
0.3194266583
 40
0.4933695183
 40
0.6673123783
 40
0.8412552382
 40
1.0
 40
1.0
 40
1.0
 40
1.0
 10
62.6206545412
 20
119.6424963468
 30
0.0
 10
62.5927261384
 20
119.6171966332
 30
0.0
 10
62.5393676357
 20
119.5528578008
 30
0.0
 10
62.5059024708
 20
119.4313796753
 30
0.0
 10
62.5412231448
 20
119.3028784997
 30
0.0
 10
62.6329583038
 20
119.1998177523
 30
0.0
 10
62.7474476804
 20
119.1347809162
 30
0.0
 10
62.8229426277
 20
119.1118056765
 30
0.0
 10
62.8573005475
 20
119.1041658372
 30
0.0
  0
SPLINE
  5
51C
100
AcDbEntity
  8
0
100
AcDbSpline
 62
7
  6
BYLAYER
 70
0
 71
3
 72
10
 73
6
 74
0
 42
0.0000001
 43
0.0000001
 44
0.0000000001
 40
0.0
 40
0.0
 40
0.0
 40
0.0
 40
0.439260263
 40
0.9211562489
 40
1.0
 40
1.0
 40
1.0
 40
1.0
 10
62.8573004005
 20
119.7584467238
 30
0.0
 10
62.8229837747
 20
119.7508161039
 30
0.0
 10
62.7475376521
 20
119.7278626092
 30
0.0
 10
62.6659595733
 20
119.6815536283
 30
0.0
 10
62.6261178034
 20
119.6474453935
 30
0.0
 10
62.6206545412
 20
119.6424963468
 30
0.0
  0
SPLINE
  5
51D
100
AcDbEntity
  8
0
100
AcDbSpline
 62
7
  6
BYLAYER
 70
0
 71
3
 72
8
 73
4
 74
0
 42
0.0000001
 43
0.0000001
 44
0.0000000001
 40
0.0
 40
0.0
 40
0.0
 40
0.0
 40
1.0
 40
1.0
 40
1.0
 40
1.0
 10
62.482482982
 20
119.6424006327
 30
0.0
 10
62.5162096791
 20
119.6734960959
 30
0.0
 10
62.556961295
 20
119.7013583307
 30
0.0
 10
62.6017207511
 20
119.7244109369
 30
0.0
  0
SPLINE
  5
51E
100
AcDbEntity
  8
0
100
AcDbSpline
 62
7
  6
BYLAYER
 70
0
 71
3
 72
9
 73
5
 74
0
 42
0.0000001
 43
0.0000001
 44
0.0000000001
 40
0.0
 40
0.0
 40
0.0
 40
0.0
 40
0.7424329532
 40
1.0
 40
1.0
 40
1.0
 40
1.0
 10
62.3786408308
 20
119.4313062666
 30
0.0
 10
62.3787474966
 20
119.4847841089
 30
0.0
 10
62.4045335192
 20
119.560425851
 30
0.0
 10
62.4650202976
 20
119.6263003232
 30
0.0
 10
62.482482982
 20
119.6424006327
 30
0.0
  0
SPLINE
  5
51F
100
AcDbEntity
  8
0
100
AcDbSpline
 62
7
  6
BYLAYER
 70
0
 71
3
 72
15
 73
11
 74
0
 42
0.0000001
 43
0.0000001
 44
0.0000000001
 40
0.0
 40
0.0
 40
0.0
 40
0.0
 40
0.1094991168
 40
0.2396660785
 40
0.3698330401
 40
0.5000000017
 40
0.6301669633
 40
0.760333925
 40
0.8905008866
 40
1.0
 40
1.0
 40
1.0
 40
1.0
 10
63.6275249616
 20
119.4313063109
 30
0.0
 10
63.6275667509
 20
119.4033542691
 30
0.0
 10
63.6168255393
 20
119.3354446194
 30
0.0
 10
63.534902783
 20
119.2108508586
 30
0.0
 10
63.326855259
 20
119.0856380754
 30
0.0
 10
63.0030708491
 20
119.0302331213
 30
0.0
 10
62.6792864392
 20
119.0856380754
 30
0.0
 10
62.4712389152
 20
119.2108508586
 30
0.0
 10
62.3893161597
 20
119.3354446182
 30
0.0
 10
62.3785749476
 20
119.4033542671
 30
0.0
 10
62.3786167366
 20
119.4313063083
 30
0.0
  0
SPLINE
  5
520
100
AcDbEntity
  8
0
100
AcDbSpline
 62
7
  6
BYLAYER
 70
0
 71
3
 72
13
 73
9
 74
0
 42
0.0000001
 43
0.0000001
 44
0.0000000001
 40
0.0
 40
0.0
 40
0.0
 40
0.0
 40
0.349538474
 40
0.6532885
 40
0.7761668213
 40
0.8750195871
 40
0.9486884767
 40
1.0
 40
1.0
 40
1.0
 40
1.0
 10
69.4682352568
 20
119.9675195842
 30
0.0
 10
69.468600893
 20
119.9796141699
 30
0.0
 10
69.4683387501
 20
120.002252736
 30
0.0
 10
69.4655539473
 20
120.0290534372
 30
0.0
 10
69.4616316231
 20
120.0468330864
 30
0.0
 10
69.458330926
 20
120.0565573093
 30
0.0
 10
69.454702798
 20
120.0634177916
 30
0.0
 10
69.4513369322
 20
120.0665087336
 30
0.0
 10
69.4496680803
 20
120.0671170699
 30
0.0
  0
LINE
  5
521
100
AcDbEntity
  8
0
100
AcDbLine
 62
7
  6
BYLAYER
 10
69.4496680803
 20
120.0671170699
 11
69.4478764754
 21
120.0674715721
  0
SPLINE
  5
522
100
AcDbEntity
  8
0
100
AcDbSpline
 62
7
  6
BYLAYER
 70
0
 71
3
 72
19
 73
15
 74
0
 42
0.0000001
 43
0.0000001
 44
0.0000000001
 40
0.0
 40
0.0
 40
0.0
 40
0.0
 40
0.2064673328
 40
0.40132473
 40
0.5773161267
 40
0.7277856917
 40
0.7917165036
 40
0.8474472208
 40
0.8946083549
 40
0.9329856534
 40
0.9624765968
 40
0.9832681782
 40
0.9956358078
 40
1.0
 40
1.0
 40
1.0
 40
1.0
 10
68.0246713862
 20
120.0541235386
 30
0.0
 10
68.0248274611
 20
120.0581744693
 30
0.0
 10
68.0251398881
 20
120.066048182
 30
0.0
 10
68.0256207209
 20
120.0773735222
 30
0.0
 10
68.0260907834
 20
120.0875985144
 30
0.0
 10
68.0264778194
 20
120.095254524
 30
0.0
 10
68.0267750074
 20
120.1005493459
 30
0.0
 10
68.0269726005
 20
120.1038208484
 30
0.0
 10
68.027158642
 20
120.1065827735
 30
0.0
 10
68.027323039
 20
120.1088508247
 30
0.0
 10
68.0274867
 20
120.110545227
 30
0.0
 10
68.0275947743
 20
120.1118567986
 30
0.0
 10
68.0277488322
 20
120.1124310635
 30
0.0
 10
68.0277842674
 20
120.1129144754
 30
0.0
 10
68.027869915
 20
120.1129117827
 30
0.0
  0
SPLINE
  5
523
100
AcDbEntity
  8
0
100
AcDbSpline
 62
7
  6
BYLAYER
 70
0
 71
3
 72
15
 73
11
 74
0
 42
0.0000001
 43
0.0000001
 44
0.0000000001
 40
0.0
 40
0.0
 40
0.0
 40
0.0
 40
0.1053111699
 40
0.1493221001
 40
0.2014088517
 40
0.3287078041
 40
0.4819814743
 40
0.6520029612
 40
0.8280082769
 40
1.0
 40
1.0
 40
1.0
 40
1.0
 10
68.3724058431
 20
120.1018866328
 30
0.0
 10
68.3761008291
 20
120.1017664857
 30
0.0
 10
68.3800955493
 20
120.0964792536
 30
0.0
 10
68.3829745827
 20
120.0902724316
 30
0.0
 10
68.3856863196
 20
120.0828310679
 30
0.0
 10
68.3884378423
 20
120.0714951861
 30
0.0
 10
68.3908629184
 20
120.0558368337
 30
0.0
 10
68.3924030561
 20
120.038370709
 30
0.0
 10
68.3930579654
 20
120.0201897104
 30
0.0
 10
68.392947071
 20
120.0079696415
 30
0.0
 10
68.3927646246
 20
120.0019346453
 30
0.0
  0
SPLINE
  5
524
100
AcDbEntity
  8
0
100
AcDbSpline
 62
7
  6
BYLAYER
 70
0
 71
3
 72
19
 73
15
 74
0
 42
0.0000001
 43
0.0000001
 44
0.0000000001
 40
0.0
 40
0.0
 40
0.0
 40
0.0
 40
0.0046588983
 40
0.0175669716
 40
0.0388871952
 40
0.0686137851
 40
0.1067208225
 40
0.1531768544
 40
0.2079483036
 40
0.2710006112
 40
0.4207247753
 40
0.5966539941
 40
0.7920067276
 40
1.0
 40
1.0
 40
1.0
 40
1.0
 10
67.1830094553
 20
120.139947317
 30
0.0
 10
67.1829226779
 20
120.1399500939
 30
0.0
 10
67.1828772011
 20
120.1394727224
 30
0.0
 10
67.1827244448
 20
120.1389049855
 30
0.0
 10
67.1826077694
 20
120.1376379225
 30
0.0
 10
67.1824426124
 20
120.1360202418
 30
0.0
 10
67.1822751832
 20
120.133883031
 30
0.0
 10
67.1820890829
 20
120.1312981011
 30
0.0
 10
67.1818922015
 20
120.1282412391
 30
0.0
 10
67.1815968768
 20
120.1232647608
 30
0.0
 10
67.1812148897
 20
120.1160305326
 30
0.0
 10
67.1807503236
 20
120.1063324889
 30
0.0
 10
67.1802739551
 20
120.0955477247
 30
0.0
 10
67.1799650655
 20
120.0880374385
 30
0.0
 10
67.1798110941
 20
120.0841643964
 30
0.0
  0
SPLINE
  5
525
100
AcDbEntity
  8
0
100
AcDbSpline
 62
7
  6
BYLAYER
 70
0
 71
3
 72
15
 73
11
 74
0
 42
0.0000001
 43
0.0000001
 44
0.0000000001
 40
0.0
 40
0.0
 40
0.0
 40
0.0
 40
0.1274872851
 40
0.2546527683
 40
0.3810013103
 40
0.5063732943
 40
0.6308209904
 40
0.7546845636
 40
0.8777491888
 40
1.0
 40
1.0
 40
1.0
 40
1.0
 10
67.8052781641
 20
119.642505348
 30
0.0
 10
67.8045725894
 20
119.6629107072
 30
0.0
 10
67.8078315158
 20
119.7038781556
 30
0.0
 10
67.8224715171
 20
119.7632879899
 30
0.0
 10
67.8440402651
 20
119.8201175793
 30
0.0
 10
67.8706978512
 20
119.8742837784
 30
0.0
 10
67.9038571757
 20
119.9242864989
 30
0.0
 10
67.9416225367
 20
119.9703184798
 30
0.0
 10
67.9821570085
 20
120.01340474
 30
0.0
 10
68.010425685
 20
120.0407032462
 30
0.0
 10
68.0246817257
 20
120.0541233493
 30
0.0
  0
SPLINE
  5
526
100
AcDbEntity
  8
0
100
AcDbSpline
 62
7
  6
BYLAYER
 70
0
 71
3
 72
9
 73
5
 74
0
 42
0.0000001
 43
0.0000001
 44
0.0000000001
 40
0.0
 40
0.0
 40
0.0
 40
0.0
 40
0.5141494077
 40
1.0
 40
1.0
 40
1.0
 40
1.0
 10
68.0246816321
 20
120.0541228091
 30
0.0
 10
68.0877699729
 20
120.0452164212
 30
0.0
 10
68.2103878987
 20
120.0272906491
 30
0.0
 10
68.3331011047
 20
120.0100207841
 30
0.0
 10
68.3927630413
 20
120.0019370073
 30
0.0
  0
SPLINE
  5
527
100
AcDbEntity
  8
0
100
AcDbSpline
 62
7
  6
BYLAYER
 70
0
 71
3
 72
9
 73
5
 74
0
 42
0.0000001
 43
0.0000001
 44
0.0000000001
 40
0.0
 40
0.0
 40
0.0
 40
0.0
 40
0.486275162
 40
1.0
 40
1.0
 40
1.0
 40
1.0
 10
68.392764345
 20
119.2830734564
 30
0.0
 10
68.3330507858
 20
119.2749827035
 30
0.0
 10
68.2103387259
 20
119.2577123779
 30
0.0
 10
68.0877218016
 20
119.239787179
 30
0.0
 10
68.0246861012
 20
119.2308882333
 30
0.0
  0
SPLINE
  5
528
100
AcDbEntity
  8
0
100
AcDbSpline
 62
7
  6
BYLAYER
 70
0
 71
3
 72
16
 73
12
 74
0
 42
0.0000001
 43
0.0000001
 44
0.0000000001
 40
0.0
 40
0.0
 40
0.0
 40
0.0
 40
0.1860097012
 40
0.3534923323
 40
0.5022257127
 40
0.6322862635
 40
0.744379936
 40
0.8403943939
 40
0.9237098696
 40
0.9623340121
 40
1.0
 40
1.0
 40
1.0
 40
1.0
 10
68.3927647054
 20
119.2830729365
 30
0.0
 10
68.3549231012
 20
119.2953354095
 30
0.0
 10
68.2835314977
 20
119.3203201605
 30
0.0
 10
68.1843509952
 20
119.3617243586
 30
0.0
 10
68.099101525
 20
119.4048665078
 30
0.0
 10
68.0282418645
 20
119.4495112888
 30
0.0
 10
67.9721745642
 20
119.4955941239
 30
0.0
 10
67.9311242149
 20
119.542981488
 30
0.0
 10
67.909299758
 20
119.5848875891
 30
0.0
 10
67.9009009793
 20
119.6181042307
 30
0.0
 10
67.899518194
 20
119.6344503333
 30
0.0
 10
67.8995181932
 20
119.6425053373
 30
0.0
  0
SPLINE
  5
529
100
AcDbEntity
  8
0
100
AcDbSpline
 62
7
  6
BYLAYER
 70
0
 71
3
 72
16
 73
12
 74
0
 42
0.0000001
 43
0.0000001
 44
0.0000000001
 40
0.0
 40
0.0
 40
0.0
 40
0.0
 40
0.0376659885
 40
0.0762901306
 40
0.1596056034
 40
0.2556200574
 40
0.3677137266
 40
0.4977742758
 40
0.6465076571
 40
0.8139902919
 40
1.0
 40
1.0
 40
1.0
 40
1.0
 10
67.8995182229
 20
119.6425053373
 30
0.0
 10
67.899518222
 20
119.6505603383
 30
0.0
 10
67.9009010033
 20
119.6669064346
 30
0.0
 10
67.9092997722
 20
119.7001230639
 30
0.0
 10
67.9311242134
 20
119.7420291504
 30
0.0
 10
67.9721745403
 20
119.789416498
 30
0.0
 10
68.0282418136
 20
119.8354993171
 30
0.0
 10
68.0991014429
 20
119.8801440831
 30
0.0
 10
68.1843508781
 20
119.923286218
 30
0.0
 10
68.2835313421
 20
119.9646904029
 30
0.0
 10
68.3549229187
 20
119.9896751462
 30
0.0
 10
68.3927645088
 20
120.0019376154
 30
0.0
  0
SPLINE
  5
52A
100
AcDbEntity
  8
0
100
AcDbSpline
 62
7
  6
BYLAYER
 70
0
 71
3
 72
9
 73
5
 74
0
 42
0.0000001
 43
0.0000001
 44
0.0000000001
 40
0.0
 40
0.0
 40
0.0
 40
0.0
 40
0.5075641857
 40
1.0
 40
1.0
 40
1.0
 40
1.0
 10
69.5389161293
 20
119.3024294635
 30
0.0
 10
69.5278387747
 20
119.3078293877
 30
0.0
 10
69.5046745839
 20
119.3159742204
 30
0.0
 10
69.4801795624
 20
119.3180247079
 30
0.0
 10
69.4682354345
 20
119.3174893107
 30
0.0
  0
SPLINE
  5
52B
100
AcDbEntity
  8
0
100
AcDbSpline
 62
7
  6
BYLAYER
 70
0
 71
3
 72
9
 73
5
 74
0
 42
0.0000001
 43
0.0000001
 44
0.0000000001
 40
0.0
 40
0.0
 40
0.0
 40
0.0
 40
0.4893049157
 40
1.0
 40
1.0
 40
1.0
 40
1.0
 10
69.468235462
 20
119.9675213358
 30
0.0
 10
69.480103679
 20
119.9669896983
 30
0.0
 10
69.5045957818
 20
119.9690181246
 30
0.0
 10
69.5277704642
 20
119.9771479362
 30
0.0
 10
69.5389161481
 20
119.9825812046
 30
0.0
  0
SPLINE
  5
52C
100
AcDbEntity
  8
0
100
AcDbSpline
 62
7
  6
BYLAYER
 70
0
 71
3
 72
14
 73
10
 74
0
 42
0.0000001
 43
0.0000001
 44
0.0000000001
 40
0.0
 40
0.0
 40
0.0
 40
0.0
 40
0.0755576394
 40
0.1615611632
 40
0.263872754
 40
0.3843011432
 40
0.5216033782
 40
0.6728703742
 40
1.0
 40
1.0
 40
1.0
 40
1.0
 10
65.2530708486
 20
120.1313942412
 30
0.0
 10
65.2530708486
 20
120.1284361074
 30
0.0
 10
65.2546026404
 20
120.1220640511
 30
0.0
 10
65.2607716198
 20
120.1135597562
 30
0.0
 10
65.27029736
 20
120.1059578465
 30
0.0
 10
65.2828290215
 20
120.0993741548
 30
0.0
 10
65.2979495093
 20
120.0939741825
 30
0.0
 10
65.3214596547
 20
120.0884991334
 30
0.0
 10
65.3402634963
 20
120.0869497994
 30
0.0
 10
65.3530708475
 20
120.0869497994
 30
0.0
  0
SPLINE
  5
52D
100
AcDbEntity
  8
0
100
AcDbSpline
 62
7
  6
BYLAYER
 70
0
 71
3
 72
11
 73
7
 74
0
 42
0.0000001
 43
0.0000001
 44
0.0000000001
 40
0.0
 40
0.0
 40
0.0
 40
0.0
 40
0.2935704542
 40
0.568067547
 40
0.807840031
 40
1.0
 40
1.0
 40
1.0
 40
1.0
 10
70.1771494759
 20
120.5112117959
 30
0.0
 10
70.1786478461
 20
120.5233649774
 30
0.0
 10
70.1809101572
 20
120.5469650066
 30
0.0
 10
70.1821740216
 20
120.5806634339
 30
0.0
 10
70.1812048514
 20
120.610130938
 30
0.0
 10
70.1789055434
 20
120.6280673216
 30
0.0
 10
70.177138476
 20
120.6358853475
 30
0.0
  0
SPLINE
  5
52E
100
AcDbEntity
  8
0
100
AcDbSpline
 62
7
  6
BYLAYER
 70
0
 71
3
 72
11
 73
7
 74
0
 42
0.0000001
 43
0.0000001
 44
0.0000000001
 40
0.0
 40
0.0
 40
0.0
 40
0.0
 40
0.266491688
 40
0.5169702325
 40
0.7590788738
 40
1.0
 40
1.0
 40
1.0
 40
1.0
 10
70.4900070166
 20
120.5065425609
 30
0.0
 10
70.5079784677
 20
120.491040399
 30
0.0
 10
70.540228369
 20
120.4577064372
 30
0.0
 10
70.5766291573
 20
120.4001249411
 30
0.0
 10
70.5983989005
 20
120.3379375178
 30
0.0
 10
70.6030708491
 20
120.2947515021
 30
0.0
 10
70.6030708491
 20
120.2732950818
 30
0.0
  0
SPLINE
  5
52F
100
AcDbEntity
  8
0
100
AcDbSpline
 62
7
  6
BYLAYER
 70
0
 71
3
 72
11
 73
7
 74
0
 42
0.0000001
 43
0.0000001
 44
0.0000000001
 40
0.0
 40
0.0
 40
0.0
 40
0.0
 40
0.2771923232
 40
0.5384061713
 40
0.7788942537
 40
1.0
 40
1.0
 40
1.0
 40
1.0
 10
70.1771249704
 20
118.6491234779
 30
0.0
 10
70.2084703779
 20
118.6536377168
 30
0.0
 10
70.2689319063
 20
118.6658537828
 30
0.0
 10
70.3535301076
 20
118.6942455504
 30
0.0
 10
70.4277250948
 20
118.7311390486
 30
0.0
 10
70.4708797169
 20
118.7619645147
 30
0.0
 10
70.4900066483
 20
118.7784653735
 30
0.0
  0
SPLINE
  5
530
100
AcDbEntity
  8
0
100
AcDbSpline
 62
7
  6
BYLAYER
 70
0
 71
3
 72
9
 73
5
 74
0
 42
0.0000001
 43
0.0000001
 44
0.0000000001
 40
0.0
 40
0.0
 40
0.0
 40
0.0
 40
0.2471110996
 40
1.0
 40
1.0
 40
1.0
 40
1.0
 10
70.1771304988
 20
120.6358860979
 30
0.0
 10
70.1695941187
 20
120.6367748944
 30
0.0
 10
70.1391669349
 20
120.6409553113
 30
0.0
 10
70.1090649995
 20
120.6474493191
 30
0.0
 10
70.0867518189
 20
120.653506408
 30
0.0
  0
SPLINE
  5
531
100
AcDbEntity
  8
0
100
AcDbSpline
 62
7
  6
BYLAYER
 70
0
 71
3
 72
14
 73
10
 74
0
 42
0.0000001
 43
0.0000001
 44
0.0000000001
 40
0.0
 40
0.0
 40
0.0
 40
0.0
 40
0.0755576483
 40
0.1615611789
 40
0.2638727731
 40
0.3843011627
 40
0.5216033953
 40
0.6728703869
 40
1.0
 40
1.0
 40
1.0
 40
1.0
 10
65.2530708487
 20
119.1536164595
 30
0.0
 10
65.2530708487
 20
119.1565745939
 30
0.0
 10
65.2546026405
 20
119.1629466511
 30
0.0
 10
65.26077162
 20
119.1714509475
 30
0.0
 10
65.2702973603
 20
119.1790528586
 30
0.0
 10
65.282829022
 20
119.1856365515
 30
0.0
 10
65.2979495101
 20
119.1910365247
 30
0.0
 10
65.3214596557
 20
119.1965115749
 30
0.0
 10
65.3402634975
 20
119.1980609092
 30
0.0
 10
65.3530708488
 20
119.1980609092
 30
0.0
  0
SPLINE
  5
532
100
AcDbEntity
  8
0
100
AcDbSpline
 62
7
  6
BYLAYER
 70
0
 71
3
 72
11
 73
7
 74
0
 42
0.0000001
 43
0.0000001
 44
0.0000000001
 40
0.0
 40
0.0
 40
0.0
 40
0.0
 40
0.2409204793
 40
0.4830297774
 40
0.7334997641
 40
1.0
 40
1.0
 40
1.0
 40
1.0
 10
70.6030708491
 20
119.0117156238
 30
0.0
 10
70.6030708491
 20
118.9902592992
 30
0.0
 10
70.5983882878
 20
118.9470747024
 30
0.0
 10
70.5766300933
 20
118.8848860988
 30
0.0
 10
70.5402370691
 20
118.827297629
 30
0.0
 10
70.5079793712
 20
118.7939711897
 30
0.0
 10
70.490007547
 20
118.7784683593
 30
0.0
  0
SPLINE
  5
533
100
AcDbEntity
  8
0
100
AcDbSpline
 62
7
  6
BYLAYER
 70
0
 71
3
 72
11
 73
7
 74
0
 42
0.0000001
 43
0.0000001
 44
0.0000000001
 40
0.0
 40
0.0
 40
0.0
 40
0.0
 40
0.1887496744
 40
0.4319226308
 40
0.7109139123
 40
1.0
 40
1.0
 40
1.0
 40
1.0
 10
70.177148101
 20
118.64912669
 30
0.0
 10
70.1788810769
 20
118.6568064253
 30
0.0
 10
70.1812011325
 20
118.6747373444
 30
0.0
 10
70.1821828341
 20
118.7043932267
 30
0.0
 10
70.1808935383
 20
118.7382327034
 30
0.0
 10
70.1786226782
 20
118.7618313211
 30
0.0
 10
70.1771480417
 20
118.7737987236
 30
0.0
  0
SPLINE
  5
534
100
AcDbEntity
  8
0
100
AcDbSpline
 62
7
  6
BYLAYER
 70
0
 71
3
 72
16
 73
12
 74
0
 42
0.0000001
 43
0.0000001
 44
0.0000000001
 40
0.0
 40
0.0
 40
0.0
 40
0.0
 40
0.1825132258
 40
0.3509402906
 40
0.5006268486
 40
0.5684536575
 40
0.631450466
 40
0.7426311545
 40
0.8380113885
 40
0.9213804372
 40
1.0
 40
1.0
 40
1.0
 40
1.0
 10
70.1771495123
 20
120.511212202
 30
0.0
 10
70.2089763125
 20
120.5082070309
 30
0.0
 10
70.2699935394
 20
120.5001097684
 30
0.0
 10
70.3557085834
 20
120.4810974852
 30
0.0
 10
70.4200628616
 20
120.4598721436
 30
0.0
 10
70.4650275327
 20
120.4399705484
 30
0.0
 10
70.502519842
 20
120.4201445
 30
0.0
 10
70.5416375815
 20
120.393227294
 30
0.0
 10
70.576936984
 20
120.3560528812
 30
0.0
 10
70.5984125756
 20
120.3156711531
 30
0.0
 10
70.6030699885
 20
120.2870739983
 30
0.0
 10
70.6030708488
 20
120.273303277
 30
0.0
  0
SPLINE
  5
535
100
AcDbEntity
  8
0
100
AcDbSpline
 62
7
  6
BYLAYER
 70
0
 71
3
 72
11
 73
7
 74
0
 42
0.0000001
 43
0.0000001
 44
0.0000000001
 40
0.0
 40
0.0
 40
0.0
 40
0.0
 40
0.2211015479
 40
0.4615916861
 40
0.7228066494
 40
1.0
 40
1.0
 40
1.0
 40
1.0
 10
70.4900061019
 20
120.5065456002
 30
0.0
 10
70.4708795861
 20
120.5230455238
 30
0.0
 10
70.4277265079
 20
120.5538709798
 30
0.0
 10
70.3535329084
 20
120.5907639032
 30
0.0
 10
70.268935952
 20
120.619155813
 30
0.0
 10
70.2084753134
 20
120.6313720659
 30
0.0
 10
70.1771303722
 20
120.6358864444
 30
0.0
  0
LINE
  5
536
100
AcDbEntity
  8
0
100
AcDbLine
 62
7
  6
BYLAYER
 10
69.4478765818
 20
119.2175391376
 11
69.4496664239
 21
119.2178930281
  0
SPLINE
  5
537
100
AcDbEntity
  8
0
100
AcDbSpline
 62
7
  6
BYLAYER
 70
0
 71
3
 72
13
 73
9
 74
0
 42
0.0000001
 43
0.0000001
 44
0.0000000001
 40
0.0
 40
0.0
 40
0.0
 40
0.0
 40
0.0513066213
 40
0.1249698382
 40
0.223818615
 40
0.3466953226
 40
0.6504494479
 40
1.0
 40
1.0
 40
1.0
 40
1.0
 10
69.4496664239
 20
119.2178930281
 30
0.0
 10
69.4513352612
 20
119.2185008328
 30
0.0
 10
69.4547014556
 20
119.221590937
 30
0.0
 10
69.4583297578
 20
119.2284506541
 30
0.0
 10
69.4616307158
 20
119.2381742214
 30
0.0
 10
69.4655534073
 20
119.2559534737
 30
0.0
 10
69.4683385691
 20
119.2827542597
 30
0.0
 10
69.4686009058
 20
119.3053930546
 30
0.0
 10
69.4682353545
 20
119.3174878844
 30
0.0
  0
SPLINE
  5
538
100
AcDbEntity
  8
0
100
AcDbSpline
 62
7
  6
BYLAYER
 70
0
 71
3
 72
20
 73
16
 74
0
 42
0.0000001
 43
0.0000001
 44
0.0000000001
 40
0.0
 40
0.0
 40
0.0
 40
0.0
 40
0.0014072721
 40
0.0048025448
 40
0.0179834084
 40
0.0397193088
 40
0.0699510742
 40
0.108569573
 40
0.1553394237
 40
0.2099946937
 40
0.2722685248
 40
0.4184433112
 40
0.590946696
 40
0.7863745371
 40
1.0
 40
1.0
 40
1.0
 40
1.0
 10
68.0278746965
 20
119.172099076
 30
0.0
 10
68.027847076
 20
119.1720982092
 30
0.0
 10
68.027797864
 20
119.1722115739
 30
0.0
 10
68.0277180288
 20
119.1725172352
 30
0.0
 10
68.0276046207
 20
119.1733002138
 30
0.0
 10
68.0274706318
 20
119.1745501838
 30
0.0
 10
68.0273162206
 20
119.1763321533
 30
0.0
 10
68.0271484831
 20
119.1785925887
 30
0.0
 10
68.0269668862
 20
119.1813379411
 30
0.0
 10
68.0267734012
 20
119.1845461678
 30
0.0
 10
68.0264851689
 20
119.1897047975
 30
0.0
 10
68.0261081415
 20
119.1971758386
 30
0.0
 10
68.0256455133
 20
119.207260608
 30
0.0
 10
68.0251629392
 20
119.2186702257
 30
0.0
 10
68.024846423
 20
119.2266964293
 30
0.0
 10
68.0246862492
 20
119.2308882542
 30
0.0
  0
SPLINE
  5
539
100
AcDbEntity
  8
0
100
AcDbSpline
 62
7
  6
BYLAYER
 70
0
 71
3
 72
15
 73
11
 74
0
 42
0.0000001
 43
0.0000001
 44
0.0000000001
 40
0.0
 40
0.0
 40
0.0
 40
0.0
 40
0.171994054
 40
0.3480002071
 40
0.5180212522
 40
0.6712937292
 40
0.7985914175
 40
0.8506776943
 40
0.8946883169
 40
1.0
 40
1.0
 40
1.0
 40
1.0
 10
68.3927647225
 20
119.2830728233
 30
0.0
 10
68.3929471194
 20
119.2770379333
 30
0.0
 10
68.3930579227
 20
119.2648181362
 30
0.0
 10
68.3924029035
 20
119.2466376175
 30
0.0
 10
68.3908626956
 20
119.2291720795
 30
0.0
 10
68.3884376012
 20
119.2135143375
 30
0.0
 10
68.3856861027
 20
119.2021789296
 30
0.0
 10
68.3829744222
 20
119.194737892
 30
0.0
 10
68.3800954266
 20
119.1885312826
 30
0.0
 10
68.3761008351
 20
119.1832442936
 30
0.0
 10
68.3724059495
 20
119.1831240763
 30
0.0
  0
SPLINE
  5
53A
100
AcDbEntity
  8
0
100
AcDbSpline
 62
7
  6
BYLAYER
 70
0
 71
3
 72
19
 73
15
 74
0
 42
0.0000001
 43
0.0000001
 44
0.0000000001
 40
0.0
 40
0.0
 40
0.0
 40
0.0
 40
0.2079932705
 40
0.4033460027
 40
0.5792752207
 40
0.7289993846
 40
0.7920516922
 40
0.8468231418
 40
0.8932791741
 40
0.931386212
 40
0.9611128025
 40
0.9824330268
 40
0.995341101
 40
1.0
 40
1.0
 40
1.0
 40
1.0
 10
67.1798110899
 20
119.2008463097
 30
0.0
 10
67.1799650613
 20
119.1969732676
 30
0.0
 10
67.180273951
 20
119.1894629814
 30
0.0
 10
67.1807503194
 20
119.1786782171
 30
0.0
 10
67.1812148855
 20
119.1689801733
 30
0.0
 10
67.1815968726
 20
119.1617459451
 30
0.0
 10
67.1818921973
 20
119.1567694668
 30
0.0
 10
67.1820890787
 20
119.1537126047
 30
0.0
 10
67.182275179
 20
119.1511276748
 30
0.0
 10
67.1824426082
 20
119.1489904639
 30
0.0
 10
67.1826077652
 20
119.1473727832
 30
0.0
 10
67.1827244406
 20
119.1461057201
 30
0.0
 10
67.1828771969
 20
119.1455379831
 30
0.0
 10
67.1829226737
 20
119.1450606116
 30
0.0
 10
67.1830094511
 20
119.1450633885
 30
0.0
  0
SPLINE
  5
53B
100
AcDbEntity
  8
0
100
AcDbSpline
 62
7
  6
BYLAYER
 70
0
 71
3
 72
14
 73
10
 74
0
 42
0.0000001
 43
0.0000001
 44
0.0000000001
 40
0.0
 40
0.0
 40
0.0
 40
0.0
 40
0.1274631654
 40
0.2545008288
 40
0.3808123594
 40
0.5062584821
 40
0.6308331314
 40
0.7546003765
 40
1.0
 40
1.0
 40
1.0
 40
1.0
 10
67.8052781641
 20
119.642505348
 30
0.0
 10
67.8052781648
 20
119.6220935312
 30
0.0
 10
67.8083956597
 20
119.5812743154
 30
0.0
 10
67.8219421157
 20
119.5216141686
 30
0.0
 10
67.8433553188
 20
119.464675616
 30
0.0
 10
67.871265794
 20
119.4111237869
 30
0.0
 10
67.904268408
 20
119.3610769163
 30
0.0
 10
67.9534374949
 20
119.299061603
 30
0.0
 10
67.9954025952
 20
119.2570939971
 30
0.0
 10
68.0246862932
 20
119.2308871139
 30
0.0
  0
SPLINE
  5
53C
100
AcDbEntity
  8
0
100
AcDbSpline
 62
7
  6
BYLAYER
 70
0
 71
3
 72
16
 73
12
 74
0
 42
0.0000001
 43
0.0000001
 44
0.0000000001
 40
0.0
 40
0.0
 40
0.0
 40
0.0
 40
0.0786198455
 40
0.1619890356
 40
0.2573693261
 40
0.3685499086
 40
0.4315410326
 40
0.4993733954
 40
0.6490598158
 40
0.8174867937
 40
1.0
 40
1.0
 40
1.0
 40
1.0
 10
70.6030708489
 20
119.0117076083
 30
0.0
 10
70.6030700094
 20
118.9979368123
 30
0.0
 10
70.5984126484
 20
118.9693395273
 30
0.0
 10
70.5769371827
 20
118.928957547
 30
0.0
 10
70.5416378657
 20
118.8917828912
 30
0.0
 10
70.5025209771
 20
118.8648660804
 30
0.0
 10
70.4650288187
 20
118.8450396795
 30
0.0
 10
70.4200641618
 20
118.8251379192
 30
0.0
 10
70.3557089462
 20
118.8039120578
 30
0.0
 10
70.2699938017
 20
118.784899649
 30
0.0
 10
70.2089764893
 20
118.7768023207
 30
0.0
 10
70.1771496358
 20
118.773797127
 30
0.0
  0
SPLINE
  5
53D
100
AcDbEntity
  8
0
100
AcDbSpline
 62
7
  6
BYLAYER
 70
0
 71
3
 72
10
 73
6
 74
0
 42
0.0000001
 43
0.0000001
 44
0.0000000001
 40
0.0
 40
0.0
 40
0.0
 40
0.0
 40
0.1069513798
 40
0.5661160598
 40
1.0
 40
1.0
 40
1.0
 40
1.0
 10
63.5237276086
 20
29.3424756117
 30
0.0
 10
63.514019522
 20
29.3514885267
 30
0.0
 10
63.4592568161
 20
29.3979395082
 30
0.0
 10
63.3323300882
 20
29.4654499496
 30
0.0
 10
63.2012705575
 20
29.4962142006
 30
0.0
 10
63.1389698954
 20
29.5047390834
 30
0.0
  0
SPLINE
  5
53E
100
AcDbEntity
  8
0
100
AcDbSpline
 62
7
  6
BYLAYER
 70
0
 71
3
 72
9
 73
5
 74
0
 42
0.0000001
 43
0.0000001
 44
0.0000000001
 40
0.0
 40
0.0
 40
0.0
 40
0.0
 40
0.5428488299
 40
1.0
 40
1.0
 40
1.0
 40
1.0
 10
63.6275063004
 20
29.131306289
 30
0.0
 10
63.6274786511
 20
29.1690161387
 30
0.0
 10
63.6105033631
 20
29.2422368507
 30
0.0
 10
63.5556983715
 20
29.3127941947
 30
0.0
 10
63.5237276086
 20
29.3424756117
 30
0.0
  0
SPLINE
  5
53F
100
AcDbEntity
  8
0
100
AcDbSpline
 62
7
  6
BYLAYER
 70
0
 71
3
 72
9
 73
5
 74
0
 42
0.0000001
 43
0.0000001
 44
0.0000000001
 40
0.0
 40
0.0
 40
0.0
 40
0.0
 40
0.4904279008
 40
1.0
 40
1.0
 40
1.0
 40
1.0
 10
63.3855037874
 20
29.3425003877
 30
0.0
 10
63.3549896851
 20
29.3700420557
 30
0.0
 10
63.2805340243
 20
29.4192764428
 30
0.0
 10
63.1931985957
 20
29.4485645202
 30
0.0
 10
63.1488407973
 20
29.4584448283
 30
0.0
  0
SPLINE
  5
540
100
AcDbEntity
  8
0
100
AcDbSpline
 62
7
  6
BYLAYER
 70
0
 71
3
 72
10
 73
6
 74
0
 42
0.0000001
 43
0.0000001
 44
0.0000000001
 40
0.0
 40
0.0
 40
0.0
 40
0.0
 40
0.4509722236
 40
0.9488574126
 40
1.0
 40
1.0
 40
1.0
 40
1.0
 10
63.4884498728
 20
29.1313062882
 30
0.0
 10
63.48843107
 20
29.1632382799
 30
0.0
 10
63.4749963282
 20
29.2336019791
 30
0.0
 10
63.4256532662
 20
29.3050221557
 30
0.0
 10
63.3889970073
 20
29.3393474488
 30
0.0
 10
63.3855037874
 20
29.3425003877
 30
0.0
  0
SPLINE
  5
541
100
AcDbEntity
  8
0
100
AcDbSpline
 62
7
  6
BYLAYER
 70
0
 71
3
 72
11
 73
7
 74
0
 42
0.0000001
 43
0.0000001
 44
0.0000000001
 40
0.0
 40
0.0
 40
0.0
 40
0.0
 40
0.2428025286
 40
0.5033078896
 40
0.7638132505
 40
1.0
 40
1.0
 40
1.0
 40
1.0
 10
63.1488407952
 20
28.8041677586
 30
0.0
 10
63.1931791
 20
28.8140437495
 30
0.0
 10
63.2853903251
 20
28.8449620813
 30
0.0
 10
63.403549875
 20
28.9256297081
 30
0.0
 10
63.4749806801
 20
29.028960896
 30
0.0
 10
63.4884312121
 20
29.0993487293
 30
0.0
 10
63.4884499269
 20
29.1313062895
 30
0.0
  0
SPLINE
  5
542
100
AcDbEntity
  8
0
100
AcDbSpline
 62
7
  6
BYLAYER
 70
0
 71
3
 72
13
 73
9
 74
0
 42
0.0000001
 43
0.0000001
 44
0.0000000001
 40
0.0
 40
0.0
 40
0.0
 40
0.0
 40
0.1454837983
 40
0.3194266583
 40
0.4933695183
 40
0.6673123783
 40
0.8412552382
 40
1.0
 40
1.0
 40
1.0
 40
1.0
 10
62.6206545412
 20
29.3424963469
 30
0.0
 10
62.5927261384
 20
29.3171966332
 30
0.0
 10
62.5393676357
 20
29.2528578008
 30
0.0
 10
62.5059024708
 20
29.1313796753
 30
0.0
 10
62.5412231448
 20
29.0028784998
 30
0.0
 10
62.6329583038
 20
28.8998177523
 30
0.0
 10
62.7474476804
 20
28.8347809162
 30
0.0
 10
62.8229426277
 20
28.8118056766
 30
0.0
 10
62.8573005475
 20
28.8041658372
 30
0.0
  0
SPLINE
  5
543
100
AcDbEntity
  8
0
100
AcDbSpline
 62
7
  6
BYLAYER
 70
0
 71
3
 72
10
 73
6
 74
0
 42
0.0000001
 43
0.0000001
 44
0.0000000001
 40
0.0
 40
0.0
 40
0.0
 40
0.0
 40
0.439260263
 40
0.9211562489
 40
1.0
 40
1.0
 40
1.0
 40
1.0
 10
62.8573004005
 20
29.4584467238
 30
0.0
 10
62.8229837747
 20
29.450816104
 30
0.0
 10
62.7475376521
 20
29.4278626092
 30
0.0
 10
62.6659595733
 20
29.3815536284
 30
0.0
 10
62.6261178034
 20
29.3474453936
 30
0.0
 10
62.6206545412
 20
29.3424963469
 30
0.0
  0
SPLINE
  5
544
100
AcDbEntity
  8
0
100
AcDbSpline
 62
7
  6
BYLAYER
 70
0
 71
3
 72
8
 73
4
 74
0
 42
0.0000001
 43
0.0000001
 44
0.0000000001
 40
0.0
 40
0.0
 40
0.0
 40
0.0
 40
1.0
 40
1.0
 40
1.0
 40
1.0
 10
62.482482982
 20
29.3424006328
 30
0.0
 10
62.5162096791
 20
29.373496096
 30
0.0
 10
62.556961295
 20
29.4013583307
 30
0.0
 10
62.6017207511
 20
29.424410937
 30
0.0
  0
SPLINE
  5
545
100
AcDbEntity
  8
0
100
AcDbSpline
 62
7
  6
BYLAYER
 70
0
 71
3
 72
9
 73
5
 74
0
 42
0.0000001
 43
0.0000001
 44
0.0000000001
 40
0.0
 40
0.0
 40
0.0
 40
0.0
 40
0.7424329532
 40
1.0
 40
1.0
 40
1.0
 40
1.0
 10
62.3786408308
 20
29.1313062666
 30
0.0
 10
62.3787474966
 20
29.184784109
 30
0.0
 10
62.4045335192
 20
29.260425851
 30
0.0
 10
62.4650202976
 20
29.3263003233
 30
0.0
 10
62.482482982
 20
29.3424006328
 30
0.0
  0
SPLINE
  5
546
100
AcDbEntity
  8
0
100
AcDbSpline
 62
7
  6
BYLAYER
 70
0
 71
3
 72
15
 73
11
 74
0
 42
0.0000001
 43
0.0000001
 44
0.0000000001
 40
0.0
 40
0.0
 40
0.0
 40
0.0
 40
0.1094991168
 40
0.2396660785
 40
0.3698330401
 40
0.5000000017
 40
0.6301669633
 40
0.760333925
 40
0.8905008866
 40
1.0
 40
1.0
 40
1.0
 40
1.0
 10
63.6275249616
 20
29.131306311
 30
0.0
 10
63.6275667509
 20
29.1033542691
 30
0.0
 10
63.6168255393
 20
29.0354446194
 30
0.0
 10
63.534902783
 20
28.9108508586
 30
0.0
 10
63.326855259
 20
28.7856380754
 30
0.0
 10
63.0030708491
 20
28.7302331213
 30
0.0
 10
62.6792864392
 20
28.7856380754
 30
0.0
 10
62.4712389152
 20
28.9108508586
 30
0.0
 10
62.3893161597
 20
29.0354446183
 30
0.0
 10
62.3785749476
 20
29.1033542672
 30
0.0
 10
62.3786167366
 20
29.1313063083
 30
0.0
  0
SPLINE
  5
547
100
AcDbEntity
  8
0
100
AcDbSpline
 62
7
  6
BYLAYER
 70
0
 71
3
 72
13
 73
9
 74
0
 42
0.0000001
 43
0.0000001
 44
0.0000000001
 40
0.0
 40
0.0
 40
0.0
 40
0.0
 40
0.349538474
 40
0.6532885
 40
0.7761668213
 40
0.8750195871
 40
0.9486884767
 40
1.0
 40
1.0
 40
1.0
 40
1.0
 10
69.4682352568
 20
29.6675195842
 30
0.0
 10
69.468600893
 20
29.67961417
 30
0.0
 10
69.4683387501
 20
29.7022527361
 30
0.0
 10
69.4655539473
 20
29.7290534372
 30
0.0
 10
69.4616316231
 20
29.7468330864
 30
0.0
 10
69.458330926
 20
29.7565573093
 30
0.0
 10
69.454702798
 20
29.7634177917
 30
0.0
 10
69.4513369322
 20
29.7665087337
 30
0.0
 10
69.4496680803
 20
29.76711707
 30
0.0
  0
LINE
  5
548
100
AcDbEntity
  8
0
100
AcDbLine
 62
7
  6
BYLAYER
 10
69.4496680803
 20
29.76711707
 11
69.4478764754
 21
29.7674715721
  0
SPLINE
  5
549
100
AcDbEntity
  8
0
100
AcDbSpline
 62
7
  6
BYLAYER
 70
0
 71
3
 72
19
 73
15
 74
0
 42
0.0000001
 43
0.0000001
 44
0.0000000001
 40
0.0
 40
0.0
 40
0.0
 40
0.0
 40
0.2064673328
 40
0.40132473
 40
0.5773161267
 40
0.7277856917
 40
0.7917165036
 40
0.8474472208
 40
0.8946083549
 40
0.9329856534
 40
0.9624765968
 40
0.9832681782
 40
0.9956358078
 40
1.0
 40
1.0
 40
1.0
 40
1.0
 10
68.0246713862
 20
29.7541235387
 30
0.0
 10
68.0248274611
 20
29.7581744694
 30
0.0
 10
68.0251398881
 20
29.7660481821
 30
0.0
 10
68.0256207209
 20
29.7773735223
 30
0.0
 10
68.0260907834
 20
29.7875985144
 30
0.0
 10
68.0264778194
 20
29.795254524
 30
0.0
 10
68.0267750074
 20
29.8005493459
 30
0.0
 10
68.0269726005
 20
29.8038208484
 30
0.0
 10
68.027158642
 20
29.8065827736
 30
0.0
 10
68.027323039
 20
29.8088508248
 30
0.0
 10
68.0274867
 20
29.8105452271
 30
0.0
 10
68.0275947743
 20
29.8118567986
 30
0.0
 10
68.0277488322
 20
29.8124310635
 30
0.0
 10
68.0277842674
 20
29.8129144754
 30
0.0
 10
68.027869915
 20
29.8129117827
 30
0.0
  0
SPLINE
  5
54A
100
AcDbEntity
  8
0
100
AcDbSpline
 62
7
  6
BYLAYER
 70
0
 71
3
 72
15
 73
11
 74
0
 42
0.0000001
 43
0.0000001
 44
0.0000000001
 40
0.0
 40
0.0
 40
0.0
 40
0.0
 40
0.1053111699
 40
0.1493221001
 40
0.2014088517
 40
0.3287078041
 40
0.4819814743
 40
0.6520029612
 40
0.8280082769
 40
1.0
 40
1.0
 40
1.0
 40
1.0
 10
68.3724058431
 20
29.8018866328
 30
0.0
 10
68.3761008291
 20
29.8017664858
 30
0.0
 10
68.3800955493
 20
29.7964792536
 30
0.0
 10
68.3829745827
 20
29.7902724317
 30
0.0
 10
68.3856863196
 20
29.7828310679
 30
0.0
 10
68.3884378423
 20
29.7714951861
 30
0.0
 10
68.3908629184
 20
29.7558368337
 30
0.0
 10
68.3924030561
 20
29.738370709
 30
0.0
 10
68.3930579654
 20
29.7201897105
 30
0.0
 10
68.392947071
 20
29.7079696416
 30
0.0
 10
68.3927646246
 20
29.7019346453
 30
0.0
  0
SPLINE
  5
54B
100
AcDbEntity
  8
0
100
AcDbSpline
 62
7
  6
BYLAYER
 70
0
 71
3
 72
19
 73
15
 74
0
 42
0.0000001
 43
0.0000001
 44
0.0000000001
 40
0.0
 40
0.0
 40
0.0
 40
0.0
 40
0.0046588983
 40
0.0175669716
 40
0.0388871952
 40
0.0686137851
 40
0.1067208225
 40
0.1531768544
 40
0.2079483036
 40
0.2710006112
 40
0.4207247753
 40
0.5966539941
 40
0.7920067276
 40
1.0
 40
1.0
 40
1.0
 40
1.0
 10
67.1830094553
 20
29.839947317
 30
0.0
 10
67.1829226779
 20
29.839950094
 30
0.0
 10
67.1828772011
 20
29.8394727225
 30
0.0
 10
67.1827244448
 20
29.8389049856
 30
0.0
 10
67.1826077694
 20
29.8376379225
 30
0.0
 10
67.1824426124
 20
29.8360202419
 30
0.0
 10
67.1822751832
 20
29.833883031
 30
0.0
 10
67.1820890829
 20
29.8312981012
 30
0.0
 10
67.1818922015
 20
29.8282412391
 30
0.0
 10
67.1815968768
 20
29.8232647608
 30
0.0
 10
67.1812148897
 20
29.8160305327
 30
0.0
 10
67.1807503236
 20
29.806332489
 30
0.0
 10
67.1802739551
 20
29.7955477247
 30
0.0
 10
67.1799650655
 20
29.7880374385
 30
0.0
 10
67.1798110941
 20
29.7841643964
 30
0.0
  0
SPLINE
  5
54C
100
AcDbEntity
  8
0
100
AcDbSpline
 62
7
  6
BYLAYER
 70
0
 71
3
 72
15
 73
11
 74
0
 42
0.0000001
 43
0.0000001
 44
0.0000000001
 40
0.0
 40
0.0
 40
0.0
 40
0.0
 40
0.1274872851
 40
0.2546527683
 40
0.3810013103
 40
0.5063732943
 40
0.6308209904
 40
0.7546845636
 40
0.8777491888
 40
1.0
 40
1.0
 40
1.0
 40
1.0
 10
67.8052781641
 20
29.342505348
 30
0.0
 10
67.8045725894
 20
29.3629107072
 30
0.0
 10
67.8078315158
 20
29.4038781556
 30
0.0
 10
67.8224715171
 20
29.46328799
 30
0.0
 10
67.8440402651
 20
29.5201175794
 30
0.0
 10
67.8706978512
 20
29.5742837785
 30
0.0
 10
67.9038571757
 20
29.624286499
 30
0.0
 10
67.9416225367
 20
29.6703184799
 30
0.0
 10
67.9821570085
 20
29.7134047401
 30
0.0
 10
68.010425685
 20
29.7407032462
 30
0.0
 10
68.0246817257
 20
29.7541233493
 30
0.0
  0
SPLINE
  5
54D
100
AcDbEntity
  8
0
100
AcDbSpline
 62
7
  6
BYLAYER
 70
0
 71
3
 72
9
 73
5
 74
0
 42
0.0000001
 43
0.0000001
 44
0.0000000001
 40
0.0
 40
0.0
 40
0.0
 40
0.0
 40
0.5141494077
 40
1.0
 40
1.0
 40
1.0
 40
1.0
 10
68.0246816321
 20
29.7541228091
 30
0.0
 10
68.0877699729
 20
29.7452164212
 30
0.0
 10
68.2103878987
 20
29.7272906491
 30
0.0
 10
68.3331011047
 20
29.7100207841
 30
0.0
 10
68.3927630413
 20
29.7019370073
 30
0.0
  0
SPLINE
  5
54E
100
AcDbEntity
  8
0
100
AcDbSpline
 62
7
  6
BYLAYER
 70
0
 71
3
 72
9
 73
5
 74
0
 42
0.0000001
 43
0.0000001
 44
0.0000000001
 40
0.0
 40
0.0
 40
0.0
 40
0.0
 40
0.486275162
 40
1.0
 40
1.0
 40
1.0
 40
1.0
 10
68.392764345
 20
28.9830734565
 30
0.0
 10
68.3330507858
 20
28.9749827035
 30
0.0
 10
68.2103387259
 20
28.9577123779
 30
0.0
 10
68.0877218016
 20
28.9397871791
 30
0.0
 10
68.0246861012
 20
28.9308882334
 30
0.0
  0
SPLINE
  5
54F
100
AcDbEntity
  8
0
100
AcDbSpline
 62
7
  6
BYLAYER
 70
0
 71
3
 72
16
 73
12
 74
0
 42
0.0000001
 43
0.0000001
 44
0.0000000001
 40
0.0
 40
0.0
 40
0.0
 40
0.0
 40
0.1860097012
 40
0.3534923323
 40
0.5022257127
 40
0.6322862635
 40
0.744379936
 40
0.8403943939
 40
0.9237098696
 40
0.9623340121
 40
1.0
 40
1.0
 40
1.0
 40
1.0
 10
68.3927647054
 20
28.9830729365
 30
0.0
 10
68.3549231012
 20
28.9953354095
 30
0.0
 10
68.2835314977
 20
29.0203201606
 30
0.0
 10
68.1843509952
 20
29.0617243587
 30
0.0
 10
68.099101525
 20
29.1048665079
 30
0.0
 10
68.0282418645
 20
29.1495112889
 30
0.0
 10
67.9721745642
 20
29.1955941239
 30
0.0
 10
67.9311242149
 20
29.242981488
 30
0.0
 10
67.909299758
 20
29.2848875892
 30
0.0
 10
67.9009009793
 20
29.3181042308
 30
0.0
 10
67.899518194
 20
29.3344503333
 30
0.0
 10
67.8995181932
 20
29.3425053374
 30
0.0
  0
SPLINE
  5
550
100
AcDbEntity
  8
0
100
AcDbSpline
 62
7
  6
BYLAYER
 70
0
 71
3
 72
16
 73
12
 74
0
 42
0.0000001
 43
0.0000001
 44
0.0000000001
 40
0.0
 40
0.0
 40
0.0
 40
0.0
 40
0.0376659885
 40
0.0762901306
 40
0.1596056034
 40
0.2556200574
 40
0.3677137266
 40
0.4977742758
 40
0.6465076571
 40
0.8139902919
 40
1.0
 40
1.0
 40
1.0
 40
1.0
 10
67.8995182229
 20
29.3425053374
 30
0.0
 10
67.899518222
 20
29.3505603383
 30
0.0
 10
67.9009010033
 20
29.3669064346
 30
0.0
 10
67.9092997722
 20
29.400123064
 30
0.0
 10
67.9311242134
 20
29.4420291504
 30
0.0
 10
67.9721745403
 20
29.489416498
 30
0.0
 10
68.0282418136
 20
29.5354993172
 30
0.0
 10
68.0991014429
 20
29.5801440831
 30
0.0
 10
68.1843508781
 20
29.6232862181
 30
0.0
 10
68.2835313421
 20
29.6646904029
 30
0.0
 10
68.3549229187
 20
29.6896751462
 30
0.0
 10
68.3927645088
 20
29.7019376154
 30
0.0
  0
SPLINE
  5
551
100
AcDbEntity
  8
0
100
AcDbSpline
 62
7
  6
BYLAYER
 70
0
 71
3
 72
9
 73
5
 74
0
 42
0.0000001
 43
0.0000001
 44
0.0000000001
 40
0.0
 40
0.0
 40
0.0
 40
0.0
 40
0.5075641857
 40
1.0
 40
1.0
 40
1.0
 40
1.0
 10
69.5389161293
 20
29.0024294635
 30
0.0
 10
69.5278387747
 20
29.0078293877
 30
0.0
 10
69.5046745839
 20
29.0159742205
 30
0.0
 10
69.4801795624
 20
29.0180247079
 30
0.0
 10
69.4682354345
 20
29.0174893107
 30
0.0
  0
SPLINE
  5
552
100
AcDbEntity
  8
0
100
AcDbSpline
 62
7
  6
BYLAYER
 70
0
 71
3
 72
9
 73
5
 74
0
 42
0.0000001
 43
0.0000001
 44
0.0000000001
 40
0.0
 40
0.0
 40
0.0
 40
0.0
 40
0.4893049157
 40
1.0
 40
1.0
 40
1.0
 40
1.0
 10
69.468235462
 20
29.6675213359
 30
0.0
 10
69.480103679
 20
29.6669896984
 30
0.0
 10
69.5045957818
 20
29.6690181246
 30
0.0
 10
69.5277704642
 20
29.6771479362
 30
0.0
 10
69.5389161481
 20
29.6825812046
 30
0.0
  0
SPLINE
  5
553
100
AcDbEntity
  8
0
100
AcDbSpline
 62
7
  6
BYLAYER
 70
0
 71
3
 72
14
 73
10
 74
0
 42
0.0000001
 43
0.0000001
 44
0.0000000001
 40
0.0
 40
0.0
 40
0.0
 40
0.0
 40
0.0755576394
 40
0.1615611632
 40
0.263872754
 40
0.3843011432
 40
0.5216033782
 40
0.6728703742
 40
1.0
 40
1.0
 40
1.0
 40
1.0
 10
65.2530708486
 20
29.8313942413
 30
0.0
 10
65.2530708486
 20
29.8284361074
 30
0.0
 10
65.2546026404
 20
29.8220640511
 30
0.0
 10
65.2607716198
 20
29.8135597562
 30
0.0
 10
65.27029736
 20
29.8059578465
 30
0.0
 10
65.2828290215
 20
29.7993741548
 30
0.0
 10
65.2979495093
 20
29.7939741826
 30
0.0
 10
65.3214596547
 20
29.7884991334
 30
0.0
 10
65.3402634963
 20
29.7869497995
 30
0.0
 10
65.3530708475
 20
29.7869497994
 30
0.0
  0
SPLINE
  5
554
100
AcDbEntity
  8
0
100
AcDbSpline
 62
7
  6
BYLAYER
 70
0
 71
3
 72
11
 73
7
 74
0
 42
0.0000001
 43
0.0000001
 44
0.0000000001
 40
0.0
 40
0.0
 40
0.0
 40
0.0
 40
0.2935704542
 40
0.568067547
 40
0.807840031
 40
1.0
 40
1.0
 40
1.0
 40
1.0
 10
70.1771494759
 20
30.2112117959
 30
0.0
 10
70.1786478461
 20
30.2233649775
 30
0.0
 10
70.1809101572
 20
30.2469650067
 30
0.0
 10
70.1821740216
 20
30.280663434
 30
0.0
 10
70.1812048514
 20
30.310130938
 30
0.0
 10
70.1789055434
 20
30.3280673216
 30
0.0
 10
70.177138476
 20
30.3358853476
 30
0.0
  0
SPLINE
  5
555
100
AcDbEntity
  8
0
100
AcDbSpline
 62
7
  6
BYLAYER
 70
0
 71
3
 72
11
 73
7
 74
0
 42
0.0000001
 43
0.0000001
 44
0.0000000001
 40
0.0
 40
0.0
 40
0.0
 40
0.0
 40
0.266491688
 40
0.5169702325
 40
0.7590788738
 40
1.0
 40
1.0
 40
1.0
 40
1.0
 10
70.4900070166
 20
30.2065425609
 30
0.0
 10
70.5079784677
 20
30.191040399
 30
0.0
 10
70.540228369
 20
30.1577064373
 30
0.0
 10
70.5766291573
 20
30.1001249411
 30
0.0
 10
70.5983989005
 20
30.0379375178
 30
0.0
 10
70.6030708491
 20
29.9947515021
 30
0.0
 10
70.6030708491
 20
29.9732950819
 30
0.0
  0
SPLINE
  5
556
100
AcDbEntity
  8
0
100
AcDbSpline
 62
7
  6
BYLAYER
 70
0
 71
3
 72
11
 73
7
 74
0
 42
0.0000001
 43
0.0000001
 44
0.0000000001
 40
0.0
 40
0.0
 40
0.0
 40
0.0
 40
0.2771923232
 40
0.5384061713
 40
0.7788942537
 40
1.0
 40
1.0
 40
1.0
 40
1.0
 10
70.1771249704
 20
28.3491234779
 30
0.0
 10
70.2084703779
 20
28.3536377169
 30
0.0
 10
70.2689319063
 20
28.3658537828
 30
0.0
 10
70.3535301076
 20
28.3942455504
 30
0.0
 10
70.4277250948
 20
28.4311390486
 30
0.0
 10
70.4708797169
 20
28.4619645147
 30
0.0
 10
70.4900066483
 20
28.4784653736
 30
0.0
  0
SPLINE
  5
557
100
AcDbEntity
  8
0
100
AcDbSpline
 62
7
  6
BYLAYER
 70
0
 71
3
 72
9
 73
5
 74
0
 42
0.0000001
 43
0.0000001
 44
0.0000000001
 40
0.0
 40
0.0
 40
0.0
 40
0.0
 40
0.2471110996
 40
1.0
 40
1.0
 40
1.0
 40
1.0
 10
70.1771304988
 20
30.335886098
 30
0.0
 10
70.1695941187
 20
30.3367748945
 30
0.0
 10
70.1391669349
 20
30.3409553114
 30
0.0
 10
70.1090649995
 20
30.3474493191
 30
0.0
 10
70.0867518189
 20
30.353506408
 30
0.0
  0
SPLINE
  5
558
100
AcDbEntity
  8
0
100
AcDbSpline
 62
7
  6
BYLAYER
 70
0
 71
3
 72
14
 73
10
 74
0
 42
0.0000001
 43
0.0000001
 44
0.0000000001
 40
0.0
 40
0.0
 40
0.0
 40
0.0
 40
0.0755576483
 40
0.1615611789
 40
0.2638727731
 40
0.3843011627
 40
0.5216033953
 40
0.6728703869
 40
1.0
 40
1.0
 40
1.0
 40
1.0
 10
65.2530708487
 20
28.8536164596
 30
0.0
 10
65.2530708487
 20
28.8565745939
 30
0.0
 10
65.2546026405
 20
28.8629466511
 30
0.0
 10
65.26077162
 20
28.8714509475
 30
0.0
 10
65.2702973603
 20
28.8790528586
 30
0.0
 10
65.282829022
 20
28.8856365515
 30
0.0
 10
65.2979495101
 20
28.8910365248
 30
0.0
 10
65.3214596557
 20
28.8965115749
 30
0.0
 10
65.3402634975
 20
28.8980609092
 30
0.0
 10
65.3530708488
 20
28.8980609093
 30
0.0
  0
SPLINE
  5
559
100
AcDbEntity
  8
0
100
AcDbSpline
 62
7
  6
BYLAYER
 70
0
 71
3
 72
11
 73
7
 74
0
 42
0.0000001
 43
0.0000001
 44
0.0000000001
 40
0.0
 40
0.0
 40
0.0
 40
0.0
 40
0.2409204793
 40
0.4830297774
 40
0.7334997641
 40
1.0
 40
1.0
 40
1.0
 40
1.0
 10
70.6030708491
 20
28.7117156239
 30
0.0
 10
70.6030708491
 20
28.6902592993
 30
0.0
 10
70.5983882878
 20
28.6470747025
 30
0.0
 10
70.5766300933
 20
28.5848860989
 30
0.0
 10
70.5402370691
 20
28.5272976291
 30
0.0
 10
70.5079793712
 20
28.4939711898
 30
0.0
 10
70.490007547
 20
28.4784683594
 30
0.0
  0
SPLINE
  5
55A
100
AcDbEntity
  8
0
100
AcDbSpline
 62
7
  6
BYLAYER
 70
0
 71
3
 72
11
 73
7
 74
0
 42
0.0000001
 43
0.0000001
 44
0.0000000001
 40
0.0
 40
0.0
 40
0.0
 40
0.0
 40
0.1887496744
 40
0.4319226308
 40
0.7109139123
 40
1.0
 40
1.0
 40
1.0
 40
1.0
 10
70.177148101
 20
28.34912669
 30
0.0
 10
70.1788810769
 20
28.3568064253
 30
0.0
 10
70.1812011325
 20
28.3747373444
 30
0.0
 10
70.1821828341
 20
28.4043932268
 30
0.0
 10
70.1808935383
 20
28.4382327035
 30
0.0
 10
70.1786226782
 20
28.4618313211
 30
0.0
 10
70.1771480417
 20
28.4737987236
 30
0.0
  0
SPLINE
  5
55B
100
AcDbEntity
  8
0
100
AcDbSpline
 62
7
  6
BYLAYER
 70
0
 71
3
 72
16
 73
12
 74
0
 42
0.0000001
 43
0.0000001
 44
0.0000000001
 40
0.0
 40
0.0
 40
0.0
 40
0.0
 40
0.1825132258
 40
0.3509402906
 40
0.5006268486
 40
0.5684536575
 40
0.631450466
 40
0.7426311545
 40
0.8380113885
 40
0.9213804372
 40
1.0
 40
1.0
 40
1.0
 40
1.0
 10
70.1771495123
 20
30.2112122021
 30
0.0
 10
70.2089763125
 20
30.208207031
 30
0.0
 10
70.2699935394
 20
30.2001097684
 30
0.0
 10
70.3557085834
 20
30.1810974853
 30
0.0
 10
70.4200628616
 20
30.1598721437
 30
0.0
 10
70.4650275327
 20
30.1399705485
 30
0.0
 10
70.502519842
 20
30.1201445
 30
0.0
 10
70.5416375815
 20
30.093227294
 30
0.0
 10
70.576936984
 20
30.0560528812
 30
0.0
 10
70.5984125756
 20
30.0156711531
 30
0.0
 10
70.6030699885
 20
29.9870739983
 30
0.0
 10
70.6030708488
 20
29.9733032771
 30
0.0
  0
SPLINE
  5
55C
100
AcDbEntity
  8
0
100
AcDbSpline
 62
7
  6
BYLAYER
 70
0
 71
3
 72
11
 73
7
 74
0
 42
0.0000001
 43
0.0000001
 44
0.0000000001
 40
0.0
 40
0.0
 40
0.0
 40
0.0
 40
0.2211015479
 40
0.4615916861
 40
0.7228066494
 40
1.0
 40
1.0
 40
1.0
 40
1.0
 10
70.4900061019
 20
30.2065456003
 30
0.0
 10
70.4708795861
 20
30.2230455238
 30
0.0
 10
70.4277265079
 20
30.2538709798
 30
0.0
 10
70.3535329084
 20
30.2907639032
 30
0.0
 10
70.268935952
 20
30.319155813
 30
0.0
 10
70.2084753134
 20
30.3313720659
 30
0.0
 10
70.1771303722
 20
30.3358864444
 30
0.0
  0
LINE
  5
55D
100
AcDbEntity
  8
0
100
AcDbLine
 62
7
  6
BYLAYER
 10
69.4478765818
 20
28.9175391376
 11
69.4496664239
 21
28.9178930281
  0
SPLINE
  5
55E
100
AcDbEntity
  8
0
100
AcDbSpline
 62
7
  6
BYLAYER
 70
0
 71
3
 72
13
 73
9
 74
0
 42
0.0000001
 43
0.0000001
 44
0.0000000001
 40
0.0
 40
0.0
 40
0.0
 40
0.0
 40
0.0513066213
 40
0.1249698382
 40
0.223818615
 40
0.3466953226
 40
0.6504494479
 40
1.0
 40
1.0
 40
1.0
 40
1.0
 10
69.4496664239
 20
28.9178930281
 30
0.0
 10
69.4513352612
 20
28.9185008329
 30
0.0
 10
69.4547014556
 20
28.921590937
 30
0.0
 10
69.4583297578
 20
28.9284506541
 30
0.0
 10
69.4616307158
 20
28.9381742215
 30
0.0
 10
69.4655534073
 20
28.9559534738
 30
0.0
 10
69.4683385691
 20
28.9827542597
 30
0.0
 10
69.4686009058
 20
29.0053930546
 30
0.0
 10
69.4682353545
 20
29.0174878844
 30
0.0
  0
SPLINE
  5
55F
100
AcDbEntity
  8
0
100
AcDbSpline
 62
7
  6
BYLAYER
 70
0
 71
3
 72
20
 73
16
 74
0
 42
0.0000001
 43
0.0000001
 44
0.0000000001
 40
0.0
 40
0.0
 40
0.0
 40
0.0
 40
0.0014072721
 40
0.0048025448
 40
0.0179834084
 40
0.0397193088
 40
0.0699510742
 40
0.108569573
 40
0.1553394237
 40
0.2099946937
 40
0.2722685248
 40
0.4184433112
 40
0.590946696
 40
0.7863745371
 40
1.0
 40
1.0
 40
1.0
 40
1.0
 10
68.0278746965
 20
28.872099076
 30
0.0
 10
68.027847076
 20
28.8720982092
 30
0.0
 10
68.027797864
 20
28.872211574
 30
0.0
 10
68.0277180288
 20
28.8725172353
 30
0.0
 10
68.0276046207
 20
28.8733002138
 30
0.0
 10
68.0274706318
 20
28.8745501838
 30
0.0
 10
68.0273162206
 20
28.8763321534
 30
0.0
 10
68.0271484831
 20
28.8785925888
 30
0.0
 10
68.0269668862
 20
28.8813379412
 30
0.0
 10
68.0267734012
 20
28.8845461679
 30
0.0
 10
68.0264851689
 20
28.8897047975
 30
0.0
 10
68.0261081415
 20
28.8971758387
 30
0.0
 10
68.0256455133
 20
28.907260608
 30
0.0
 10
68.0251629392
 20
28.9186702258
 30
0.0
 10
68.024846423
 20
28.9266964294
 30
0.0
 10
68.0246862492
 20
28.9308882543
 30
0.0
  0
SPLINE
  5
560
100
AcDbEntity
  8
0
100
AcDbSpline
 62
7
  6
BYLAYER
 70
0
 71
3
 72
15
 73
11
 74
0
 42
0.0000001
 43
0.0000001
 44
0.0000000001
 40
0.0
 40
0.0
 40
0.0
 40
0.0
 40
0.171994054
 40
0.3480002071
 40
0.5180212522
 40
0.6712937292
 40
0.7985914175
 40
0.8506776943
 40
0.8946883169
 40
1.0
 40
1.0
 40
1.0
 40
1.0
 10
68.3927647225
 20
28.9830728233
 30
0.0
 10
68.3929471194
 20
28.9770379334
 30
0.0
 10
68.3930579227
 20
28.9648181362
 30
0.0
 10
68.3924029035
 20
28.9466376176
 30
0.0
 10
68.3908626956
 20
28.9291720795
 30
0.0
 10
68.3884376012
 20
28.9135143375
 30
0.0
 10
68.3856861027
 20
28.9021789297
 30
0.0
 10
68.3829744222
 20
28.894737892
 30
0.0
 10
68.3800954266
 20
28.8885312826
 30
0.0
 10
68.3761008351
 20
28.8832442937
 30
0.0
 10
68.3724059495
 20
28.8831240764
 30
0.0
  0
SPLINE
  5
561
100
AcDbEntity
  8
0
100
AcDbSpline
 62
7
  6
BYLAYER
 70
0
 71
3
 72
19
 73
15
 74
0
 42
0.0000001
 43
0.0000001
 44
0.0000000001
 40
0.0
 40
0.0
 40
0.0
 40
0.0
 40
0.2079932705
 40
0.4033460027
 40
0.5792752207
 40
0.7289993846
 40
0.7920516922
 40
0.8468231418
 40
0.8932791741
 40
0.931386212
 40
0.9611128025
 40
0.9824330268
 40
0.995341101
 40
1.0
 40
1.0
 40
1.0
 40
1.0
 10
67.1798110899
 20
28.9008463097
 30
0.0
 10
67.1799650613
 20
28.8969732676
 30
0.0
 10
67.180273951
 20
28.8894629814
 30
0.0
 10
67.1807503194
 20
28.8786782171
 30
0.0
 10
67.1812148855
 20
28.8689801734
 30
0.0
 10
67.1815968726
 20
28.8617459452
 30
0.0
 10
67.1818921973
 20
28.8567694668
 30
0.0
 10
67.1820890787
 20
28.8537126047
 30
0.0
 10
67.182275179
 20
28.8511276748
 30
0.0
 10
67.1824426082
 20
28.8489904639
 30
0.0
 10
67.1826077652
 20
28.8473727832
 30
0.0
 10
67.1827244406
 20
28.8461057202
 30
0.0
 10
67.1828771969
 20
28.8455379831
 30
0.0
 10
67.1829226737
 20
28.8450606117
 30
0.0
 10
67.1830094511
 20
28.8450633885
 30
0.0
  0
SPLINE
  5
562
100
AcDbEntity
  8
0
100
AcDbSpline
 62
7
  6
BYLAYER
 70
0
 71
3
 72
14
 73
10
 74
0
 42
0.0000001
 43
0.0000001
 44
0.0000000001
 40
0.0
 40
0.0
 40
0.0
 40
0.0
 40
0.1274631654
 40
0.2545008288
 40
0.3808123594
 40
0.5062584821
 40
0.6308331314
 40
0.7546003765
 40
1.0
 40
1.0
 40
1.0
 40
1.0
 10
67.8052781641
 20
29.342505348
 30
0.0
 10
67.8052781648
 20
29.3220935312
 30
0.0
 10
67.8083956597
 20
29.2812743154
 30
0.0
 10
67.8219421157
 20
29.2216141687
 30
0.0
 10
67.8433553188
 20
29.164675616
 30
0.0
 10
67.871265794
 20
29.111123787
 30
0.0
 10
67.904268408
 20
29.0610769163
 30
0.0
 10
67.9534374949
 20
28.999061603
 30
0.0
 10
67.9954025952
 20
28.9570939971
 30
0.0
 10
68.0246862932
 20
28.9308871139
 30
0.0
  0
SPLINE
  5
563
100
AcDbEntity
  8
0
100
AcDbSpline
 62
7
  6
BYLAYER
 70
0
 71
3
 72
16
 73
12
 74
0
 42
0.0000001
 43
0.0000001
 44
0.0000000001
 40
0.0
 40
0.0
 40
0.0
 40
0.0
 40
0.0786198455
 40
0.1619890356
 40
0.2573693261
 40
0.3685499086
 40
0.4315410326
 40
0.4993733954
 40
0.6490598158
 40
0.8174867937
 40
1.0
 40
1.0
 40
1.0
 40
1.0
 10
70.6030708489
 20
28.7117076083
 30
0.0
 10
70.6030700094
 20
28.6979368123
 30
0.0
 10
70.5984126484
 20
28.6693395274
 30
0.0
 10
70.5769371827
 20
28.628957547
 30
0.0
 10
70.5416378657
 20
28.5917828912
 30
0.0
 10
70.5025209771
 20
28.5648660805
 30
0.0
 10
70.4650288187
 20
28.5450396796
 30
0.0
 10
70.4200641618
 20
28.5251379192
 30
0.0
 10
70.3557089462
 20
28.5039120578
 30
0.0
 10
70.2699938017
 20
28.484899649
 30
0.0
 10
70.2089764893
 20
28.4768023207
 30
0.0
 10
70.1771496358
 20
28.4737971271
 30
0.0
  0
SPLINE
  5
564
100
AcDbEntity
  8
0
100
AcDbSpline
 62
7
  6
BYLAYER
 70
0
 71
3
 72
13
 73
9
 74
0
 42
0.0000001
 43
0.0000001
 44
0.0000000001
 40
0.0
 40
0.0
 40
0.0
 40
0.0
 40
0.0831273328
 40
0.1752412871
 40
0.2810362256
 40
0.4019803146
 40
0.684264002
 40
1.0
 40
1.0
 40
1.0
 40
1.0
 10
65.0992502039
 20
25.1700226461
 30
0.0
 10
65.0987915285
 20
25.1532825453
 30
0.0
 10
65.0905191509
 20
25.1179767149
 30
0.0
 10
65.0594048541
 20
25.0697183191
 30
0.0
 10
65.0114011103
 20
25.026212861
 30
0.0
 10
64.92317614
 20
24.9730352725
 30
0.0
 10
64.783536916
 20
24.9283937851
 30
0.0
 10
64.6629212765
 20
24.9160230263
 30
0.0
 10
64.5993165207
 20
24.9155562286
 30
0.0
  0
SPLINE
  5
565
100
AcDbEntity
  8
0
100
AcDbSpline
 62
7
  6
BYLAYER
 70
0
 71
3
 72
11
 73
7
 74
0
 42
0.0000001
 43
0.0000001
 44
0.0000000001
 40
0.0
 40
0.0
 40
0.0
 40
0.0
 40
0.4238543755
 40
0.7297004331
 40
0.9186818643
 40
1.0
 40
1.0
 40
1.0
 40
1.0
 10
64.6343300434
 20
25.7481168428
 30
0.0
 10
64.6334340449
 20
25.740009427
 30
0.0
 10
64.6318125526
 20
25.7262621482
 30
0.0
 10
64.6286803845
 20
25.7082127039
 30
0.0
 10
64.6263626429
 20
25.6985356166
 30
0.0
 10
64.6234811549
 20
25.6925053175
 30
0.0
 10
64.6219162451
 20
25.6925053529
 30
0.0
  0
LINE
  5
566
100
AcDbEntity
  8
0
100
AcDbLine
 62
7
  6
BYLAYER
 10
63.5946887566
 20
31.4608555607
 11
63.5977661791
 21
33.5461849058
  0
LINE
  5
567
100
AcDbEntity
  8
0
100
AcDbLine
 62
7
  6
BYLAYER
 10
63.594320497
 20
31.1724178893
 11
63.5946887566
 21
31.4608555607
  0
SPLINE
  5
568
100
AcDbEntity
  8
0
100
AcDbSpline
 62
7
  6
BYLAYER
 70
0
 71
3
 72
9
 73
5
 74
0
 42
0.0000001
 43
0.0000001
 44
0.0000000001
 40
0.0
 40
0.0
 40
0.0
 40
0.0
 40
0.2166680214
 40
1.0
 40
1.0
 40
1.0
 40
1.0
 10
63.5966791494
 20
30.7996928252
 30
0.0
 10
63.5962366448
 20
30.8266091121
 30
0.0
 10
63.5946400118
 20
30.9508444839
 30
0.0
 10
63.594218667
 20
31.0750928404
 30
0.0
 10
63.594320497
 20
31.1724178893
 30
0.0
  0
LINE
  5
569
100
AcDbEntity
  8
0
100
AcDbLine
 62
7
  6
BYLAYER
 10
34.9366454646
 20
33.5761549309
 11
34.9398177423
 21
31.4178354615
  0
SPLINE
  5
56A
100
AcDbEntity
  8
0
100
AcDbSpline
 62
7
  6
BYLAYER
 70
0
 71
3
 72
17
 73
13
 74
0
 42
0.0000001
 43
0.0000001
 44
0.0000000001
 40
0.0
 40
0.0
 40
0.0
 40
0.0
 40
0.0050070269
 40
0.0177034083
 40
0.0384529587
 40
0.0672637631
 40
0.1488969039
 40
0.2619169082
 40
0.4051676638
 40
0.5773778627
 40
0.7765029412
 40
1.0
 40
1.0
 40
1.0
 40
1.0
 10
63.6030325147
 20
30.6425053529
 30
0.0
 10
63.6027696266
 20
30.6425052442
 30
0.0
 10
63.6024257572
 20
30.6437200163
 30
0.0
 10
63.6020538461
 20
30.645409642
 30
0.0
 10
63.6016334069
 20
30.6488139354
 30
0.0
 10
63.6009991307
 20
30.6555768109
 30
0.0
 10
63.6002733571
 20
30.6673600915
 30
0.0
 10
63.5994725827
 20
30.6850494101
 30
0.0
 10
63.5986985528
 20
30.7075463915
 30
0.0
 10
63.5979612902
 20
30.7345495793
 30
0.0
 10
63.5972720943
 20
30.7657746328
 30
0.0
 10
63.5968720381
 20
30.7879599595
 30
0.0
 10
63.5966791494
 20
30.7996928252
 30
0.0
  0
SPLINE
  5
56B
100
AcDbEntity
  8
0
100
AcDbSpline
 62
7
  6
BYLAYER
 70
0
 71
3
 72
9
 73
5
 74
0
 42
0.0000001
 43
0.0000001
 44
0.0000000001
 40
0.0
 40
0.0
 40
0.0
 40
0.0
 40
0.2741702743
 40
1.0
 40
1.0
 40
1.0
 40
1.0
 10
63.6507012271
 20
28.0425053536
 30
0.0
 10
63.6516316982
 20
28.042501384
 30
0.0
 10
63.6524828225
 20
28.0472375591
 30
0.0
 10
63.6531130574
 20
28.049753032
 30
0.0
 10
63.6534601597
 20
28.0521917768
 30
0.0
  0
SPLINE
  5
56C
100
AcDbEntity
  8
0
100
AcDbSpline
 62
7
  6
BYLAYER
 70
0
 71
3
 72
9
 73
5
 74
0
 42
0.0000001
 43
0.0000001
 44
0.0000000001
 40
0.0
 40
0.0
 40
0.0
 40
0.0
 40
0.7252961388
 40
1.0
 40
1.0
 40
1.0
 40
1.0
 10
63.6534394144
 20
30.6329599176
 30
0.0
 10
63.6530948707
 20
30.6353625041
 30
0.0
 10
63.6524727428
 20
30.6378513564
 30
0.0
 10
63.6516210314
 20
30.6425053529
 30
0.0
 10
63.6507017494
 20
30.6425053529
 30
0.0
  0
SPLINE
  5
56D
100
AcDbEntity
  8
0
100
AcDbSpline
 62
7
  6
BYLAYER
 70
0
 71
3
 72
17
 73
13
 74
0
 42
0.0000001
 43
0.0000001
 44
0.0000000001
 40
0.0
 40
0.0
 40
0.0
 40
0.0
 40
0.2204302236
 40
0.418502584
 40
0.59093925
 40
0.7350911295
 40
0.8492839255
 40
0.9319844615
 40
0.9612049772
 40
0.9822498936
 40
0.9950933453
 40
1.0
 40
1.0
 40
1.0
 40
1.0
 10
63.6032069118
 20
27.8418759707
 30
0.0
 10
63.603399559
 20
27.8566399345
 30
0.0
 10
63.6038077497
 20
27.8846692859
 30
0.0
 10
63.6045316106
 20
27.9242482928
 30
0.0
 10
63.6053270004
 20
27.9587064767
 30
0.0
 10
63.6061758944
 20
27.9875685649
 30
0.0
 10
63.607073814
 20
28.010346005
 30
0.0
 10
63.6078797864
 20
28.0255763509
 30
0.0
 10
63.6086137262
 20
28.0343122305
 30
0.0
 10
63.6090657264
 20
28.0387513166
 30
0.0
 10
63.6095331793
 20
28.0408838653
 30
0.0
 10
63.6098689489
 20
28.0425058181
 30
0.0
 10
63.6101976142
 20
28.0425053528
 30
0.0
  0
SPLINE
  5
56E
100
AcDbEntity
  8
0
100
AcDbSpline
 62
7
  6
BYLAYER
 70
0
 71
3
 72
9
 73
5
 74
0
 42
0.0000001
 43
0.0000001
 44
0.0000000001
 40
0.0
 40
0.0
 40
0.0
 40
0.0
 40
0.2588438254
 40
1.0
 40
1.0
 40
1.0
 40
1.0
 10
63.60182638
 20
27.4010092284
 30
0.0
 10
63.6016304684
 20
27.4390477055
 30
0.0
 10
63.6012193691
 20
27.5860041205
 30
0.0
 10
63.6017858151
 20
27.732966955
 30
0.0
 10
63.6032069118
 20
27.8418759707
 30
0.0
  0
SPLINE
  5
56F
100
AcDbEntity
  8
0
100
AcDbSpline
 62
7
  6
BYLAYER
 70
0
 71
3
 72
21
 73
17
 74
0
 42
0.0000001
 43
0.0000001
 44
0.0000000001
 40
0.0
 40
0.0
 40
0.0
 40
0.0
 40
0.219612743
 40
0.4172202069
 40
0.589427386
 40
0.733839546
 40
0.7949670359
 40
0.8484259116
 40
0.894032654
 40
0.9316055377
 40
0.960987836
 40
0.982117084
 40
0.9895831012
 40
0.9949927066
 40
0.9983868003
 40
1.0
 40
1.0
 40
1.0
 40
1.0
 10
63.7030705039
 20
27.2634355129
 30
0.0
 10
63.7016772196
 20
27.1482575382
 30
0.0
 10
63.6987055715
 20
26.9294462038
 30
0.0
 10
63.6933759503
 20
26.620337779
 30
0.0
 10
63.6874572365
 20
26.3506910786
 30
0.0
 10
63.6818832414
 20
26.1526392824
 30
0.0
 10
63.6770537104
 20
26.0168811178
 30
0.0
 10
63.6735501555
 20
25.932930789
 30
0.0
 10
63.6699842049
 20
25.8613572506
 30
0.0
 10
63.6663721842
 20
25.8024126397
 30
0.0
 10
63.6627662628
 20
25.7563888088
 30
0.0
 10
63.6594955685
 20
25.7260676441
 30
0.0
 10
63.6567909221
 20
25.7085395934
 30
0.0
 10
63.6548429235
 20
25.7000350501
 30
0.0
 10
63.6533988156
 20
25.6951313844
 30
0.0
 10
63.6515514735
 20
25.692505329
 30
0.0
 10
63.6507053538
 20
25.6925053507
 30
0.0
  0
SPLINE
  5
570
100
AcDbEntity
  8
0
100
AcDbSpline
 62
7
  6
BYLAYER
 70
0
 71
3
 72
11
 73
7
 74
0
 42
0.0000001
 43
0.0000001
 44
0.0000000001
 40
0.0
 40
0.0
 40
0.0
 40
0.0
 40
0.0817513284
 40
0.2707633762
 40
0.5764491599
 40
1.0
 40
1.0
 40
1.0
 40
1.0
 10
64.621993925
 20
32.9925053529
 30
0.0
 10
64.6235685378
 20
32.9925053616
 30
0.0
 10
64.6265037748
 20
32.986502519
 30
0.0
 10
64.62884394
 20
32.9767916682
 30
0.0
 10
64.6320168943
 20
32.9587557358
 30
0.0
 10
64.6336535542
 20
32.9450022063
 30
0.0
 10
64.6345583689
 20
32.9368945234
 30
0.0
  0
SPLINE
  5
571
100
AcDbEntity
  8
0
100
AcDbSpline
 62
7
  6
BYLAYER
 70
0
 71
3
 72
17
 73
13
 74
0
 42
0.0000001
 43
0.0000001
 44
0.0000000001
 40
0.0
 40
0.0
 40
0.0
 40
0.0
 40
0.0145369635
 40
0.0360453993
 40
0.0645418172
 40
0.1000138278
 40
0.1913463788
 40
0.308679404
 40
0.4503035793
 40
0.6143026573
 40
0.7985337812
 40
1.0
 40
1.0
 40
1.0
 40
1.0
 10
65.2408634555
 20
20.0544400567
 30
0.0
 10
65.236134451
 20
20.0787893406
 30
0.0
 10
65.2281888248
 20
20.1398509313
 30
0.0
 10
65.2179077326
 20
20.2494810947
 30
0.0
 10
65.2076806454
 20
20.3949904717
 30
0.0
 10
65.1928217051
 20
20.6595610538
 30
0.0
 10
65.1757982841
 20
21.0758047776
 30
0.0
 10
65.157355669
 20
21.6732168571
 30
0.0
 10
65.1401407618
 20
22.3947030438
 30
0.0
 10
65.1244067661
 20
23.2303899388
 30
0.0
 10
65.110481028
 20
24.168229458
 30
0.0
 10
65.1028115012
 20
24.826296787
 30
0.0
 10
65.0992504227
 20
25.1700378655
 30
0.0
  0
SPLINE
  5
572
100
AcDbEntity
  8
0
100
AcDbSpline
 62
7
  6
BYLAYER
 70
0
 71
3
 72
18
 73
14
 74
0
 42
0.0000001
 43
0.0000001
 44
0.0000000001
 40
0.0
 40
0.0
 40
0.0
 40
0.0
 40
0.0058423659
 40
0.0186571625
 40
0.0391441666
 40
0.0674255881
 40
0.1035171259
 40
0.1473920726
 40
0.2583316074
 40
0.3997818784
 40
0.5710978856
 40
0.7714811579
 40
1.0
 40
1.0
 40
1.0
 40
1.0
 10
65.1218039047
 20
25.192496913
 30
0.0
 10
65.1230028294
 20
25.1925709933
 30
0.0
 10
65.125275229
 20
25.1967305036
 30
0.0
 10
65.1271998627
 20
25.2038875761
 30
0.0
 10
65.1296867595
 20
25.2166583656
 30
0.0
 10
65.1320047109
 20
25.2338085075
 30
0.0
 10
65.1344341955
 20
25.2559889908
 30
0.0
 10
65.137908324
 20
25.2950616172
 30
0.0
 10
65.1420431465
 20
25.3558561476
 30
0.0
 10
65.1466678193
 20
25.4428427081
 30
0.0
 10
65.1512080625
 20
25.5482544514
 30
0.0
 10
65.1556344766
 20
25.6715817751
 30
0.0
 10
65.158316733
 20
25.7597254258
 30
0.0
 10
65.1596508123
 20
25.8066907673
 30
0.0
  0
SPLINE
  5
573
100
AcDbEntity
  8
0
100
AcDbSpline
 62
7
  6
BYLAYER
 70
0
 71
3
 72
18
 73
14
 74
0
 42
0.0000001
 43
0.0000001
 44
0.0000000001
 40
0.0
 40
0.0
 40
0.0
 40
0.0
 40
0.2285212236
 40
0.4289062168
 40
0.600223256
 40
0.7416738518
 40
0.8526129879
 40
0.896487464
 40
0.9325783499
 40
0.9608589402
 40
0.981344945
 40
0.9941586073
 40
1.0
 40
1.0
 40
1.0
 40
1.0
 10
65.1596507564
 20
32.8783217876
 30
0.0
 10
65.158316664
 20
32.9252874992
 30
0.0
 10
65.1556343815
 20
33.0134317689
 30
0.0
 10
65.151207921
 20
33.1367598333
 30
0.0
 10
65.1466676283
 20
33.2421719404
 30
0.0
 10
65.1420429132
 20
33.3291584723
 30
0.0
 10
65.1379080345
 20
33.3899527369
 30
0.0
 10
65.1344338811
 20
33.4290249395
 30
0.0
 10
65.1320043349
 20
33.4512049716
 30
0.0
 10
65.1296864685
 20
33.4683545226
 30
0.0
 10
65.1271993304
 20
33.4811247173
 30
0.0
 10
65.1252751291
 20
33.4882810292
 30
0.0
 10
65.1230021876
 20
33.4924400943
 30
0.0
 10
65.1218034385
 20
33.4925137212
 30
0.0
  0
SPLINE
  5
574
100
AcDbEntity
  8
0
100
AcDbSpline
 62
7
  6
BYLAYER
 70
0
 71
3
 72
9
 73
5
 74
0
 42
0.0000001
 43
0.0000001
 44
0.0000000001
 40
0.0
 40
0.0
 40
0.0
 40
0.0
 40
0.249733308
 40
1.0
 40
1.0
 40
1.0
 40
1.0
 10
65.0775206423
 20
33.5367877333
 30
0.0
 10
65.0801970937
 20
35.4042889902
 30
0.0
 10
65.0901761792
 20
42.8822723291
 30
0.0
 10
65.0972087732
 20
50.3602595968
 30
0.0
 10
65.1008354195
 20
55.9707452285
 30
0.0
  0
SPLINE
  5
575
100
AcDbEntity
  8
0
100
AcDbSpline
 62
7
  6
BYLAYER
 70
0
 71
3
 72
9
 73
5
 74
0
 42
0.0000001
 43
0.0000001
 44
0.0000000001
 40
0.0
 40
0.0
 40
0.0
 40
0.0
 40
0.2502325715
 40
1.0
 40
1.0
 40
1.0
 40
1.0
 10
65.1005250699
 20
93.4882203015
 30
0.0
 10
65.0993107065
 20
95.3199236058
 30
0.0
 10
65.0937546517
 20
102.6399266424
 30
0.0
 10
65.0853862586
 20
109.9599275479
 30
0.0
 10
65.0775205839
 20
115.4482233335
 30
0.0
  0
SPLINE
  5
576
100
AcDbEntity
  8
0
100
AcDbSpline
 62
7
  6
BYLAYER
 70
0
 71
3
 72
9
 73
5
 74
0
 42
0.0000001
 43
0.0000001
 44
0.0000000001
 40
0.0
 40
0.0
 40
0.0
 40
0.0
 40
0.2500720923
 40
1.0
 40
1.0
 40
1.0
 40
1.0
 10
62.2876946913
 20
55.8842670335
 30
0.0
 10
62.287226413
 20
55.1639124761
 30
0.0
 10
62.28524493
 20
52.2833249913
 30
0.0
 10
62.2828278368
 20
49.4027378061
 30
0.0
 10
62.2807697466
 20
47.2425053309
 30
0.0
  0
LINE
  5
577
100
AcDbEntity
  8
0
100
AcDbLine
 62
7
  6
BYLAYER
 10
62.2880443337
 20
56.4303377894
 11
62.2876946913
 21
55.8842670335
  0
SPLINE
  5
578
100
AcDbEntity
  8
0
100
AcDbSpline
 62
7
  6
BYLAYER
 70
0
 71
3
 72
9
 73
5
 74
0
 42
0.0000001
 43
0.0000001
 44
0.0000000001
 40
0.0
 40
0.0
 40
0.0
 40
0.0
 40
0.2502345941
 40
1.0
 40
1.0
 40
1.0
 40
1.0
 10
64.5994802922
 20
55.8740429374
 30
0.0
 10
64.5982694417
 20
54.0142703359
 30
0.0
 10
64.5927043716
 20
46.5821545417
 30
0.0
 10
64.5842346647
 20
39.1500409187
 30
0.0
 10
64.5762406952
 20
33.5777017881
 30
0.0
  0
SPLINE
  5
579
100
AcDbEntity
  8
0
100
AcDbSpline
 62
7
  6
BYLAYER
 70
0
 71
3
 72
15
 73
11
 74
0
 42
0.0000001
 43
0.0000001
 44
0.0000000001
 40
0.0
 40
0.0
 40
0.0
 40
0.0
 40
0.0090938679
 40
0.024839149
 40
0.0818342174
 40
0.1762359124
 40
0.305219151
 40
0.4630006885
 40
0.6389025179
 40
1.0
 40
1.0
 40
1.0
 40
1.0
 10
65.0775207336
 20
33.5367876198
 30
0.0
 10
65.077202371
 20
33.5382844266
 30
0.0
 10
65.0739164564
 20
33.5414981585
 30
0.0
 10
65.0615161215
 20
33.547097349
 30
0.0
 10
65.0337203507
 20
33.5534215716
 30
0.0
 10
64.9871756449
 20
33.5600938618
 30
0.0
 10
64.9232347742
 20
33.5662449062
 30
0.0
 10
64.8455587006
 20
33.5712386019
 30
0.0
 10
64.7287318041
 20
33.5762165444
 30
0.0
 10
64.6383613661
 20
33.5776149696
 30
0.0
 10
64.5775970056
 20
33.5777018557
 30
0.0
  0
SPLINE
  5
57A
100
AcDbEntity
  8
0
100
AcDbSpline
 62
7
  6
BYLAYER
 70
0
 71
3
 72
11
 73
7
 74
0
 42
0.0000001
 43
0.0000001
 44
0.0000000001
 40
0.0
 40
0.0
 40
0.0
 40
0.0
 40
0.2957089223
 40
0.5573389357
 40
0.787109678
 40
1.0
 40
1.0
 40
1.0
 40
1.0
 10
64.5975578427
 20
56.4303393823
 30
0.0
 10
64.671343738
 20
56.4296536046
 30
0.0
 10
64.8119113906
 20
56.3994573837
 30
0.0
 10
64.9770616401
 20
56.2846853992
 30
0.0
 10
65.0764302403
 20
56.1349034024
 30
0.0
 10
65.0998614811
 20
56.0238615255
 30
0.0
 10
65.1008353252
 20
55.9707473295
 30
0.0
  0
SPLINE
  5
57B
100
AcDbEntity
  8
0
100
AcDbSpline
 62
7
  6
BYLAYER
 70
0
 71
3
 72
18
 73
14
 74
0
 42
0.0000001
 43
0.0000001
 44
0.0000000001
 40
0.0
 40
0.0
 40
0.0
 40
0.0
 40
0.0058425089
 40
0.0186574717
 40
0.0391446224
 40
0.0674261655
 40
0.1035177987
 40
0.1473928142
 40
0.258332407
 40
0.39978263
 40
0.5710984858
 40
0.7714815061
 40
1.0
 40
1.0
 40
1.0
 40
1.0
 10
65.121803973
 20
115.492496877
 30
0.0
 10
65.1230029232
 20
115.4925710237
 30
0.0
 10
65.1252752432
 20
115.4967305981
 30
0.0
 10
65.1271999401
 20
115.5038877805
 30
0.0
 10
65.1296868012
 20
115.5166586541
 30
0.0
 10
65.1320047648
 20
115.5338088785
 30
0.0
 10
65.1344342401
 20
115.5559894226
 30
0.0
 10
65.1379083645
 20
115.5950621019
 30
0.0
 10
65.1420431784
 20
115.6558566568
 30
0.0
 10
65.1466678445
 20
115.742843201
 30
0.0
 10
65.15120808
 20
115.8482548663
 30
0.0
 10
65.1556344869
 20
115.9715820529
 30
0.0
 10
65.1583167392
 20
116.0597255926
 30
0.0
 10
65.1596508165
 20
116.1066908691
 30
0.0
  0
LINE
  5
57C
100
AcDbEntity
  8
0
100
AcDbLine
 62
7
  6
BYLAYER
 10
64.5975171919
 20
55.874043872
 11
64.597873959
 21
56.4303322134
  0
SPLINE
  5
57D
100
AcDbEntity
  8
0
100
AcDbSpline
 62
7
  6
BYLAYER
 70
0
 71
3
 72
18
 73
14
 74
0
 42
0.0000001
 43
0.0000001
 44
0.0000000001
 40
0.0
 40
0.0
 40
0.0
 40
0.0
 40
0.2285072614
 40
0.4288821509
 40
0.6001931183
 40
0.7416417908
 40
0.852583252
 40
0.8964604865
 40
0.9325551971
 40
0.9608406674
 40
0.9813325438
 40
0.9941528744
 40
1.0
 40
1.0
 40
1.0
 40
1.0
 10
65.1596509407
 20
123.1783173184
 30
0.0
 10
65.1583169294
 20
123.2252804614
 30
0.0
 10
65.1556348083
 20
123.31342035
 30
0.0
 10
65.1512086347
 20
123.4367430163
 30
0.0
 10
65.1466686493
 20
123.542152083
 30
0.0
 10
65.1420442002
 20
123.6291380325
 30
0.0
 10
65.1379096677
 20
123.6899333311
 30
0.0
 10
65.1344356753
 20
123.7290076839
 30
0.0
 10
65.1320065005
 20
123.7511901722
 30
0.0
 10
65.1296881459
 20
123.768343048
 30
0.0
 10
65.1272024332
 20
123.7811166219
 30
0.0
 10
65.1252757035
 20
123.7882773522
 30
0.0
 10
65.1230059493
 20
123.7924389862
 30
0.0
 10
65.121806178
 20
123.7925152781
 30
0.0
  0
SPLINE
  5
57E
100
AcDbEntity
  8
0
100
AcDbSpline
 62
7
  6
BYLAYER
 70
0
 71
3
 72
17
 73
13
 74
0
 42
0.0000001
 43
0.0000001
 44
0.0000000001
 40
0.0
 40
0.0
 40
0.0
 40
0.0
 40
0.2014601008
 40
0.3856864355
 40
0.5496823833
 40
0.691305269
 40
0.8086389839
 40
0.8999743123
 40
0.9354485172
 40
0.9639476657
 40
0.9854593385
 40
1.0
 40
1.0
 40
1.0
 40
1.0
 10
65.0992499763
 20
123.8149287633
 30
0.0
 10
65.1028109067
 20
124.1586600363
 30
0.0
 10
65.1104801184
 20
124.8167099682
 30
0.0
 10
65.1244052421
 20
125.7545272682
 30
0.0
 10
65.1401385236
 20
126.5901999995
 30
0.0
 10
65.1573526775
 20
127.3116811637
 30
0.0
 10
65.1757945031
 20
127.909098089
 30
0.0
 10
65.1928172425
 20
128.3253522625
 30
0.0
 10
65.2076754267
 20
128.5899365476
 30
0.0
 10
65.2179022333
 20
128.7354601504
 30
0.0
 10
65.2281829897
 20
128.8451071517
 30
0.0
 10
65.2361284088
 20
128.9061807329
 30
0.0
 10
65.2408567794
 20
128.9305366141
 30
0.0
  0
SPLINE
  5
57F
100
AcDbEntity
  8
0
100
AcDbSpline
 62
7
  6
BYLAYER
 70
0
 71
3
 72
9
 73
5
 74
0
 42
0.0000001
 43
0.0000001
 44
0.0000000001
 40
0.0
 40
0.0
 40
0.0
 40
0.0
 40
0.2604674668
 40
1.0
 40
1.0
 40
1.0
 40
1.0
 10
34.9398174065
 20
31.4178338021
 30
0.0
 10
34.9406237562
 20
30.8719747938
 30
0.0
 10
34.9409292084
 20
28.77628329
 30
0.0
 10
34.9304167408
 20
26.6805789258
 30
0.0
 10
34.9145805005
 20
25.1308273725
 30
0.0
  0
SPLINE
  5
580
100
AcDbEntity
  8
0
100
AcDbSpline
 62
7
  6
BYLAYER
 70
0
 71
3
 72
11
 73
7
 74
0
 42
0.0000001
 43
0.0000001
 44
0.0000000001
 40
0.0
 40
0.0
 40
0.0
 40
0.0
 40
0.2988774612
 40
0.5607667838
 40
0.7889736224
 40
1.0
 40
1.0
 40
1.0
 40
1.0
 10
64.6498594141
 20
56.6924864782
 30
0.0
 10
64.7243421903
 20
56.6917926727
 30
0.0
 10
64.8656425433
 20
56.6613218082
 30
0.0
 10
65.0306722713
 20
56.5459814715
 30
0.0
 10
65.1291946766
 20
56.3969335862
 30
0.0
 10
65.1524233497
 20
56.2869180021
 30
0.0
 10
65.153424449
 20
56.234335702
 30
0.0
  0
SPLINE
  5
581
100
AcDbEntity
  8
0
100
AcDbSpline
 62
7
  6
BYLAYER
 70
0
 71
3
 72
12
 73
8
 74
0
 42
0.0000001
 43
0.0000001
 44
0.0000000001
 40
0.0
 40
0.0
 40
0.0
 40
0.0
 40
0.3091974197
 40
0.4500234281
 40
0.5783177071
 40
0.8021772121
 40
1.0
 40
1.0
 40
1.0
 40
1.0
 10
64.6498921767
 20
92.2924968094
 30
0.0
 10
64.7213503174
 20
92.2930760752
 30
0.0
 10
64.8265996609
 20
92.3109229662
 30
0.0
 10
64.9482219536
 20
92.3675796971
 30
0.0
 10
65.0425480009
 20
92.4322828437
 30
0.0
 10
65.1261805492
 20
92.5326572138
 30
0.0
 10
65.1523851548
 20
92.6304621901
 30
0.0
 10
65.1534244079
 20
92.6761703998
 30
0.0
  0
SPLINE
  5
582
100
AcDbEntity
  8
0
100
AcDbSpline
 62
7
  6
BYLAYER
 70
0
 71
3
 72
11
 73
7
 74
0
 42
0.0000001
 43
0.0000001
 44
0.0000000001
 40
0.0
 40
0.0
 40
0.0
 40
0.0
 40
0.272755268
 40
0.5282255766
 40
0.7671865429
 40
1.0
 40
1.0
 40
1.0
 40
1.0
 10
31.3031773255
 20
24.6426756293
 30
0.0
 10
31.2324666215
 20
24.642652366
 30
0.0
 10
31.0938898238
 20
24.6715908753
 30
0.0
 10
30.9262584977
 20
24.7873059181
 30
0.0
 10
30.8191310915
 20
24.947630401
 30
0.0
 10
30.7928111051
 20
25.0705988513
 30
0.0
 10
30.7915617718
 20
25.1309418735
 30
0.0
  0
SPLINE
  5
583
100
AcDbEntity
  8
0
100
AcDbSpline
 62
7
  6
BYLAYER
 70
0
 71
3
 72
13
 73
9
 74
0
 42
0.0000001
 43
0.0000001
 44
0.0000000001
 40
0.0
 40
0.0
 40
0.0
 40
0.0
 40
0.0780463223
 40
0.1685753551
 40
0.2765420709
 40
0.4031864429
 40
0.6969381835
 40
1.0
 40
1.0
 40
1.0
 40
1.0
 10
30.7915615166
 20
25.1308880048
 30
0.0
 10
30.7910953079
 20
25.1151446232
 30
0.0
 10
30.7837173663
 20
25.0811158074
 30
0.0
 10
30.7541515407
 20
25.0328146059
 30
0.0
 10
30.7058716374
 20
24.9874822742
 30
0.0
 10
30.6143719858
 20
24.9316663153
 30
0.0
 10
30.4733152815
 20
24.8871386919
 30
0.0
 10
30.3527976181
 20
24.8750739934
 30
0.0
 10
30.2916394623
 20
24.8746051488
 30
0.0
  0
SPLINE
  5
584
100
AcDbEntity
  8
0
100
AcDbSpline
 62
7
  6
BYLAYER
 70
0
 71
3
 72
9
 73
5
 74
0
 42
0.0000001
 43
0.0000001
 44
0.0000000001
 40
0.0
 40
0.0
 40
0.0
 40
0.0
 40
0.2741638356
 40
1.0
 40
1.0
 40
1.0
 40
1.0
 10
62.4054364723
 20
118.3425053528
 30
0.0
 10
62.4044954883
 20
118.3425053528
 30
0.0
 10
62.4036539242
 20
118.3472970941
 30
0.0
 10
62.4030128963
 20
118.3498413694
 30
0.0
 10
62.4026640664
 20
118.352308038
 30
0.0
  0
SPLINE
  5
585
100
AcDbEntity
  8
0
100
AcDbSpline
 62
7
  6
BYLAYER
 70
0
 71
3
 72
9
 73
5
 74
0
 42
0.0000001
 43
0.0000001
 44
0.0000000001
 40
0.0
 40
0.0
 40
0.0
 40
0.0
 40
0.2738804149
 40
1.0
 40
1.0
 40
1.0
 40
1.0
 10
63.6507021836
 20
120.942505352
 30
0.0
 10
63.651643795
 20
120.9425095515
 30
0.0
 10
63.6524901609
 20
120.9377020382
 30
0.0
 10
63.6531299631
 20
120.9351581402
 30
0.0
 10
63.6534792893
 20
120.9326862497
 30
0.0
  0
SPLINE
  5
586
100
AcDbEntity
  8
0
100
AcDbSpline
 62
7
  6
BYLAYER
 70
0
 71
3
 72
9
 73
5
 74
0
 42
0.0000001
 43
0.0000001
 44
0.0000000001
 40
0.0
 40
0.0
 40
0.0
 40
0.0
 40
0.7255605735
 40
1.0
 40
1.0
 40
1.0
 40
1.0
 10
63.6534572393
 20
118.3521723209
 30
0.0
 10
63.6531106719
 20
118.3497394321
 30
0.0
 10
63.6524797128
 20
118.3472243427
 30
0.0
 10
63.6516325842
 20
118.3425053528
 30
0.0
 10
63.6507030671
 20
118.3425053528
 30
0.0
  0
SPLINE
  5
587
100
AcDbEntity
  8
0
100
AcDbSpline
 62
7
  6
BYLAYER
 70
0
 71
3
 72
13
 73
9
 74
0
 42
0.0000001
 43
0.0000001
 44
0.0000000001
 40
0.0
 40
0.0
 40
0.0
 40
0.0
 40
0.0836374302
 40
0.1761973067
 40
0.2821760131
 40
0.4030971316
 40
0.684953327
 40
1.0
 40
1.0
 40
1.0
 40
1.0
 10
34.9150805356
 20
25.1307671352
 30
0.0
 10
34.9155787793
 20
25.1139122172
 30
0.0
 10
34.9239022428
 20
25.0784076438
 30
0.0
 10
34.9549879009
 20
25.0298114511
 30
0.0
 10
35.0029775274
 20
24.986024301
 30
0.0
 10
35.0910773713
 20
24.9325879696
 30
0.0
 10
35.2305019366
 20
24.8876276035
 30
0.0
 10
35.3509870589
 20
24.8751477723
 30
0.0
 10
35.4145021585
 20
24.8746461162
 30
0.0
  0
SPLINE
  5
588
100
AcDbEntity
  8
0
100
AcDbSpline
 62
7
  6
BYLAYER
 70
0
 71
3
 72
12
 73
8
 74
0
 42
0.0000001
 43
0.0000001
 44
0.0000000001
 40
0.0
 40
0.0
 40
0.0
 40
0.0
 40
0.1655050177
 40
0.3138151308
 40
0.5653316982
 40
0.7860764666
 40
1.0
 40
1.0
 40
1.0
 40
1.0
 10
34.4029646927
 20
24.6426765338
 30
0.0
 10
34.4459516243
 20
24.6427276163
 30
0.0
 10
34.5278737526
 20
24.652920176
 30
0.0
 10
34.6661549978
 20
24.7050789002
 30
0.0
 10
34.7970249577
 20
24.8065308448
 30
0.0
 10
34.8908571185
 20
24.9620109581
 30
0.0
 10
34.9133844362
 20
25.075367487
 30
0.0
 10
34.9145823853
 20
25.130917375
 30
0.0
  0
SPLINE
  5
589
100
AcDbEntity
  8
0
100
AcDbSpline
 62
7
  6
BYLAYER
 70
0
 71
3
 72
9
 73
5
 74
0
 42
0.0000001
 43
0.0000001
 44
0.0000000001
 40
0.0
 40
0.0
 40
0.0
 40
0.0
 40
0.7260723843
 40
1.0
 40
1.0
 40
1.0
 40
1.0
 10
62.4026640202
 20
120.9327063417
 30
0.0
 10
62.4030128547
 20
120.9351730944
 30
0.0
 10
62.4036514564
 20
120.9377121483
 30
0.0
 10
62.4044970482
 20
120.9425095438
 30
0.0
 10
62.4054369379
 20
120.942505352
 30
0.0
  0
SPLINE
  5
58A
100
AcDbEntity
  8
0
100
AcDbSpline
 62
7
  6
BYLAYER
 70
0
 71
3
 72
15
 73
11
 74
0
 42
0.0000001
 43
0.0000001
 44
0.0000000001
 40
0.0
 40
0.0
 40
0.0
 40
0.0
 40
0.0093786654
 40
0.0252844846
 40
0.082422896
 40
0.1768447641
 40
0.3057802981
 40
0.4634655367
 40
0.6392252914
 40
1.0
 40
1.0
 40
1.0
 40
1.0
 10
34.9398173313
 20
31.417819634
 30
0.0
 10
34.9401284519
 20
31.419368629
 30
0.0
 10
34.9433526295
 20
31.422740607
 30
0.0
 10
34.9557747488
 20
31.4286563025
 30
0.0
 10
34.9835658581
 20
31.4353082988
 30
0.0
 10
35.0301449533
 20
31.442336356
 30
0.0
 10
35.0940999289
 20
31.4488051531
 30
0.0
 10
35.1717982191
 20
31.4540593934
 30
0.0
 10
35.2886463962
 20
31.4592947012
 30
0.0
 10
35.3790382126
 20
31.4607653986
 30
0.0
 10
35.4398142861
 20
31.4608555963
 30
0.0
  0
LINE
  5
58B
100
AcDbEntity
  8
0
100
AcDbLine
 62
7
  6
BYLAYER
 10
35.4366119157
 20
33.6170323623
 11
35.4397842323
 21
31.4608433565
  0
SPLINE
  5
58C
100
AcDbEntity
  8
0
100
AcDbSpline
 62
7
  6
BYLAYER
 70
0
 71
3
 72
15
 73
11
 74
0
 42
0.0000001
 43
0.0000001
 44
0.0000000001
 40
0.0
 40
0.0
 40
0.0
 40
0.0
 40
0.0090850839
 40
0.0248226924
 40
0.0818105808
 40
0.1762062962
 40
0.3051935442
 40
0.4629869428
 40
0.6388913181
 40
1.0
 40
1.0
 40
1.0
 40
1.0
 10
34.9366454647
 20
33.5761548705
 30
0.0
 10
34.9369627642
 20
33.5776505037
 30
0.0
 10
34.9402479009
 20
33.580862314
 30
0.0
 10
34.9526466666
 20
33.5864560699
 30
0.0
 10
34.9804426113
 20
33.5927744862
 30
0.0
 10
35.0269895519
 20
33.5994416883
 30
0.0
 10
35.090937412
 20
33.6055866584
 30
0.0
 10
35.168622351
 20
33.6105761955
 30
0.0
 10
35.2854621386
 20
33.6155493575
 30
0.0
 10
35.3758413286
 20
33.616946351
 30
0.0
 10
35.4366119157
 20
33.6170323593
 30
0.0
  0
SPLINE
  5
58D
100
AcDbEntity
  8
0
100
AcDbSpline
 62
7
  6
BYLAYER
 70
0
 71
3
 72
11
 73
7
 74
0
 42
0.0000001
 43
0.0000001
 44
0.0000000001
 40
0.0
 40
0.0
 40
0.0
 40
0.0
 40
0.2503791645
 40
0.5005328952
 40
0.7503652654
 40
1.0
 40
1.0
 40
1.0
 40
1.0
 10
34.4353100678
 20
34.6143773907
 30
0.0
 10
34.5654164339
 20
34.6147094648
 30
0.0
 10
34.8284222074
 20
34.5625914091
 30
0.0
 10
35.1606804284
 20
34.3403889607
 30
0.0
 10
35.3830160384
 20
34.0088334445
 30
0.0
 10
35.4361975025
 20
33.7467517131
 30
0.0
 10
35.4365767012
 20
33.6170323123
 30
0.0
  0
SPLINE
  5
58E
100
AcDbEntity
  8
0
100
AcDbSpline
 62
7
  6
BYLAYER
 70
0
 71
3
 72
11
 73
7
 74
0
 42
0.0000001
 43
0.0000001
 44
0.0000000001
 40
0.0
 40
0.0
 40
0.0
 40
0.0
 40
0.2489681833
 40
0.4983404365
 40
0.7487578423
 40
1.0
 40
1.0
 40
1.0
 40
1.0
 10
34.9366456994
 20
33.5761563002
 30
0.0
 10
34.9364798502
 20
33.6408863795
 30
0.0
 10
34.910225614
 20
33.7717987178
 30
0.0
 10
34.7988673105
 20
33.937380044
 30
0.0
 10
34.6324733338
 20
34.0486233646
 30
0.0
 10
34.5006062702
 20
34.0746902679
 30
0.0
 10
34.4352847618
 20
34.0746686849
 30
0.0
  0
SPLINE
  5
58F
100
AcDbEntity
  8
0
100
AcDbSpline
 62
7
  6
BYLAYER
 70
0
 71
3
 72
17
 73
13
 74
0
 42
0.0000001
 43
0.0000001
 44
0.0000000001
 40
0.0
 40
0.0
 40
0.0
 40
0.0
 40
0.2204244779
 40
0.4184921735
 40
0.5909255281
 40
0.7350759425
 40
0.8492700077
 40
0.9319752281
 40
0.9611988171
 40
0.9822466492
 40
0.9950923555
 40
1.0
 40
1.0
 40
1.0
 40
1.0
 10
62.4529342197
 20
121.1431355624
 30
0.0
 10
62.4527415777
 20
121.1283719277
 30
0.0
 10
62.4523333977
 20
121.1003431676
 30
0.0
 10
62.4516095579
 20
121.0607649306
 30
0.0
 10
62.4508141886
 20
121.0263072478
 30
0.0
 10
62.4499653234
 20
120.9974452869
 30
0.0
 10
62.4490674068
 20
120.9746674557
 30
0.0
 10
62.4482614924
 20
120.9594364478
 30
0.0
 10
62.4475275383
 20
120.9506998203
 30
0.0
 10
62.447075634
 20
120.9462601372
 30
0.0
 10
62.4466080422
 20
120.944127221
 30
0.0
 10
62.4462724593
 20
120.9425049496
 30
0.0
 10
62.4459437264
 20
120.9425053528
 30
0.0
  0
SPLINE
  5
590
100
AcDbEntity
  8
0
100
AcDbSpline
 62
7
  6
BYLAYER
 70
0
 71
3
 72
9
 73
5
 74
0
 42
0.0000001
 43
0.0000001
 44
0.0000000001
 40
0.0
 40
0.0
 40
0.0
 40
0.0
 40
0.2588431143
 40
1.0
 40
1.0
 40
1.0
 40
1.0
 10
62.4543146941
 20
121.5840090959
 30
0.0
 10
62.4545106094
 20
121.5459701375
 30
0.0
 10
62.4549217773
 20
121.399011459
 30
0.0
 10
62.4543553327
 20
121.2520463604
 30
0.0
 10
62.4529342197
 20
121.1431355624
 30
0.0
  0
SPLINE
  5
591
100
AcDbEntity
  8
0
100
AcDbSpline
 62
7
  6
BYLAYER
 70
0
 71
3
 72
12
 73
8
 74
0
 42
0.0000001
 43
0.0000001
 44
0.0000000001
 40
0.0
 40
0.0
 40
0.0
 40
0.0
 40
0.1251872865
 40
0.2504771665
 40
0.50004956
 40
0.7499006447
 40
1.0
 40
1.0
 40
1.0
 40
1.0
 10
30.2695381588
 20
33.6173961772
 30
0.0
 10
30.2705572949
 20
33.682502071
 30
0.0
 10
30.2835922429
 20
33.8129861606
 30
0.0
 10
30.3585131457
 20
34.0635828762
 30
0.0
 10
30.5459275897
 20
34.3402728204
 30
0.0
 10
30.8778530431
 20
34.5626184152
 30
0.0
 10
31.1407540565
 20
34.6129657767
 30
0.0
 10
31.2708310524
 20
34.6143713778
 30
0.0
  0
SPLINE
  5
592
100
AcDbEntity
  8
0
100
AcDbSpline
 62
7
  6
BYLAYER
 70
0
 71
3
 72
16
 73
12
 74
0
 42
0.0000001
 43
0.0000001
 44
0.0000000001
 40
0.0
 40
0.0
 40
0.0
 40
0.0
 40
0.0100659734
 40
0.0275150674
 40
0.0877198623
 40
0.1813766478
 40
0.3051700848
 40
0.4548021953
 40
0.6248785613
 40
0.809263586
 40
1.0
 40
1.0
 40
1.0
 40
1.0
 10
30.7694952525
 20
33.576168502
 30
0.0
 10
30.7691418884
 20
33.5778251847
 30
0.0
 10
30.7653008757
 20
33.5812476187
 30
0.0
 10
30.7519406135
 20
33.5868818081
 30
0.0
 10
30.7233738208
 20
33.5931878849
 30
0.0
 10
30.6772816883
 20
33.5996731303
 30
0.0
 10
30.6156940102
 20
33.6055699154
 30
0.0
 10
30.5412446156
 20
33.6105018116
 30
0.0
 10
30.4564819702
 20
33.6142700462
 30
0.0
 10
30.3647636295
 20
33.6166664754
 30
0.0
 10
30.3016360805
 20
33.6173182201
 30
0.0
 10
30.2695381588
 20
33.6173961771
 30
0.0
  0
SPLINE
  5
593
100
AcDbEntity
  8
0
100
AcDbSpline
 62
7
  6
BYLAYER
 70
0
 71
3
 72
11
 73
7
 74
0
 42
0.0000001
 43
0.0000001
 44
0.0000000001
 40
0.0
 40
0.0
 40
0.0
 40
0.0
 40
0.2512294259
 40
0.5016369474
 40
0.7509680571
 40
1.0
 40
1.0
 40
1.0
 40
1.0
 10
31.270857634
 20
34.0746686839
 30
0.0
 10
31.20553915
 20
34.0746903356
 30
0.0
 10
31.0736771588
 20
34.0486268738
 30
0.0
 10
30.9072948243
 20
33.9373974012
 30
0.0
 10
30.7959163498
 20
33.7718254875
 30
0.0
 10
30.7696620544
 20
33.6409037796
 30
0.0
 10
30.7694952228
 20
33.5761568424
 30
0.0
  0
LINE
  5
594
100
AcDbEntity
  8
0
100
AcDbLine
 62
7
  6
BYLAYER
 10
30.266406076
 20
31.4828887744
 11
30.2695456484
 21
33.6173961665
  0
SPLINE
  5
595
100
AcDbEntity
  8
0
100
AcDbSpline
 62
7
  6
BYLAYER
 70
0
 71
3
 72
15
 73
11
 74
0
 42
0.0000001
 43
0.0000001
 44
0.0000000001
 40
0.0
 40
0.0
 40
0.0
 40
0.0
 40
0.0094237203
 40
0.0251748038
 40
0.0813641261
 40
0.1740637144
 40
0.3010781977
 40
0.4573688075
 40
0.6330810967
 40
1.0
 40
1.0
 40
1.0
 40
1.0
 10
30.76632294
 20
31.4178236302
 30
0.0
 10
30.7660224219
 20
31.4193113145
 30
0.0
 10
30.76301835
 20
31.4225598658
 30
0.0
 10
30.7513462535
 20
31.428302144
 30
0.0
 10
30.7252840842
 20
31.4347522011
 30
0.0
 10
30.681513248
 20
31.4416238088
 30
0.0
 10
30.6212087115
 20
31.4479997971
 30
0.0
 10
30.5474860747
 20
31.4532872751
 30
0.0
 10
30.4350374315
 20
31.4587433458
 30
0.0
 10
30.3476425844
 20
31.4604659096
 30
0.0
 10
30.2885494321
 20
31.4607798765
 30
0.0
  0
SPLINE
  5
596
100
AcDbEntity
  8
0
100
AcDbSpline
 62
7
  6
BYLAYER
 70
0
 71
3
 72
17
 73
13
 74
0
 42
0.0000001
 43
0.0000001
 44
0.0000000001
 40
0.0
 40
0.0
 40
0.0
 40
0.0
 40
0.0125722101
 40
0.0374654196
 40
0.0735745966
 40
0.1193358098
 40
0.1731149587
 40
0.2334325464
 40
0.3687792687
 40
0.5176358765
 40
0.6747554309
 40
1.0
 40
1.0
 40
1.0
 40
1.0
 10
30.7658190507
 20
30.9414273612
 30
0.0
 10
30.7652843735
 20
30.9443368394
 30
0.0
 10
30.7598537109
 20
30.9517645106
 30
0.0
 10
30.7498606145
 20
30.9655634592
 30
0.0
 10
30.7336103184
 20
30.9849118609
 30
0.0
 10
30.7128583919
 20
31.0090905027
 30
0.0
 10
30.6879010671
 20
31.0372590466
 30
0.0
 10
30.6486380494
 20
31.0808759916
 30
0.0
 10
30.5937902829
 20
31.1405763869
 30
0.0
 10
30.5230080594
 20
31.2165569576
 30
0.0
 10
30.4207763759
 20
31.3242940766
 30
0.0
 10
30.3426335344
 20
31.4066356891
 30
0.0
 10
30.2885494341
 20
31.4607798746
 30
0.0
  0
LINE
  5
597
100
AcDbEntity
  8
0
100
AcDbLine
 62
7
  6
BYLAYER
 10
30.76632294
 20
31.4178236313
 11
30.7694952543
 21
33.5761679972
  0
LINE
  5
598
100
AcDbEntity
  8
0
100
AcDbLine
 62
7
  6
BYLAYER
 10
30.7658201078
 20
30.9414169635
 11
30.7663229431
 21
31.4178236159
  0
SPLINE
  5
599
100
AcDbEntity
  8
0
100
AcDbSpline
 62
7
  6
BYLAYER
 70
0
 71
3
 72
39
 73
35
 74
0
 42
0.0000001
 43
0.0000001
 44
0.0000000001
 40
0.0
 40
0.0
 40
0.0
 40
0.0
 40
0.000738878
 40
0.0025954674
 40
0.0056270589
 40
0.0098356512
 40
0.0152159822
 40
0.0217607602
 40
0.0382983196
 40
0.0592769213
 40
0.0844825775
 40
0.1136958737
 40
0.1466328264
 40
0.1829607446
 40
0.2223444516
 40
0.3087392815
 40
0.4024819634
 40
0.4999743314
 40
0.5974674986
 40
0.6912121566
 40
0.777614287
 40
0.8170015815
 40
0.8533356249
 40
0.8862791136
 40
0.9154972232
 40
0.9407081544
 40
0.9616918394
 40
0.9782327207
 40
0.9847785933
 40
0.9901599272
 40
0.9943695105
 40
0.9974021588
 40
0.9992599352
 40
1.0
 40
1.0
 40
1.0
 40
1.0
 10
30.8137925481
 20
30.8925089255
 30
0.0
 10
30.8145565673
 20
30.8925117861
 30
0.0
 10
30.8156193759
 20
30.8890482053
 30
0.0
 10
30.8167016812
 20
30.8841550954
 30
0.0
 10
30.8179735166
 20
30.8743783023
 30
0.0
 10
30.8192183221
 20
30.861583724
 30
0.0
 10
30.8204921705
 20
30.8448731817
 30
0.0
 10
30.822315079
 20
30.8155334216
 30
0.0
 10
30.8244427186
 20
30.7699973998
 30
0.0
 10
30.8267783734
 20
30.7051924953
 30
0.0
 10
30.8290085264
 20
30.6272566614
 30
0.0
 10
30.8311054714
 20
30.536952961
 30
0.0
 10
30.8330451867
 20
30.4351410905
 30
0.0
 10
30.8348091844
 20
30.3228086123
 30
0.0
 10
30.8369626058
 20
30.1551987114
 30
0.0
 10
30.8390277488
 20
29.9282150069
 30
0.0
 10
30.8405173361
 20
29.6411396733
 30
0.0
 10
30.8410224648
 20
29.34258486
 30
0.0
 10
30.8405179886
 20
29.0440280016
 30
0.0
 10
30.8390285967
 20
28.7569422491
 30
0.0
 10
30.8369642372
 20
28.5299452346
 30
0.0
 10
30.8348106766
 20
28.3623177417
 30
0.0
 10
30.8330468219
 20
28.2499684575
 30
0.0
 10
30.8311072851
 20
28.1481385121
 30
0.0
 10
30.829010152
 20
28.0578176166
 30
0.0
 10
30.8267798762
 20
27.9798661055
 30
0.0
 10
30.8244441208
 20
27.915047012
 30
0.0
 10
30.8223163827
 20
27.8695012494
 30
0.0
 10
30.8204931598
 20
27.8401557535
 30
0.0
 10
30.8192195392
 20
27.8234422924
 30
0.0
 10
30.8179738875
 20
27.810643843
 30
0.0
 10
30.8167037291
 20
27.8008652411
 30
0.0
 10
30.8156180317
 20
27.7959660457
 30
0.0
 10
30.8145587527
 20
27.7925021904
 30
0.0
 10
30.8137935009
 20
27.7925021904
 30
0.0
  0
SPLINE
  5
59A
100
AcDbEntity
  8
0
100
AcDbSpline
 62
7
  6
BYLAYER
 70
0
 71
3
 72
22
 73
18
 74
0
 42
0.0000001
 43
0.0000001
 44
0.0000000001
 40
0.0
 40
0.0
 40
0.0
 40
0.0
 40
0.1948741716
 40
0.3822629239
 40
0.5549690511
 40
0.6337119915
 40
0.7063612459
 40
0.7722075142
 40
0.8306300729
 40
0.881056109
 40
0.9230169031
 40
0.9561014819
 40
0.9800191549
 40
0.9884712786
 40
0.9945716727
 40
0.9983485469
 40
1.0
 40
1.0
 40
1.0
 40
1.0
 10
29.848559843
 20
29.3425053528
 30
0.0
 10
29.848559843
 20
29.4433063786
 30
0.0
 10
29.8490006188
 20
29.6410368454
 30
0.0
 10
29.8509712355
 20
29.9280955029
 30
0.0
 10
29.853701826
 20
30.1550747767
 30
0.0
 10
29.8565499917
 20
30.322694565
 30
0.0
 10
29.8588802315
 20
30.4350402279
 30
0.0
 10
29.8614474026
 20
30.5368656136
 30
0.0
 10
29.8642217
 20
30.6271895161
 30
0.0
 10
29.8671714626
 20
30.7051339195
 30
0.0
 10
29.8702603681
 20
30.7699879279
 30
0.0
 10
29.8734219905
 20
30.8210184308
 30
0.0
 10
29.8763397508
 20
30.8548903102
 30
0.0
 10
29.878783218
 20
30.8744619421
 30
0.0
 10
29.8805515249
 20
30.8840929067
 30
0.0
 10
29.8818531051
 20
30.8893279432
 30
0.0
 10
29.8834908345
 20
30.8925053277
 30
0.0
 10
29.8843450683
 20
30.8925046157
 30
0.0
  0
SPLINE
  5
59B
100
AcDbEntity
  8
0
100
AcDbSpline
 62
7
  6
BYLAYER
 70
0
 71
3
 72
22
 73
18
 74
0
 42
0.0000001
 43
0.0000001
 44
0.0000000001
 40
0.0
 40
0.0
 40
0.0
 40
0.0
 40
0.0016536545
 40
0.0054332495
 40
0.011536249
 40
0.0199907974
 40
0.0439126725
 40
0.0770005759
 40
0.1189637933
 40
0.169391369
 40
0.227814602
 40
0.2936607244
 40
0.3663090636
 40
0.4450503882
 40
0.6177515014
 40
0.8051334921
 40
1.0
 40
1.0
 40
1.0
 40
1.0
 10
29.8842782159
 20
27.7925060876
 30
0.0
 10
29.8834228458
 20
27.7925077833
 30
0.0
 10
29.8817884511
 20
27.7956877947
 30
0.0
 10
29.8804840535
 20
27.8009272291
 30
0.0
 10
29.8787172859
 20
27.810561928
 30
0.0
 10
29.8762731166
 20
27.830138608
 30
0.0
 10
29.8733561875
 20
27.8640154292
 30
0.0
 10
29.8701944555
 20
27.9150511368
 30
0.0
 10
29.8671058918
 20
27.9799088114
 30
0.0
 10
29.8641563212
 20
28.0578555438
 30
0.0
 10
29.8613822689
 20
28.1481804096
 30
0.0
 10
29.8588153167
 20
28.2500054795
 30
0.0
 10
29.8564852871
 20
28.3623496257
 30
0.0
 10
29.8536373913
 20
28.5299653133
 30
0.0
 10
29.8509070583
 20
28.7569373889
 30
0.0
 10
29.8489366285
 20
29.043985646
 30
0.0
 10
29.8484958946
 20
29.2417084127
 30
0.0
 10
29.8484958946
 20
29.3425053528
 30
0.0
  0
SPLINE
  5
59C
100
AcDbEntity
  8
0
100
AcDbSpline
 62
7
  6
BYLAYER
 70
0
 71
3
 72
15
 73
11
 74
0
 42
0.0000001
 43
0.0000001
 44
0.0000000001
 40
0.0
 40
0.0
 40
0.0
 40
0.0
 40
0.0270707688
 40
0.0637132457
 40
0.1615573587
 40
0.2832415394
 40
0.418697831
 40
0.5616197437
 40
0.7079890716
 40
1.0
 40
1.0
 40
1.0
 40
1.0
 10
30.7723915738
 20
27.7298589652
 30
0.0
 10
30.7719921534
 20
27.7225600203
 30
0.0
 10
30.7676586713
 20
27.7056733855
 30
0.0
 10
30.7506710744
 20
27.6654896774
 30
0.0
 10
30.7145988443
 20
27.606104382
 30
0.0
 10
30.659021559
 20
27.528052787
 30
0.0
 10
30.5923471716
 20
27.442984896
 30
0.0
 10
30.5183907135
 20
27.3553021259
 30
0.0
 10
30.413600831
 20
27.2384130601
 30
0.0
 10
30.3311680154
 20
27.1533590852
 30
0.0
 10
30.2747900501
 20
27.0982317308
 30
0.0
  0
SPLINE
  5
59D
100
AcDbEntity
  8
0
100
AcDbSpline
 62
7
  6
BYLAYER
 70
0
 71
3
 72
11
 73
7
 74
0
 42
0.0000001
 43
0.0000001
 44
0.0000000001
 40
0.0
 40
0.0
 40
0.0
 40
0.0
 40
0.0867061412
 40
0.2819909069
 40
0.5868889476
 40
1.0
 40
1.0
 40
1.0
 40
1.0
 10
30.7747041367
 20
27.7534128258
 30
0.0
 10
30.7742187928
 20
27.7529274928
 30
0.0
 10
30.7739990291
 20
27.7504803005
 30
0.0
 10
30.7732390554
 20
27.7460749203
 30
0.0
 10
30.772760472
 20
27.7387576376
 30
0.0
 10
30.7723841863
 20
27.7331189579
 30
0.0
 10
30.7722054332
 20
27.7298536293
 30
0.0
  0
SPLINE
  5
59E
100
AcDbEntity
  8
0
100
AcDbSpline
 62
7
  6
BYLAYER
 70
0
 71
3
 72
14
 73
10
 74
0
 42
0.0000001
 43
0.0000001
 44
0.0000000001
 40
0.0
 40
0.0
 40
0.0
 40
0.0
 40
0.3459729262
 40
0.5045520652
 40
0.646315406
 40
0.7672820023
 40
0.865270861
 40
0.9407859469
 40
1.0
 40
1.0
 40
1.0
 40
1.0
 10
29.9232788231
 20
27.0982337993
 30
0.0
 10
29.8599648601
 20
27.0985914353
 30
0.0
 10
29.7674742292
 20
27.1042542539
 30
0.0
 10
29.650707792
 20
27.1236398668
 30
0.0
 10
29.5758064243
 20
27.1423537665
 30
0.0
 10
29.5135744334
 20
27.1648564401
 30
0.0
 10
29.4659458975
 20
27.1906711124
 30
0.0
 10
29.4338430897
 20
27.2196532235
 30
0.0
 10
29.4238850914
 20
27.2437769964
 30
0.0
 10
29.4233543242
 20
27.2546004919
 30
0.0
  0
LINE
  5
59F
100
AcDbEntity
  8
0
100
AcDbLine
 62
7
  6
BYLAYER
 10
30.7658201078
 20
30.9414169635
 11
30.7663561744
 21
30.9399458423
  0
LINE
  5
5A0
100
AcDbEntity
  8
0
100
AcDbLine
 62
7
  6
BYLAYER
 10
30.2664180115
 20
31.4828887632
 11
30.2885494341
 21
31.4607798746
  0
SPLINE
  5
5A1
100
AcDbEntity
  8
0
100
AcDbSpline
 62
7
  6
BYLAYER
 70
0
 71
3
 72
11
 73
7
 74
0
 42
0.0000001
 43
0.0000001
 44
0.0000000001
 40
0.0
 40
0.0
 40
0.0
 40
0.0
 40
0.2495360138
 40
0.4994192714
 40
0.7496397056
 40
1.0
 40
1.0
 40
1.0
 40
1.0
 10
29.2651131473
 20
128.9315366157
 30
0.0
 10
29.2652954318
 20
128.9962354524
 30
0.0
 10
29.2916399524
 20
129.127063228
 30
0.0
 10
29.4030387134
 20
129.2922532427
 30
0.0
 10
29.5689699668
 20
129.4028860629
 30
0.0
 10
29.7001228671
 20
129.4288950045
 30
0.0
 10
29.7650356035
 20
129.428993381
 30
0.0
  0
SPLINE
  5
5A2
100
AcDbEntity
  8
0
100
AcDbSpline
 62
7
  6
BYLAYER
 70
0
 71
3
 72
13
 73
9
 74
0
 42
0.0000001
 43
0.0000001
 44
0.0000000001
 40
0.0
 40
0.0
 40
0.0
 40
0.0
 40
0.3472255393
 40
0.506582491
 40
0.649145693
 40
0.7708989815
 40
0.8694528767
 40
1.0
 40
1.0
 40
1.0
 40
1.0
 10
29.9232751519
 20
121.8865962078
 30
0.0
 10
29.8596451329
 20
121.8864169549
 30
0.0
 10
29.7666656843
 20
121.8809066744
 30
0.0
 10
29.6491340036
 20
121.8616184692
 30
0.0
 10
29.5737966189
 20
121.8430930892
 30
0.0
 10
29.5107200479
 20
121.8199532683
 30
0.0
 10
29.4550694665
 20
121.7908857022
 30
0.0
 10
29.4211104714
 20
121.7552635555
 30
0.0
 10
29.4198397982
 20
121.7313741167
 30
0.0
  0
SPLINE
  5
5A3
100
AcDbEntity
  8
0
100
AcDbSpline
 62
7
  6
BYLAYER
 70
0
 71
3
 72
16
 73
12
 74
0
 42
0.0000001
 43
0.0000001
 44
0.0000000001
 40
0.0
 40
0.0
 40
0.0
 40
0.0
 40
0.190760781
 40
0.3751703361
 40
0.5452636339
 40
0.6949055322
 40
0.8187051315
 40
0.9123596379
 40
0.9725477034
 40
0.9899761526
 40
1.0
 40
1.0
 40
1.0
 40
1.0
 10
35.4365937785
 20
115.3676466381
 30
0.0
 10
35.4044948604
 20
115.3677417787
 30
0.0
 10
35.3413654474
 20
115.3684215646
 30
0.0
 10
35.2496456026
 20
115.3708463125
 30
0.0
 10
35.1648831483
 20
115.3746325164
 30
0.0
 10
35.090436194
 20
115.3795701487
 30
0.0
 10
35.02885042
 20
115.3854582961
 30
0.0
 10
34.9827648908
 20
115.3919227402
 30
0.0
 10
34.9541981206
 20
115.3982041307
 30
0.0
 10
34.9408475906
 20
115.4038058949
 30
0.0
 10
34.9369988761
 20
115.4072059414
 30
0.0
 10
34.9366454634
 20
115.4088552
 30
0.0
  0
LINE
  5
5A4
100
AcDbEntity
  8
0
100
AcDbLine
 62
7
  6
BYLAYER
 10
35.4397665711
 20
117.5241677921
 11
35.4365937785
 21
115.3676466437
  0
SPLINE
  5
5A5
100
AcDbEntity
  8
0
100
AcDbSpline
 62
7
  6
BYLAYER
 70
0
 71
3
 72
11
 73
7
 74
0
 42
0.0000001
 43
0.0000001
 44
0.0000000001
 40
0.0
 40
0.0
 40
0.0
 40
0.0
 40
0.2512289091
 40
0.5016359319
 40
0.7509666351
 40
1.0
 40
1.0
 40
1.0
 40
1.0
 10
34.4352992213
 20
114.9103420084
 30
0.0
 10
34.5006162917
 20
114.910321382
 30
0.0
 10
34.6324745248
 20
114.9363893436
 30
0.0
 10
34.7988511682
 20
115.0476187398
 30
0.0
 10
34.9102254087
 20
115.2131886221
 30
0.0
 10
34.9364796289
 20
115.344108021
 30
0.0
 10
34.9366456987
 20
115.4088540615
 30
0.0
  0
SPLINE
  5
5A6
100
AcDbEntity
  8
0
100
AcDbSpline
 62
7
  6
BYLAYER
 70
0
 71
3
 72
12
 73
8
 74
0
 42
0.0000001
 43
0.0000001
 44
0.0000000001
 40
0.0
 40
0.0
 40
0.0
 40
0.0
 40
0.1251875044
 40
0.2504770928
 40
0.5000496011
 40
0.7499006709
 40
1.0
 40
1.0
 40
1.0
 40
1.0
 10
35.4366015658
 20
115.3676466326
 30
0.0
 10
35.4355818085
 20
115.3025393392
 30
0.0
 10
35.4225514822
 20
115.172052717
 30
0.0
 10
35.3476410129
 20
114.9214469791
 30
0.0
 10
35.160225132
 20
114.6447487395
 30
0.0
 10
34.8282961165
 20
114.4223945838
 30
0.0
 10
34.5653896391
 20
114.3720448841
 30
0.0
 10
34.4353100673
 20
114.3706393302
 30
0.0
  0
SPLINE
  5
5A7
100
AcDbEntity
  8
0
100
AcDbSpline
 62
7
  6
BYLAYER
 70
0
 71
3
 72
18
 73
14
 74
0
 42
0.0000001
 43
0.0000001
 44
0.0000000001
 40
0.0
 40
0.0
 40
0.0
 40
0.0
 40
0.1605213296
 40
0.3199546433
 40
0.4755162437
 40
0.6237774915
 40
0.7596334452
 40
0.8206315741
 40
0.8753427777
 40
0.922249776
 40
0.9596492862
 40
0.9859273874
 40
1.0
 40
1.0
 40
1.0
 40
1.0
 10
30.2664279472
 20
117.5021335474
 30
0.0
 10
30.2943403317
 20
117.52997035
 30
0.0
 10
30.3497793298
 20
117.585652871
 30
0.0
 10
30.4315614544
 20
117.6690118528
 30
0.0
 10
30.5105777758
 20
117.7508627577
 30
0.0
 10
30.5848249132
 20
117.829260327
 30
0.0
 10
30.6423507147
 20
117.8915117927
 30
0.0
 10
30.6835967909
 20
117.9374973847
 30
0.0
 10
30.70990393
 20
117.9675690342
 30
0.0
 10
30.7318281019
 20
117.9936742498
 30
0.0
 10
30.7489320516
 20
118.01494857
 30
0.0
 10
30.7596289232
 20
118.030448106
 30
0.0
 10
30.7651322467
 20
118.0391613112
 30
0.0
 10
30.7656255651
 20
118.0425818585
 30
0.0
  0
LINE
  5
5A8
100
AcDbEntity
  8
0
100
AcDbLine
 62
7
  6
BYLAYER
 10
30.2695688407
 20
115.367978429
 11
30.2664297724
 21
117.5021335486
  0
SPLINE
  5
5A9
100
AcDbEntity
  8
0
100
AcDbSpline
 62
7
  6
BYLAYER
 70
0
 71
3
 72
18
 73
14
 74
0
 42
0.0000001
 43
0.0000001
 44
0.0000000001
 40
0.0
 40
0.0
 40
0.0
 40
0.0
 40
0.0133656379
 40
0.0342055652
 40
0.0625607051
 40
0.0983595846
 40
0.1413743473
 40
0.1913594179
 40
0.3111194207
 40
0.4551513796
 40
0.620343923
 40
0.8033339675
 40
1.0
 40
1.0
 40
1.0
 40
1.0
 10
29.2651408553
 20
128.9313931263
 30
0.0
 10
29.2712737223
 20
128.8998923393
 30
0.0
 10
29.280933322
 20
128.8182033942
 30
0.0
 10
29.2935228318
 20
128.6685614727
 30
0.0
 10
29.3058738026
 20
128.4648191594
 30
0.0
 10
29.3181852705
 20
128.2077973727
 30
0.0
 10
29.330191139
 20
127.8987649958
 30
0.0
 10
29.3467313557
 20
127.3881743231
 30
0.0
 10
29.3653717024
 20
126.6349843209
 30
0.0
 10
29.3844681414
 20
125.6051233767
 30
0.0
 10
29.4008920113
 20
124.4233771819
 30
0.0
 10
29.4142069943
 20
123.1152065257
 30
0.0
 10
29.4206331324
 20
122.2036353541
 30
0.0
 10
29.423345581
 20
121.7314282856
 30
0.0
  0
SPLINE
  5
5AA
100
AcDbEntity
  8
0
100
AcDbSpline
 62
7
  6
BYLAYER
 70
0
 71
3
 72
11
 73
7
 74
0
 42
0.0000001
 43
0.0000001
 44
0.0000000001
 40
0.0
 40
0.0
 40
0.0
 40
0.0
 40
0.2489668998
 40
0.4983395132
 40
0.7487574138
 40
1.0
 40
1.0
 40
1.0
 40
1.0
 10
30.7694952334
 20
115.408856153
 30
0.0
 10
30.7696609632
 20
115.3441274389
 30
0.0
 10
30.7959137692
 20
115.2132174806
 30
0.0
 10
30.9072676739
 20
115.047637184
 30
0.0
 10
31.0736569106
 20
114.9363927005
 30
0.0
 10
31.2055213193
 20
114.9103213674
 30
0.0
 10
31.2708418982
 20
114.9103420084
 30
0.0
  0
SPLINE
  5
5AB
100
AcDbEntity
  8
0
100
AcDbSpline
 62
7
  6
BYLAYER
 70
0
 71
3
 72
15
 73
11
 74
0
 42
0.0000001
 43
0.0000001
 44
0.0000000001
 40
0.0
 40
0.0
 40
0.0
 40
0.0
 40
0.3611021618
 40
0.5370511909
 40
0.6947853245
 40
0.8240607176
 40
0.9181644427
 40
0.9752467713
 40
0.9909480879
 40
1.0
 40
1.0
 40
1.0
 40
1.0
 10
30.2695697016
 20
115.3679789627
 30
0.0
 10
30.3303352744
 20
115.3680653323
 30
0.0
 10
30.4207141591
 20
115.3694808357
 30
0.0
 10
30.5375451037
 20
115.3744081986
 30
0.0
 10
30.6152681962
 20
115.3794484237
 30
0.0
 10
30.6792042851
 20
115.3855353044
 30
0.0
 10
30.7257646049
 20
115.3922571505
 30
0.0
 10
30.7535064655
 20
115.3985551931
 30
0.0
 10
30.7659274546
 20
115.404144246
 30
0.0
 10
30.7691782744
 20
115.4073642598
 30
0.0
 10
30.7694952382
 20
115.4088541569
 30
0.0
  0
SPLINE
  5
5AC
100
AcDbEntity
  8
0
100
AcDbSpline
 62
7
  6
BYLAYER
 70
0
 71
3
 72
11
 73
7
 74
0
 42
0.0000001
 43
0.0000001
 44
0.0000000001
 40
0.0
 40
0.0
 40
0.0
 40
0.0
 40
0.2503791678
 40
0.5005328604
 40
0.7503653354
 40
1.0
 40
1.0
 40
1.0
 40
1.0
 10
31.2708310519
 20
114.3706333171
 30
0.0
 10
31.1407247587
 20
114.3703013159
 30
0.0
 10
30.8777189941
 20
114.4224190932
 30
0.0
 10
30.5454615863
 20
114.6446217591
 30
0.0
 10
30.3231235411
 20
114.9761758388
 30
0.0
 10
30.2699463838
 20
115.2382591331
 30
0.0
 10
30.2695697025
 20
115.3679784303
 30
0.0
  0
SPLINE
  5
5AD
100
AcDbEntity
  8
0
100
AcDbSpline
 62
7
  6
BYLAYER
 70
0
 71
3
 72
39
 73
35
 74
0
 42
0.0000001
 43
0.0000001
 44
0.0000000001
 40
0.0
 40
0.0
 40
0.0
 40
0.0
 40
0.000781696
 40
0.0026823803
 40
0.0057570344
 40
0.0100113192
 40
0.0154394692
 40
0.0220274044
 40
0.0386207695
 40
0.0596430352
 40
0.0848875627
 40
0.1141194173
 40
0.1470523379
 40
0.1833763228
 40
0.2227374676
 40
0.309044768
 40
0.4026681761
 40
0.5000207733
 40
0.5973725642
 40
0.6909935845
 40
0.7772970072
 40
0.8166556979
 40
0.8529769179
 40
0.8859067856
 40
0.9151353336
 40
0.9403763267
 40
0.9613948721
 40
0.977984359
 40
0.9845703142
 40
0.9899964585
 40
0.9942487177
 40
0.9973213461
 40
0.9992200294
 40
1.0
 40
1.0
 40
1.0
 40
1.0
 10
29.3843375027
 20
121.6925534309
 30
0.0
 10
29.3832769128
 20
121.6924192749
 30
0.0
 10
29.3820098142
 20
121.6878338896
 30
0.0
 10
29.3804460128
 20
121.6810580703
 30
0.0
 10
29.378832016
 20
121.6680193787
 30
0.0
 10
29.377159899
 20
121.6508756089
 30
0.0
 10
29.3754926561
 20
121.6286000155
 30
0.0
 10
29.3730872369
 20
121.5895876274
 30
0.0
 10
29.3702801138
 20
121.5291715519
 30
0.0
 10
29.3671956532
 20
121.4432704771
 30
0.0
 10
29.3642528171
 20
121.3400563122
 30
0.0
 10
29.3614846529
 20
121.2205490722
 30
0.0
 10
29.358923712
 20
121.0858802489
 30
0.0
 10
29.3565992639
 20
120.937353181
 30
0.0
 10
29.3537587221
 20
120.7158315835
 30
0.0
 10
29.3510354487
 20
120.4159411428
 30
0.0
 10
29.3490702758
 20
120.0367350659
 30
0.0
 10
29.348406849
 20
119.6424201139
 30
0.0
 10
29.3490708443
 20
119.2481084283
 30
0.0
 10
29.3510365619
 20
118.8689120257
 30
0.0
 10
29.3537602727
 20
118.5690335143
 30
0.0
 10
29.3566011531
 20
118.3475243623
 30
0.0
 10
29.3589258136
 20
118.1990086125
 30
0.0
 10
29.3614869482
 20
118.0643522709
 30
0.0
 10
29.3642552713
 20
117.9448585769
 30
0.0
 10
29.36719826
 20
117.8416588417
 30
0.0
 10
29.3702827708
 20
117.7557730707
 30
0.0
 10
29.3730900883
 20
117.6953699603
 30
0.0
 10
29.375495421
 20
117.656368581
 30
0.0
 10
29.3771630507
 20
117.6341007558
 30
0.0
 10
29.3788341418
 20
117.6169665088
 30
0.0
 10
29.3804503483
 20
117.603933507
 30
0.0
 10
29.3820096143
 20
117.5971700133
 30
0.0
 10
29.3832816429
 20
117.5925857225
 30
0.0
 10
29.384340517
 20
117.5924569008
 30
0.0
  0
SPLINE
  5
5AE
100
AcDbEntity
  8
0
100
AcDbSpline
 62
7
  6
BYLAYER
 70
0
 71
3
 72
9
 73
5
 74
0
 42
0.0000001
 43
0.0000001
 44
0.0000000001
 40
0.0
 40
0.0
 40
0.0
 40
0.0
 40
0.2497341974
 40
1.0
 40
1.0
 40
1.0
 40
1.0
 10
64.5786987853
 20
115.407310509
 30
0.0
 10
64.5813626579
 20
113.5504104389
 30
0.0
 10
64.5912982506
 20
106.1149036213
 30
0.0
 10
64.5983149114
 20
98.6793929063
 30
0.0
 10
64.601945012
 20
93.1007826308
 30
0.0
  0
SPLINE
  5
5AF
100
AcDbEntity
  8
0
100
AcDbSpline
 62
7
  6
BYLAYER
 70
0
 71
3
 72
9
 73
5
 74
0
 42
0.0000001
 43
0.0000001
 44
0.0000000001
 40
0.0
 40
0.0
 40
0.0
 40
0.0
 40
0.2496995046
 40
1.0
 40
1.0
 40
1.0
 40
1.0
 10
29.4317035472
 20
117.5451380077
 30
0.0
 10
29.4286858515
 20
115.5428053367
 30
0.0
 10
29.4174502098
 20
107.5238347406
 30
0.0
 10
29.4096051872
 20
99.5048593982
 30
0.0
 10
29.4056163185
 20
93.4882172211
 30
0.0
  0
SPLINE
  5
5B0
100
AcDbEntity
  8
0
100
AcDbSpline
 62
7
  6
BYLAYER
 70
0
 71
3
 72
11
 73
7
 74
0
 42
0.0000001
 43
0.0000001
 44
0.0000000001
 40
0.0
 40
0.0
 40
0.0
 40
0.0
 40
0.3060992105
 40
0.5738475703
 40
0.7995615434
 40
1.0
 40
1.0
 40
1.0
 40
1.0
 10
64.5990170618
 20
93.1007718265
 30
0.0
 10
64.6697748977
 20
93.1015037062
 30
0.0
 10
64.803386922
 20
93.124747641
 30
0.0
 10
64.9681330339
 20
93.216335318
 30
0.0
 10
65.0733313962
 20
93.3428893061
 30
0.0
 10
65.0995125206
 20
93.441894493
 30
0.0
 10
65.1005250423
 20
93.4882192233
 30
0.0
  0
SPLINE
  5
5B1
100
AcDbEntity
  8
0
100
AcDbSpline
 62
7
  6
BYLAYER
 70
0
 71
3
 72
15
 73
11
 74
0
 42
0.0000001
 43
0.0000001
 44
0.0000000001
 40
0.0
 40
0.0
 40
0.0
 40
0.0
 40
0.0090937886
 40
0.0248387713
 40
0.081836093
 40
0.1762344828
 40
0.3052185899
 40
0.4630045588
 40
0.6389005291
 40
1.0
 40
1.0
 40
1.0
 40
1.0
 10
65.0775206969
 20
115.4482228767
 30
0.0
 10
65.0772022645
 20
115.4467260986
 30
0.0
 10
65.0739165363
 20
115.4435123863
 30
0.0
 10
65.0615158139
 20
115.43791302
 30
0.0
 10
65.033720205
 20
115.4315894994
 30
0.0
 10
64.9871756689
 20
115.4249161598
 30
0.0
 10
64.9232343722
 20
115.4187659677
 30
0.0
 10
64.8455584446
 20
115.4137719063
 30
0.0
 10
64.7287314632
 20
115.408794019
 30
0.0
 10
64.6383616914
 20
115.4073953148
 30
0.0
 10
64.577597005
 20
115.407308808
 30
0.0
  0
SPLINE
  5
5B2
100
AcDbEntity
  8
0
100
AcDbSpline
 62
7
  6
BYLAYER
 70
0
 71
3
 72
9
 73
5
 74
0
 42
0.0000001
 43
0.0000001
 44
0.0000000001
 40
0.0
 40
0.0
 40
0.0
 40
0.0
 40
0.2502657428
 40
1.0
 40
1.0
 40
1.0
 40
1.0
 10
29.4053078025
 20
55.970780934
 30
0.0
 10
29.4066305947
 20
53.9243650692
 30
0.0
 10
29.4127936294
 20
45.7473940855
 30
0.0
 10
29.4224660225
 20
37.5704257411
 30
0.0
 10
29.4317053144
 20
31.4398757122
 30
0.0
  0
LINE
  5
5B3
100
AcDbEntity
  8
0
100
AcDbLine
 62
7
  6
BYLAYER
 10
34.9398177411
 20
117.5671747037
 11
34.9366454634
 21
115.4088552069
  0
SPLINE
  5
5B4
100
AcDbEntity
  8
0
100
AcDbSpline
 62
7
  6
BYLAYER
 70
0
 71
3
 72
39
 73
35
 74
0
 42
0.0000001
 43
0.0000001
 44
0.0000000001
 40
0.0
 40
0.0
 40
0.0
 40
0.0
 40
0.0007799124
 40
0.0026785654
 40
0.0057512037
 40
0.0100035135
 40
0.0154297491
 40
0.0220158359
 40
0.0386057026
 40
0.0596247755
 40
0.0848664323
 40
0.1140957646
 40
0.1470265206
 40
0.1833487128
 40
0.2227084385
 40
0.3090140248
 40
0.4026371668
 40
0.4999908311
 40
0.5973448512
 40
0.6909690472
 40
0.777276345
 40
0.8166371539
 40
0.8529605665
 40
0.88589267
 40
0.9151234619
 40
0.9403666787
 40
0.9613873937
 40
0.9779789722
 40
0.9845659328
 40
0.9899930538
 40
0.9942462577
 40
0.99731979
 40
0.9992193263
 40
1.0
 40
1.0
 40
1.0
 40
1.0
 10
29.3843406567
 20
31.3925503307
 30
0.0
 10
29.3832818346
 20
31.3924217538
 30
0.0
 10
29.3820095752
 20
31.3878373489
 30
0.0
 10
29.3804504825
 20
31.3810742293
 30
0.0
 10
29.3788341563
 20
31.3680410555
 30
0.0
 10
29.3771630842
 20
31.3509066937
 30
0.0
 10
29.375495413
 20
31.3286384987
 30
0.0
 10
29.3730900491
 20
31.2896363617
 30
0.0
 10
29.3702826856
 20
31.2292319043
 30
0.0
 10
29.3671981353
 20
31.1433441046
 30
0.0
 10
29.3642551105
 20
31.0401418057
 30
0.0
 10
29.3614867596
 20
30.9206450783
 30
0.0
 10
29.358925606
 20
30.7859853012
 30
0.0
 10
29.3566009368
 20
30.6374657918
 30
0.0
 10
29.3537600609
 20
30.4159512347
 30
0.0
 10
29.3510363871
 20
30.1160658517
 30
0.0
 10
29.3490707595
 20
29.7368615381
 30
0.0
 10
29.3484069017
 20
29.3425429752
 30
0.0
 10
29.3490705086
 20
28.9482229704
 30
0.0
 10
29.3510358957
 20
28.5690143867
 30
0.0
 10
29.3537593765
 20
28.2691237383
 30
0.0
 10
29.3566001029
 20
28.0476036878
 30
0.0
 10
29.3589246784
 20
27.8990791828
 30
0.0
 10
29.3614857465
 20
27.7644138963
 30
0.0
 10
29.3642540272
 20
27.6449111899
 30
0.0
 10
29.3671969847
 20
27.541702522
 30
0.0
 10
29.3702815129
 20
27.4558079674
 30
0.0
 10
29.3730887904
 20
27.3953977873
 30
0.0
 10
29.3754941929
 20
27.3563907912
 30
0.0
 10
29.3771616925
 20
27.3341191673
 30
0.0
 10
29.3788332195
 20
27.3169806028
 30
0.0
 10
29.3804485657
 20
27.3039449164
 30
0.0
 10
29.3820096685
 20
27.2971763598
 30
0.0
 10
29.3832797434
 20
27.2925914674
 30
0.0
 10
29.3843393263
 20
27.292460538
 30
0.0
  0
SPLINE
  5
5B5
100
AcDbEntity
  8
0
100
AcDbSpline
 62
7
  6
BYLAYER
 70
0
 71
3
 72
9
 73
5
 74
0
 42
0.0000001
 43
0.0000001
 44
0.0000000001
 40
0.0
 40
0.0
 40
0.0
 40
0.0
 40
0.2333805977
 40
1.0
 40
1.0
 40
1.0
 40
1.0
 10
34.9145813204
 20
123.8541141549
 30
0.0
 10
34.9195786848
 20
123.365051045
 30
0.0
 10
34.9376470502
 20
121.2694567957
 30
0.0
 10
34.942190662
 20
119.1737556426
 30
0.0
 10
34.9398174056
 20
117.5671763616
 30
0.0
  0
SPLINE
  5
5B6
100
AcDbEntity
  8
0
100
AcDbSpline
 62
7
  6
BYLAYER
 70
0
 71
3
 72
12
 73
8
 74
0
 42
0.0000001
 43
0.0000001
 44
0.0000000001
 40
0.0
 40
0.0
 40
0.0
 40
0.0
 40
0.1654591165
 40
0.3141537233
 40
0.565067933
 40
0.7856091339
 40
1.0
 40
1.0
 40
1.0
 40
1.0
 10
34.4029649361
 20
124.3423341703
 30
0.0
 10
34.4459387974
 20
124.3422550336
 30
0.0
 10
34.5279454045
 20
124.3321033991
 30
0.0
 10
34.6661623897
 20
124.2799032074
 30
0.0
 10
34.7967932784
 20
124.1784283858
 30
0.0
 10
34.8908854318
 20
124.0232263431
 30
0.0
 10
34.9133893419
 20
123.9097626096
 30
0.0
 10
34.9145816794
 20
123.8540926248
 30
0.0
  0
SPLINE
  5
5B7
100
AcDbEntity
  8
0
100
AcDbSpline
 62
7
  6
BYLAYER
 70
0
 71
3
 72
11
 73
7
 74
0
 42
0.0000001
 43
0.0000001
 44
0.0000000001
 40
0.0
 40
0.0
 40
0.0
 40
0.0
 40
0.4238543158
 40
0.7297003518
 40
0.9186818021
 40
1.0
 40
1.0
 40
1.0
 40
1.0
 10
64.6343300203
 20
116.048116636
 30
0.0
 10
64.6334340239
 20
116.0400092511
 30
0.0
 10
64.6318125351
 20
116.026262024
 30
0.0
 10
64.6286803758
 20
116.0082126492
 30
0.0
 10
64.6263626385
 20
115.998535594
 30
0.0
 10
64.6234811598
 20
115.9925053192
 30
0.0
 10
64.6219162545
 20
115.9925053528
 30
0.0
  0
SPLINE
  5
5B8
100
AcDbEntity
  8
0
100
AcDbSpline
 62
7
  6
BYLAYER
 70
0
 71
3
 72
17
 73
13
 74
0
 42
0.0000001
 43
0.0000001
 44
0.0000000001
 40
0.0
 40
0.0
 40
0.0
 40
0.0
 40
0.2234997587
 40
0.4226284951
 40
0.5948415357
 40
0.7380931849
 40
0.8511119541
 40
0.9327417693
 40
0.961550564
 40
0.9822982977
 40
0.9949933839
 40
1.0
 40
1.0
 40
1.0
 40
1.0
 10
63.5966791508
 20
118.1853172394
 30
0.0
 10
63.5968720427
 20
118.1970502969
 30
0.0
 10
63.5972721029
 20
118.219236052
 30
0.0
 10
63.5979612983
 20
118.2504617218
 30
0.0
 10
63.5986985615
 20
118.2774654134
 30
0.0
 10
63.5994725998
 20
118.2999626207
 30
0.0
 10
63.6002733773
 20
118.3176518261
 30
0.0
 10
63.60099917
 20
118.3294347999
 30
0.0
 10
63.6016334502
 20
118.3361973445
 30
0.0
 10
63.6020539153
 20
118.3396013446
 30
0.0
 10
63.6024257978
 20
118.3412908593
 30
0.0
 10
63.6027697175
 20
118.3425054609
 30
0.0
 10
63.6030325851
 20
118.3425053528
 30
0.0
  0
SPLINE
  5
5B9
100
AcDbEntity
  8
0
100
AcDbSpline
 62
7
  6
BYLAYER
 70
0
 71
3
 72
9
 73
5
 74
0
 42
0.0000001
 43
0.0000001
 44
0.0000000001
 40
0.0
 40
0.0
 40
0.0
 40
0.0
 40
0.2726311545
 40
1.0
 40
1.0
 40
1.0
 40
1.0
 10
63.5943205046
 20
117.8125907128
 30
0.0
 10
63.5942850627
 20
117.8464638587
 30
0.0
 10
63.5943928464
 20
117.9707087432
 30
0.0
 10
63.5951936286
 20
118.0949572229
 30
0.0
 10
63.5966791508
 20
118.1853172394
 30
0.0
  0
LINE
  5
5BA
100
AcDbEntity
  8
0
100
AcDbLine
 62
7
  6
BYLAYER
 10
63.5946888373
 20
117.5241555397
 11
63.5943205046
 21
117.8125907128
  0
LINE
  5
5BB
100
AcDbEntity
  8
0
100
AcDbLine
 62
7
  6
BYLAYER
 10
63.5977652786
 20
115.4399256636
 11
63.5946888373
 21
117.5241555397
  0
SPLINE
  5
5BC
100
AcDbEntity
  8
0
100
AcDbSpline
 62
7
  6
BYLAYER
 70
0
 71
3
 72
21
 73
17
 74
0
 42
0.0000001
 43
0.0000001
 44
0.0000000001
 40
0.0
 40
0.0
 40
0.0
 40
0.0
 40
0.2196158
 40
0.4172276052
 40
0.5894355761
 40
0.7338451412
 40
0.7949705568
 40
0.8484272911
 40
0.8940322178
 40
0.9316040035
 40
0.9609862019
 40
0.9821160235
 40
0.9895824179
 40
0.9949923733
 40
0.9983867208
 40
1.0
 40
1.0
 40
1.0
 40
1.0
 10
63.7030705191
 20
121.7215734054
 30
0.0
 10
63.7016772163
 20
121.8367531069
 30
0.0
 10
63.6987056226
 20
122.0555685571
 30
0.0
 10
63.6933762284
 20
122.3646816139
 30
0.0
 10
63.6874575357
 20
122.6343299359
 30
0.0
 10
63.681883453
 20
122.8323799083
 30
0.0
 10
63.6770538392
 20
122.9681346413
 30
0.0
 10
63.6735502449
 20
123.0520818926
 30
0.0
 10
63.6699842538
 20
123.1236528506
 30
0.0
 10
63.6663721832
 20
123.1825959403
 30
0.0
 10
63.6627662375
 20
123.2286194827
 30
0.0
 10
63.6594955552
 20
123.258941147
 30
0.0
 10
63.6567909225
 20
123.2764698804
 30
0.0
 10
63.654842932
 20
123.2849750128
 30
0.0
 10
63.6533988217
 20
123.289878956
 30
0.0
 10
63.6515515212
 20
123.2925053608
 30
0.0
 10
63.6507053589
 20
123.2925053549
 30
0.0
  0
SPLINE
  5
5BD
100
AcDbEntity
  8
0
100
AcDbSpline
 62
7
  6
BYLAYER
 70
0
 71
3
 72
11
 73
7
 74
0
 42
0.0000001
 43
0.0000001
 44
0.0000000001
 40
0.0
 40
0.0
 40
0.0
 40
0.0
 40
0.0817512977
 40
0.2707633362
 40
0.5764491306
 40
1.0
 40
1.0
 40
1.0
 40
1.0
 10
64.6219939236
 20
123.2925053528
 30
0.0
 10
64.6235685403
 20
123.2925053623
 30
0.0
 10
64.6265037849
 20
123.2865025014
 30
0.0
 10
64.6288439546
 20
123.2767916243
 30
0.0
 10
64.6320169161
 20
123.2587556385
 30
0.0
 10
64.6336535792
 20
123.2450020689
 30
0.0
 10
64.6345583957
 20
123.2368943622
 30
0.0
  0
SPLINE
  5
5BE
100
AcDbEntity
  8
0
100
AcDbSpline
 62
7
  6
BYLAYER
 70
0
 71
3
 72
34
 73
30
 74
0
 42
0.0000001
 43
0.0000001
 44
0.0000000001
 40
0.0
 40
0.0
 40
0.0
 40
0.0
 40
0.1665692116
 40
0.3281178011
 40
0.4799565756
 40
0.6182028087
 40
0.681444961
 40
0.7404456638
 40
0.7686365018
 40
0.7949449215
 40
0.8226262395
 40
0.8424146435
 40
0.8486896291
 40
0.858758819
 40
0.8793731527
 40
0.8960525147
 40
0.906009727
 40
0.917127484
 40
0.9264598229
 40
0.935754824
 40
0.9410135071
 40
0.9428914748
 40
0.9445227357
 40
0.9478500836
 40
0.9534497484
 40
0.9599905292
 40
0.9714534506
 40
0.9819676691
 40
1.0
 40
1.0
 40
1.0
 40
1.0
 10
64.5993166056
 20
124.0694489458
 30
0.0
 10
64.6332174942
 20
124.0691987526
 30
0.0
 10
64.7000233284
 20
124.0652689107
 30
0.0
 10
64.7965882786
 20
124.0492465298
 30
0.0
 10
64.8851113188
 20
124.0237631253
 30
0.0
 10
64.9512970013
 20
123.9947360915
 30
0.0
 10
64.9965878231
 20
123.9671756318
 30
0.0
 10
65.0214577761
 20
123.9490059484
 30
0.0
 10
65.0382804414
 20
123.9334222254
 30
0.0
 10
65.0509047914
 20
123.9216833031
 30
0.0
 10
65.0595596028
 20
123.9116117494
 30
0.0
 10
65.0666674235
 20
123.898215759
 30
0.0
 10
65.0745988356
 20
123.9032760151
 30
0.0
 10
65.0777900753
 20
123.8934126333
 30
0.0
 10
65.0794603801
 20
123.8854772981
 30
0.0
 10
65.0818828262
 20
123.8756139226
 30
0.0
 10
65.0863600528
 20
123.8693692799
 30
0.0
 10
65.0890584905
 20
123.8637124142
 30
0.0
 10
65.0898864663
 20
123.8576124964
 30
0.0
 10
65.0909310217
 20
123.853081389
 30
0.0
 10
65.0912326653
 20
123.8493374258
 30
0.0
 10
65.0928570406
 20
123.8483937865
 30
0.0
 10
65.0943761792
 20
123.8483505895
 30
0.0
 10
65.0949221371
 20
123.8457811048
 30
0.0
 10
65.0957094376
 20
123.8429712283
 30
0.0
 10
65.0965016395
 20
123.8382030306
 30
0.0
 10
65.0976086159
 20
123.832036465
 30
0.0
 10
65.0986865353
 20
123.8263377102
 30
0.0
 10
65.0993384293
 20
123.8112634157
 30
0.0
 10
65.0992464135
 20
123.8149323802
 30
0.0
  0
SPLINE
  5
5BF
100
AcDbEntity
  8
0
100
AcDbSpline
 62
7
  6
BYLAYER
 70
0
 71
3
 72
12
 73
8
 74
0
 42
0.0000001
 43
0.0000001
 44
0.0000000001
 40
0.0
 40
0.0
 40
0.0
 40
0.0
 40
0.1654925872
 40
0.3137942127
 40
0.5653003121
 40
0.7860292173
 40
1.0
 40
1.0
 40
1.0
 40
1.0
 10
31.3031778169
 20
124.3423341768
 30
0.0
 10
31.2601962744
 20
124.3422832036
 30
0.0
 10
31.1782838421
 20
124.3320932795
 30
0.0
 10
31.0400148418
 20
124.2799467865
 30
0.0
 10
30.9091525511
 20
124.1785152452
 30
0.0
 10
30.8153029896
 20
124.0230511096
 30
0.0
 10
30.7927636769
 20
123.9096931062
 30
0.0
 10
30.7915613584
 20
123.8541338317
 30
0.0
  0
SPLINE
  5
5C0
100
AcDbEntity
  8
0
100
AcDbSpline
 62
7
  6
BYLAYER
 70
0
 71
3
 72
11
 73
7
 74
0
 42
0.0000001
 43
0.0000001
 44
0.0000000001
 40
0.0
 40
0.0
 40
0.0
 40
0.0
 40
0.2503626756
 40
0.5005870884
 40
0.7504670378
 40
1.0
 40
1.0
 40
1.0
 40
1.0
 10
64.7411055161
 20
129.428993381
 30
0.0
 10
64.8060294786
 20
129.4288949875
 30
0.0
 10
64.9372059265
 20
129.4028766506
 30
0.0
 10
65.1031549642
 20
129.2922070822
 30
0.0
 10
65.214544604
 20
129.1269705324
 30
0.0
 10
65.2408629053
 20
128.9961156902
 30
0.0
 10
65.2410283205
 20
128.9314070258
 30
0.0
  0
SPLINE
  5
5C1
100
AcDbEntity
  8
0
100
AcDbSpline
 62
7
  6
BYLAYER
 70
0
 71
3
 72
13
 73
9
 74
0
 42
0.0000001
 43
0.0000001
 44
0.0000000001
 40
0.0
 40
0.0
 40
0.0
 40
0.0
 40
0.3799587733
 40
0.6757503517
 40
0.7907256815
 40
0.8832577366
 40
0.9530739693
 40
1.0
 40
1.0
 40
1.0
 40
1.0
 10
29.8453288327
 20
127.831262588
 30
0.0
 10
29.8398131743
 20
128.0338742832
 30
0.0
 10
29.8289976237
 20
128.3941868215
 30
0.0
 10
29.812249448
 20
128.8156846285
 30
0.0
 10
29.7976132235
 20
129.0837653395
 30
0.0
 10
29.7876027936
 20
129.2313836513
 30
0.0
 10
29.7775397074
 20
129.3425458861
 30
0.0
 10
29.7697518444
 20
129.404409719
 30
0.0
 10
29.7650332123
 20
129.4289933766
 30
0.0
  0
SPLINE
  5
5C2
100
AcDbEntity
  8
0
100
AcDbSpline
 62
7
  6
BYLAYER
 70
0
 71
3
 72
8
 73
4
 74
0
 42
0.0000001
 43
0.0000001
 44
0.0000000001
 40
0.0
 40
0.0
 40
0.0
 40
0.0
 40
1.0
 40
1.0
 40
1.0
 40
1.0
 10
29.8469370548
 20
127.7501081662
 30
0.0
 10
29.8468135079
 20
127.7771646692
 30
0.0
 10
29.8471528198
 20
127.8042673534
 30
0.0
 10
29.8453288327
 20
127.831262588
 30
0.0
  0
SPLINE
  5
5C3
100
AcDbEntity
  8
0
100
AcDbSpline
 62
7
  6
BYLAYER
 70
0
 71
3
 72
18
 73
14
 74
0
 42
0.0000001
 43
0.0000001
 44
0.0000000001
 40
0.0
 40
0.0
 40
0.0
 40
0.0
 40
0.1965467525
 40
0.3794410468
 40
0.544568667
 40
0.6885720359
 40
0.8083444678
 40
0.8583519856
 40
0.9014003878
 40
0.9372444184
 40
0.9656563124
 40
0.9865624288
 40
1.0
 40
1.0
 40
1.0
 40
1.0
 10
29.4233515301
 20
27.2546039432
 30
0.0
 10
29.420641561
 20
26.7826722131
 30
0.0
 10
29.4142214616
 20
25.8715959814
 30
0.0
 10
29.400920093
 20
24.5640667882
 30
0.0
 10
29.384512965
 20
23.3827471835
 30
0.0
 10
29.3654354094
 20
22.3530564766
 30
0.0
 10
29.3468134038
 20
21.5998333456
 30
0.0
 10
29.3302905843
 20
21.0890654878
 30
0.0
 10
29.3182947523
 20
20.7797823465
 30
0.0
 10
29.3059936146
 20
20.5224278738
 30
0.0
 10
29.2936486387
 20
20.3182769918
 30
0.0
 10
29.2810696198
 20
20.1681594804
 30
0.0
 10
29.2714119041
 20
20.0861373034
 30
0.0
 10
29.2652967379
 20
20.0544563806
 30
0.0
  0
SPLINE
  5
5C4
100
AcDbEntity
  8
0
100
AcDbSpline
 62
7
  6
BYLAYER
 70
0
 71
3
 72
13
 73
9
 74
0
 42
0.0000001
 43
0.0000001
 44
0.0000000001
 40
0.0
 40
0.0
 40
0.0
 40
0.0
 40
0.0836329089
 40
0.1761880085
 40
0.2821644911
 40
0.4030866683
 40
0.684950628
 40
1.0
 40
1.0
 40
1.0
 40
1.0
 10
30.7911848087
 20
123.8542045698
 30
0.0
 10
30.7906901568
 20
123.8710628426
 30
0.0
 10
30.7823707784
 20
123.9065762134
 30
0.0
 10
30.7512811684
 20
123.9551845704
 30
0.0
 10
30.7032797013
 20
123.9989811025
 30
0.0
 10
30.6151540225
 20
124.0524267022
 30
0.0
 10
30.4756885813
 20
124.0973871569
 30
0.0
 10
30.3551700152
 20
124.1098572332
 30
0.0
 10
30.2916386388
 20
124.1103506777
 30
0.0
  0
SPLINE
  5
5C5
100
AcDbEntity
  8
0
100
AcDbSpline
 62
7
  6
BYLAYER
 70
0
 71
3
 72
15
 73
11
 74
0
 42
0.0000001
 43
0.0000001
 44
0.0000000001
 40
0.0
 40
0.0
 40
0.0
 40
0.0
 40
0.3607904439
 40
0.5365503214
 40
0.6942319491
 40
0.8231625259
 40
0.9175799988
 40
0.9747158533
 40
0.9906212479
 40
1.0
 40
1.0
 40
1.0
 40
1.0
 10
35.4397587082
 20
117.5241561469
 30
0.0
 10
35.3789866661
 20
117.5242469299
 30
0.0
 10
35.2886021272
 20
117.5257182726
 30
0.0
 10
35.1717647822
 20
117.5309541707
 30
0.0
 10
35.0940765005
 20
117.5362085086
 30
0.0
 10
35.0301308123
 20
117.5426771094
 30
0.0
 10
34.9835588902
 20
117.5497047563
 30
0.0
 10
34.955772217
 20
117.5563562636
 30
0.0
 10
34.9433520315
 20
117.5622715191
 30
0.0
 10
34.9401284221
 20
117.5656431884
 30
0.0
 10
34.9398173328
 20
117.5671920274
 30
0.0
  0
SPLINE
  5
5C6
100
AcDbEntity
  8
0
100
AcDbSpline
 62
7
  6
BYLAYER
 70
0
 71
3
 72
9
 73
5
 74
0
 42
0.0000001
 43
0.0000001
 44
0.0000000001
 40
0.0
 40
0.0
 40
0.0
 40
0.0
 40
0.2524736605
 40
1.0
 40
1.0
 40
1.0
 40
1.0
 10
29.8516242046
 20
127.5869593443
 30
0.0
 10
29.8511126536
 20
127.595353682
 30
0.0
 10
29.8494210542
 20
127.6286284483
 30
0.0
 10
29.8498684362
 20
127.6619568503
 30
0.0
 10
29.8497414999
 20
127.6868566661
 30
0.0
  0
SPLINE
  5
5C7
100
AcDbEntity
  8
0
100
AcDbSpline
 62
7
  6
BYLAYER
 70
0
 71
3
 72
9
 73
5
 74
0
 42
0.0000001
 43
0.0000001
 44
0.0000000001
 40
0.0
 40
0.0
 40
0.0
 40
0.0
 40
0.278367949
 40
1.0
 40
1.0
 40
1.0
 40
1.0
 10
29.8894288289
 20
125.5461345275
 30
0.0
 10
29.8867642586
 20
125.7355154514
 30
0.0
 10
29.8765548279
 20
126.4158311615
 30
0.0
 10
29.8637556745
 20
127.0961156769
 30
0.0
 10
29.8516242046
 20
127.5869593443
 30
0.0
  0
SPLINE
  5
5C8
100
AcDbEntity
  8
0
100
AcDbSpline
 62
7
  6
BYLAYER
 70
0
 71
3
 72
9
 73
5
 74
0
 42
0.0000001
 43
0.0000001
 44
0.0000000001
 40
0.0
 40
0.0
 40
0.0
 40
0.0
 40
0.2688237574
 40
1.0
 40
1.0
 40
1.0
 40
1.0
 10
29.9232774819
 20
121.8867647851
 30
0.0
 10
29.9214765456
 20
122.214682882
 30
0.0
 10
29.9137572484
 20
123.4345017592
 30
0.0
 10
29.9019389529
 20
124.6543013276
 30
0.0
 10
29.8894288289
 20
125.5461345275
 30
0.0
  0
SPLINE
  5
5C9
100
AcDbEntity
  8
0
100
AcDbSpline
 62
7
  6
BYLAYER
 70
0
 71
3
 72
12
 73
8
 74
0
 42
0.0000001
 43
0.0000001
 44
0.0000000001
 40
0.0
 40
0.0
 40
0.0
 40
0.0
 40
0.1342826621
 40
0.2665634677
 40
0.5185612847
 40
0.7604093212
 40
1.0
 40
1.0
 40
1.0
 40
1.0
 10
31.3031642119
 20
125.1456603233
 30
0.0
 10
31.2316804392
 20
125.1456605892
 30
0.0
 10
31.0892485812
 20
125.1297369462
 30
0.0
 10
30.8263203812
 20
125.0401570387
 30
0.0
 10
30.5505886034
 20
124.8358990205
 30
0.0
 10
30.342094911
 20
124.4960229111
 30
0.0
 10
30.2928922625
 20
124.2378587269
 30
0.0
 10
30.2916367527
 20
124.1103216677
 30
0.0
  0
SPLINE
  5
5CA
100
AcDbEntity
  8
0
100
AcDbSpline
 62
7
  6
BYLAYER
 70
0
 71
3
 72
12
 73
8
 74
0
 42
0.0000001
 43
0.0000001
 44
0.0000000001
 40
0.0
 40
0.0
 40
0.0
 40
0.0
 40
0.2390834524
 40
0.4804067779
 40
0.7327832093
 40
0.8647303147
 40
1.0
 40
1.0
 40
1.0
 40
1.0
 10
35.4145249024
 20
124.1104262166
 30
0.0
 10
35.4132603015
 20
124.2376886605
 30
0.0
 10
35.3642440936
 20
124.4952777098
 30
0.0
 10
35.1563509481
 20
124.8350327137
 30
0.0
 10
34.8810758655
 20
125.0395057653
 30
0.0
 10
34.6177681462
 20
125.1296012828
 30
0.0
 10
34.4749822038
 20
125.1456816453
 30
0.0
 10
34.4029755449
 20
125.145681655
 30
0.0
  0
SPLINE
  5
5CB
100
AcDbEntity
  8
0
100
AcDbSpline
 62
7
  6
BYLAYER
 70
0
 71
3
 72
9
 73
5
 74
0
 42
0.0000001
 43
0.0000001
 44
0.0000000001
 40
0.0
 40
0.0
 40
0.0
 40
0.0
 40
0.5186584846
 40
1.0
 40
1.0
 40
1.0
 40
1.0
 10
35.4404131955
 20
118.3730262034
 30
0.0
 10
35.4405368559
 20
119.3649563545
 30
0.0
 10
35.4365617823
 20
121.2774505215
 30
0.0
 10
35.4237359343
 20
123.1899106066
 30
0.0
 10
35.4145016205
 20
124.1104260469
 30
0.0
  0
SPLINE
  5
5CC
100
AcDbEntity
  8
0
100
AcDbSpline
 62
7
  6
BYLAYER
 70
0
 71
3
 72
13
 73
9
 74
0
 42
0.0000001
 43
0.0000001
 44
0.0000000001
 40
0.0
 40
0.0
 40
0.0
 40
0.0
 40
0.0836608883
 40
0.176241268
 40
0.2822360204
 40
0.4031653821
 40
0.6850076116
 40
1.0
 40
1.0
 40
1.0
 40
1.0
 10
34.9150818067
 20
123.8541166557
 30
0.0
 10
34.9155799686
 20
123.8709793724
 30
0.0
 10
34.9239019453
 20
123.9064995046
 30
0.0
 10
34.954986347
 20
123.9551228708
 30
0.0
 10
35.0029756228
 20
123.998940993
 30
0.0
 10
35.0910726816
 20
124.0524220299
 30
0.0
 10
35.2304956718
 20
124.0974368234
 30
0.0
 10
35.3509860188
 20
124.1099508962
 30
0.0
 10
35.4145015771
 20
124.1104688756
 30
0.0
  0
SPLINE
  5
5CD
100
AcDbEntity
  8
0
100
AcDbSpline
 62
7
  6
BYLAYER
 70
0
 71
3
 72
9
 73
5
 74
0
 42
0.0000001
 43
0.0000001
 44
0.0000000001
 40
0.0
 40
0.0
 40
0.0
 40
0.0
 40
0.2151664788
 40
1.0
 40
1.0
 40
1.0
 40
1.0
 10
64.6601578927
 20
127.8069714606
 30
0.0
 10
64.6558094266
 20
127.6449215052
 30
0.0
 10
64.6375680622
 20
126.891731298
 30
0.0
 10
64.6250713274
 20
126.1384129232
 30
0.0
 10
64.6167626688
 20
125.5471709285
 30
0.0
  0
SPLINE
  5
5CE
100
AcDbEntity
  8
0
100
AcDbSpline
 62
7
  6
BYLAYER
 70
0
 71
3
 72
13
 73
9
 74
0
 42
0.0000001
 43
0.0000001
 44
0.0000000001
 40
0.0
 40
0.0
 40
0.0
 40
0.0
 40
0.0467423482
 40
0.1164391521
 40
0.2089119491
 40
0.3238828546
 40
0.6198015047
 40
1.0
 40
1.0
 40
1.0
 40
1.0
 10
64.7411074206
 20
129.4289933766
 30
0.0
 10
64.7363351975
 20
129.4041342613
 30
0.0
 10
64.7284808759
 20
129.3414892365
 30
0.0
 10
64.7183303311
 20
129.2288309041
 30
0.0
 10
64.7082366457
 20
129.0790656409
 30
0.0
 10
64.6934748683
 20
128.8068749292
 30
0.0
 10
64.6765981758
 20
128.3787757144
 30
0.0
 10
64.665709562
 20
128.0127907861
 30
0.0
 10
64.6601578927
 20
127.8069714606
 30
0.0
  0
SPLINE
  5
5CF
100
AcDbEntity
  8
0
100
AcDbSpline
 62
7
  6
BYLAYER
 70
0
 71
3
 72
15
 73
11
 74
0
 42
0.0000001
 43
0.0000001
 44
0.0000000001
 40
0.0
 40
0.0
 40
0.0
 40
0.0
 40
0.0270603732
 40
0.0636875707
 40
0.1615320778
 40
0.2832580323
 40
0.4187147367
 40
0.5616378563
 40
0.7080181175
 40
1.0
 40
1.0
 40
1.0
 40
1.0
 10
30.7723911751
 20
121.2551498521
 30
0.0
 10
30.7719918986
 20
121.2624458551
 30
0.0
 10
30.7676547726
 20
121.2793245949
 30
0.0
 10
30.7506624819
 20
121.3194960586
 30
0.0
 10
30.7146825162
 20
121.3789388094
 30
0.0
 10
30.6591661777
 20
121.4570528359
 30
0.0
 10
30.5923446713
 20
121.5420192529
 30
0.0
 10
30.5182821683
 20
121.6296123619
 30
0.0
 10
30.4134774615
 20
121.7464748781
 30
0.0
 10
30.3311728249
 20
121.8316437693
 30
0.0
 10
30.2748017152
 20
121.8867647813
 30
0.0
  0
SPLINE
  5
5D0
100
AcDbEntity
  8
0
100
AcDbSpline
 62
7
  6
BYLAYER
 70
0
 71
3
 72
23
 73
19
 74
0
 42
0.0000001
 43
0.0000001
 44
0.0000000001
 40
0.0
 40
0.0
 40
0.0
 40
0.0
 40
0.1948121588
 40
0.3825040255
 40
0.5552570843
 40
0.6340021268
 40
0.7066615127
 40
0.7725512537
 40
0.8309915962
 40
0.8814094492
 40
0.9233702343
 40
0.9564506042
 40
0.9695447019
 40
0.9803108194
 40
0.9887337449
 40
0.9948023195
 40
0.9985198734
 40
1.0
 40
1.0
 40
1.0
 40
1.0
 10
30.8408521742
 20
119.6425235472
 30
0.0
 10
30.8408522023
 20
119.5418014427
 30
0.0
 10
30.8405161714
 20
119.3440383979
 30
0.0
 10
30.8390301579
 20
119.0569617405
 30
0.0
 10
30.8369640825
 20
118.8298996031
 30
0.0
 10
30.8348103868
 20
118.6623167762
 30
0.0
 10
30.8330466502
 20
118.5499847739
 30
0.0
 10
30.8311072887
 20
118.4481547979
 30
0.0
 10
30.8290106679
 20
118.357831549
 30
0.0
 10
30.8267806952
 20
118.2798826285
 30
0.0
 10
30.8244451508
 20
118.2150691355
 30
0.0
 10
30.8223176102
 20
118.1695257908
 30
0.0
 10
30.8204947947
 20
118.1401778012
 30
0.0
 10
30.8192212709
 20
118.1234589977
 30
0.0
 10
30.8179758544
 20
118.1106555646
 30
0.0
 10
30.8167055699
 20
118.1008707237
 30
0.0
 10
30.8156205477
 20
118.0959712152
 30
0.0
 10
30.8145609646
 20
118.0925035121
 30
0.0
 10
30.8137957079
 20
118.092504628
 30
0.0
  0
SPLINE
  5
5D1
100
AcDbEntity
  8
0
100
AcDbSpline
 62
7
  6
BYLAYER
 70
0
 71
3
 72
23
 73
19
 74
0
 42
0.0000001
 43
0.0000001
 44
0.0000000001
 40
0.0
 40
0.0
 40
0.0
 40
0.0
 40
0.0014809258
 40
0.0051989739
 40
0.0112676932
 40
0.0196905106
 40
0.0304563723
 40
0.0435501727
 40
0.0766301979
 40
0.118590984
 40
0.1690089121
 40
0.2274491655
 40
0.2933386803
 40
0.365997774
 40
0.4447425245
 40
0.6174952174
 40
0.8051870911
 40
1.0
 40
1.0
 40
1.0
 40
1.0
 10
30.8137958112
 20
121.1925062053
 30
0.0
 10
30.8145614638
 20
121.1925062053
 30
0.0
 10
30.8156197822
 20
121.1890390298
 30
0.0
 10
30.8167060096
 20
121.1841376944
 30
0.0
 10
30.8179756691
 20
121.1743535388
 30
0.0
 10
30.8192213565
 20
121.1615501958
 30
0.0
 10
30.82049476
 20
121.1448322577
 30
0.0
 10
30.8223176112
 20
121.1154853667
 30
0.0
 10
30.824445083
 20
121.0699434665
 30
0.0
 10
30.8267805956
 20
121.0051316243
 30
0.0
 10
30.8290105266
 20
120.9271845543
 30
0.0
 10
30.8311071245
 20
120.8368635576
 30
0.0
 10
30.833046466
 20
120.7350362973
 30
0.0
 10
30.8348101919
 20
120.6227073624
 30
0.0
 10
30.8369638893
 20
120.4551289781
 30
0.0
 10
30.8390299913
 20
120.2280725307
 30
0.0
 10
30.8405160522
 20
119.941002439
 30
0.0
 10
30.8408521461
 20
119.7432436651
 30
0.0
 10
30.8408521742
 20
119.6425235472
 30
0.0
  0
SPLINE
  5
5D2
100
AcDbEntity
  8
0
100
AcDbSpline
 62
7
  6
BYLAYER
 70
0
 71
3
 72
37
 73
33
 74
0
 42
0.0000001
 43
0.0000001
 44
0.0000000001
 40
0.0
 40
0.0
 40
0.0
 40
0.0
 40
0.0008263946
 40
0.0027156407
 40
0.0057665931
 40
0.0099933368
 40
0.0219532862
 40
0.0384963521
 40
0.0594771868
 40
0.0846903145
 40
0.1139013888
 40
0.1468240247
 40
0.1831478856
 40
0.2225183523
 40
0.3088688393
 40
0.4025601494
 40
0.4999940339
 40
0.5974281517
 40
0.691120153
 40
0.7774717624
 40
0.8168429392
 40
0.8531676002
 40
0.8860911194
 40
0.9153031502
 40
0.9405173002
 40
0.9614992106
 40
0.9780433972
 40
0.9900044973
 40
0.9942318245
 40
0.9972833581
 40
0.9991731708
 40
1.0
 40
1.0
 40
1.0
 40
1.0
 10
29.8843235309
 20
118.0925060898
 30
0.0
 10
29.8834686068
 20
118.0925068553
 30
0.0
 10
29.8818329253
 20
118.0956857933
 30
0.0
 10
29.8805296189
 20
118.1009234643
 30
0.0
 10
29.8787622613
 20
118.1105565702
 30
0.0
 10
29.8763183693
 20
118.1301310081
 30
0.0
 10
29.8734011259
 20
118.1640054083
 30
0.0
 10
29.8702394418
 20
118.2150383443
 30
0.0
 10
29.8671507497
 20
118.2798936434
 30
0.0
 10
29.8642011056
 20
118.3578383412
 30
0.0
 10
29.8614269562
 20
118.4481615445
 30
0.0
 10
29.8588599131
 20
118.5499853168
 30
0.0
 10
29.8565297922
 20
118.6623285278
 30
0.0
 10
29.8536817714
 20
118.8299436634
 30
0.0
 10
29.8509513021
 20
119.0569158343
 30
0.0
 10
29.8489807407
 20
119.3439651251
 30
0.0
 10
29.8483152249
 20
119.6424867349
 30
0.0
 10
29.8489805763
 20
119.94100906
 30
0.0
 10
29.8509509802
 20
120.2280604695
 30
0.0
 10
29.8536813228
 20
120.4550352528
 30
0.0
 10
29.856529246
 20
120.6226531141
 30
0.0
 10
29.8588593048
 20
120.7349988029
 30
0.0
 10
29.8614262941
 20
120.8368253091
 30
0.0
 10
29.8642003909
 20
120.9271514743
 30
0.0
 10
29.8671500113
 20
121.0050993407
 30
0.0
 10
29.8702386316
 20
121.0699579607
 30
0.0
 10
29.8734004183
 20
121.1209944008
 30
0.0
 10
29.8763174097
 20
121.1548716974
 30
0.0
 10
29.8787616162
 20
121.1744486321
 30
0.0
 10
29.880528434
 20
121.1840834421
 30
0.0
 10
29.8818328244
 20
121.189322915
 30
0.0
 10
29.8834672878
 20
121.1925029457
 30
0.0
 10
29.8843226602
 20
121.1925046147
 30
0.0
  0
LINE
  5
5D3
100
AcDbEntity
  8
0
100
AcDbLine
 62
7
  6
BYLAYER
 10
30.7695068933
 20
115.408911482
 11
30.7656139358
 21
118.0425456022
  0
SPLINE
  5
5D4
100
AcDbEntity
  8
0
100
AcDbSpline
 62
7
  6
BYLAYER
 70
0
 71
3
 72
11
 73
7
 74
0
 42
0.0000001
 43
0.0000001
 44
0.0000000001
 40
0.0
 40
0.0
 40
0.0
 40
0.0
 40
0.4123302208
 40
0.7169762863
 40
0.913130446
 40
1.0
 40
1.0
 40
1.0
 40
1.0
 10
30.7722051766
 20
121.2550940936
 30
0.0
 10
30.7723831278
 20
121.2518435536
 30
0.0
 10
30.7727599959
 20
121.246227848
 30
0.0
 10
30.773242007
 20
121.2389319395
 30
0.0
 10
30.7739978936
 20
121.2345320563
 30
0.0
 10
30.7742191673
 20
121.2320828493
 30
0.0
 10
30.7747041349
 20
121.2315978817
 30
0.0
  0
SPLINE
  5
5D5
100
AcDbEntity
  8
0
100
AcDbSpline
 62
7
  6
BYLAYER
 70
0
 71
3
 72
9
 73
5
 74
0
 42
0.0000001
 43
0.0000001
 44
0.0000000001
 40
0.0
 40
0.0
 40
0.0
 40
0.0
 40
0.1334459115
 40
1.0
 40
1.0
 40
1.0
 40
1.0
 10
30.7663561765
 20
118.0450648561
 30
0.0
 10
30.766275058
 20
118.0449837399
 30
0.0
 10
30.7658760724
 20
118.0441999288
 30
0.0
 10
30.7657527328
 20
118.0433405214
 30
0.0
 10
30.7656265589
 20
118.0426063478
 30
0.0
  0
SPLINE
  5
5D6
100
AcDbEntity
  8
0
100
AcDbSpline
 62
7
  6
BYLAYER
 70
0
 71
3
 72
15
 73
11
 74
0
 42
0.0000001
 43
0.0000001
 44
0.0000000001
 40
0.0
 40
0.0
 40
0.0
 40
0.0
 40
0.0093783346
 40
0.025284347
 40
0.0824448204
 40
0.176840894
 40
0.3057874816
 40
0.4634951253
 40
0.6392098878
 40
1.0
 40
1.0
 40
1.0
 40
1.0
 10
29.4317029381
 20
117.5451410159
 30
0.0
 10
29.4320158002
 20
117.5435926854
 30
0.0
 10
29.4352406752
 20
117.5402236144
 30
0.0
 10
29.4476660627
 20
117.5343103263
 30
0.0
 10
29.475453809
 20
117.5276685618
 30
0.0
 10
29.5220258547
 20
117.520636049
 30
0.0
 10
29.5859732303
 20
117.5141792245
 30
0.0
 10
29.6636568517
 20
117.5089234393
 30
0.0
 10
29.7804854578
 20
117.5036935062
 30
0.0
 10
29.8708577944
 20
117.5022183649
 30
0.0
 10
29.931626781
 20
117.5021317008
 30
0.0
  0
SPLINE
  5
5D7
100
AcDbEntity
  8
0
100
AcDbSpline
 62
7
  6
BYLAYER
 70
0
 71
3
 72
11
 73
7
 74
0
 42
0.0000001
 43
0.0000001
 44
0.0000000001
 40
0.0
 40
0.0
 40
0.0
 40
0.0
 40
0.306111614
 40
0.5739334193
 40
0.7996374764
 40
1.0
 40
1.0
 40
1.0
 40
1.0
 10
29.9086573096
 20
93.1007081885
 30
0.0
 10
29.837745053
 20
93.1017054139
 30
0.0
 10
29.7037718021
 20
93.1242029996
 30
0.0
 10
29.5384905446
 20
93.2159217102
 30
0.0
 10
29.4329112263
 20
93.3425993497
 30
0.0
 10
29.4066316
 20
93.4418094922
 30
0.0
 10
29.4056161691
 20
93.4882179351
 30
0.0
  0
SPLINE
  5
5D8
100
AcDbEntity
  8
0
100
AcDbSpline
 62
7
  6
BYLAYER
 70
0
 71
3
 72
11
 73
7
 74
0
 42
0.0000001
 43
0.0000001
 44
0.0000000001
 40
0.0
 40
0.0
 40
0.0
 40
0.0
 40
0.3094662013
 40
0.5779842954
 40
0.8019415343
 40
1.0
 40
1.0
 40
1.0
 40
1.0
 10
29.8560089306
 20
92.2925135073
 30
0.0
 10
29.784583361
 20
92.2931092748
 30
0.0
 10
29.6501273127
 20
92.3160007027
 30
0.0
 10
29.4849394109
 20
92.4073201977
 30
0.0
 10
29.3798904409
 20
92.532598164
 30
0.0
 10
29.3537561127
 20
92.6304671993
 30
0.0
 10
29.3527167351
 20
92.6761693589
 30
0.0
  0
SPLINE
  5
5D9
100
AcDbEntity
  8
0
100
AcDbSpline
 62
7
  6
BYLAYER
 70
0
 71
3
 72
11
 73
7
 74
0
 42
0.0000001
 43
0.0000001
 44
0.0000000001
 40
0.0
 40
0.0
 40
0.0
 40
0.0
 40
0.298916479
 40
0.5607666972
 40
0.7889227694
 40
1.0
 40
1.0
 40
1.0
 40
1.0
 10
29.8562280096
 20
56.692454846
 30
0.0
 10
29.7817455748
 20
56.6917739468
 30
0.0
 10
29.6405027846
 20
56.6611511845
 30
0.0
 10
29.4754473149
 20
56.5459602225
 30
0.0
 10
29.3769333674
 20
56.3969275613
 30
0.0
 10
29.3537190573
 20
56.2869273927
 30
0.0
 10
29.3527167431
 20
56.2343396329
 30
0.0
  0
SPLINE
  5
5DA
100
AcDbEntity
  8
0
100
AcDbSpline
 62
7
  6
BYLAYER
 70
0
 71
3
 72
11
 73
7
 74
0
 42
0.0000001
 43
0.0000001
 44
0.0000000001
 40
0.0
 40
0.0
 40
0.0
 40
0.0
 40
0.2957377284
 40
0.5574534133
 40
0.7872037467
 40
1.0
 40
1.0
 40
1.0
 40
1.0
 10
29.9105961101
 20
56.4303532107
 30
0.0
 10
29.8366077605
 20
56.4299351851
 30
0.0
 10
29.6955250708
 20
56.4000958323
 30
0.0
 10
29.5296556291
 20
56.2853527317
 30
0.0
 10
29.429821232
 20
56.1353000806
 30
0.0
 10
29.4062898121
 20
56.0239938822
 30
0.0
 10
29.4053059331
 20
55.9707642653
 30
0.0
  0
SPLINE
  5
5DB
100
AcDbEntity
  8
0
100
AcDbSpline
 62
7
  6
BYLAYER
 70
0
 71
3
 72
15
 73
11
 74
0
 42
0.0000001
 43
0.0000001
 44
0.0000000001
 40
0.0
 40
0.0
 40
0.0
 40
0.0
 40
0.3616468655
 40
0.53753356
 40
0.6951273843
 40
0.8238031525
 40
0.9179148893
 40
0.9748159775
 40
0.9906537109
 40
1.0
 40
1.0
 40
1.0
 40
1.0
 10
29.9316267894
 20
31.4828799808
 30
0.0
 10
29.8707137748
 20
31.4827888606
 30
0.0
 10
29.7801684122
 20
31.4813127179
 30
0.0
 10
29.6631871237
 20
31.4760600939
 30
0.0
 10
29.5855398776
 20
31.4707986183
 30
0.0
 10
29.5217076574
 20
31.4643308064
 30
0.0
 10
29.4752716577
 20
31.4573094855
 30
0.0
 10
29.4475907049
 20
31.4506739394
 30
0.0
 10
29.4352238854
 20
31.4447732425
 30
0.0
 10
29.4320162651
 20
31.4414157652
 30
0.0
 10
29.4317034651
 20
31.4398729363
 30
0.0
  0
SPLINE
  5
5DC
100
AcDbEntity
  8
0
100
AcDbSpline
 62
7
  6
BYLAYER
 70
0
 71
3
 72
11
 73
7
 74
0
 42
0.0000001
 43
0.0000001
 44
0.0000000001
 40
0.0
 40
0.0
 40
0.0
 40
0.0
 40
0.2503618765
 40
0.5005857892
 40
0.7504661907
 40
1.0
 40
1.0
 40
1.0
 40
1.0
 10
29.7650320252
 20
19.5560173301
 30
0.0
 10
29.7001150223
 20
19.5561161761
 30
0.0
 10
29.5689530311
 20
19.5821297252
 30
0.0
 10
29.403016076
 20
19.6927777257
 30
0.0
 10
29.2916224095
 20
19.8579855538
 30
0.0
 10
29.2652886927
 20
19.9888226479
 30
0.0
 10
29.2651130071
 20
20.0535247756
 30
0.0
  0
SPLINE
  5
5DD
100
AcDbEntity
  8
0
100
AcDbSpline
 62
7
  6
BYLAYER
 70
0
 71
3
 72
11
 73
7
 74
0
 42
0.0000001
 43
0.0000001
 44
0.0000000001
 40
0.0
 40
0.0
 40
0.0
 40
0.0
 40
0.249534991
 40
0.4994177432
 40
0.7496387596
 40
1.0
 40
1.0
 40
1.0
 40
1.0
 10
65.2410283199
 20
20.0536034308
 30
0.0
 10
65.2408628717
 20
19.9888945647
 30
0.0
 10
65.2145441707
 20
19.858039152
 30
0.0
 10
65.1031544493
 20
19.6928033372
 30
0.0
 10
64.9372068182
 20
19.5821347597
 30
0.0
 10
64.8060324917
 20
19.556116203
 30
0.0
 10
64.7411092274
 20
19.5560173303
 30
0.0
  0
SPLINE
  5
5DE
100
AcDbEntity
  8
0
100
AcDbSpline
 62
7
  6
BYLAYER
 70
0
 71
3
 72
9
 73
5
 74
0
 42
0.0000001
 43
0.0000001
 44
0.0000000001
 40
0.0
 40
0.0
 40
0.0
 40
0.0
 40
0.2832658279
 40
1.0
 40
1.0
 40
1.0
 40
1.0
 10
64.6167486954
 20
23.4388484047
 30
0.0
 10
64.6197476209
 20
23.2253797631
 30
0.0
 10
64.6311501639
 20
22.4717953777
 30
0.0
 10
64.645648628
 20
21.718242169
 30
0.0
 10
64.6602224746
 20
21.1782558626
 30
0.0
  0
SPLINE
  5
5DF
100
AcDbEntity
  8
0
100
AcDbSpline
 62
7
  6
BYLAYER
 70
0
 71
3
 72
13
 73
9
 74
0
 42
0.0000001
 43
0.0000001
 44
0.0000000001
 40
0.0
 40
0.0
 40
0.0
 40
0.0
 40
0.3799617477
 40
0.675754895
 40
0.7907301671
 40
0.8832614859
 40
0.9530762391
 40
1.0
 40
1.0
 40
1.0
 40
1.0
 10
64.6608038325
 20
21.1540474398
 30
0.0
 10
64.666320067
 20
20.9513962205
 30
0.0
 10
64.6771367755
 20
20.5910137898
 30
0.0
 10
64.6938869682
 20
20.169434648
 30
0.0
 10
64.7085251159
 20
19.9013033024
 30
0.0
 10
64.7185368155
 20
19.753658531
 30
0.0
 10
64.7286012075
 20
19.6424778488
 30
0.0
 10
64.7363900602
 20
19.5806043814
 30
0.0
 10
64.7411094496
 20
19.5560173313
 30
0.0
  0
SPLINE
  5
5E0
100
AcDbEntity
  8
0
100
AcDbSpline
 62
7
  6
BYLAYER
 70
0
 71
3
 72
13
 73
9
 74
0
 42
0.0000001
 43
0.0000001
 44
0.0000000001
 40
0.0
 40
0.0
 40
0.0
 40
0.0
 40
0.04699511
 40
0.1168562906
 40
0.2094107119
 40
0.3243878154
 40
0.6201317567
 40
1.0
 40
1.0
 40
1.0
 40
1.0
 10
29.7650320008
 20
19.5560173313
 30
0.0
 10
29.76973161
 20
19.5804987765
 30
0.0
 10
29.7774958723
 20
19.6420732954
 30
0.0
 10
29.7875275168
 20
19.7526817278
 30
0.0
 10
29.7975075516
 20
19.8995057555
 30
0.0
 10
29.8120972311
 20
20.1660662757
 30
0.0
 10
29.8287960093
 20
20.585122333
 30
0.0
 10
29.8395818829
 20
20.9433367374
 30
0.0
 10
29.8450825648
 20
21.1447618727
 30
0.0
  0
SPLINE
  5
5E1
100
AcDbEntity
  8
0
100
AcDbSpline
 62
7
  6
BYLAYER
 70
0
 71
3
 72
8
 73
4
 74
0
 42
0.0000001
 43
0.0000001
 44
0.0000000001
 40
0.0
 40
0.0
 40
0.0
 40
0.0
 40
1.0
 40
1.0
 40
1.0
 40
1.0
 10
29.8487841712
 20
21.2856036607
 30
0.0
 10
29.850058283
 20
21.3054917101
 30
0.0
 10
29.8498342437
 20
21.3254506706
 30
0.0
 10
29.849921668
 20
21.3453792989
 30
0.0
  0
SPLINE
  5
5E2
100
AcDbEntity
  8
0
100
AcDbSpline
 62
7
  6
BYLAYER
 70
0
 71
3
 72
9
 73
5
 74
0
 42
0.0000001
 43
0.0000001
 44
0.0000000001
 40
0.0
 40
0.0
 40
0.0
 40
0.0
 40
0.2203478928
 40
1.0
 40
1.0
 40
1.0
 40
1.0
 10
29.8515498895
 20
21.3954745637
 30
0.0
 10
29.8552671449
 20
21.5455411403
 30
0.0
 10
29.8707492972
 20
22.2266193044
 30
0.0
 10
29.8819520168
 20
22.9077886437
 30
0.0
 10
29.8894269037
 20
23.4388761889
 30
0.0
  0
SPLINE
  5
5E3
100
AcDbEntity
  8
0
100
AcDbSpline
 62
7
  6
BYLAYER
 70
0
 71
3
 72
9
 73
5
 74
0
 42
0.0000001
 43
0.0000001
 44
0.0000000001
 40
0.0
 40
0.0
 40
0.0
 40
0.0
 40
0.2288451012
 40
1.0
 40
1.0
 40
1.0
 40
1.0
 10
29.8894269037
 20
23.4388761889
 30
0.0
 10
29.8933442769
 20
23.7180029927
 30
0.0
 10
29.9086326477
 20
24.937747899
 30
0.0
 10
29.9181158587
 20
26.1575607014
 30
0.0
 10
29.9232791655
 20
27.098231729
 30
0.0
  0
SPLINE
  5
5E4
100
AcDbEntity
  8
0
100
AcDbSpline
 62
7
  6
BYLAYER
 70
0
 71
3
 72
12
 73
8
 74
0
 42
0.0000001
 43
0.0000001
 44
0.0000000001
 40
0.0
 40
0.0
 40
0.0
 40
0.0
 40
0.2390834289
 40
0.4804067619
 40
0.7327832123
 40
0.8647303157
 40
1.0
 40
1.0
 40
1.0
 40
1.0
 10
30.2916162305
 20
24.8745829975
 30
0.0
 10
30.2928810065
 20
24.7473206849
 30
0.0
 10
30.3418974762
 20
24.489731953
 30
0.0
 10
30.5497907208
 20
24.1499774536
 30
0.0
 10
30.8250656645
 20
23.9455047472
 30
0.0
 10
31.0883731741
 20
23.8554093909
 30
0.0
 10
31.2311589826
 20
23.8393290588
 30
0.0
 10
31.3031655748
 20
23.839329049
 30
0.0
  0
SPLINE
  5
5E5
100
AcDbEntity
  8
0
100
AcDbSpline
 62
7
  6
BYLAYER
 70
0
 71
3
 72
12
 73
8
 74
0
 42
0.0000001
 43
0.0000001
 44
0.0000000001
 40
0.0
 40
0.0
 40
0.0
 40
0.0
 40
0.1342826645
 40
0.2665634817
 40
0.5185613309
 40
0.7604093724
 40
1.0
 40
1.0
 40
1.0
 40
1.0
 10
34.4029757253
 20
23.8393503822
 30
0.0
 10
34.4744594051
 20
23.8393500293
 30
0.0
 10
34.6168911009
 20
23.8552734572
 30
0.0
 10
34.8798191185
 20
23.9448528287
 30
0.0
 10
35.155550934
 20
24.1491100477
 30
0.0
 10
35.3640451314
 20
24.488985199
 30
0.0
 10
35.4132484331
 20
24.74714886
 30
0.0
 10
35.4145043346
 20
24.8746857199
 30
0.0
  0
SPLINE
  5
5E6
100
AcDbEntity
  8
0
100
AcDbSpline
 62
7
  6
BYLAYER
 70
0
 71
3
 72
9
 73
5
 74
0
 42
0.0000001
 43
0.0000001
 44
0.0000000001
 40
0.0
 40
0.0
 40
0.0
 40
0.0
 40
0.4813455819
 40
1.0
 40
1.0
 40
1.0
 40
1.0
 10
35.414502186
 20
24.8746857372
 30
0.0
 10
35.4237612206
 20
25.797528988
 30
0.0
 10
35.4366051931
 20
27.7148093046
 30
0.0
 10
35.4405574425
 20
29.6321237392
 30
0.0
 10
35.4404098605
 20
30.6265461091
 30
0.0
  0
SPLINE
  5
5E7
100
AcDbEntity
  8
0
100
AcDbSpline
 62
7
  6
BYLAYER
 70
0
 71
3
 72
9
 73
5
 74
0
 42
0.0000001
 43
0.0000001
 44
0.0000000001
 40
0.0
 40
0.0
 40
0.0
 40
0.0
 40
0.2743928066
 40
1.0
 40
1.0
 40
1.0
 40
1.0
 10
62.4054394589
 20
30.6425053529
 30
0.0
 10
62.4045077741
 20
30.6425053529
 30
0.0
 10
62.4036605491
 20
30.6377733964
 30
0.0
 10
62.4030278524
 20
30.6352525497
 30
0.0
 10
62.4026807179
 20
30.6328133703
 30
0.0
  0
SPLINE
  5
5E8
100
AcDbEntity
  8
0
100
AcDbSpline
 62
7
  6
BYLAYER
 70
0
 71
3
 72
9
 73
5
 74
0
 42
0.0000001
 43
0.0000001
 44
0.0000000001
 40
0.0
 40
0.0
 40
0.0
 40
0.0
 40
0.725518004
 40
1.0
 40
1.0
 40
1.0
 40
1.0
 10
62.402702197
 20
28.0520445676
 30
0.0
 10
62.4030467187
 20
28.0496425737
 30
0.0
 10
62.4036663189
 20
28.0471590854
 30
0.0
 10
62.4045221262
 20
28.0425014371
 30
0.0
 10
62.4054401534
 20
28.0425053536
 30
0.0
  0
ELLIPSE
  5
5E9
100
AcDbEntity
  8
0
100
AcDbEllipse
 62
7
  6
BYLAYER
 10
56.7527657877
 20
9.7920873284
 30
0.0
 11
0.5003047721
 21
-0.0
 31
0.0
 40
0.999390827
 41
-1.5707963268
 42
0.0
  0
ELLIPSE
  5
5EA
100
AcDbEntity
  8
0
100
AcDbEllipse
 62
7
  6
BYLAYER
 10
37.753375332
 20
9.7920873284
 30
0.0
 11
0.5003047721
 21
-0.0
 31
0.0
 40
0.999390827
 41
3.1415926536
 42
4.7123889804
  0
ELLIPSE
  5
5EB
100
AcDbEntity
  8
0
100
AcDbEllipse
 62
7
  6
BYLAYER
 10
37.753375332
 20
10.7920873284
 30
0.0
 11
0.5003047721
 21
-0.0
 31
0.0
 40
0.999390827
 41
7.853981634
 42
9.4247779608
  0
ELLIPSE
  5
5EC
100
AcDbEntity
  8
0
100
AcDbEllipse
 62
7
  6
BYLAYER
 10
56.7527657877
 20
10.7920873284
 30
0.0
 11
0.5003047721
 21
-0.0
 31
0.0
 40
0.999390827
 41
0.0
 42
1.5707963268
  0
ELLIPSE
  5
5ED
100
AcDbEntity
  8
0
100
AcDbEllipse
 62
7
  6
BYLAYER
 10
56.595622325
 20
10.7920873284
 30
0.0
 11
0.5003047721
 21
0.0
 31
0.0
 40
0.999390827
 41
0.0
 42
1.5707963268
  0
ELLIPSE
  5
5EE
100
AcDbEntity
  8
0
100
AcDbEllipse
 62
7
  6
BYLAYER
 10
37.9105187947
 20
9.7920873284
 30
0.0
 11
0.5003047721
 21
0.0
 31
0.0
 40
0.999390827
 41
3.1415926536
 42
4.7123889804
  0
ELLIPSE
  5
5EF
100
AcDbEntity
  8
0
100
AcDbEllipse
 62
7
  6
BYLAYER
 10
56.595622325
 20
9.7920873284
 30
0.0
 11
0.5003047721
 21
0.0
 31
0.0
 40
0.999390827
 41
-1.5707963268
 42
0.0
  0
ELLIPSE
  5
5F0
100
AcDbEntity
  8
0
100
AcDbEllipse
 62
7
  6
BYLAYER
 10
37.9105187947
 20
10.7920873284
 30
0.0
 11
0.5003047721
 21
0.0
 31
0.0
 40
0.999390827
 41
7.853981634
 42
9.4247779608
  0
ELLIPSE
  5
5F1
100
AcDbEntity
  8
0
100
AcDbEllipse
 62
7
  6
BYLAYER
 10
29.2879806897
 20
66.2169876362
 30
0.0
 11
0.0
 21
0.5
 31
0.0
 40
0.0174550649
 41
-3.089232776
 42
-1.5707963268
  0
ELLIPSE
  5
5F2
100
AcDbEntity
  8
0
100
AcDbEllipse
 62
7
  6
BYLAYER
 10
29.2879806897
 20
82.7680230695
 30
0.0
 11
0.0
 21
0.5
 31
0.0
 40
0.0174550649
 41
-1.5707963267
 42
-0.0523598776
  0
ELLIPSE
  5
5F3
100
AcDbEntity
  8
0
100
AcDbEllipse
 62
7
  6
BYLAYER
 10
65.21816043
 20
60.2169876362
 30
0.0
 11
0.0
 21
0.5
 31
0.0
 40
0.0174550649
 41
-4.7123889804
 42
-3.1939525311
  0
ELLIPSE
  5
5F4
100
AcDbEntity
  8
0
100
AcDbEllipse
 62
7
  6
BYLAYER
 10
65.21816043
 20
88.7680230695
 30
0.0
 11
0.0
 21
0.5
 31
0.0
 40
0.0174550649
 41
0.0523598776
 42
1.5707963268
  0
ELLIPSE
  5
5F5
100
AcDbEntity
  8
0
100
AcDbEllipse
 62
7
  6
BYLAYER
 10
63.6507053651
 20
29.3425053529
 30
0.0
 11
-0.0
 21
3.65
 31
0.0
 40
0.0174550649
 41
-0.9647697883
 42
0.0000000598
  0
ELLIPSE
  5
5F6
100
AcDbEntity
  8
0
100
AcDbEllipse
 62
7
  6
BYLAYER
 10
54.8907642909
 20
30.5141590037
 30
0.0
 11
0.0
 21
11.0
 31
0.0
 40
0.0174550649
 41
3.7663630731
 42
4.3304991003
  0
ELLIPSE
  5
5F7
100
AcDbEntity
  8
0
100
AcDbEllipse
 62
7
  6
BYLAYER
 10
61.733570385
 20
74.4925053529
 30
0.0
 11
-0.0
 21
499.9999999999
 31
0.0
 40
0.0174550649
 41
-4.6578619645
 42
-4.626219081
  0
ELLIPSE
  5
5F8
100
AcDbEntity
  8
0
100
AcDbEllipse
 62
7
  6
BYLAYER
 10
52.8471266286
 20
30.5141590037
 30
0.0
 11
0.0
 21
11.0
 31
0.0
 40
0.0174550649
 41
-1.9526862069
 42
-1.4846264274
  0
ELLIPSE
  5
5F9
100
AcDbEntity
  8
0
100
AcDbEllipse
 62
7
  6
BYLAYER
 10
62.4054357546
 20
119.6425053528
 30
0.0
 11
0.0
 21
3.65
 31
0.0
 40
0.0174550649
 41
-4.1063624419
 42
-3.1415926536
  0
ELLIPSE
  5
5FA
100
AcDbEntity
  8
0
100
AcDbEllipse
 62
7
  6
BYLAYER
 10
60.9007053651
 20
119.6425053528
 30
0.0
 11
-0.0
 21
3.65
 31
0.0
 40
0.0174550649
 41
-3.1415926535
 42
-2.1768228653
  0
ELLIPSE
  5
5FB
100
AcDbEntity
  8
0
100
AcDbEllipse
 62
7
  6
BYLAYER
 10
62.2701590014
 20
118.470851702
 30
0.0
 11
0.0
 21
11.0
 31
0.0
 40
0.0174550649
 41
-1.2838608689
 42
-1.1133099738
  0
ELLIPSE
  5
5FC
100
AcDbEntity
  8
0
100
AcDbEllipse
 62
7
  6
BYLAYER
 10
71.1566027578
 20
74.4925053529
 30
0.0
 11
-0.0
 21
499.9999999999
 31
0.0
 40
0.0174550649
 41
1.4846264274
 42
1.4878084445
  0
ELLIPSE
  5
5FD
100
AcDbEntity
  8
0
100
AcDbEllipse
 62
7
  6
BYLAYER
 10
62.2701590014
 20
118.470851702
 30
0.0
 11
-0.0
 21
11.0
 31
0.0
 40
0.0174550649
 41
-1.656966226
 42
-1.6306746112
  0
ELLIPSE
  5
5FE
100
AcDbEntity
  8
0
100
AcDbEllipse
 62
7
  6
BYLAYER
 10
62.4531087177
 20
117.8425053528
 30
0.0
 11
0.0
 21
0.5
 31
0.0
 40
0.0174550649
 41
4.6525106955
 42
6.2831853072
  0
ELLIPSE
  5
5FF
100
AcDbEntity
  8
0
100
AcDbEllipse
 62
7
  6
BYLAYER
 10
60.9007053651
 20
119.6425053528
 30
0.0
 11
-0.0
 21
3.65
 31
0.0
 40
0.0174550649
 41
-0.9647697883
 42
-0.0000000001
  0
ELLIPSE
  5
600
100
AcDbEntity
  8
0
100
AcDbEllipse
 62
7
  6
BYLAYER
 10
62.4054357546
 20
119.6425053528
 30
0.0
 11
0.0
 21
3.65
 31
0.0
 40
0.0174550649
 41
0.0
 42
0.9647697883
  0
ELLIPSE
  5
601
100
AcDbEntity
  8
0
100
AcDbEllipse
 62
7
  6
BYLAYER
 10
61.0359821182
 20
118.470851702
 30
0.0
 11
0.0
 21
11.0
 31
0.0
 40
0.0174550649
 41
1.1133099738
 42
1.6569662262
  0
ELLIPSE
  5
602
100
AcDbEntity
  8
0
100
AcDbEllipse
 62
7
  6
BYLAYER
 10
52.1495383618
 20
74.4925053529
 30
0.0
 11
0.0
 21
499.9999999999
 31
0.0
 40
0.0174550649
 41
-1.4878084445
 42
-1.4846264274
  0
ELLIPSE
  5
603
100
AcDbEntity
  8
0
100
AcDbEllipse
 62
7
  6
BYLAYER
 10
54.8907642909
 20
118.470851702
 30
0.0
 11
0.0
 21
11.0
 31
0.0
 40
0.0174550649
 41
5.0942788605
 42
5.6584148876
  0
ELLIPSE
  5
604
100
AcDbEntity
  8
0
100
AcDbEllipse
 62
7
  6
BYLAYER
 10
40.9399327227
 20
74.4925053529
 30
0.0
 11
0.0
 21
499.9999999999
 31
0.0
 40
0.0174550649
 41
-4.6762568066
 42
-4.6578619645
  0
ELLIPSE
  5
605
100
AcDbEntity
  8
0
100
AcDbEllipse
 62
7
  6
BYLAYER
 10
39.6153768288
 20
118.470851702
 30
0.0
 11
0.0
 21
11.0
 31
0.0
 40
0.0174550649
 41
6.9079557267
 42
7.4720917538
  0
ELLIPSE
  5
606
100
AcDbEntity
  8
0
100
AcDbEllipse
 62
7
  6
BYLAYER
 10
32.7725707347
 20
74.4925053529
 30
0.0
 11
0.0
 21
499.9999999999
 31
0.0
 40
0.0174550649
 41
-1.5162693109
 42
-1.4846264274
  0
ELLIPSE
  5
607
100
AcDbEntity
  8
0
100
AcDbEllipse
 62
7
  6
BYLAYER
 10
41.6590144911
 20
118.470851702
 30
0.0
 11
-0.0
 21
11.0
 31
0.0
 40
0.0174550649
 41
1.1889064467
 42
1.6569662262
  0
ELLIPSE
  5
608
100
AcDbEntity
  8
0
100
AcDbEllipse
 62
7
  6
BYLAYER
 10
40.9399327227
 20
74.4925053529
 30
0.0
 11
0.0
 21
499.9999999999
 31
0.0
 40
0.0174550649
 41
1.5162693109
 42
1.5335712297
  0
ELLIPSE
  5
609
100
AcDbEntity
  8
0
100
AcDbEllipse
 62
7
  6
BYLAYER
 10
61.733570385
 20
74.4925053529
 30
0.0
 11
-0.0
 21
499.9999999999
 31
0.0
 40
0.0174550649
 41
1.4846264274
 42
1.5162693109
  0
ELLIPSE
  5
60A
100
AcDbEntity
  8
0
100
AcDbEllipse
 62
7
  6
BYLAYER
 10
53.566208397
 20
74.4925053529
 30
0.0
 11
-0.0
 21
499.9999999999
 31
0.0
 40
0.0174550649
 41
-1.5335712051
 42
-1.5162693109
  0
ELLIPSE
  5
60B
100
AcDbEntity
  8
0
100
AcDbEllipse
 62
7
  6
BYLAYER
 10
63.6507053651
 20
119.6425053528
 30
0.0
 11
-0.0
 21
3.65
 31
0.0
 40
0.0174550649
 41
-3.1415927894
 42
-2.1768228653
  0
ELLIPSE
  5
60C
100
AcDbEntity
  8
0
100
AcDbEllipse
 62
7
  6
BYLAYER
 10
63.6101971566
 20
121.4425053528
 30
0.0
 11
-0.0
 21
0.5
 31
0.0
 40
0.0174550649
 41
-4.0704587144
 42
-3.1415450146
  0
ELLIPSE
  5
60D
100
AcDbEntity
  8
0
100
AcDbEllipse
 62
7
  6
BYLAYER
 10
52.8471266286
 20
118.470851702
 30
0.0
 11
0.0
 21
11.0
 31
0.0
 40
0.0174550649
 41
-1.6569662262
 42
-1.1889064467
  0
ELLIPSE
  5
60E
100
AcDbEntity
  8
0
100
AcDbEllipse
 62
7
  6
BYLAYER
 10
60.9007053651
 20
29.3425053529
 30
0.0
 11
-0.0
 21
3.65
 31
0.0
 40
0.0174550649
 41
-3.1415926536
 42
-2.1768228653
  0
ELLIPSE
  5
60F
100
AcDbEntity
  8
0
100
AcDbEllipse
 62
7
  6
BYLAYER
 10
60.9007053651
 20
29.3425053529
 30
0.0
 11
0.0
 21
3.65
 31
0.0
 40
0.0174550649
 41
-0.9647697883
 42
0.0
  0
ELLIPSE
  5
610
100
AcDbEntity
  8
0
100
AcDbEllipse
 62
7
  6
BYLAYER
 10
52.1495383618
 20
74.4925053529
 30
0.0
 11
-0.0
 21
499.9999999999
 31
0.0
 40
0.0174550649
 41
-1.6569662262
 42
-1.6537842091
  0
ELLIPSE
  5
611
100
AcDbEntity
  8
0
100
AcDbEllipse
 62
7
  6
BYLAYER
 10
61.0359821182
 20
30.5141590037
 30
0.0
 11
0.0
 21
11.0
 31
0.0
 40
0.0174550649
 41
1.4846264274
 42
2.0282826798
  0
ELLIPSE
  5
612
100
AcDbEntity
  8
0
100
AcDbEllipse
 62
7
  6
BYLAYER
 10
32.7725707347
 20
74.4925053529
 30
0.0
 11
-0.0
 21
499.9999999999
 31
0.0
 40
0.0174550649
 41
-1.6569662262
 42
-1.6253233427
  0
ELLIPSE
  5
613
100
AcDbEntity
  8
0
100
AcDbEllipse
 62
7
  6
BYLAYER
 10
41.6590144911
 20
30.5141590037
 30
0.0
 11
0.0
 21
11.0
 31
0.0
 40
0.0174550649
 41
1.4846264276
 42
1.9526862069
  0
ELLIPSE
  5
614
100
AcDbEntity
  8
0
100
AcDbEllipse
 62
7
  6
BYLAYER
 10
62.4531087177
 20
31.1425053529
 30
0.0
 11
-0.0
 21
0.5
 31
0.0
 40
0.0174550649
 41
3.1415926536
 42
4.7722672651
  0
ELLIPSE
  5
615
100
AcDbEntity
  8
0
100
AcDbEllipse
 62
7
  6
BYLAYER
 10
62.2701590014
 20
30.5141590037
 30
0.0
 11
0.0
 21
11.0
 31
0.0
 40
0.0174550649
 41
-1.5109180424
 42
-1.4846264275
  0
ELLIPSE
  5
616
100
AcDbEntity
  8
0
100
AcDbEllipse
 62
7
  6
BYLAYER
 10
71.1566027578
 20
74.4925053529
 30
0.0
 11
-0.0
 21
499.9999999999
 31
0.0
 40
0.0174550649
 41
-4.6294010981
 42
-4.626219081
  0
ELLIPSE
  5
617
100
AcDbEntity
  8
0
100
AcDbEllipse
 62
7
  6
BYLAYER
 10
62.4054357546
 20
29.3425053529
 30
0.0
 11
-0.0
 21
3.65
 31
0.0
 40
0.0174550649
 41
-0.0
 42
0.9647697883
  0
ELLIPSE
  5
618
100
AcDbEntity
  8
0
100
AcDbEllipse
 62
7
  6
BYLAYER
 10
62.4054357546
 20
29.3425053529
 30
0.0
 11
0.0
 21
3.65
 31
0.0
 40
0.0174550649
 41
-4.1063624419
 42
-3.1415926536
  0
ELLIPSE
  5
619
100
AcDbEntity
  8
0
100
AcDbEllipse
 62
7
  6
BYLAYER
 10
62.2701590014
 20
30.5141590037
 30
0.0
 11
-0.0
 21
11.0
 31
0.0
 40
0.0174550649
 41
-2.0282826798
 42
-1.8577321237
  0
ELLIPSE
  5
61A
100
AcDbEntity
  8
0
100
AcDbEllipse
 62
7
  6
BYLAYER
 10
62.4459439631
 20
27.5425053529
 30
0.0
 11
0.0
 21
0.5
 31
0.0
 40
0.0174550649
 41
4.4254531833
 42
6.2831853066
  0
ELLIPSE
  5
61B
100
AcDbEntity
  8
0
100
AcDbEllipse
 62
7
  6
BYLAYER
 10
39.6153768288
 20
30.5141590037
 30
0.0
 11
0.0
 21
11.0
 31
0.0
 40
0.0174550649
 41
-4.3304991003
 42
-3.7663630731
  0
ENDSEC
  0
SECTION
  2
OBJECTS
  0
DICTIONARY
  5
C
100
AcDbDictionary
280
0
281
1
  3
ACAD_GROUP
350
D
  3
ACAD_MLINESTYLE
350
17
  3
ACAD_LAYOUT
350
1A
  3
ACAD_PLOTSETTINGS
350
19
  3
ACAD_PLOTSTYLENAME
350
E
  0
DICTIONARY
  5
D
102
{ACAD_REACTORS
330
C
102
}
100
AcDbDictionary
280
0
281
1
  0
ACDBDICTIONARYWDFLT
  5
E
102
{ACAD_REACTORS
330
C
102
}
100
AcDbDictionary
281
1
  3
Normal
350
F
100
AcDbDictionaryWithDefault
340
F
  0
DICTIONARY
  5
17
102
{ACAD_REACTORS
330
C
102
}
100
AcDbDictionary
280
0
281
1
  3
Standard
350
18
  0
DICTIONARY
  5
19
102
{ACAD_REACTORS
330
C
102
}
100
AcDbDictionary
281
1
  0
DICTIONARY
  5
1A
102
{ACAD_REACTORS
330
C
102
}
100
AcDbDictionary
281
1
  3
Model
350
61C
  3
Layout1
350
61D
  0
ACDBPLACEHOLDER
  5
F
102
{ACAD_REACTORS
330
E
102
}
  0
MLINESTYLE
  5
18
102
{ACAD_REACTORS
330
17
102
}
100
AcDbMlineStyle
  2
STANDARD
 70
0
  3

 62
256
 51
90.0
 52
90.0
 71
2
 49
0.5
 62
256
  6
BYLAYER
 49
-0.5
 62
256
  6
BYLAYER
  0
LAYOUT
  5
61C
102
{ACAD_REACTORS
330
1A
102
}
100
AcDbPlotSettings
  1

  2
none_device
  4

  6

 40
0.0
 41
0.0
 42
0.0
 43
0.0
 44
210.0
 45
297.0
 46
0.0
 47
0.0
 48
0.0
 49
0.0
140
0.0
141
0.0
142
1.0
143
1.0
 70
1024
 72
1
 73
0
 74
0
  7

 75
0
147
1.0
148
0.0
149
0.0
100
AcDbLayout
  1
Model
 70
0
 71
0
 10
0.0
 20
0.0
 11
210.0
 21
297.0
 12
0.0
 22
0.0
 32
0.0
 14
0.0
 24
0.0
 34
0.0
 15
0.0
 25
0.0
 35
0.0
146
0.0
 13
0.0
 23
0.0
 33
0.0
 16
1.0
 26
0.0
 36
0.0
 17
0.0
 27
1.0
 37
0.0
 76
0
330
210
345
0
346
0
  0
LAYOUT
  5
61D
102
{ACAD_REACTORS
330
1A
102
}
100
AcDbPlotSettings
  1

  2
none_device
  4

  6

 40
0.0
 41
0.0
 42
0.0
 43
0.0
 44
210.0
 45
297.0
 46
0.0
 47
0.0
 48
0.0
 49
0.0
140
0.0
141
0.0
142
1.0
143
1.0
 70
0
 72
1
 73
0
 74
0
  7

 75
0
147
1.0
148
0.0
149
0.0
100
AcDbLayout
  1
Layout1
 70
0
 71
1
 10
0.0
 20
0.0
 11
210.0
 21
297.0
 12
0.0
 22
0.0
 32
0.0
 14
0.0
 24
0.0
 34
0.0
 15
0.0
 25
0.0
 35
0.0
146
0.0
 13
0.0
 23
0.0
 33
0.0
 16
1.0
 26
0.0
 36
0.0
 17
0.0
 27
1.0
 37
0.0
 76
0
330
211
345
0
346
0
  0
ENDSEC
  0
EOF
