999
DXF file: C:\Users\sesa63760\Dev\_Creo\CAD\MCADID0002173_3D-CAD\drw0001_1.dxf
999
Pro/ENGINEER 2019471 by Parametric Technology Corporation
  0
SECTION
  2
HEADER
  9
$ACADVER
  1
AC1024
  9
$DWGCODEPAGE
  3
ANSI_1252
  9
$EXTMAX
 10
75.1862839983
 20
106.334887369
 30
0.0
  9
$EXTMIN
 10
-0.0
 20
0.0
 30
0.0
  9
$LIMMIN
 10
-0.0
 20
0.0
  9
$LIMMAX
 10
75.1862839983
 20
106.334887369
  9
$VIEWCTR
 10
37.5931419991
 20
53.1674436845
  9
$VIEWSIZE
 40
106.334887369
  9
$CLAYER
  8
0
  9
$LTSCALE
 40
6.9314593248
  9
$CELTYPE
  6
BYLAYER
  9
$DIMSCALE
 40
1.0
  9
$DIMASZ
 40
0.8950748095
  9
$DIMEXO
 40
1.0
  9
$DIMDLI
 40
4.7890082608
  9
$DIMEXE
 40
1.0
  9
$DIMCEN
 40
1.1342387986
  9
$DIMLFAC
 40
1.0
  9
$DIMBLK
  1
_FILLED
  9
$DIMALT
 70
0
  9
$DIMALTF
 40
0.0393700787
  9
$DIMTXT
 40
1.2531047333
  9
$DIMTOL
 70
1
  9
$DIMLIM
 70
0
  9
$DIMTFAC
 40
1.0
  9
$DIMTP
 40
0.01
  9
$DIMTM
 40
0.01
  9
$DIMGAP
 40
0.625
  9
$DIMDSEP
 70
46
  9
$AUNITS
 70
0
  9
$PDMODE
 70
3
  9
$PDSIZE
 40
0.3125
  9
$HANDSEED
  5
32B
  9
$TILEMODE
 70
1
  9
$MEASUREMENT
 70
1
  9
$INSUNITS
 70
4
  0
ENDSEC
  0
SECTION
  2
CLASSES
  0
CLASS
  1
ACDBDICTIONARYWDFLT
  2
AcDbDictionaryWithDefault
  3
AutoCAD 2000
 90
0
 91
1
280
0
281
0
  0
CLASS
  1
ACDBPLACEHOLDER
  2
AcDbPlaceHolder
  3
AutoCAD 2000
 90
0
 91
1
280
0
281
0
  0
CLASS
  1
LAYOUT
  2
AcDbLayout
  3
AutoCAD 2000
 90
0
 91
0
280
0
281
0
  0
ENDSEC
  0
SECTION
  2
TABLES
  0
TABLE
  2
VPORT
  5
8
100
AcDbSymbolTable
 70
2
  0
VPORT
  5
1F4
100
AcDbSymbolTableRecord
100
AcDbViewportTableRecord
  2
*ACTIVE
 70
0
 10
0.0
 20
0.0
 11
1.0
 21
1.0
 12
37.5931419991
 22
53.1674436845
 13
0.0
 23
0.0
 14
1.0
 24
1.0
 15
0.0
 25
0.0
 16
0.0
 26
0.0
 36
1.0
 17
0.0
 27
0.0
 37
0.0
 40
106.334887369
 41
0.7070707071
 42
50.0
 43
0.0
 44
0.0
 50
0.0
 51
0.0
 71
0
 72
100
 73
1
 74
1
 75
0
 76
0
 77
0
 78
0
  0
ENDTAB
  0
TABLE
  2
LTYPE
  5
5
100
AcDbSymbolTable
 70
6
  0
LTYPE
  5
14
100
AcDbSymbolTableRecord
100
AcDbLinetypeTableRecord
  2
BYBLOCK
 70
0
  3

 72
65
 73
0
 40
0.0
  0
LTYPE
  5
15
100
AcDbSymbolTableRecord
100
AcDbLinetypeTableRecord
  2
BYLAYER
 70
0
  3

 72
65
 73
0
 40
0.0
  0
LTYPE
  5
16
100
AcDbSymbolTableRecord
100
AcDbLinetypeTableRecord
  2
CONTINUOUS
 70
64
  3
Solid line
 72
65
 73
0
 40
0.0
  0
LTYPE
  5
1F5
100
AcDbSymbolTableRecord
100
AcDbLinetypeTableRecord
  2
CENTER
 70
64
  3
____ _ ____ _ ____ _ ____ _ ____ _ ____ _ ____
 72
65
 73
4
 40
0.6
 49
0.375
 74
0
 49
-0.075
 74
0
 49
0.075
 74
0
 49
-0.075
 74
0
  0
LTYPE
  5
1F6
100
AcDbSymbolTableRecord
100
AcDbLinetypeTableRecord
  2
HIDDEN
 70
64
  3
- - - - - - - - - - - - - - - - - - - -
 72
65
 73
2
 40
0.2
 49
0.1
 74
0
 49
-0.1
 74
0
  0
LTYPE
  5
1F7
100
AcDbSymbolTableRecord
100
AcDbLinetypeTableRecord
  2
PHANTOM
 70
64
  3
_____ _ _ _____ _ _ _____ _ _ _____
 72
65
 73
6
 40
0.8
 49
0.45
 74
0
 49
-0.05
 74
0
 49
0.1
 74
0
 49
-0.05
 74
0
 49
0.1
 74
0
 49
-0.05
 74
0
  0
LTYPE
  5
1F8
100
AcDbSymbolTableRecord
100
AcDbLinetypeTableRecord
  2
DOT
 70
64
  3
. . . . . . . . . . . . . . . . . . . .
 72
65
 73
2
 40
0.2
 49
0.1
 74
0
 49
-0.1
 74
0
  0
LTYPE
  5
1F9
100
AcDbSymbolTableRecord
100
AcDbLinetypeTableRecord
  2
DASHED
 70
64
  3
- - - - - - - - - - - - - - - - - - - -
 72
65
 73
2
 40
0.2
 49
0.1
 74
0
 49
-0.1
 74
0
  0
ENDTAB
  0
TABLE
  2
LAYER
  5
2
100
AcDbSymbolTable
 70
36
  0
LAYER
  5
10
100
AcDbSymbolTableRecord
100
AcDbLayerTableRecord
  2
0
 70
0
 62
7
  6
CONTINUOUS
370
-3
390
F
  0
LAYER
  5
1FA
100
AcDbSymbolTableRecord
100
AcDbLayerTableRecord
  2
DEFAULT_1
 70
0
 62
7
  6
CENTER
370
-3
390
F
  0
LAYER
  5
1FB
100
AcDbSymbolTableRecord
100
AcDbLayerTableRecord
  2
DEFAULT_2
 70
0
 62
8
  6
HIDDEN
370
-3
390
F
  0
LAYER
  5
1FC
100
AcDbSymbolTableRecord
100
AcDbLayerTableRecord
  2
DEFAULT_3
 70
0
 62
7
  6
PHANTOM
370
-3
390
F
  0
LAYER
  5
1FD
100
AcDbSymbolTableRecord
100
AcDbLayerTableRecord
  2
00_COMPONENTS
 70
0
 62
7
  6
CONTINUOUS
370
-3
390
F
  0
LAYER
  5
1FE
100
AcDbSymbolTableRecord
100
AcDbLayerTableRecord
  2
01_1_DEFAULT_DATUMS
 70
0
 62
7
  6
CONTINUOUS
370
-3
390
F
  0
LAYER
  5
1FF
100
AcDbSymbolTableRecord
100
AcDbLayerTableRecord
  2
01_PLANES
 70
0
 62
7
  6
CONTINUOUS
370
-3
390
F
  0
LAYER
  5
200
100
AcDbSymbolTableRecord
100
AcDbLayerTableRecord
  2
02_COORD_SYS
 70
0
 62
7
  6
CONTINUOUS
370
-3
390
F
  0
LAYER
  5
201
100
AcDbSymbolTableRecord
100
AcDbLayerTableRecord
  2
03_AXES
 70
0
 62
7
  6
CONTINUOUS
370
-3
390
F
  0
LAYER
  5
202
100
AcDbSymbolTableRecord
100
AcDbLayerTableRecord
  2
04_POINTS
 70
0
 62
7
  6
CONTINUOUS
370
-3
390
F
  0
LAYER
  5
203
100
AcDbSymbolTableRecord
100
AcDbLayerTableRecord
  2
05_CURVES
 70
0
 62
7
  6
CONTINUOUS
370
-3
390
F
  0
LAYER
  5
204
100
AcDbSymbolTableRecord
100
AcDbLayerTableRecord
  2
06_SURFS
 70
0
 62
7
  6
CONTINUOUS
370
-3
390
F
  0
LAYER
  5
205
100
AcDbSymbolTableRecord
100
AcDbLayerTableRecord
  2
07_COSMETICS
 70
0
 62
7
  6
CONTINUOUS
370
-3
390
F
  0
LAYER
  5
206
100
AcDbSymbolTableRecord
100
AcDbLayerTableRecord
  2
10_NOTES
 70
0
 62
7
  6
CONTINUOUS
370
-3
390
F
  0
LAYER
  5
207
100
AcDbSymbolTableRecord
100
AcDbLayerTableRecord
  2
11_NOTES_PUB
 70
0
 62
7
  6
CONTINUOUS
370
-3
390
F
  0
LAYER
  5
208
100
AcDbSymbolTableRecord
100
AcDbLayerTableRecord
  2
13_REF_GTOL
 70
0
 62
7
  6
CONTINUOUS
370
-3
390
F
  0
LAYER
  5
209
100
AcDbSymbolTableRecord
100
AcDbLayerTableRecord
  2
16_MISC
 70
0
 62
7
  6
CONTINUOUS
370
-3
390
F
  0
LAYER
  5
20A
100
AcDbSymbolTableRecord
100
AcDbLayerTableRecord
  2
17_NO_PRINT
 70
0
 62
7
  6
CONTINUOUS
370
-3
390
F
  0
LAYER
  5
20B
100
AcDbSymbolTableRecord
100
AcDbLayerTableRecord
  2
18_DATUM_CAMS_JOINTS
 70
0
 62
7
  6
CONTINUOUS
370
-3
390
F
  0
LAYER
  5
20C
100
AcDbSymbolTableRecord
100
AcDbLayerTableRecord
  2
19_DATUM_FUNCTIONAL
 70
0
 62
7
  6
CONTINUOUS
370
-3
390
F
  0
LAYER
  5
20D
100
AcDbSymbolTableRecord
100
AcDbLayerTableRecord
  2
20_DATUM_KINEMATIC_SCHEME
 70
0
 62
7
  6
CONTINUOUS
370
-3
390
F
  0
ENDTAB
  0
TABLE
  2
STYLE
  5
3
100
AcDbSymbolTable
 70
1
  0
STYLE
  5
11
100
AcDbSymbolTableRecord
100
AcDbTextStyleTableRecord
  2
STANDARD
 70
0
 40
0.0
 41
0.8
 50
0.0
 71
0
 42
0.2
  3
txt
  4

  0
STYLE
  5
20E
100
AcDbSymbolTableRecord
100
AcDbTextStyleTableRecord
  2
TEXTSTYLE_1
 70
0
 40
0.0
 41
0.8
 50
0.0
 71
0
 42
0.2
  3
gdt
  4

  0
ENDTAB
  0
TABLE
  2
VIEW
  5
6
100
AcDbSymbolTable
 70
0
  0
ENDTAB
  0
TABLE
  2
UCS
  5
7
100
AcDbSymbolTable
 70
0
  0
ENDTAB
  0
TABLE
  2
APPID
  5
9
100
AcDbSymbolTable
 70
1
  0
APPID
  5
20F
100
AcDbSymbolTableRecord
100
AcDbRegAppTableRecord
  2
ACAD
 70
0
  0
ENDTAB
  0
TABLE
  2
BLOCK_RECORD
  5
1
100
AcDbSymbolTable
 70
0
  0
BLOCK_RECORD
  5
210
100
AcDbSymbolTableRecord
100
AcDbBlockTableRecord
  2
*Model_Space
  0
BLOCK_RECORD
  5
211
100
AcDbSymbolTableRecord
100
AcDbBlockTableRecord
  2
*Paper_Space
  0
BLOCK_RECORD
  5
212
100
AcDbSymbolTableRecord
100
AcDbBlockTableRecord
  2
_FILLED
  0
ENDTAB
  0
TABLE
  2
DIMSTYLE
  5
A
100
AcDbSymbolTable
 70
1
100
AcDbDimStyleTable
 71
0
  0
DIMSTYLE
105
213
100
AcDbSymbolTableRecord
100
AcDbDimStyleTableRecord
  2
STANDARD
 70
0
  3

  4

 40
1.0
 41
0.8950748095
 42
1.0
 43
0.38
 44
1.0
 45
0.0
 46
0.0
 47
0.01
 48
0.01
140
1.2531047333
141
0.09
142
0.0
143
25.4
144
1.0
145
0.0
146
1.0
147
0.625
 71
1
 72
0
 73
0
 74
0
 75
0
 76
0
 77
1
 78
8
 79
2
170
0
171
1
172
0
173
0
174
0
175
0
176
0
177
0
178
0
270
2
179
2
271
2
272
2
273
2
274
2
275
0
280
0
281
0
282
0
283
1
284
8
285
0
286
0
287
3
288
0
340
11
278
46
341
212
342
212
343
212
344
212
  0
ENDTAB
  0
ENDSEC
  0
SECTION
  2
BLOCKS
  0
BLOCK
  5
20
100
AcDbEntity
  8
0
100
AcDbBlockBegin
  2
*Model_Space
 70
0
 10
0.0
 20
0.0
 30
0.0
  3
*Model_Space
  1

  0
ENDBLK
  5
21
100
AcDbEntity
  8
0
100
AcDbBlockEnd
  0
BLOCK
  5
1C
100
AcDbEntity
  8
0
100
AcDbBlockBegin
  2
*Paper_Space
 70
0
 10
0.0
 20
0.0
 30
0.0
  3
*Paper_Space
  1

  0
ENDBLK
  5
1D
100
AcDbEntity
  8
0
100
AcDbBlockEnd
  0
BLOCK
  5
214
100
AcDbEntity
  8
0
100
AcDbBlockBegin
  2
_FILLED
 70
64
 10
0.0
 20
0.0
  3
_FILLED
  1

  0
SOLID
  5
215
100
AcDbEntity
  8
0
  6
BYBLOCK
 62
0
100
AcDbTrace
 10
0.0
 20
0.0
 11
-1.0
 21
0.25
 12
-1.0
 22
-0.25
 13
-1.0
 23
-0.25
  0
ENDBLK
  5
216
100
AcDbEntity
  8
0
  6
BYBLOCK
 62
0
100
AcDbBlockEnd
  0
ENDSEC
  0
SECTION
  2
ENTITIES
  0
LINE
  5
217
100
AcDbEntity
  8
0
100
AcDbLine
 62
7
  6
CONTINUOUS
 10
11.409468564
 20
33.6589639274
 11
10.3488128081
 21
36.4115806276
  0
LINE
  5
218
100
AcDbEntity
  8
0
100
AcDbLine
 62
7
  6
CONTINUOUS
 10
8.7224739825
 20
55.3779550309
 11
8.7224739825
 21
54.0715511635
  0
LINE
  5
219
100
AcDbEntity
  8
0
100
AcDbLine
 62
7
  6
CONTINUOUS
 10
32.8348932359
 20
21.2892690654
 11
25.9052179295
 21
25.2900284597
  0
LINE
  5
21A
100
AcDbEntity
  8
0
100
AcDbLine
 62
7
  6
CONTINUOUS
 10
25.4102411219
 20
25.5757969879
 11
18.4805658154
 21
29.5765563822
  0
LINE
  5
21B
100
AcDbEntity
  8
0
100
AcDbLine
 62
7
  6
CONTINUOUS
 10
18.3391438704
 20
29.6582045331
 11
11.409468564
 21
33.6589639274
  0
LINE
  5
21C
100
AcDbEntity
  8
0
100
AcDbLine
 62
7
  6
CONTINUOUS
 10
31.4256760773
 20
22.948880009
 11
26.4759080013
 21
25.8065652907
  0
LINE
  5
21D
100
AcDbEntity
  8
0
100
AcDbLine
 62
7
  6
CONTINUOUS
 10
24.0010239633
 20
27.2354079315
 11
19.0512558873
 21
30.0930932131
  0
LINE
  5
21E
100
AcDbEntity
  8
0
100
AcDbLine
 62
7
  6
CONTINUOUS
 10
16.9299267118
 20
31.3178154767
 11
11.9801586358
 21
34.1755007583
  0
LINE
  5
21F
100
AcDbEntity
  8
0
100
AcDbLine
 62
7
  6
CONTINUOUS
 10
12.3994221792
 20
34.417561233
 11
16.6900113577
 21
31.9404444557
  0
LINE
  5
220
100
AcDbEntity
  8
0
100
AcDbLine
 62
7
  6
CONTINUOUS
 10
19.4705194306
 20
30.3351536878
 11
23.7611086092
 21
27.8580369105
  0
LINE
  5
221
100
AcDbEntity
  8
0
100
AcDbLine
 62
7
  6
CONTINUOUS
 10
26.8951715447
 20
26.0486257654
 11
31.1857607232
 21
23.571508988
  0
LINE
  5
222
100
AcDbEntity
  8
0
100
AcDbLine
 62
7
  6
CONTINUOUS
 10
11.3387664233
 20
35.8400435713
 11
11.9801586358
 21
34.1755007583
  0
LINE
  5
223
100
AcDbEntity
  8
0
100
AcDbLine
 62
7
  6
CONTINUOUS
 10
9.5329036329
 20
49.2321844359
 11
8.7224739825
 21
54.0715511635
  0
LINE
  5
224
100
AcDbEntity
  8
0
100
AcDbLine
 62
7
  6
CONTINUOUS
 10
10.3488128081
 20
41.2010255496
 11
10.3488128081
 21
36.4115806276
  0
LINE
  5
225
100
AcDbEntity
  8
0
100
AcDbLine
 62
7
  6
CONTINUOUS
 10
11.3387664233
 20
39.8445972917
 11
11.3387664233
 21
35.8400435713
  0
LINE
  5
226
100
AcDbEntity
  8
0
100
AcDbLine
 62
7
  6
CONTINUOUS
 10
12.3994221792
 20
38.1075442958
 11
12.3994221792
 21
34.417561233
  0
LINE
  5
227
100
AcDbEntity
  8
0
100
AcDbLine
 62
7
  6
CONTINUOUS
 10
31.7742374801
 20
24.0418857656
 11
30.7842838649
 21
24.613422822
  0
LINE
  5
228
100
AcDbEntity
  8
0
100
AcDbLine
 62
7
  6
CONTINUOUS
 10
25.8345157889
 20
27.4711081036
 11
24.8445621736
 21
28.0426451599
  0
LINE
  5
229
100
AcDbEntity
  8
0
100
AcDbLine
 62
7
  6
CONTINUOUS
 10
24.349585366
 20
28.3284136881
 11
23.3596317508
 21
28.8999507444
  0
LINE
  5
22A
100
AcDbEntity
  8
0
100
AcDbLine
 62
7
  6
CONTINUOUS
 10
18.4098636748
 20
31.7576360261
 11
17.4199100596
 21
32.3291730824
  0
LINE
  5
22B
100
AcDbEntity
  8
0
100
AcDbLine
 62
7
  6
CONTINUOUS
 10
17.2784881146
 20
32.4108212333
 11
16.2885344994
 21
32.9823582896
  0
LINE
  5
22C
100
AcDbEntity
  8
0
100
AcDbLine
 62
7
  6
CONTINUOUS
 10
11.3387664233
 20
35.8400435713
 11
10.3488128081
 21
36.4115806276
  0
LINE
  5
22D
100
AcDbEntity
  8
0
100
AcDbLine
 62
7
  6
CONTINUOUS
 10
12.3994221792
 20
38.1075442958
 11
16.2885344994
 21
35.862215047
  0
LINE
  5
22E
100
AcDbEntity
  8
0
100
AcDbLine
 62
7
  6
CONTINUOUS
 10
19.4705194306
 20
34.0251367506
 11
23.3596317508
 21
31.7798075018
  0
LINE
  5
22F
100
AcDbEntity
  8
0
100
AcDbLine
 62
7
  6
CONTINUOUS
 10
26.8951715447
 20
29.7386088282
 11
30.7842838649
 21
27.4932795793
  0
LINE
  5
230
100
AcDbEntity
  8
0
100
AcDbLine
 62
7
  6
CONTINUOUS
 10
16.9299267118
 20
31.3178154767
 11
16.2885344994
 21
32.9823582896
  0
LINE
  5
231
100
AcDbEntity
  8
0
100
AcDbLine
 62
7
  6
CONTINUOUS
 10
17.2784881146
 20
32.4108212333
 11
18.3391438704
 21
29.6582045331
  0
LINE
  5
232
100
AcDbEntity
  8
0
100
AcDbLine
 62
7
  6
CONTINUOUS
 10
18.4805658154
 20
29.5765563822
 11
17.4199100596
 21
32.3291730824
  0
LINE
  5
233
100
AcDbEntity
  8
0
100
AcDbLine
 62
7
  6
CONTINUOUS
 10
18.4098636748
 20
31.7576360261
 11
19.0512558873
 21
30.0930932131
  0
LINE
  5
234
100
AcDbEntity
  8
0
100
AcDbLine
 62
7
  6
CONTINUOUS
 10
14.9697748031
 20
56.6782870465
 11
14.9697748031
 21
55.0452822122
  0
LINE
  5
235
100
AcDbEntity
  8
0
100
AcDbLine
 62
7
  6
CONTINUOUS
 10
10.3488128081
 20
41.2010255496
 11
12.2328567824
 21
47.6734010227
  0
LWPOLYLINE
  5
236
100
AcDbEntity
  8
0
100
AcDbPolyline
 62
7
  6
CONTINUOUS
 90
3
 70
0
 10
18.155319025
 20
69.0627785509
 10
17.877760672
 20
68.3285771536
 10
17.8399729306
 20
67.7234968285
  0
LINE
  5
237
100
AcDbEntity
  8
0
100
AcDbLine
 62
7
  6
CONTINUOUS
 10
30.7842838649
 20
28.6179765424
 11
25.8345157889
 21
31.475661824
  0
LINE
  5
238
100
AcDbEntity
  8
0
100
AcDbLine
 62
7
  6
CONTINUOUS
 10
23.3596317508
 20
32.9045044648
 11
18.4098636748
 21
35.7621897465
  0
LINE
  5
239
100
AcDbEntity
  8
0
100
AcDbLine
 62
7
  6
CONTINUOUS
 10
16.2885344994
 20
36.9869120101
 11
11.3387664233
 21
39.8445972917
  0
LINE
  5
23A
100
AcDbEntity
  8
0
100
AcDbLine
 62
7
  6
CONTINUOUS
 10
31.7742374801
 20
28.8313306876
 11
24.8445621736
 21
32.8320900819
  0
LINE
  5
23B
100
AcDbEntity
  8
0
100
AcDbLine
 62
7
  6
CONTINUOUS
 10
24.349585366
 20
33.11785861
 11
17.4199100596
 21
37.1186180043
  0
LINE
  5
23C
100
AcDbEntity
  8
0
100
AcDbLine
 62
7
  6
CONTINUOUS
 10
17.2784881146
 20
37.2002661553
 11
10.3488128081
 21
41.2010255496
  0
LINE
  5
23D
100
AcDbEntity
  8
0
100
AcDbLine
 62
7
  6
CONTINUOUS
 10
15.4572079498
 20
55.0823385248
 11
15.4572079498
 21
53.4493336905
  0
LINE
  5
23E
100
AcDbEntity
  8
0
100
AcDbLine
 62
7
  6
CONTINUOUS
 10
15.7341921773
 20
51.3298292245
 11
15.7341921773
 21
50.0234253571
  0
LINE
  5
23F
100
AcDbEntity
  8
0
100
AcDbLine
 62
7
  6
CONTINUOUS
 10
16.2885344994
 20
36.98691201
 11
16.2885344994
 21
32.9823582896
  0
LINE
  5
240
100
AcDbEntity
  8
0
100
AcDbLine
 62
7
  6
CONTINUOUS
 10
16.9293655666
 20
54.2324071565
 11
16.9293655666
 21
52.5994023223
  0
LINE
  5
241
100
AcDbEntity
  8
0
100
AcDbLine
 62
7
  6
CONTINUOUS
 10
17.2784881146
 20
37.2002661553
 11
17.2784881146
 21
32.4108212333
  0
LINE
  5
242
100
AcDbEntity
  8
0
100
AcDbLine
 62
7
  6
CONTINUOUS
 10
17.3703969313
 20
52.248602892
 11
17.3703969313
 21
51.0238492663
  0
LINE
  5
243
100
AcDbEntity
  8
0
100
AcDbLine
 62
7
  6
CONTINUOUS
 10
17.4199100596
 20
37.1186180043
 11
17.4199100596
 21
32.3291730824
  0
LINE
  5
244
100
AcDbEntity
  8
0
100
AcDbLine
 62
7
  6
CONTINUOUS
 10
17.8398298757
 20
67.7234968313
 11
17.8398298757
 21
66.4987432056
  0
LINE
  5
245
100
AcDbEntity
  8
0
100
AcDbLine
 62
7
  6
CONTINUOUS
 10
17.8966072885
 20
65.7586363863
 11
17.8966072885
 21
62.0843755092
  0
LINE
  5
246
100
AcDbEntity
  8
0
100
AcDbLine
 62
7
  6
CONTINUOUS
 10
18.1004579882
 20
77.1050859544
 11
18.1004579882
 21
69.3565016656
  0
LINE
  5
247
100
AcDbEntity
  8
0
100
AcDbLine
 62
7
  6
CONTINUOUS
 10
24.0010239633
 20
27.2354079315
 11
23.3596317508
 21
28.8999507444
  0
LINE
  5
248
100
AcDbEntity
  8
0
100
AcDbLine
 62
7
  6
CONTINUOUS
 10
24.349585366
 20
28.3284136881
 11
25.4102411219
 21
25.5757969879
  0
LINE
  5
249
100
AcDbEntity
  8
0
100
AcDbLine
 62
7
  6
CONTINUOUS
 10
25.9052179295
 20
25.2900284597
 11
24.8445621736
 21
28.0426451599
  0
LINE
  5
24A
100
AcDbEntity
  8
0
100
AcDbLine
 62
7
  6
CONTINUOUS
 10
25.8345157889
 20
27.4711081036
 11
26.4759080013
 21
25.8065652907
  0
LINE
  5
24B
100
AcDbEntity
  8
0
100
AcDbLine
 62
7
  6
CONTINUOUS
 10
15.4572079498
 20
53.4493336905
 11
14.9697748031
 21
55.0452822122
  0
LINE
  5
24C
100
AcDbEntity
  8
0
100
AcDbLine
 62
7
  6
CONTINUOUS
 10
14.9697748031
 20
56.6782870465
 11
15.4572079498
 21
55.0823385248
  0
LINE
  5
24D
100
AcDbEntity
  8
0
100
AcDbLine
 62
7
  6
CONTINUOUS
 10
17.8966072885
 20
65.7586363863
 11
17.8399112903
 21
66.4987432142
  0
LINE
  5
24E
100
AcDbEntity
  8
0
100
AcDbLine
 62
7
  6
CONTINUOUS
 10
18.4098636748
 20
35.7621897465
 11
18.4098636748
 21
31.7576360261
  0
LINE
  5
24F
100
AcDbEntity
  8
0
100
AcDbLine
 62
7
  6
CONTINUOUS
 10
18.8169446562
 20
52.160111121
 11
18.8169446562
 21
51.2529745423
  0
LINE
  5
250
100
AcDbEntity
  8
0
100
AcDbLine
 62
7
  6
CONTINUOUS
 10
19.0714019937
 20
52.0804312338
 11
19.0714019937
 21
50.6923771247
  0
LINE
  5
251
100
AcDbEntity
  8
0
100
AcDbLine
 62
7
  6
CONTINUOUS
 10
19.1907226217
 20
59.2960308032
 11
19.1907226217
 21
62.9702916803
  0
LINE
  5
252
100
AcDbEntity
  8
0
100
AcDbLine
 62
7
  6
CONTINUOUS
 10
19.4705194306
 20
34.0251367506
 11
19.4705194306
 21
30.3351536878
  0
LINE
  5
253
100
AcDbEntity
  8
0
100
AcDbLine
 62
7
  6
CONTINUOUS
 10
12.3994221792
 20
38.1075442958
 11
12.8011309292
 21
39.0003198507
  0
LINE
  5
254
100
AcDbEntity
  8
0
100
AcDbLine
 62
7
  6
CONTINUOUS
 10
30.6047734422
 20
37.0666099512
 11
22.2793784611
 21
41.8731702458
  0
LINE
  5
255
100
AcDbEntity
  8
0
100
AcDbLine
 62
7
  6
CONTINUOUS
 10
17.858298614
 20
44.4256241414
 11
9.5329036329
 21
49.2321844359
  0
LINE
  5
256
100
AcDbEntity
  8
0
100
AcDbLine
 62
7
  6
CONTINUOUS
 10
17.3703969313
 20
51.0238492663
 11
16.5053778458
 21
52.8441862092
  0
LINE
  5
257
100
AcDbEntity
  8
0
100
AcDbLine
 62
7
  6
CONTINUOUS
 10
17.228910998
 20
52.5463443819
 11
17.3703969313
 21
52.248602892
  0
LINE
  5
258
100
AcDbEntity
  8
0
100
AcDbLine
 62
7
  6
CONTINUOUS
 10
19.0714019937
 20
50.6923771247
 11
18.8122343841
 21
51.2507884298
  0
LINE
  5
259
100
AcDbEntity
  8
0
100
AcDbLine
 62
7
  6
CONTINUOUS
 10
31.4256760773
 20
22.948880009
 11
30.7842838649
 21
24.613422822
  0
LINE
  5
25A
100
AcDbEntity
  8
0
100
AcDbLine
 62
7
  6
CONTINUOUS
 10
21.2117199961
 20
57.8325611303
 11
21.2117199961
 21
56.4445070212
  0
LINE
  5
25B
100
AcDbEntity
  8
0
100
AcDbLine
 62
7
  6
CONTINUOUS
 10
21.2398298757
 20
59.5158195455
 11
21.2398298757
 21
58.415369276
  0
LINE
  5
25C
100
AcDbEntity
  8
0
100
AcDbLine
 62
7
  6
CONTINUOUS
 10
21.6784826004
 20
49.187212486
 11
21.6784826004
 21
50.5752665951
  0
LINE
  5
25D
100
AcDbEntity
  8
0
100
AcDbLine
 62
7
  6
CONTINUOUS
 10
22.1112071738
 20
49.5115567426
 11
22.1112071738
 21
48.2868031169
  0
LINE
  5
25E
100
AcDbEntity
  8
0
100
AcDbLine
 62
7
  6
CONTINUOUS
 10
22.57739758
 20
49.3385832885
 11
22.57739758
 21
50.9715881227
  0
LINE
  5
25F
100
AcDbEntity
  8
0
100
AcDbLine
 62
7
  6
CONTINUOUS
 10
22.7826255972
 20
45.9541024852
 11
22.7826255972
 21
47.2605063526
  0
LINE
  5
260
100
AcDbEntity
  8
0
100
AcDbLine
 62
7
  6
CONTINUOUS
 10
23.3596317508
 20
32.9045044648
 11
23.3596317508
 21
28.8999507444
  0
LINE
  5
261
100
AcDbEntity
  8
0
100
AcDbLine
 62
7
  6
CONTINUOUS
 10
23.4666278152
 20
53.5124963492
 11
23.4666278152
 21
54.3375561874
  0
LINE
  5
262
100
AcDbEntity
  8
0
100
AcDbLine
 62
7
  6
CONTINUOUS
 10
24.0485911104
 20
50.1222133574
 11
24.0485911104
 21
48.4892085231
  0
LINE
  5
263
100
AcDbEntity
  8
0
100
AcDbLine
 62
7
  6
CONTINUOUS
 10
19.257412344
 20
43.9985897725
 11
17.2784881146
 21
37.2002661553
  0
LINE
  5
264
100
AcDbEntity
  8
0
100
AcDbLine
 62
7
  6
CONTINUOUS
 10
17.4199100596
 20
37.1186180043
 11
19.4062424899
 21
43.9423914827
  0
LINE
  5
265
100
AcDbEntity
  8
0
100
AcDbLine
 62
7
  6
CONTINUOUS
 10
20.4259802
 20
59.4871262661
 11
18.4040242572
 21
58.3057589684
  0
LINE
  5
266
100
AcDbEntity
  8
0
100
AcDbLine
 62
7
  6
CONTINUOUS
 10
18.2550797474
 20
60.8815746832
 11
8.7224739825
 21
55.3779550309
  0
LINE
  5
267
100
AcDbEntity
  8
0
100
AcDbLine
 62
7
  6
CONTINUOUS
 10
14.9697748031
 20
56.6782870465
 11
18.2654620814
 21
58.5810416258
  0
LINE
  5
268
100
AcDbEntity
  8
0
100
AcDbLine
 62
7
  6
CONTINUOUS
 10
34.5776923052
 20
38.4622164302
 11
33.799864276
 21
38.911285493
  0
LINE
  5
269
100
AcDbEntity
  8
0
100
AcDbLine
 62
7
  6
CONTINUOUS
 10
31.7742374801
 20
24.0418857656
 11
32.8348932359
 21
21.2892690654
  0
LINE
  5
26A
100
AcDbEntity
  8
0
100
AcDbLine
 62
7
  6
CONTINUOUS
 10
24.2881286676
 20
54.0425860007
 11
24.2881286676
 21
53.4237929854
  0
LINE
  5
26B
100
AcDbEntity
  8
0
100
AcDbLine
 62
7
  6
CONTINUOUS
 10
24.349585366
 20
28.3284136881
 11
24.349585366
 21
33.11785861
  0
LINE
  5
26C
100
AcDbEntity
  8
0
100
AcDbLine
 62
7
  6
CONTINUOUS
 10
24.8445621736
 20
28.0426451599
 11
24.8445621736
 21
32.8320900819
  0
LINE
  5
26D
100
AcDbEntity
  8
0
100
AcDbLine
 62
7
  6
CONTINUOUS
 10
25.5879569906
 20
53.1128339238
 11
25.5879569906
 21
52.6396545955
  0
LINE
  5
26E
100
AcDbEntity
  8
0
100
AcDbLine
 62
7
  6
CONTINUOUS
 10
25.8345157889
 20
31.475661824
 11
25.8345157889
 21
27.4711081036
  0
LINE
  5
26F
100
AcDbEntity
  8
0
100
AcDbLine
 62
7
  6
CONTINUOUS
 10
26.228394682
 20
58.9071817416
 11
26.228394682
 21
55.2329208645
  0
LINE
  5
270
100
AcDbEntity
  8
0
100
AcDbLine
 62
7
  6
CONTINUOUS
 10
26.8145377542
 20
49.8406441491
 11
26.8145377542
 21
48.2076393148
  0
LINE
  5
271
100
AcDbEntity
  8
0
100
AcDbLine
 62
7
  6
CONTINUOUS
 10
26.8951715447
 20
29.7386088282
 11
26.8951715447
 21
26.0486257654
  0
LINE
  5
272
100
AcDbEntity
  8
0
100
AcDbLine
 62
7
  6
CONTINUOUS
 10
22.2789259476
 20
49.8645138612
 11
22.1112071739
 21
49.5115567426
  0
LINE
  5
273
100
AcDbEntity
  8
0
100
AcDbLine
 62
7
  6
CONTINUOUS
 10
18.8832570605
 20
57.3536630678
 11
21.2398298757
 21
58.7305368164
  0
LINE
  5
274
100
AcDbEntity
  8
0
100
AcDbLine
 62
7
  6
CONTINUOUS
 10
18.902345692
 20
57.3157395207
 11
21.2398298757
 21
58.6652785877
  0
LINE
  5
275
100
AcDbEntity
  8
0
100
AcDbLine
 62
7
  6
CONTINUOUS
 10
21.2117199961
 20
57.8325611303
 11
19.2207819946
 21
56.6830994005
  0
LINE
  5
276
100
AcDbEntity
  8
0
100
AcDbLine
 62
7
  6
CONTINUOUS
 10
29.7943437919
 20
41.9059766788
 11
22.7826255972
 21
45.9541024852
  0
LINE
  5
277
100
AcDbEntity
  8
0
100
AcDbLine
 62
7
  6
CONTINUOUS
 10
15.7341921773
 20
50.0234253571
 11
8.7224739825
 21
54.0715511635
  0
LINE
  5
278
100
AcDbEntity
  8
0
100
AcDbLine
 62
7
  6
CONTINUOUS
 10
29.7943437919
 20
43.2123805462
 11
22.7826255972
 21
47.2605063526
  0
LINE
  5
279
100
AcDbEntity
  8
0
100
AcDbLine
 62
7
  6
CONTINUOUS
 10
15.7341921773
 20
51.3298292245
 11
8.7224739825
 21
55.3779550309
  0
LINE
  5
27A
100
AcDbEntity
  8
0
100
AcDbLine
 62
7
  6
CONTINUOUS
 10
24.0485911104
 20
48.4892085231
 11
22.57739758
 21
49.3385832885
  0
LINE
  5
27B
100
AcDbEntity
  8
0
100
AcDbLine
 62
7
  6
CONTINUOUS
 10
16.9293655666
 20
52.5994023223
 11
15.4572079498
 21
53.4493336905
  0
LINE
  5
27C
100
AcDbEntity
  8
0
100
AcDbLine
 62
7
  6
CONTINUOUS
 10
28.2513218607
 20
48.539027779
 11
28.2513218607
 21
47.3142741533
  0
LINE
  5
27D
100
AcDbEntity
  8
0
100
AcDbLine
 62
7
  6
CONTINUOUS
 10
28.9634583644
 20
49.4483118018
 11
28.9634583644
 21
49.3730998731
  0
LINE
  5
27E
100
AcDbEntity
  8
0
100
AcDbLine
 62
7
  6
CONTINUOUS
 10
29.7943437919
 20
43.2123805462
 11
29.7943437919
 21
41.9059766788
  0
LINE
  5
27F
100
AcDbEntity
  8
0
100
AcDbLine
 62
7
  6
CONTINUOUS
 10
19.4705194306
 20
34.0251367506
 11
19.8722281807
 21
34.9179123055
  0
LINE
  5
280
100
AcDbEntity
  8
0
100
AcDbLine
 62
7
  6
CONTINUOUS
 10
21.2117199961
 20
56.4445070212
 11
20.0117230487
 21
55.7516925961
  0
LINE
  5
281
100
AcDbEntity
  8
0
100
AcDbLine
 62
7
  6
CONTINUOUS
 10
38.0187525143
 20
40.4489016093
 11
37.240924485
 21
40.897970672
  0
LINE
  5
282
100
AcDbEntity
  8
0
100
AcDbLine
 62
7
  6
CONTINUOUS
 10
24.0485911104
 20
50.1222133574
 11
22.57739758
 21
50.9715881227
  0
LINE
  5
283
100
AcDbEntity
  8
0
100
AcDbLine
 62
7
  6
CONTINUOUS
 10
16.9293655666
 20
54.2324071565
 11
15.4572079498
 21
55.0823385248
  0
LINE
  5
284
100
AcDbEntity
  8
0
100
AcDbLine
 62
7
  6
CONTINUOUS
 10
29.7943437919
 20
41.9059766788
 11
30.6047734422
 21
37.0666099512
  0
LINE
  5
285
100
AcDbEntity
  8
0
100
AcDbLine
 62
7
  6
CONTINUOUS
 10
30.1095499776
 20
51.7430089876
 11
30.1095499776
 21
50.1100041534
  0
LINE
  5
286
100
AcDbEntity
  8
0
100
AcDbLine
 62
7
  6
CONTINUOUS
 10
30.4280844556
 20
47.6430067375
 11
30.4280844556
 21
48.8677603632
  0
LINE
  5
287
100
AcDbEntity
  8
0
100
AcDbLine
 62
7
  6
CONTINUOUS
 10
30.7842838649
 20
28.6179765424
 11
30.7842838649
 21
24.613422822
  0
LINE
  5
288
100
AcDbEntity
  8
0
100
AcDbLine
 62
7
  6
CONTINUOUS
 10
31.0580292012
 20
54.4857969278
 11
31.0580292012
 21
58.1600578049
  0
LINE
  5
289
100
AcDbEntity
  8
0
100
AcDbLine
 62
7
  6
CONTINUOUS
 10
31.7742374801
 20
28.8313306876
 11
31.7742374801
 21
24.0418857656
  0
LINE
  5
28A
100
AcDbEntity
  8
0
100
AcDbLine
 62
7
  6
CONTINUOUS
 10
26.2336293403
 20
39.5902340831
 11
24.349585366
 21
33.11785861
  0
LINE
  5
28B
100
AcDbEntity
  8
0
100
AcDbLine
 62
7
  6
CONTINUOUS
 10
24.8445621736
 20
32.8320900819
 11
26.7286061479
 21
39.304465555
  0
LINE
  5
28C
100
AcDbEntity
  8
0
100
AcDbLine
 62
7
  6
CONTINUOUS
 10
31.5848234078
 20
55.6208833645
 11
31.0580292012
 21
54.4857969278
  0
LINE
  5
28D
100
AcDbEntity
  8
0
100
AcDbLine
 62
7
  6
CONTINUOUS
 10
23.7224272662
 20
54.4852411877
 11
23.4666278152
 21
54.3375561874
  0
LINE
  5
28E
100
AcDbEntity
  8
0
100
AcDbLine
 62
7
  6
CONTINUOUS
 10
24.2881286676
 20
53.4237929854
 11
24.015788578
 21
53.2665582999
  0
LINE
  5
28F
100
AcDbEntity
  8
0
100
AcDbLine
 62
7
  6
CONTINUOUS
 10
46.7830524629
 20
65.8396761591
 11
48.8393899251
 21
67.0268960597
  0
LINE
  5
290
100
AcDbEntity
  8
0
100
AcDbLine
 62
7
  6
CONTINUOUS
 10
25.5879569906
 20
53.1128339238
 11
25.8911699372
 21
53.2878929552
  0
LINE
  5
291
100
AcDbEntity
  8
0
100
AcDbLine
 62
7
  6
CONTINUOUS
 10
26.8145377542
 20
48.2076393148
 11
24.0485911104
 21
48.4892085231
  0
LINE
  5
292
100
AcDbEntity
  8
0
100
AcDbLine
 62
7
  6
CONTINUOUS
 10
22.1112071738
 20
49.1202718333
 11
21.6784826004
 21
49.187212486
  0
LINE
  5
293
100
AcDbEntity
  8
0
100
AcDbLine
 62
7
  6
CONTINUOUS
 10
28.2513218607
 20
47.3142741533
 11
22.1112071739
 21
48.2868031169
  0
LINE
  5
294
100
AcDbEntity
  8
0
100
AcDbLine
 62
7
  6
CONTINUOUS
 10
22.1112071739
 20
49.5115567426
 11
22.5198745687
 21
49.4468281669
  0
LINE
  5
295
100
AcDbEntity
  8
0
100
AcDbLine
 62
7
  6
CONTINUOUS
 10
27.5742663178
 20
48.6462661872
 11
28.2513218607
 21
48.539027779
  0
LINE
  5
296
100
AcDbEntity
  8
0
100
AcDbLine
 62
7
  6
CONTINUOUS
 10
40.1180627592
 20
44.7636408946
 11
39.7645078966
 21
44.9677612718
  0
LINE
  5
297
100
AcDbEntity
  8
0
100
AcDbLine
 62
7
  6
CONTINUOUS
 10
33.3121469633
 20
51.9590133481
 11
33.3121469633
 21
51.7306340498
  0
LINE
  5
298
100
AcDbEntity
  8
0
100
AcDbLine
 62
7
  6
CONTINUOUS
 10
52.7108156703
 20
64.7917779287
 11
47.8077756262
 21
61.9610233367
  0
LINE
  5
299
100
AcDbEntity
  8
0
100
AcDbLine
 62
7
  6
CONTINUOUS
 10
30.1095499776
 20
51.7430089876
 11
26.8145377542
 21
49.8406441491
  0
LINE
  5
29A
100
AcDbEntity
  8
0
100
AcDbLine
 62
7
  6
CONTINUOUS
 10
24.0485911104
 20
50.1222133574
 11
26.8145377542
 21
49.8406441491
  0
LINE
  5
29B
100
AcDbEntity
  8
0
100
AcDbLine
 62
7
  6
CONTINUOUS
 10
33.1416029327
 20
52.0574747626
 11
33.3121469633
 21
51.9590133481
  0
LINE
  5
29C
100
AcDbEntity
  8
0
100
AcDbLine
 62
7
  6
CONTINUOUS
 10
26.8951715447
 20
29.7386088282
 11
27.2968802947
 21
30.631384383
  0
LINE
  5
29D
100
AcDbEntity
  8
0
100
AcDbLine
 62
7
  6
CONTINUOUS
 10
30.1095499776
 20
50.9264924611
 11
31.641588442
 21
51.8110100011
  0
LINE
  5
29E
100
AcDbEntity
  8
0
100
AcDbLine
 62
7
  6
CONTINUOUS
 10
52.7108156703
 20
63.1587730944
 11
50.1765734808
 21
61.6956364179
  0
LINE
  5
29F
100
AcDbEntity
  8
0
100
AcDbLine
 62
7
  6
CONTINUOUS
 10
47.8077756262
 20
60.3280185024
 11
44.2071364553
 21
58.2492009167
  0
LINE
  5
2A0
100
AcDbEntity
  8
0
100
AcDbLine
 62
7
  6
CONTINUOUS
 10
33.3121469633
 20
51.9590133481
 11
30.1095499776
 21
50.1100041534
  0
LINE
  5
2A1
100
AcDbEntity
  8
0
100
AcDbLine
 62
7
  6
CONTINUOUS
 10
28.9634583644
 20
49.4483118018
 11
26.8145377542
 21
48.2076393148
  0
LINE
  5
2A2
100
AcDbEntity
  8
0
100
AcDbLine
 62
7
  6
CONTINUOUS
 10
50.1765734808
 20
61.6139861762
 11
50.1288186426
 21
61.5864150721
  0
LINE
  5
2A3
100
AcDbEntity
  8
0
100
AcDbLine
 62
7
  6
CONTINUOUS
 10
49.7594242632
 20
61.1139063449
 11
43.7781608033
 21
57.7015589582
  0
LINE
  5
2A4
100
AcDbEntity
  8
0
100
AcDbLine
 62
7
  6
CONTINUOUS
 10
33.9706123044
 20
52.1062925543
 11
29.3737596402
 21
49.4837599939
  0
LINE
  5
2A5
100
AcDbEntity
  8
0
100
AcDbLine
 62
7
  6
CONTINUOUS
 10
30.4280844556
 20
48.8677603632
 11
37.0195259647
 21
52.6282180589
  0
LINE
  5
2A6
100
AcDbEntity
  8
0
100
AcDbLine
 62
7
  6
CONTINUOUS
 10
42.2549722701
 20
55.6150721974
 11
50.8137490787
 21
60.4979067143
  0
LINE
  5
2A7
100
AcDbEntity
  8
0
100
AcDbLine
 62
7
  6
CONTINUOUS
 10
40.6716172692
 20
59.6472885609
 11
40.6716172692
 21
55.9730276838
  0
LINE
  5
2A8
100
AcDbEntity
  8
0
100
AcDbLine
 62
7
  6
CONTINUOUS
 10
34.5776923052
 20
38.4622164302
 11
31.7742374801
 21
28.8313306876
  0
LWPOLYLINE
  5
2A9
100
AcDbEntity
  8
0
100
AcDbPolyline
 62
7
  6
CONTINUOUS
 90
9
 70
0
 10
45.5858060634
 20
66.3826415328
 10
45.0600496108
 20
64.9863561146
 10
43.2088532097
 20
63.0280073542
 10
40.4766867904
 20
61.4500446546
 10
37.0879433939
 20
60.3811257086
 10
33.3184295331
 20
59.9064728701
 10
29.4675330093
 20
60.0635268327
 10
25.8444148314
 20
60.841488461
 10
22.7408952855
 20
62.1815824425
  0
LINE
  5
2AA
100
AcDbEntity
  8
0
100
AcDbLine
 62
7
  6
CONTINUOUS
 10
44.4187738161
 20
60.9671708856
 11
45.3454208809
 21
62.9759163707
  0
LINE
  5
2AB
100
AcDbEntity
  8
0
100
AcDbLine
 62
7
  6
CONTINUOUS
 10
50.8137490787
 20
59.2731530886
 11
30.4280844556
 21
47.6430067375
  0
LINE
  5
2AC
100
AcDbEntity
  8
0
100
AcDbLine
 62
7
  6
CONTINUOUS
 10
18.8169446562
 20
51.2529745423
 11
17.3703969313
 21
51.0238492663
  0
LINE
  5
2AD
100
AcDbEntity
  8
0
100
AcDbLine
 62
7
  6
CONTINUOUS
 10
17.3703969313
 20
52.248602892
 11
18.1000081053
 21
52.3641693256
  0
LINE
  5
2AE
100
AcDbEntity
  8
0
100
AcDbLine
 62
7
  6
CONTINUOUS
 10
44.2071364553
 20
58.0142484532
 11
44.2071364553
 21
61.6885093303
  0
LINE
  5
2AF
100
AcDbEntity
  8
0
100
AcDbLine
 62
7
  6
CONTINUOUS
 10
37.6747004337
 20
41.1484098378
 11
39.410955978
 21
44.7636391949
  0
LINE
  5
2B0
100
AcDbEntity
  8
0
100
AcDbLine
 62
7
  6
CONTINUOUS
 10
40.1180627592
 20
44.7636408946
 11
38.0187525143
 21
40.4489016093
  0
LINE
  5
2B1
100
AcDbEntity
  8
0
100
AcDbLine
 62
7
  6
CONTINUOUS
 10
12.3994221792
 20
34.417561233
 11
11.9801586358
 21
34.1755007583
  0
LINE
  5
2B2
100
AcDbEntity
  8
0
100
AcDbLine
 62
7
  6
CONTINUOUS
 10
56.2152183562
 20
58.466388534
 11
29.7943437919
 21
43.2123805462
  0
LINE
  5
2B3
100
AcDbEntity
  8
0
100
AcDbLine
 62
7
  6
CONTINUOUS
 10
39.2323603765
 20
56.80396424
 11
40.6716172692
 21
55.9730276838
  0
LINE
  5
2B4
100
AcDbEntity
  8
0
100
AcDbLine
 62
7
  6
CONTINUOUS
 10
46.1746887974
 20
61.2708602927
 11
46.1746887974
 21
62.903865127
  0
LINE
  5
2B5
100
AcDbEntity
  8
0
100
AcDbLine
 62
7
  6
CONTINUOUS
 10
46.5792017632
 20
77.1050859544
 11
46.5792017632
 21
69.3565016656
  0
LINE
  5
2B6
100
AcDbEntity
  8
0
100
AcDbLine
 62
7
  6
CONTINUOUS
 10
46.7830524629
 20
66.1582421675
 11
46.7830524629
 21
63.5645891479
  0
LINE
  5
2B7
100
AcDbEntity
  8
0
100
AcDbLine
 62
7
  6
CONTINUOUS
 10
46.8398298757
 20
67.7234968313
 11
46.8398298757
 21
66.4987432056
  0
LINE
  5
2B8
100
AcDbEntity
  8
0
100
AcDbLine
 62
7
  6
CONTINUOUS
 10
52.7108156703
 20
64.7917779287
 11
52.9696306939
 21
65.3494481142
  0
LINE
  5
2B9
100
AcDbEntity
  8
0
100
AcDbLine
 62
7
  6
CONTINUOUS
 10
52.9696306939
 20
63.7164432799
 11
52.7108156703
 21
63.1587730944
  0
LINE
  5
2BA
100
AcDbEntity
  8
0
100
AcDbLine
 62
7
  6
CONTINUOUS
 10
39.410955978
 20
44.7636391949
 11
55.4614277026
 21
54.030328051
  0
LINE
  5
2BB
100
AcDbEntity
  8
0
100
AcDbLine
 62
7
  6
CONTINUOUS
 10
54.4015602709
 20
53.0101728028
 11
40.1180627592
 21
44.7636408946
  0
LINE
  5
2BC
100
AcDbEntity
  8
0
100
AcDbLine
 62
7
  6
CONTINUOUS
 10
56.3765766216
 20
52.6510597558
 11
54.4015602709
 21
51.9129178158
  0
LINE
  5
2BD
100
AcDbEntity
  8
0
100
AcDbLine
 62
7
  6
CONTINUOUS
 10
54.4015602709
 20
50.9779767493
 11
59.2133355379
 21
52.776328003
  0
LINE
  5
2BE
100
AcDbEntity
  8
0
100
AcDbLine
 62
7
  6
CONTINUOUS
 10
46.7830524629
 20
63.5645891479
 11
45.7205799384
 21
63.4002236888
  0
LINE
  5
2BF
100
AcDbEntity
  8
0
100
AcDbLine
 62
7
  6
CONTINUOUS
 10
21.1567737209
 20
59.6001806837
 11
19.1907226217
 21
59.2960308032
  0
LINE
  5
2C0
100
AcDbEntity
  8
0
100
AcDbLine
 62
7
  6
CONTINUOUS
 10
54.4015602709
 20
53.0101728028
 11
54.0480054084
 21
53.21429318
  0
LINE
  5
2C1
100
AcDbEntity
  8
0
100
AcDbLine
 62
7
  6
CONTINUOUS
 10
47.8077756262
 20
61.9610233367
 11
47.8077756262
 21
60.3280185024
  0
LINE
  5
2C2
100
AcDbEntity
  8
0
100
AcDbLine
 62
7
  6
CONTINUOUS
 10
30.6047734422
 20
37.0666099512
 11
37.6747004337
 21
41.1484098378
  0
LINE
  5
2C3
100
AcDbEntity
  8
0
100
AcDbLine
 62
7
  6
CONTINUOUS
 10
19.4705194306
 20
30.3351536878
 11
19.0512558873
 21
30.0930932131
  0
LINE
  5
2C4
100
AcDbEntity
  8
0
100
AcDbLine
 62
7
  6
CONTINUOUS
 10
18.3391438704
 20
29.6582045331
 11
18.429093755
 21
29.7101368132
  0
LINE
  5
2C5
100
AcDbEntity
  8
0
100
AcDbLine
 62
7
  6
CONTINUOUS
 10
38.0187525143
 20
40.4489016093
 11
34.5776923052
 21
38.4622164302
  0
LINE
  5
2C6
100
AcDbEntity
  8
0
100
AcDbLine
 62
7
  6
CONTINUOUS
 10
54.4015602709
 20
48.4158361439
 11
60.0535472104
 21
50.5282078226
  0
LINE
  5
2C7
100
AcDbEntity
  8
0
100
AcDbLine
 62
7
  6
CONTINUOUS
 10
49.8053146738
 20
67.1763254906
 11
48.8393899251
 21
67.0268960597
  0
LINE
  5
2C8
100
AcDbEntity
  8
0
100
AcDbLine
 62
7
  6
CONTINUOUS
 10
46.1746887974
 20
61.2708602927
 11
47.8077756262
 21
60.3280185024
  0
LINE
  5
2C9
100
AcDbEntity
  8
0
100
AcDbLine
 62
7
  6
CONTINUOUS
 10
50.1765734808
 20
61.6956364179
 11
50.1765734808
 21
61.6139861762
  0
LINE
  5
2CA
100
AcDbEntity
  8
0
100
AcDbLine
 62
7
  6
CONTINUOUS
 10
50.8137490787
 20
60.4979067143
 11
50.8137490787
 21
59.2731530886
  0
LINE
  5
2CB
100
AcDbEntity
  8
0
100
AcDbLine
 62
7
  6
CONTINUOUS
 10
51.6308202504
 20
61.6272393705
 11
51.6308202504
 21
60.4024857448
  0
LINE
  5
2CC
100
AcDbEntity
  8
0
100
AcDbLine
 62
7
  6
CONTINUOUS
 10
52.7108156703
 20
64.7917779287
 11
52.7108156703
 21
63.1587730944
  0
LINE
  5
2CD
100
AcDbEntity
  8
0
100
AcDbLine
 62
7
  6
CONTINUOUS
 10
52.9696306939
 20
65.3494481142
 11
52.9696306939
 21
63.7164432799
  0
LINE
  5
2CE
100
AcDbEntity
  8
0
100
AcDbLine
 62
7
  6
CONTINUOUS
 10
64.870213339
 20
49.5104019668
 11
54.4015602709
 21
45.5978511253
  0
LINE
  5
2CF
100
AcDbEntity
  8
0
100
AcDbLine
 62
7
  6
CONTINUOUS
 10
47.8077756262
 20
61.9610233367
 11
46.1746887974
 21
62.903865127
  0
LINE
  5
2D0
100
AcDbEntity
  8
0
100
AcDbLine
 62
7
  6
CONTINUOUS
 10
54.4015602709
 20
37.1056986895
 11
54.4015602709
 21
53.0101728028
  0
LINE
  5
2D1
100
AcDbEntity
  8
0
100
AcDbLine
 62
7
  6
CONTINUOUS
 10
55.4614277026
 20
54.030328051
 11
56.2152183562
 21
55.9731250499
  0
LINE
  5
2D2
100
AcDbEntity
  8
0
100
AcDbLine
 62
7
  6
CONTINUOUS
 10
25.7250657181
 20
25.7575599683
 11
25.4102411219
 21
25.5757969879
  0
LINE
  5
2D3
100
AcDbEntity
  8
0
100
AcDbLine
 62
7
  6
CONTINUOUS
 10
65.7104250116
 20
47.2622817865
 11
55.1658561258
 21
43.3213581931
  0
LINE
  5
2D4
100
AcDbEntity
  8
0
100
AcDbLine
 62
7
  6
CONTINUOUS
 10
54.5697880702
 20
42.4580487691
 11
54.4015602709
 21
42.3951753686
  0
LINE
  5
2D5
100
AcDbEntity
  8
0
100
AcDbLine
 62
7
  6
CONTINUOUS
 10
54.9547058685
 20
61.1823314116
 11
52.121078251
 21
62.8182900691
  0
LINE
  5
2D6
100
AcDbEntity
  8
0
100
AcDbLine
 62
7
  6
CONTINUOUS
 10
56.2152183562
 20
55.9731250499
 11
56.2152183562
 21
58.466388534
  0
LINE
  5
2D7
100
AcDbEntity
  8
0
100
AcDbLine
 62
7
  6
CONTINUOUS
 10
53.3409045151
 20
33.1283495277
 11
54.4015602709
 21
37.1056986895
  0
LINE
  5
2D8
100
AcDbEntity
  8
0
100
AcDbLine
 62
7
  6
CONTINUOUS
 10
26.8951715447
 20
26.0486257654
 11
26.4759080013
 21
25.8065652907
  0
LINE
  5
2D9
100
AcDbEntity
  8
0
100
AcDbLine
 62
7
  6
CONTINUOUS
 10
49.8053146738
 20
67.1763254906
 11
52.9696306939
 21
65.3494481142
  0
LINE
  5
2DA
100
AcDbEntity
  8
0
100
AcDbLine
 62
7
  6
CONTINUOUS
 10
56.2152183562
 20
58.466388534
 11
54.9547058685
 21
61.1823314116
  0
LINE
  5
2DB
100
AcDbEntity
  8
0
100
AcDbLine
 62
7
  6
CONTINUOUS
 10
32.8348932359
 20
21.2892690654
 11
53.3409045151
 21
33.1283495277
  0
ARC
  5
2DC
100
AcDbEntity
  8
0
100
AcDbCircle
 62
7
  6
CONTINUOUS
 10
30.0530060263
 20
61.0528572277
 40
9.569391652
100
AcDbArc
 50
240.0033275086
 51
240.8458053173
  0
ARC
  5
2DD
100
AcDbEntity
  8
0
100
AcDbCircle
 62
7
  6
CONTINUOUS
 10
39.7019664582
 20
63.1447412371
 40
5.1951789681
100
AcDbArc
 50
330.1898999801
 51
335.2189671972
  0
ARC
  5
2DE
100
AcDbEntity
  8
0
100
AcDbCircle
 62
7
  6
CONTINUOUS
 10
25.1907572535
 20
58.2884688525
 40
4.0063292013
100
AcDbArc
 50
195.3652428737
 51
195.7296645662
  0
ARC
  5
2DF
100
AcDbEntity
  8
0
100
AcDbCircle
 62
7
  6
CONTINUOUS
 10
28.8468083194
 20
50.64657379
 40
1.2878212607
100
AcDbArc
 50
269.4081679106
 51
275.295530694
  0
SPLINE
  5
2E0
100
AcDbEntity
  8
0
100
AcDbSpline
 62
7
  6
CONTINUOUS
 70
0
 71
3
 72
15
 73
11
 74
0
 42
0.0000001
 43
0.0000001
 44
0.0000000001
 40
0.0
 40
0.0
 40
0.0
 40
0.0
 40
0.2571630419
 40
0.3817884957
 40
0.5050814913
 40
0.6280566429
 40
0.7514366168
 40
0.8134050701
 40
0.8755424499
 40
1.0
 40
1.0
 40
1.0
 40
1.0
 10
56.3765766216
 20
52.6510597558
 30
0.0
 10
56.6114414613
 20
52.7388380612
 30
0.0
 10
56.9513669649
 20
52.8975810586
 30
0.0
 10
57.3593759898
 20
53.1749045181
 30
0.0
 10
57.6324279771
 20
53.4135632914
 30
0.0
 10
57.8699344146
 20
53.6862429513
 30
0.0
 10
58.031413461
 20
53.9414329943
 30
0.0
 10
58.1347048566
 20
54.1597960555
 30
0.0
 10
58.2193983036
 20
54.3870806039
 30
0.0
 10
58.2607656406
 20
54.5654901744
 30
0.0
 10
58.2776044381
 20
54.6856613021
 30
0.0
  0
SPLINE
  5
2E1
100
AcDbEntity
  8
0
100
AcDbSpline
 62
7
  6
CONTINUOUS
 70
0
 71
3
 72
9
 73
5
 74
0
 42
0.0000001
 43
0.0000001
 44
0.0000000001
 40
0.0
 40
0.0
 40
0.0
 40
0.0
 40
0.6626740137
 40
1.0
 40
1.0
 40
1.0
 40
1.0
 10
55.8775135844
 20
55.0724057026
 30
0.0
 10
55.8912336914
 20
55.0825141451
 30
0.0
 10
55.9113829326
 20
55.0985694784
 30
0.0
 10
55.9298857892
 20
55.1165007855
 30
0.0
 10
55.9356775164
 20
55.1229590996
 30
0.0
  0
SPLINE
  5
2E2
100
AcDbEntity
  8
0
100
AcDbSpline
 62
7
  6
CONTINUOUS
 70
0
 71
3
 72
19
 73
15
 74
0
 42
0.0000001
 43
0.0000001
 44
0.0000000001
 40
0.0
 40
0.0
 40
0.0
 40
0.0
 40
0.1217349287
 40
0.1824599497
 40
0.2430024577
 40
0.3033391417
 40
0.3635758364
 40
0.4842764916
 40
0.5452292981
 40
0.6068604534
 40
0.6693516644
 40
0.7328946014
 40
0.8636874295
 40
1.0
 40
1.0
 40
1.0
 40
1.0
 10
58.2776044381
 20
54.6856613021
 30
0.0
 10
58.2990375119
 20
54.8386197695
 30
0.0
 10
58.3054053451
 20
55.0725404999
 30
0.0
 10
58.2631673204
 20
55.3783357131
 30
0.0
 10
58.2079026564
 20
55.6024758797
 30
0.0
 10
58.1306744074
 20
55.8192972732
 30
0.0
 10
58.0008746452
 20
56.0969403213
 30
0.0
 10
57.8343877159
 20
56.3567305393
 30
0.0
 10
57.6391752567
 20
56.5960511104
 30
0.0
 10
57.4782708603
 20
56.7673404423
 30
0.0
 10
57.3043829478
 20
56.9302097524
 30
0.0
 10
57.0535868647
 20
57.1385082884
 30
0.0
 10
56.7092128411
 20
57.3794464101
 30
0.0
 10
56.4141633457
 20
57.5471320663
 30
0.0
 10
56.2604818473
 20
57.6264613814
 30
0.0
  0
SPLINE
  5
2E3
100
AcDbEntity
  8
0
100
AcDbSpline
 62
7
  6
CONTINUOUS
 70
0
 71
3
 72
15
 73
11
 74
0
 42
0.0000001
 43
0.0000001
 44
0.0000000001
 40
0.0
 40
0.0
 40
0.0
 40
0.0
 40
0.1121738849
 40
0.2323406144
 40
0.3588795202
 40
0.4895638235
 40
0.6217266332
 40
0.7525632375
 40
0.8794351412
 40
1.0
 40
1.0
 40
1.0
 40
1.0
 10
56.1038155367
 20
54.8251063629
 30
0.0
 10
56.161453342
 20
54.7918299134
 30
0.0
 10
56.2739777296
 20
54.7106262829
 30
0.0
 10
56.4239449001
 20
54.5583349951
 30
0.0
 10
56.5561408014
 20
54.3766605206
 30
0.0
 10
56.6656834392
 20
54.1724831321
 30
0.0
 10
56.7485087718
 20
53.9533792315
 30
0.0
 10
56.80156782
 20
53.7275170379
 30
0.0
 10
56.8228048609
 20
53.5033941485
 30
0.0
 10
56.814943217
 20
53.3560693345
 30
0.0
 10
56.8050024556
 20
53.2852309406
 30
0.0
  0
SPLINE
  5
2E4
100
AcDbEntity
  8
0
100
AcDbSpline
 62
7
  6
CONTINUOUS
 70
0
 71
3
 72
12
 73
8
 74
0
 42
0.0000001
 43
0.0000001
 44
0.0000000001
 40
0.0
 40
0.0
 40
0.0
 40
0.0
 40
0.2816858099
 40
0.539150783
 40
0.7754808882
 40
0.8885722938
 40
1.0
 40
1.0
 40
1.0
 40
1.0
 10
56.8050024556
 20
53.2852309406
 30
0.0
 10
56.79454007
 20
53.2106754259
 30
0.0
 10
56.7614523916
 20
53.069211401
 30
0.0
 10
56.6699309951
 20
52.8810911887
 30
0.0
 10
56.5606783041
 20
52.7576463618
 30
0.0
 10
56.4590258643
 20
52.6872701559
 30
0.0
 10
56.4044732574
 20
52.6614856521
 30
0.0
 10
56.3765766781
 20
52.6510596048
 30
0.0
  0
SPLINE
  5
2E5
100
AcDbEntity
  8
0
100
AcDbSpline
 62
7
  6
CONTINUOUS
 70
0
 71
3
 72
9
 73
5
 74
0
 42
0.0000001
 43
0.0000001
 44
0.0000000001
 40
0.0
 40
0.0
 40
0.0
 40
0.0
 40
0.4821635146
 40
1.0
 40
1.0
 40
1.0
 40
1.0
 10
55.7978178504
 20
54.9301220137
 30
0.0
 10
55.8497894715
 20
54.9244838118
 30
0.0
 10
55.9563586846
 20
54.8994678702
 30
0.0
 10
56.0551929129
 20
54.8531780128
 30
0.0
 10
56.1038155367
 20
54.8251063629
 30
0.0
  0
SPLINE
  5
2E6
100
AcDbEntity
  8
0
100
AcDbSpline
 62
7
  6
CONTINUOUS
 70
0
 71
3
 72
18
 73
14
 74
0
 42
0.0000001
 43
0.0000001
 44
0.0000000001
 40
0.0
 40
0.0
 40
0.0
 40
0.0
 40
0.1311643294
 40
0.2706209498
 40
0.4127326685
 40
0.5513570216
 40
0.6176860395
 40
0.681223784
 40
0.798384306
 40
0.8522380809
 40
0.9032764578
 40
0.9522049558
 40
1.0
 40
1.0
 40
1.0
 40
1.0
 10
54.4133381983
 20
45.5380850391
 30
0.0
 10
54.5311669351
 20
45.4363547401
 30
0.0
 10
54.7483802572
 20
45.1955179545
 30
0.0
 10
54.9980694191
 20
44.7708426173
 30
0.0
 10
55.1677010231
 20
44.2988754011
 30
0.0
 10
55.2326572248
 20
43.8891756603
 30
0.0
 10
55.2324483113
 20
43.5698733775
 30
0.0
 10
55.1993051654
 20
43.2782509939
 30
0.0
 10
55.1176300598
 20
43.0076024774
 30
0.0
 10
54.9836767717
 20
42.7793912703
 30
0.0
 10
54.8645887047
 20
42.6396192944
 30
0.0
 10
54.7264686237
 20
42.529752045
 30
0.0
 10
54.6229216128
 20
42.4779095709
 30
0.0
 10
54.5697869807
 20
42.458051679
 30
0.0
  0
SPLINE
  5
2E7
100
AcDbEntity
  8
0
100
AcDbSpline
 62
7
  6
CONTINUOUS
 70
0
 71
3
 72
15
 73
11
 74
0
 42
0.0000001
 43
0.0000001
 44
0.0000000001
 40
0.0
 40
0.0
 40
0.0
 40
0.0
 40
0.2571630419
 40
0.3817884957
 40
0.5050814913
 40
0.6280566429
 40
0.7514366168
 40
0.8134050701
 40
0.8755424499
 40
1.0
 40
1.0
 40
1.0
 40
1.0
 10
65.7104250116
 20
47.2622817865
 30
0.0
 10
65.9452898512
 20
47.3500600919
 30
0.0
 10
66.2852153548
 20
47.5088030892
 30
0.0
 10
66.6932243797
 20
47.7861265487
 30
0.0
 10
66.9662763671
 20
48.0247853221
 30
0.0
 10
67.2037828046
 20
48.2974649819
 30
0.0
 10
67.3652618509
 20
48.5526550249
 30
0.0
 10
67.4685532465
 20
48.7710180862
 30
0.0
 10
67.5532466935
 20
48.9983026345
 30
0.0
 10
67.5946140305
 20
49.1767122051
 30
0.0
 10
67.611452828
 20
49.2968833327
 30
0.0
  0
SPLINE
  5
2E8
100
AcDbEntity
  8
0
100
AcDbSpline
 62
7
  6
CONTINUOUS
 70
0
 71
3
 72
24
 73
20
 74
0
 42
0.0000001
 43
0.0000001
 44
0.0000000001
 40
0.0
 40
0.0
 40
0.0
 40
0.0
 40
0.0151262474
 40
0.0330934936
 40
0.0536778201
 40
0.0766514039
 40
0.1288665869
 40
0.1881393856
 40
0.2530404291
 40
0.3222790792
 40
0.3946578444
 40
0.4690321058
 40
0.6192547369
 40
0.6929498058
 40
0.7641846857
 40
0.8317966119
 40
0.8945688958
 40
0.9511139481
 40
1.0
 40
1.0
 40
1.0
 40
1.0
 10
65.14966785
 20
49.6418746293
 30
0.0
 10
65.1313534847
 20
49.6618011919
 30
0.0
 10
65.0896228694
 20
49.7038793072
 30
0.0
 10
65.0179124183
 20
49.7678477047
 30
0.0
 10
64.931572456
 20
49.8362326899
 30
0.0
 10
64.7919289006
 20
49.9356607958
 30
0.0
 10
64.5857827302
 20
50.0603897191
 30
0.0
 10
64.3032544082
 20
50.2016635955
 30
0.0
 10
63.9832085177
 20
50.3340206285
 30
0.0
 10
63.633117205
 20
50.4529538588
 30
0.0
 10
63.2601874213
 20
50.5552050019
 30
0.0
 10
62.7403833973
 20
50.6663934578
 30
0.0
 10
62.2097675455
 20
50.7349163656
 30
0.0
 10
61.6819946429
 20
50.7587488136
 30
0.0
 10
61.3014989527
 20
50.7538695494
 30
0.0
 10
60.9415119166
 20
50.7270277393
 30
0.0
 10
60.6101159702
 20
50.6797551708
 30
0.0
 10
60.3159025653
 20
50.6150556936
 30
0.0
 10
60.1354806302
 20
50.5588295911
 30
0.0
 10
60.0535472104
 20
50.5282078226
 30
0.0
  0
SPLINE
  5
2E9
100
AcDbEntity
  8
0
100
AcDbSpline
 62
7
  6
CONTINUOUS
 70
0
 71
3
 72
14
 73
10
 74
0
 42
0.0000001
 43
0.0000001
 44
0.0000000001
 40
0.0
 40
0.0
 40
0.0
 40
0.0
 40
0.3965646817
 40
0.5610718818
 40
0.7016027655
 40
0.8167647614
 40
0.9049977092
 40
0.9658368524
 40
1.0
 40
1.0
 40
1.0
 40
1.0
 10
64.870213339
 20
49.5104019668
 30
0.0
 10
64.9272733449
 20
49.5317275541
 30
0.0
 10
65.0069391757
 20
49.5650621963
 30
0.0
 10
65.1028012098
 20
49.6144015472
 30
0.0
 10
65.158455788
 20
49.6471649975
 30
0.0
 10
65.2024072519
 20
49.6765300512
 30
0.0
 10
65.2346966555
 20
49.7011786613
 30
0.0
 10
65.2557820501
 20
49.7198585239
 30
0.0
 10
65.2660223355
 20
49.7302743232
 30
0.0
 10
65.2695259063
 20
49.7341811302
 30
0.0
  0
SPLINE
  5
2EA
100
AcDbEntity
  8
0
100
AcDbSpline
 62
7
  6
CONTINUOUS
 70
0
 71
3
 72
25
 73
21
 74
0
 42
0.0000001
 43
0.0000001
 44
0.0000000001
 40
0.0
 40
0.0
 40
0.0
 40
0.0
 40
0.0275270404
 40
0.0549885236
 40
0.0823451305
 40
0.1095933072
 40
0.1639340761
 40
0.2189975009
 40
0.2759211181
 40
0.3355865421
 40
0.3983651774
 40
0.4641281905
 40
0.5323314019
 40
0.6021374348
 40
0.6725350164
 40
0.7424503802
 40
0.8108686929
 40
0.876903424
 40
0.9400429314
 40
1.0
 40
1.0
 40
1.0
 40
1.0
 10
67.611452828
 20
49.2968833327
 30
0.0
 10
67.6246529971
 20
49.3910871622
 30
0.0
 10
67.6380152103
 20
49.5813446977
 30
0.0
 10
67.6193559806
 20
49.8661055267
 30
0.0
 10
67.5633473893
 20
50.1449478189
 30
0.0
 10
67.4436416137
 20
50.5027590664
 30
0.0
 10
67.2155675362
 20
50.920964114
 30
0.0
 10
66.8449093441
 20
51.3639869966
 30
0.0
 10
66.3951121044
 20
51.7538567385
 30
0.0
 10
65.8765292674
 20
52.095992009
 30
0.0
 10
65.2969135986
 20
52.3934268609
 30
0.0
 10
64.6647292385
 20
52.6459888982
 30
0.0
 10
63.9904746912
 20
52.8516689192
 30
0.0
 10
63.286692492
 20
53.0077330859
 30
0.0
 10
62.5673723801
 20
53.1115323608
 30
0.0
 10
61.8470730216
 20
53.16103256
 30
0.0
 10
61.1401321057
 20
53.1547403061
 30
0.0
 10
60.4593066824
 20
53.0920167627
 30
0.0
 10
59.8159170524
 20
52.9716566038
 30
0.0
 10
59.4074151835
 20
52.8488632638
 30
0.0
 10
59.2133355379
 20
52.776328003
 30
0.0
  0
SPLINE
  5
2EB
100
AcDbEntity
  8
0
100
AcDbSpline
 62
7
  6
CONTINUOUS
 70
0
 71
3
 72
15
 73
11
 74
0
 42
0.0000001
 43
0.0000001
 44
0.0000000001
 40
0.0
 40
0.0
 40
0.0
 40
0.0
 40
0.1121738849
 40
0.2323406144
 40
0.3588795202
 40
0.4895638235
 40
0.6217266332
 40
0.7525632375
 40
0.8794351412
 40
1.0
 40
1.0
 40
1.0
 40
1.0
 10
65.4376639266
 20
49.4363283936
 30
0.0
 10
65.4953017319
 20
49.403051944
 30
0.0
 10
65.6078261196
 20
49.3218483135
 30
0.0
 10
65.75779329
 20
49.1695570257
 30
0.0
 10
65.8899891913
 20
48.9878825512
 30
0.0
 10
65.9995318291
 20
48.7837051627
 30
0.0
 10
66.0823571617
 20
48.5646012622
 30
0.0
 10
66.1354162099
 20
48.3387390685
 30
0.0
 10
66.1566532508
 20
48.1146161791
 30
0.0
 10
66.148791607
 20
47.9672913652
 30
0.0
 10
66.1388508455
 20
47.8964529712
 30
0.0
  0
SPLINE
  5
2EC
100
AcDbEntity
  8
0
100
AcDbSpline
 62
7
  6
CONTINUOUS
 70
0
 71
3
 72
12
 73
8
 74
0
 42
0.0000001
 43
0.0000001
 44
0.0000000001
 40
0.0
 40
0.0
 40
0.0
 40
0.0
 40
0.2816858099
 40
0.539150783
 40
0.7754808882
 40
0.8885722938
 40
1.0
 40
1.0
 40
1.0
 40
1.0
 10
66.1388508455
 20
47.8964529712
 30
0.0
 10
66.1283884599
 20
47.8218974565
 30
0.0
 10
66.0953007815
 20
47.6804334316
 30
0.0
 10
66.003779385
 20
47.4923132193
 30
0.0
 10
65.894526694
 20
47.3688683924
 30
0.0
 10
65.7928742542
 20
47.2984921865
 30
0.0
 10
65.7383216474
 20
47.2727076827
 30
0.0
 10
65.710425068
 20
47.2622816354
 30
0.0
  0
SPLINE
  5
2ED
100
AcDbEntity
  8
0
100
AcDbSpline
 62
7
  6
CONTINUOUS
 70
0
 71
3
 72
13
 73
9
 74
0
 42
0.0000001
 43
0.0000001
 44
0.0000000001
 40
0.0
 40
0.0
 40
0.0
 40
0.0
 40
0.2814904214
 40
0.538816683
 40
0.6594164702
 40
0.7756191212
 40
0.8886426798
 40
1.0
 40
1.0
 40
1.0
 40
1.0
 10
60.4819730443
 20
51.1623790074
 30
0.0
 10
60.4715113058
 20
51.0878281037
 30
0.0
 10
60.4384955364
 20
50.9464321996
 30
0.0
 10
60.3603606701
 20
50.7861277768
 30
0.0
 10
60.279027241
 20
50.6814503911
 30
0.0
 10
60.2111707065
 20
50.6165046575
 30
0.0
 10
60.1360008411
 20
50.5644001151
 30
0.0
 10
60.0814400432
 20
50.538643906
 30
0.0
 10
60.0535447432
 20
50.5282144229
 30
0.0
  0
SPLINE
  5
2EE
100
AcDbEntity
  8
0
100
AcDbSpline
 62
7
  6
CONTINUOUS
 70
0
 71
3
 72
11
 73
7
 74
0
 42
0.0000001
 43
0.0000001
 44
0.0000000001
 40
0.0
 40
0.0
 40
0.0
 40
0.0
 40
0.2323930154
 40
0.4726683313
 40
0.7273393293
 40
1.0
 40
1.0
 40
1.0
 40
1.0
 10
64.8702132826
 20
49.5104021179
 30
0.0
 10
64.9130499972
 20
49.5264118804
 30
0.0
 10
65.0047997566
 20
49.5477395446
 30
0.0
 10
65.1491905218
 20
49.5447611829
 30
0.0
 10
65.2967768557
 20
49.507781315
 30
0.0
 10
65.3911973869
 20
49.4631552559
 30
0.0
 10
65.4376639266
 20
49.4363283936
 30
0.0
  0
SPLINE
  5
2EF
100
AcDbEntity
  8
0
100
AcDbSpline
 62
7
  6
CONTINUOUS
 70
0
 71
3
 72
18
 73
14
 74
0
 42
0.0000001
 43
0.0000001
 44
0.0000000001
 40
0.0
 40
0.0
 40
0.0
 40
0.0
 40
0.0477940694
 40
0.0967196881
 40
0.1477471719
 40
0.2015792249
 40
0.3186809485
 40
0.3821831191
 40
0.4484769296
 40
0.5870464369
 40
0.7291614817
 40
0.8686783762
 40
1.0
 40
1.0
 40
1.0
 40
1.0
 10
59.2133380051
 20
52.7763214027
 30
0.0
 10
59.2486913305
 20
52.7895392892
 30
0.0
 10
59.3233177209
 20
52.8087020014
 30
0.0
 10
59.4406259654
 20
52.8138750339
 30
0.0
 10
59.5614235109
 20
52.7957256606
 30
0.0
 10
59.7283063367
 20
52.7398044301
 30
0.0
 10
59.8874862056
 20
52.6397419676
 30
0.0
 10
60.0315258634
 20
52.5080146955
 30
0.0
 10
60.1711457192
 20
52.3479993518
 30
0.0
 10
60.3176840033
 20
52.1141776727
 30
0.0
 10
60.4390323984
 20
51.8033080856
 30
0.0
 10
60.4997650521
 20
51.48100918
 30
0.0
 10
60.496384919
 20
51.2650787916
 30
0.0
 10
60.4819730443
 20
51.1623790074
 30
0.0
  0
SPLINE
  5
2F0
100
AcDbEntity
  8
0
100
AcDbSpline
 62
7
  6
CONTINUOUS
 70
0
 71
3
 72
24
 73
20
 74
0
 42
0.0000001
 43
0.0000001
 44
0.0000000001
 40
0.0
 40
0.0
 40
0.0
 40
0.0
 40
0.0217013573
 40
0.0440427819
 40
0.0910780049
 40
0.1418751548
 40
0.1967531663
 40
0.2556975132
 40
0.3184266316
 40
0.3844520305
 40
0.4531292512
 40
0.5237011258
 40
0.595335613
 40
0.6671607078
 40
0.7382966478
 40
0.8078910386
 40
0.8751477157
 40
0.9393741744
 40
1.0
 40
1.0
 40
1.0
 40
1.0
 10
43.2532435962
 20
57.2453493466
 30
0.0
 10
43.2068221972
 20
57.1010239753
 30
0.0
 10
43.0961628243
 20
56.813151766
 30
0.0
 10
42.8064927505
 20
56.2455815068
 30
0.0
 10
42.314429434
 20
55.5588427276
 30
0.0
 10
41.5528636163
 20
54.8058823108
 30
0.0
 10
40.6246914187
 20
54.1210035571
 30
0.0
 10
39.5469010554
 20
53.5157145938
 30
0.0
 10
38.3387514254
 20
53.0001488187
 30
0.0
 10
37.021920237
 20
52.5833247851
 30
0.0
 10
35.6201336446
 20
52.2726393385
 30
0.0
 10
34.1587607347
 20
52.0736820639
 30
0.0
 10
32.6643221417
 20
51.9900510883
 30
0.0
 10
31.1639858939
 20
52.0232709696
 30
0.0
 10
29.6850178162
 20
52.1727265067
 30
0.0
 10
28.2543167523
 20
52.4357259109
 30
0.0
 10
26.8977019982
 20
52.8075170144
 30
0.0
 10
25.6399587096
 20
53.2813866966
 30
0.0
 10
24.8577726437
 20
53.6720945584
 30
0.0
 10
24.4909772826
 20
53.8838591681
 30
0.0
  0
SPLINE
  5
2F1
100
AcDbEntity
  8
0
100
AcDbSpline
 62
7
  6
CONTINUOUS
 70
0
 71
3
 72
27
 73
23
 74
0
 42
0.0000001
 43
0.0000001
 44
0.0000000001
 40
0.0
 40
0.0
 40
0.0
 40
0.0
 40
0.0213296854
 40
0.0428878565
 40
0.0648906967
 40
0.0875331051
 40
0.1109799284
 40
0.1353644341
 40
0.1872599503
 40
0.2149209465
 40
0.2437290636
 40
0.3046707907
 40
0.3697520711
 40
0.4383426328
 40
0.5096221291
 40
0.582639341
 40
0.6563637971
 40
0.7297340172
 40
0.8017034612
 40
0.8712899021
 40
0.9376218772
 40
1.0
 40
1.0
 40
1.0
 40
1.0
 10
46.5791820721
 20
69.3565016672
 30
0.0
 10
46.5791817992
 20
69.1545013626
 30
0.0
 10
46.5531400263
 20
68.7478663662
 30
0.0
 10
46.4362694614
 20
68.1429926287
 30
0.0
 10
46.2425186604
 20
67.5451067412
 30
0.0
 10
45.9730367337
 20
66.9577588832
 30
0.0
 10
45.6296408009
 20
66.3839896765
 30
0.0
 10
45.0642995169
 20
65.6257956937
 30
0.0
 10
44.3657237961
 20
64.9240444351
 30
0.0
 10
43.5624476498
 20
64.2844727578
 30
0.0
 10
42.6439314655
 20
63.6561526588
 30
0.0
 10
41.3521425094
 20
62.9535859877
 30
0.0
 10
39.639409893
 20
62.2635950199
 30
0.0
 10
37.7713547397
 20
61.7252123321
 30
0.0
 10
35.7877122381
 20
61.3497813221
 30
0.0
 10
33.7305527285
 20
61.1452016
 30
0.0
 10
31.6437299475
 20
61.115830105
 30
0.0
 10
29.5717505045
 20
61.2622993509
 30
0.0
 10
27.5588145926
 20
61.5814674553
 30
0.0
 10
25.6476378922
 20
62.0666472148
 30
0.0
 10
23.8790697631
 20
62.7074353777
 30
0.0
 10
22.7827182345
 20
63.2479939709
 30
0.0
 10
22.2711153745
 20
63.5433613377
 30
0.0
  0
SPLINE
  5
2F2
100
AcDbEntity
  8
0
100
AcDbSpline
 62
7
  6
CONTINUOUS
 70
0
 71
3
 72
15
 73
11
 74
0
 42
0.0000001
 43
0.0000001
 44
0.0000000001
 40
0.0
 40
0.0
 40
0.0
 40
0.0
 40
0.1080119238
 40
0.2180604592
 40
0.33199768
 40
0.4513568013
 40
0.5772761708
 40
0.7104911672
 40
0.8514141852
 40
1.0
 40
1.0
 40
1.0
 40
1.0
 10
46.5791865317
 20
77.1050859544
 30
0.0
 10
46.579186592
 20
77.3746568992
 30
0.0
 10
46.5323792533
 20
77.9199761979
 30
0.0
 10
46.3234304248
 20
78.7254326298
 30
0.0
 10
45.9785075194
 20
79.5135330261
 30
0.0
 10
45.502008225
 20
80.2763002633
 30
0.0
 10
44.8993054808
 20
81.0068202339
 30
0.0
 10
44.1765392742
 20
81.6986390223
 30
0.0
 10
43.3409199735
 20
82.3454011324
 30
0.0
 10
42.7296972542
 20
82.7328127767
 30
0.0
 10
42.4085443769
 20
82.9182262822
 30
0.0
  0
SPLINE
  5
2F3
100
AcDbEntity
  8
0
100
AcDbSpline
 62
7
  6
CONTINUOUS
 70
0
 71
3
 72
11
 73
7
 74
0
 42
0.0000001
 43
0.0000001
 44
0.0000000001
 40
0.0
 40
0.0
 40
0.0
 40
0.0
 40
0.2651416743
 40
0.5186567333
 40
0.7626993747
 40
1.0
 40
1.0
 40
1.0
 40
1.0
 10
19.1907226217
 20
59.2960308032
 30
0.0
 10
19.0184857553
 20
59.5099769927
 30
0.0
 10
18.7038177998
 20
59.94719407
 30
0.0
 10
18.3225425841
 20
60.6415759498
 30
0.0
 10
18.046831646
 20
61.3535913581
 30
0.0
 10
17.933958885
 20
61.8414096817
 30
0.0
 10
17.8966072885
 20
62.0843755092
 30
0.0
  0
SPLINE
  5
2F4
100
AcDbEntity
  8
0
100
AcDbSpline
 62
7
  6
CONTINUOUS
 70
0
 71
3
 72
10
 73
6
 74
0
 42
0.0000001
 43
0.0000001
 44
0.0000000001
 40
0.0
 40
0.0
 40
0.0
 40
0.0
 40
0.2670157758
 40
0.5227709004
 40
1.0
 40
1.0
 40
1.0
 40
1.0
 10
23.5010319105
 20
57.7214304052
 30
0.0
 10
23.2685773059
 20
57.8556350976
 30
0.0
 10
22.8221517748
 20
58.1341060507
 30
0.0
 10
22.0115187436
 20
58.7292116535
 30
0.0
 10
21.4706137562
 20
59.2373537549
 30
0.0
 10
21.1567737209
 20
59.6001806837
 30
0.0
  0
SPLINE
  5
2F5
100
AcDbEntity
  8
0
100
AcDbSpline
 62
7
  6
CONTINUOUS
 70
0
 71
3
 72
9
 73
5
 74
0
 42
0.0000001
 43
0.0000001
 44
0.0000000001
 40
0.0
 40
0.0
 40
0.0
 40
0.0
 40
0.5145063165
 40
1.0
 40
1.0
 40
1.0
 40
1.0
 10
26.2196584427
 20
56.5318986379
 30
0.0
 10
25.7348742872
 20
56.6890654708
 30
0.0
 10
24.8059187222
 20
57.037720352
 30
0.0
 10
23.917494721
 20
57.4809909289
 30
0.0
 10
23.5010319105
 20
57.7214304052
 30
0.0
  0
SPLINE
  5
2F6
100
AcDbEntity
  8
0
100
AcDbSpline
 62
7
  6
CONTINUOUS
 70
0
 71
3
 72
9
 73
5
 74
0
 42
0.0000001
 43
0.0000001
 44
0.0000000001
 40
0.0
 40
0.0
 40
0.0
 40
0.0
 40
0.5075557853
 40
1.0
 40
1.0
 40
1.0
 40
1.0
 10
31.0580292012
 20
54.4857969278
 30
0.0
 10
30.231153182
 20
54.528164115
 30
0.0
 10
28.6050770811
 20
54.6925544284
 30
0.0
 10
27.0042572018
 20
55.0247292665
 30
0.0
 10
26.228394682
 20
55.2329208645
 30
0.0
  0
SPLINE
  5
2F7
100
AcDbEntity
  8
0
100
AcDbSpline
 62
7
  6
CONTINUOUS
 70
0
 71
3
 72
11
 73
7
 74
0
 42
0.0000001
 43
0.0000001
 44
0.0000000001
 40
0.0
 40
0.0
 40
0.0
 40
0.0
 40
0.2375192475
 40
0.4860276597
 40
0.7416184838
 40
1.0
 40
1.0
 40
1.0
 40
1.0
 10
39.2323603765
 20
56.80396424
 30
0.0
 10
38.656473568
 20
56.5842044205
 30
0.0
 10
37.4504830418
 20
56.2045426328
 30
0.0
 10
35.5617158398
 20
55.8195817234
 30
0.0
 10
33.5909339456
 20
55.6128357943
 30
0.0
 10
32.2549475662
 20
55.5974722145
 30
0.0
 10
31.5848234078
 20
55.6208833645
 30
0.0
  0
SPLINE
  5
2F8
100
AcDbEntity
  8
0
100
AcDbSpline
 62
7
  6
CONTINUOUS
 70
0
 71
3
 72
11
 73
7
 74
0
 42
0.0000001
 43
0.0000001
 44
0.0000000001
 40
0.0
 40
0.0
 40
0.0
 40
0.0
 40
0.2336427209
 40
0.4784685561
 40
0.7341310189
 40
1.0
 40
1.0
 40
1.0
 40
1.0
 10
44.2071364553
 20
58.0142484532
 30
0.0
 10
43.960690366
 20
57.8115855646
 30
0.0
 10
43.4366050424
 20
57.4197304029
 30
0.0
 10
42.5864755848
 20
56.8864942624
 30
0.0
 10
41.6599918757
 20
56.3978337497
 30
0.0
 10
41.00810818
 20
56.1094216184
 30
0.0
 10
40.6716172692
 20
55.9730276838
 30
0.0
  0
SPLINE
  5
2F9
100
AcDbEntity
  8
0
100
AcDbSpline
 62
7
  6
CONTINUOUS
 70
0
 71
3
 72
15
 73
11
 74
0
 42
0.0000001
 43
0.0000001
 44
0.0000000001
 40
0.0
 40
0.0
 40
0.0
 40
0.0
 40
0.1132111459
 40
0.2277024463
 40
0.3447328939
 40
0.4654092337
 40
0.590639671
 40
0.7211677202
 40
0.8575453054
 40
1.0
 40
1.0
 40
1.0
 40
1.0
 10
46.8397971393
 20
66.4987431977
 30
0.0
 10
46.839804865
 20
66.2849268834
 30
0.0
 10
46.8111374618
 20
65.854339867
 30
0.0
 10
46.6825547798
 20
65.214310077
 30
0.0
 10
46.4693845932
 20
64.582391883
 30
0.0
 10
46.1732424215
 20
63.962494488
 30
0.0
 10
45.7961051056
 20
63.3581887733
 30
0.0
 10
45.3403560486
 20
62.7728578753
 30
0.0
 10
44.8088562155
 20
62.2099768101
 30
0.0
 10
44.4149431644
 20
61.8593974465
 30
0.0
 10
44.2071364553
 20
61.6885093303
 30
0.0
  0
SPLINE
  5
2FA
100
AcDbEntity
  8
0
100
AcDbSpline
 62
7
  6
CONTINUOUS
 70
0
 71
3
 72
9
 73
5
 74
0
 42
0.0000001
 43
0.0000001
 44
0.0000000001
 40
0.0
 40
0.0
 40
0.0
 40
0.0
 40
0.4962107663
 40
1.0
 40
1.0
 40
1.0
 40
1.0
 10
46.8398096423
 20
67.7234968341
 30
0.0
 10
46.8398102905
 20
67.9698977429
 30
0.0
 10
46.8015915683
 20
68.4671852354
 30
0.0
 10
46.6887734636
 20
68.9528416861
 30
0.0
 10
46.6150154201
 20
69.1918852663
 30
0.0
  0
SPLINE
  5
2FB
100
AcDbEntity
  8
0
100
AcDbSpline
 62
7
  6
CONTINUOUS
 70
0
 71
3
 72
15
 73
11
 74
0
 42
0.0000001
 43
0.0000001
 44
0.0000000001
 40
0.0
 40
0.0
 40
0.0
 40
0.0
 40
0.1485804817
 40
0.2895102322
 40
0.4227258485
 40
0.548642864
 40
0.6680028933
 40
0.7819397227
 40
0.89198767
 40
1.0
 40
1.0
 40
1.0
 40
1.0
 10
24.4909772826
 20
53.8838591681
 30
0.0
 10
24.2406385139
 20
54.0283890539
 30
0.0
 10
23.7641754159
 20
54.3303958101
 30
0.0
 10
23.1127766101
 20
54.8345578044
 30
0.0
 10
22.5493489426
 20
55.3738546363
 30
0.0
 10
22.079544154
 20
55.9433285323
 30
0.0
 10
21.7080861389
 20
56.5379129241
 30
0.0
 10
21.4392053649
 20
57.1522612614
 30
0.0
 10
21.2763573658
 20
57.7801414014
 30
0.0
 10
21.2398322439
 20
58.205230293
 30
0.0
 10
21.2398419816
 20
58.4153692615
 30
0.0
  0
SPLINE
  5
2FC
100
AcDbEntity
  8
0
100
AcDbSpline
 62
7
  6
CONTINUOUS
 70
0
 71
3
 72
12
 73
8
 74
0
 42
0.0000001
 43
0.0000001
 44
0.0000000001
 40
0.0
 40
0.0
 40
0.0
 40
0.0
 40
0.1163556465
 40
0.2363444709
 40
0.4848834603
 40
0.7411319797
 40
1.0
 40
1.0
 40
1.0
 40
1.0
 10
40.6716172692
 20
59.6472885609
 30
0.0
 10
40.3193986946
 20
59.5045195419
 30
0.0
 10
39.5942220435
 20
59.2380197014
 30
0.0
 10
38.0766304712
 20
58.7823692292
 30
0.0
 10
36.0741602514
 20
58.3659305956
 30
0.0
 10
33.5884123455
 20
58.1158573771
 30
0.0
 10
31.9024651791
 20
58.1167908867
 30
0.0
 10
31.0580292012
 20
58.1600578049
 30
0.0
  0
SPLINE
  5
2FD
100
AcDbEntity
  8
0
100
AcDbSpline
 62
7
  6
CONTINUOUS
 70
0
 71
3
 72
11
 73
7
 74
0
 42
0.0000001
 43
0.0000001
 44
0.0000000001
 40
0.0
 40
0.0
 40
0.0
 40
0.0
 40
0.2626449806
 40
0.5174875512
 40
0.7635378715
 40
1.0
 40
1.0
 40
1.0
 40
1.0
 10
26.228394682
 20
58.9071817416
 30
0.0
 10
25.8497368093
 20
59.0087891599
 30
0.0
 10
25.1091272465
 20
59.230134503
 30
0.0
 10
24.0381318996
 20
59.6220949839
 30
0.0
 10
23.0303851119
 20
60.0666225153
 30
0.0
 10
22.3925068782
 20
60.4027210114
 30
0.0
 10
22.0868242361
 20
60.5792029745
 30
0.0
  0
SPLINE
  5
2FE
100
AcDbEntity
  8
0
100
AcDbSpline
 62
7
  6
CONTINUOUS
 70
0
 71
3
 72
27
 73
23
 74
0
 42
0.0000001
 43
0.0000001
 44
0.0000000001
 40
0.0
 40
0.0
 40
0.0
 40
0.0
 40
0.0623778191
 40
0.1287093092
 40
0.1982955209
 40
0.2702651243
 40
0.3436353398
 40
0.4173599216
 40
0.4903773293
 40
0.5616570572
 40
0.6302477542
 40
0.6953291202
 40
0.7562708926
 40
0.7850790078
 40
0.8127399893
 40
0.8646354818
 40
0.8890200016
 40
0.91246686
 40
0.9351093083
 40
0.9571121654
 40
0.9786703329
 40
1.0
 40
1.0
 40
1.0
 40
1.0
 10
42.4085443769
 20
82.9182262822
 30
0.0
 10
41.8969438512
 20
83.2135923014
 30
0.0
 10
40.8005990757
 20
83.7541484323
 30
0.0
 10
39.032040049
 20
84.394934957
 30
0.0
 10
37.1208686639
 20
84.8801166058
 30
0.0
 10
35.1079332327
 20
85.1992874697
 30
0.0
 10
33.0359506736
 20
85.3457592798
 30
0.0
 10
30.9491242033
 20
85.3163901705
 30
0.0
 10
28.8919586576
 20
85.1118116227
 30
0.0
 10
26.9083100121
 20
84.7363809797
 30
0.0
 10
25.0402499083
 20
84.1979977616
 30
0.0
 10
23.327514224
 20
83.5080061169
 30
0.0
 10
22.0357236745
 20
82.8054388424
 30
0.0
 10
21.117206973
 20
82.1771184166
 30
0.0
 10
20.3139308555
 20
81.5375468028
 30
0.0
 10
19.6153551987
 20
80.8357953997
 30
0.0
 10
19.0500135248
 20
80.0776010255
 30
0.0
 10
18.7066174692
 20
79.5038306651
 30
0.0
 10
18.4371352064
 20
78.9164817894
 30
0.0
 10
18.2433845943
 20
78.3185950885
 30
0.0
 10
18.1265146753
 20
77.7137210839
 30
0.0
 10
18.1004732649
 20
77.3070861477
 30
0.0
 10
18.1004732197
 20
77.1050859544
 30
0.0
  0
SPLINE
  5
2FF
100
AcDbEntity
  8
0
100
AcDbSpline
 62
7
  6
CONTINUOUS
 70
0
 71
3
 72
10
 73
6
 74
0
 42
0.0000001
 43
0.0000001
 44
0.0000000001
 40
0.0
 40
0.0
 40
0.0
 40
0.0
 40
0.2686234236
 40
0.5248966662
 40
1.0
 40
1.0
 40
1.0
 40
1.0
 10
22.0868242361
 20
60.5792029745
 30
0.0
 10
21.7942331955
 20
60.748126669
 30
0.0
 10
21.2342876556
 20
61.0996727914
 30
0.0
 10
20.2275196448
 20
61.8544168645
 30
0.0
 10
19.5654381561
 20
62.5048340671
 30
0.0
 10
19.1907226217
 20
62.9702916803
 30
0.0
  0
SPLINE
  5
300
100
AcDbEntity
  8
0
100
AcDbSpline
 62
7
  6
CONTINUOUS
 70
0
 71
3
 72
15
 73
11
 74
0
 42
0.0000001
 43
0.0000001
 44
0.0000000001
 40
0.0
 40
0.0
 40
0.0
 40
0.0
 40
0.1485859284
 40
0.2895092671
 40
0.4227244278
 40
0.5486437507
 40
0.668002448
 40
0.7819392191
 40
0.891987886
 40
1.0
 40
1.0
 40
1.0
 40
1.0
 10
22.2711153745
 20
63.5433613377
 30
0.0
 10
21.9499623407
 20
63.7287749336
 30
0.0
 10
21.3387390178
 20
64.116187292
 30
0.0
 10
20.5031188991
 20
64.7629502833
 30
0.0
 10
19.7803524106
 20
65.454770075
 30
0.0
 10
19.1776519217
 20
66.1852904877
 30
0.0
 10
18.7011533749
 20
66.948055194
 30
0.0
 10
18.3562329535
 20
67.7361544264
 30
0.0
 10
18.1472844636
 20
68.5416103023
 30
0.0
 10
18.1004773151
 20
69.0869303193
 30
0.0
 10
18.1004776793
 20
69.356501664
 30
0.0
  0
SPLINE
  5
301
100
AcDbEntity
  8
0
100
AcDbSpline
 62
7
  6
CONTINUOUS
 70
0
 71
3
 72
8
 73
4
 74
0
 42
0.0000001
 43
0.0000001
 44
0.0000000001
 40
0.0
 40
0.0
 40
0.0
 40
0.0
 40
1.0
 40
1.0
 40
1.0
 40
1.0
 10
19.959009722
 20
62.1455102636
 30
0.0
 10
20.3577019905
 20
61.2968026485
 30
0.0
 10
20.7568672392
 20
60.4483168442
 30
0.0
 10
21.1567737209
 20
59.6001806837
 30
0.0
  0
SPLINE
  5
302
100
AcDbEntity
  8
0
100
AcDbSpline
 62
7
  6
CONTINUOUS
 70
0
 71
3
 72
15
 73
11
 74
0
 42
0.0000001
 43
0.0000001
 44
0.0000000001
 40
0.0
 40
0.0
 40
0.0
 40
0.0
 40
0.1080119238
 40
0.2180604592
 40
0.33199768
 40
0.4513568013
 40
0.5772761708
 40
0.7104911672
 40
0.8514141852
 40
1.0
 40
1.0
 40
1.0
 40
1.0
 10
18.1004732197
 20
77.1050859544
 30
0.0
 10
18.1004731594
 20
76.8355150095
 30
0.0
 10
18.1472804981
 20
76.2901957108
 30
0.0
 10
18.3562293266
 20
75.4847392789
 30
0.0
 10
18.701152232
 20
74.6966388826
 30
0.0
 10
19.1776515263
 20
73.9338716455
 30
0.0
 10
19.7803542706
 20
73.2033516748
 30
0.0
 10
20.5031204772
 20
72.5115328865
 30
0.0
 10
21.3387397779
 20
71.8647707763
 30
0.0
 10
21.9499624972
 20
71.477359132
 30
0.0
 10
22.2711153745
 20
71.2919456265
 30
0.0
  0
SPLINE
  5
303
100
AcDbEntity
  8
0
100
AcDbSpline
 62
7
  6
CONTINUOUS
 70
0
 71
3
 72
39
 73
35
 74
0
 42
0.0000001
 43
0.0000001
 44
0.0000000001
 40
0.0
 40
0.0
 40
0.0
 40
0.0
 40
0.0325460815
 40
0.0665609652
 40
0.1018870859
 40
0.138361635
 40
0.1757836581
 40
0.2139328873
 40
0.2914363273
 40
0.3689395877
 40
0.4070889611
 40
0.4445105867
 40
0.4809850175
 40
0.5163128746
 40
0.5503217133
 40
0.582871884
 40
0.6138637567
 40
0.6432474497
 40
0.6710314119
 40
0.6843503498
 40
0.697304756
 40
0.7221968389
 40
0.7459586258
 40
0.7689093222
 40
0.791435286
 40
0.8139613007
 40
0.8369120699
 40
0.8606737851
 40
0.8855663333
 40
0.8985210739
 40
0.9118398354
 40
0.9396222145
 40
0.9690121408
 40
1.0
 40
1.0
 40
1.0
 40
1.0
 10
23.309225593
 20
72.3275936574
 30
0.0
 10
23.6117498369
 20
72.152935155
 30
0.0
 10
24.2462002883
 20
71.822495105
 30
0.0
 10
25.2529852029
 20
71.3931740195
 30
0.0
 10
26.3275892408
 20
71.0227751281
 30
0.0
 10
27.4595488613
 20
70.7148180476
 30
0.0
 10
28.638216647
 20
70.4721730182
 30
0.0
 10
30.2652021245
 20
70.237705676
 30
0.0
 10
32.3398792891
 20
70.121304297
 30
0.0
 10
34.414557657
 20
70.2377139479
 30
0.0
 10
36.0415369375
 20
70.4721950628
 30
0.0
 10
37.220198989
 20
70.7148391839
 30
0.0
 10
38.3521763375
 20
71.0228046979
 30
0.0
 10
39.4267058783
 20
71.393212413
 30
0.0
 10
40.4335639862
 20
71.8225287417
 30
0.0
 10
41.3631835444
 20
72.3067306054
 30
0.0
 10
42.2067431601
 20
72.8413837255
 30
0.0
 10
42.9561653057
 20
73.4214942275
 30
0.0
 10
43.5039612036
 20
73.9458023716
 30
0.0
 10
43.8858236628
 20
74.3830855306
 30
0.0
 10
44.2208334608
 20
74.8185916353
 30
0.0
 10
44.5723519479
 20
75.3813350422
 30
0.0
 10
44.8816874189
 20
76.0880856697
 30
0.0
 10
45.0690919884
 20
76.8106725831
 30
0.0
 10
45.1318621685
 20
77.541404674
 30
0.0
 10
45.0690851553
 20
78.2721370354
 30
0.0
 10
44.8816749685
 20
78.9947226646
 30
0.0
 10
44.5723381907
 20
79.701478568
 30
0.0
 10
44.2208038022
 20
80.2642216147
 30
0.0
 10
43.8857834607
 20
80.6997283044
 30
0.0
 10
43.503933801
 20
81.1369997222
 30
0.0
 10
42.956106304
 20
81.6613645977
 30
0.0
 10
42.2066889182
 20
82.2413999982
 30
0.0
 10
41.6584743232
 20
82.5888787358
 30
0.0
 10
41.3704341584
 20
82.7551750403
 30
0.0
  0
SPLINE
  5
304
100
AcDbEntity
  8
0
100
AcDbSpline
 62
7
  6
CONTINUOUS
 70
0
 71
3
 72
39
 73
35
 74
0
 42
0.0000001
 43
0.0000001
 44
0.0000000001
 40
0.0
 40
0.0
 40
0.0
 40
0.0
 40
0.0325460815
 40
0.0665609652
 40
0.1018870859
 40
0.138361635
 40
0.1757836581
 40
0.2139328873
 40
0.2914363273
 40
0.3689395877
 40
0.4070889611
 40
0.4445105867
 40
0.4809850175
 40
0.5163128746
 40
0.5503217133
 40
0.582871884
 40
0.6138637567
 40
0.6432474497
 40
0.6710314119
 40
0.6843503498
 40
0.697304756
 40
0.7221968389
 40
0.7459586258
 40
0.7689093222
 40
0.791435286
 40
0.8139613007
 40
0.8369120699
 40
0.8606737851
 40
0.8855663333
 40
0.8985210739
 40
0.9118398354
 40
0.9396222145
 40
0.9690121408
 40
1.0
 40
1.0
 40
1.0
 40
1.0
 10
41.3704341584
 20
82.7551750403
 30
0.0
 10
41.0679099144
 20
82.9298335427
 30
0.0
 10
40.4334594631
 20
83.2602735928
 30
0.0
 10
39.4266745485
 20
83.6895946782
 30
0.0
 10
38.3520705106
 20
84.0599935696
 30
0.0
 10
37.2201108901
 20
84.3679506501
 30
0.0
 10
36.0414431044
 20
84.6105956796
 30
0.0
 10
34.4144576268
 20
84.8450630218
 30
0.0
 10
32.3397804623
 20
84.9614644008
 30
0.0
 10
30.2651020944
 20
84.8450547499
 30
0.0
 10
28.6381228139
 20
84.6105736349
 30
0.0
 10
27.4594607624
 20
84.3679295138
 30
0.0
 10
26.3274834139
 20
84.0599639998
 30
0.0
 10
25.2529538731
 20
83.6895562848
 30
0.0
 10
24.2460957652
 20
83.260239956
 30
0.0
 10
23.316476207
 20
82.7760380924
 30
0.0
 10
22.4729165913
 20
82.2413849723
 30
0.0
 10
21.7234944457
 20
81.6612744702
 30
0.0
 10
21.1756985478
 20
81.1369663261
 30
0.0
 10
20.7938360886
 20
80.6996831672
 30
0.0
 10
20.4588262906
 20
80.2641770624
 30
0.0
 10
20.1073078034
 20
79.7014336556
 30
0.0
 10
19.7979723324
 20
78.994683028
 30
0.0
 10
19.610567763
 20
78.2720961146
 30
0.0
 10
19.5477975828
 20
77.5413640237
 30
0.0
 10
19.6105745961
 20
76.8106316624
 30
0.0
 10
19.7979847829
 20
76.0880460332
 30
0.0
 10
20.1073215607
 20
75.3812901298
 30
0.0
 10
20.4588559492
 20
74.818547083
 30
0.0
 10
20.7938762906
 20
74.3830403934
 30
0.0
 10
21.1757259504
 20
73.9457689756
 30
0.0
 10
21.7235534473
 20
73.4214041
 30
0.0
 10
22.4729708332
 20
72.8413686996
 30
0.0
 10
23.0211854282
 20
72.493889962
 30
0.0
 10
23.309225593
 20
72.3275936574
 30
0.0
  0
SPLINE
  5
305
100
AcDbEntity
  8
0
100
AcDbSpline
 62
7
  6
CONTINUOUS
 70
0
 71
3
 72
9
 73
5
 74
0
 42
0.0000001
 43
0.0000001
 44
0.0000000001
 40
0.0
 40
0.0
 40
0.0
 40
0.0
 40
0.2501591257
 40
1.0
 40
1.0
 40
1.0
 40
1.0
 10
31.1848044437
 20
58.163789561
 30
0.0
 10
31.2180749087
 20
57.9517323691
 30
0.0
 10
31.3511590074
 20
57.1040567976
 30
0.0
 10
31.4845454608
 20
56.2564286582
 30
0.0
 10
31.5848234078
 20
55.6208833645
 30
0.0
  0
SPLINE
  5
306
100
AcDbEntity
  8
0
100
AcDbSpline
 62
7
  6
CONTINUOUS
 70
0
 71
3
 72
27
 73
23
 74
0
 42
0.0000001
 43
0.0000001
 44
0.0000000001
 40
0.0
 40
0.0
 40
0.0
 40
0.0
 40
0.0623778191
 40
0.1287093092
 40
0.1982955209
 40
0.2702651243
 40
0.3436353398
 40
0.4173599216
 40
0.4903773293
 40
0.5616570572
 40
0.6302477542
 40
0.6953291202
 40
0.7562708926
 40
0.7850790078
 40
0.8127399893
 40
0.8646354818
 40
0.8890200016
 40
0.91246686
 40
0.9351093083
 40
0.9571121654
 40
0.9786703329
 40
1.0
 40
1.0
 40
1.0
 40
1.0
 10
22.2711153745
 20
71.2919456265
 30
0.0
 10
22.7827159002
 20
70.9965796073
 30
0.0
 10
23.8790606757
 20
70.4560234764
 30
0.0
 10
25.6476197024
 20
69.8152369517
 30
0.0
 10
27.5587910875
 20
69.330055303
 30
0.0
 10
29.5717265187
 20
69.010884439
 30
0.0
 10
31.6437090777
 20
68.8644126289
 30
0.0
 10
33.7305355481
 20
68.8937817382
 30
0.0
 10
35.7877010937
 20
69.098360286
 30
0.0
 10
37.7713497393
 20
69.473790929
 30
0.0
 10
39.6394098431
 20
70.0121741471
 30
0.0
 10
41.3521455274
 20
70.7021657919
 30
0.0
 10
42.6439360769
 20
71.4047330663
 30
0.0
 10
43.5624527783
 20
72.0330534921
 30
0.0
 10
44.3657288959
 20
72.6726251059
 30
0.0
 10
45.0643045527
 20
73.3743765091
 30
0.0
 10
45.6296462266
 20
74.1325708832
 30
0.0
 10
45.9730422822
 20
74.7063412437
 30
0.0
 10
46.242524545
 20
75.2936901193
 30
0.0
 10
46.4362751571
 20
75.8915768202
 30
0.0
 10
46.5531450761
 20
76.4964508249
 30
0.0
 10
46.5791864865
 20
76.903085761
 30
0.0
 10
46.5791865317
 20
77.1050859544
 30
0.0
  0
SPLINE
  5
307
100
AcDbEntity
  8
0
100
AcDbSpline
 62
7
  6
CONTINUOUS
 70
0
 71
3
 72
9
 73
5
 74
0
 42
0.0000001
 43
0.0000001
 44
0.0000000001
 40
0.0
 40
0.0
 40
0.0
 40
0.0
 40
0.2499279053
 40
1.0
 40
1.0
 40
1.0
 40
1.0
 10
39.2323603765
 20
56.80396424
 30
0.0
 10
39.3224108733
 20
57.0318899657
 30
0.0
 10
39.6824447672
 20
57.9439633111
 30
0.0
 10
40.0416660399
 20
58.8563573378
 30
0.0
 10
40.3107276044
 20
59.5408679701
 30
0.0
  0
SPLINE
  5
308
100
AcDbEntity
  8
0
100
AcDbSpline
 62
7
  6
CONTINUOUS
 70
0
 71
3
 72
14
 73
10
 74
0
 42
0.0000001
 43
0.0000001
 44
0.0000000001
 40
0.0
 40
0.0
 40
0.0
 40
0.0
 40
0.1457769177
 40
0.2852071912
 40
0.5445560241
 40
0.6653777201
 40
0.7809408184
 40
0.8921143417
 40
1.0
 40
1.0
 40
1.0
 40
1.0
 10
22.7408952855
 20
62.1815824425
 30
0.0
 10
22.4788088669
 20
62.3328946837
 30
0.0
 10
21.9762114317
 20
62.6473414008
 30
0.0
 10
21.067474417
 20
63.3207632804
 30
0.0
 10
20.2829390715
 20
64.0726126026
 30
0.0
 10
19.6621443521
 20
64.8957294702
 30
0.0
 10
19.2960342759
 20
65.5195757997
 30
0.0
 10
19.0214755892
 20
66.1596986814
 30
0.0
 10
18.8996897283
 20
66.599646542
 30
0.0
 10
18.8555068966
 20
66.8192134725
 30
0.0
  0
SPLINE
  5
309
100
AcDbEntity
  8
0
100
AcDbSpline
 62
7
  6
CONTINUOUS
 70
0
 71
3
 72
28
 73
24
 74
0
 42
0.0000001
 43
0.0000001
 44
0.0000000001
 40
0.0
 40
0.0
 40
0.0
 40
0.0
 40
0.0306651108
 40
0.0624037649
 40
0.1287336384
 40
0.1983179606
 40
0.270285377
 40
0.3436537712
 40
0.4173764586
 40
0.4903918355
 40
0.5616695021
 40
0.6302583412
 40
0.6953379579
 40
0.756278027
 40
0.785085316
 40
0.8127455005
 40
0.8646394874
 40
0.8890232852
 40
0.9124694316
 40
0.9351111891
 40
0.9571133958
 40
0.9786709396
 40
1.0
 40
1.0
 40
1.0
 40
1.0
 10
22.0868242361
 20
61.8039566002
 30
0.0
 10
22.3429388199
 20
61.6560921214
 30
0.0
 10
22.8740324644
 20
61.3720383328
 30
0.0
 10
24.0020175702
 20
60.8520514247
 30
0.0
 10
25.5252993287
 20
60.3001673435
 30
0.0
 10
27.4712440036
 20
59.8061708915
 30
0.0
 10
29.5210811268
 20
59.4811415332
 30
0.0
 10
31.6309722915
 20
59.3319946769
 30
0.0
 10
33.7560013135
 20
59.3619016845
 30
0.0
 10
35.8508179896
 20
59.5702264281
 30
0.0
 10
37.8707724838
 20
59.9525299289
 30
0.0
 10
39.7730229957
 20
60.5007683689
 30
0.0
 10
41.517106771
 20
61.2033904477
 30
0.0
 10
42.8325401886
 20
61.9188178762
 30
0.0
 10
43.7678671572
 20
62.5586387872
 30
0.0
 10
44.5858439409
 20
63.2099163474
 30
0.0
 10
45.2972038522
 20
63.9245114032
 30
0.0
 10
45.8728914344
 20
64.6965818006
 30
0.0
 10
46.2225715382
 20
65.2808524594
 30
0.0
 10
46.4969853568
 20
65.8789500366
 30
0.0
 10
46.6942816689
 20
66.4877785459
 30
0.0
 10
46.8132910875
 20
67.1037225572
 30
0.0
 10
46.8398091011
 20
67.517799621
 30
0.0
 10
46.8398096423
 20
67.7234968341
 30
0.0
  0
SPLINE
  5
30A
100
AcDbEntity
  8
0
100
AcDbSpline
 62
7
  6
CONTINUOUS
 70
0
 71
3
 72
15
 73
11
 74
0
 42
0.0000001
 43
0.0000001
 44
0.0000000001
 40
0.0
 40
0.0
 40
0.0
 40
0.0
 40
0.1080116535
 40
0.2180599452
 40
0.3319965583
 40
0.4513553114
 40
0.5772746622
 40
0.7104900924
 40
0.8514140401
 40
1.0
 40
1.0
 40
1.0
 40
1.0
 10
17.8398501091
 20
67.7234968286
 30
0.0
 10
17.8398493869
 20
67.4489926077
 30
0.0
 10
17.8875144613
 20
66.8936937066
 30
0.0
 10
18.100284162
 20
66.0734972503
 30
0.0
 10
18.4515169664
 20
65.2709740037
 30
0.0
 10
18.9367367106
 20
64.4942483331
 30
0.0
 10
19.5504673656
 20
63.7503547933
 30
0.0
 10
20.2864644669
 20
63.0458706211
 30
0.0
 10
21.1373811477
 20
62.3872685192
 30
0.0
 10
21.7597929712
 20
61.9927639176
 30
0.0
 10
22.0868242361
 20
61.8039566002
 30
0.0
  0
SPLINE
  5
30B
100
AcDbEntity
  8
0
100
AcDbSpline
 62
7
  6
CONTINUOUS
 70
0
 71
3
 72
14
 73
10
 74
0
 42
0.0000001
 43
0.0000001
 44
0.0000000001
 40
0.0
 40
0.0
 40
0.0
 40
0.0
 40
0.1078700356
 40
0.2178106955
 40
0.3316840233
 40
0.4510216154
 40
0.5769988798
 40
0.7104163795
 40
1.0
 40
1.0
 40
1.0
 40
1.0
 10
51.6307997452
 20
60.4024857486
 30
0.0
 10
51.6307992617
 20
60.3500297089
 30
0.0
 10
51.6216452109
 20
60.2438906487
 30
0.0
 10
51.5806201888
 20
60.0871789434
 30
0.0
 10
51.5130238083
 20
59.9338879927
 30
0.0
 10
51.419645093
 20
59.7856132697
 30
0.0
 10
51.3015209776
 20
59.6436660948
 30
0.0
 10
51.107444012
 20
59.4596875706
 30
0.0
 10
50.9360648716
 20
59.3429349966
 30
0.0
 10
50.8137490787
 20
59.2731530886
 30
0.0
  0
SPLINE
  5
30C
100
AcDbEntity
  8
0
100
AcDbSpline
 62
7
  6
CONTINUOUS
 70
0
 71
3
 72
11
 73
7
 74
0
 42
0.0000001
 43
0.0000001
 44
0.0000000001
 40
0.0
 40
0.0
 40
0.0
 40
0.0
 40
0.2352431263
 40
0.4768689245
 40
0.7303717889
 40
1.0
 40
1.0
 40
1.0
 40
1.0
 10
51.6307997452
 20
61.6272393743
 30
0.0
 10
51.6308003234
 20
61.6899744045
 30
0.0
 10
51.6175863421
 20
61.8175141251
 30
0.0
 10
51.5587080165
 20
62.0044072512
 30
0.0
 10
51.4622698311
 20
62.1852739192
 30
0.0
 10
51.3768430685
 20
62.2963848171
 30
0.0
 10
51.3291647177
 20
62.350209438
 30
0.0
  0
SPLINE
  5
30D
100
AcDbEntity
  8
0
100
AcDbSpline
 62
7
  6
CONTINUOUS
 70
0
 71
3
 72
9
 73
5
 74
0
 42
0.0000001
 43
0.0000001
 44
0.0000000001
 40
0.0
 40
0.0
 40
0.0
 40
0.0
 40
0.2433127414
 40
1.0
 40
1.0
 40
1.0
 40
1.0
 10
47.8109002309
 20
66.4434674103
 30
0.0
 10
47.7351215342
 20
66.476287844
 30
0.0
 10
47.4211527414
 20
66.6053152683
 30
0.0
 10
47.0979402384
 20
66.7115165051
 30
0.0
 10
46.8504644722
 20
66.7801666291
 30
0.0
  0
SPLINE
  5
30E
100
AcDbEntity
  8
0
100
AcDbSpline
 62
7
  6
CONTINUOUS
 70
0
 71
3
 72
10
 73
6
 74
0
 42
0.0000001
 43
0.0000001
 44
0.0000000001
 40
0.0
 40
0.0
 40
0.0
 40
0.0
 40
0.2347747926
 40
0.4805724741
 40
1.0
 40
1.0
 40
1.0
 40
1.0
 10
20.5311957942
 20
43.4163376868
 30
0.0
 10
20.3369423158
 20
43.5284874477
 30
0.0
 10
19.9286459004
 20
43.739998423
 30
0.0
 10
19.0470600135
 20
44.1099782927
 30
0.0
 10
18.3423575705
 20
44.3162584877
 30
0.0
 10
17.858298614
 20
44.4256241414
 30
0.0
  0
SPLINE
  5
30F
100
AcDbEntity
  8
0
100
AcDbSpline
 62
7
  6
CONTINUOUS
 70
0
 71
3
 72
10
 73
6
 74
0
 42
0.0000001
 43
0.0000001
 44
0.0000000001
 40
0.0
 40
0.0
 40
0.0
 40
0.0
 40
0.4704229383
 40
0.7278052079
 40
1.0
 40
1.0
 40
1.0
 40
1.0
 10
22.2793784611
 20
41.8731702458
 30
0.0
 10
22.0727925365
 20
42.1779412931
 30
0.0
 10
21.6819487385
 20
42.6030826646
 30
0.0
 10
21.0660637617
 20
43.0867143834
 30
0.0
 10
20.7156953021
 20
43.309819256
 30
0.0
 10
20.5311957942
 20
43.4163376868
 30
0.0
  0
SPLINE
  5
310
100
AcDbEntity
  8
0
100
AcDbSpline
 62
7
  6
CONTINUOUS
 70
0
 71
3
 72
14
 73
10
 74
0
 42
0.0000001
 43
0.0000001
 44
0.0000000001
 40
0.0
 40
0.0
 40
0.0
 40
0.0
 40
0.1446118317
 40
0.2833148398
 40
0.5425742343
 40
0.6638303832
 40
0.779995504
 40
0.8917766044
 40
1.0
 40
1.0
 40
1.0
 40
1.0
 10
22.2636001954
 20
54.0512643859
 30
0.0
 10
22.0051646028
 20
54.2004688694
 30
0.0
 10
21.5083022237
 20
54.5098296406
 30
0.0
 10
20.6034423362
 20
55.1700968901
 30
0.0
 10
19.8129249194
 20
55.9032150801
 30
0.0
 10
19.1705515969
 20
56.7038028494
 30
0.0
 10
18.7802945619
 20
57.3113708229
 30
0.0
 10
18.4737670929
 20
57.9353772343
 30
0.0
 10
18.32457512
 20
58.3656825625
 30
0.0
 10
18.2654620814
 20
58.5810416258
 30
0.0
  0
SPLINE
  5
311
100
AcDbEntity
  8
0
100
AcDbSpline
 62
7
  6
CONTINUOUS
 70
0
 71
3
 72
11
 73
7
 74
0
 42
0.0000001
 43
0.0000001
 44
0.0000000001
 40
0.0
 40
0.0
 40
0.0
 40
0.0
 40
0.2664831458
 40
0.5243394854
 40
0.7698473842
 40
1.0
 40
1.0
 40
1.0
 40
1.0
 10
30.1095499776
 20
51.7430089876
 30
0.0
 10
29.3809843851
 20
51.8096638325
 30
0.0
 10
27.9524225853
 20
52.006018028
 30
0.0
 10
25.8925090765
 20
52.4943275859
 30
0.0
 10
23.9883495416
 20
53.1612270536
 30
0.0
 10
22.8108150459
 20
53.7353368919
 30
0.0
 10
22.2636001954
 20
54.0512643859
 30
0.0
  0
SPLINE
  5
312
100
AcDbEntity
  8
0
100
AcDbSpline
 62
7
  6
CONTINUOUS
 70
0
 71
3
 72
9
 73
5
 74
0
 42
0.0000001
 43
0.0000001
 44
0.0000000001
 40
0.0
 40
0.0
 40
0.0
 40
0.0
 40
0.4901298368
 40
1.0
 40
1.0
 40
1.0
 40
1.0
 10
19.0714019937
 20
52.0804312338
 30
0.0
 10
18.7312943379
 20
52.1999549716
 30
0.0
 10
18.0239600627
 20
52.4066867599
 30
0.0
 10
17.3004436449
 20
52.5451860404
 30
0.0
 10
16.9293655666
 20
52.5994023223
 30
0.0
  0
SPLINE
  5
313
100
AcDbEntity
  8
0
100
AcDbSpline
 62
7
  6
CONTINUOUS
 70
0
 71
3
 72
9
 73
5
 74
0
 42
0.0000001
 43
0.0000001
 44
0.0000000001
 40
0.0
 40
0.0
 40
0.0
 40
0.0
 40
0.2445766863
 40
1.0
 40
1.0
 40
1.0
 40
1.0
 10
22.57739758
 20
49.3385832885
 30
0.0
 10
22.5576522358
 20
49.3836287873
 30
0.0
 10
22.4725156713
 20
49.56585947
 30
0.0
 10
22.3702780297
 20
49.7399754067
 30
0.0
 10
22.2854099174
 20
49.8659696592
 30
0.0
  0
SPLINE
  5
314
100
AcDbEntity
  8
0
100
AcDbSpline
 62
7
  6
CONTINUOUS
 70
0
 71
3
 72
9
 73
5
 74
0
 42
0.0000001
 43
0.0000001
 44
0.0000000001
 40
0.0
 40
0.0
 40
0.0
 40
0.0
 40
0.2409368982
 40
1.0
 40
1.0
 40
1.0
 40
1.0
 10
22.2854099174
 20
49.8659696592
 30
0.0
 10
22.2434765238
 20
49.9282235075
 30
0.0
 10
22.061562863
 20
50.1812788854
 30
0.0
 10
21.8500568299
 20
50.4125347739
 30
0.0
 10
21.6784826004
 20
50.5752665951
 30
0.0
  0
SPLINE
  5
315
100
AcDbEntity
  8
0
100
AcDbSpline
 62
7
  6
CONTINUOUS
 70
0
 71
3
 72
9
 73
5
 74
0
 42
0.0000001
 43
0.0000001
 44
0.0000000001
 40
0.0
 40
0.0
 40
0.0
 40
0.0
 40
0.4759955533
 40
1.0
 40
1.0
 40
1.0
 40
1.0
 10
29.3737596402
 20
49.4837599939
 30
0.0
 10
29.3148364538
 20
49.4501439557
 30
0.0
 10
29.1811009175
 20
49.3967028005
 30
0.0
 10
29.0400254608
 20
49.371151421
 30
0.0
 10
28.9656650995
 20
49.3642490787
 30
0.0
  0
SPLINE
  5
316
100
AcDbEntity
  8
0
100
AcDbSpline
 62
7
  6
CONTINUOUS
 70
0
 71
3
 72
11
 73
7
 74
0
 42
0.0000001
 43
0.0000001
 44
0.0000000001
 40
0.0
 40
0.0
 40
0.0
 40
0.0
 40
0.2175756122
 40
0.4521852862
 40
0.711993906
 40
1.0
 40
1.0
 40
1.0
 40
1.0
 10
50.1288186426
 20
61.5864150721
 30
0.0
 10
50.1244166577
 20
61.5415601436
 30
0.0
 10
50.0997335
 20
61.4493950398
 30
0.0
 10
50.0216533137
 20
61.3223733256
 30
0.0
 10
49.9058788679
 20
61.2072406767
 30
0.0
 10
49.8112441977
 20
61.1434699345
 30
0.0
 10
49.7594242632
 20
61.1139063449
 30
0.0
  0
SPLINE
  5
317
100
AcDbEntity
  8
0
100
AcDbSpline
 62
7
  6
CONTINUOUS
 70
0
 71
3
 72
11
 73
7
 74
0
 42
0.0000001
 43
0.0000001
 44
0.0000000001
 40
0.0
 40
0.0
 40
0.0
 40
0.0
 40
0.2283447176
 40
0.4780504383
 40
0.7391454682
 40
1.0
 40
1.0
 40
1.0
 40
1.0
 10
30.4280844556
 20
47.6430067375
 30
0.0
 10
30.2801369463
 20
47.5586017786
 30
0.0
 10
29.9493057855
 20
47.418061692
 30
0.0
 10
29.4097130132
 20
47.2944382355
 30
0.0
 10
28.833447346
 20
47.253503595
 30
0.0
 10
28.443507444
 20
47.2838339977
 30
0.0
 10
28.2513218607
 20
47.3142741533
 30
0.0
  0
SPLINE
  5
318
100
AcDbEntity
  8
0
100
AcDbSpline
 62
7
  6
CONTINUOUS
 70
0
 71
3
 72
9
 73
5
 74
0
 42
0.0000001
 43
0.0000001
 44
0.0000000001
 40
0.0
 40
0.0
 40
0.0
 40
0.0
 40
0.2482180687
 40
1.0
 40
1.0
 40
1.0
 40
1.0
 10
21.2117199961
 20
57.8325611303
 30
0.0
 10
21.2172365541
 20
57.7818083886
 30
0.0
 10
21.2436315863
 20
57.5778102825
 30
0.0
 10
21.2866591508
 20
57.3760012474
 30
0.0
 10
21.3276290005
 20
57.2269069042
 30
0.0
  0
SPLINE
  5
319
100
AcDbEntity
  8
0
100
AcDbSpline
 62
7
  6
CONTINUOUS
 70
0
 71
3
 72
11
 73
7
 74
0
 42
0.0000001
 43
0.0000001
 44
0.0000000001
 40
0.0
 40
0.0
 40
0.0
 40
0.0
 40
0.2270997942
 40
0.4673162685
 40
0.7243120751
 40
1.0
 40
1.0
 40
1.0
 40
1.0
 10
21.334459009
 20
57.2023576618
 30
0.0
 10
21.4089535596
 20
56.9378588334
 30
0.0
 10
21.6191296813
 20
56.4083837868
 30
0.0
 10
22.0883563914
 20
55.6633173493
 30
0.0
 10
22.7095205975
 20
54.9595683087
 30
0.0
 10
23.2008805787
 20
54.5391853203
 30
0.0
 10
23.4666278152
 20
54.3375561874
 30
0.0
  0
SPLINE
  5
31A
100
AcDbEntity
  8
0
100
AcDbSpline
 62
7
  6
CONTINUOUS
 70
0
 71
3
 72
9
 73
5
 74
0
 42
0.0000001
 43
0.0000001
 44
0.0000000001
 40
0.0
 40
0.0
 40
0.0
 40
0.0
 40
0.2416582312
 40
1.0
 40
1.0
 40
1.0
 40
1.0
 10
46.1746887974
 20
61.2708602927
 30
0.0
 10
46.1026831381
 20
61.3802638909
 30
0.0
 10
45.7918755633
 20
61.8244875293
 30
0.0
 10
45.4324897628
 20
62.2339880644
 30
0.0
 10
45.1411453618
 20
62.5238887147
 30
0.0
  0
SPLINE
  5
31B
100
AcDbEntity
  8
0
100
AcDbSpline
 62
7
  6
CONTINUOUS
 70
0
 71
3
 72
11
 73
7
 74
0
 42
0.0000001
 43
0.0000001
 44
0.0000000001
 40
0.0
 40
0.0
 40
0.0
 40
0.0
 40
0.2608545318
 40
0.5219495617
 40
0.7716552824
 40
1.0
 40
1.0
 40
1.0
 40
1.0
 10
28.2513218607
 20
48.539027779
 30
0.0
 10
28.443507444
 20
48.5085876234
 30
0.0
 10
28.833447346
 20
48.4782572207
 30
0.0
 10
29.4097130132
 20
48.5191918612
 30
0.0
 10
29.9493057855
 20
48.6428153177
 30
0.0
 10
30.2801369463
 20
48.7833554043
 30
0.0
 10
30.4280844556
 20
48.8677603632
 30
0.0
  0
SPLINE
  5
31C
100
AcDbEntity
  8
0
100
AcDbSpline
 62
7
  6
CONTINUOUS
 70
0
 71
3
 72
14
 73
10
 74
0
 42
0.0000001
 43
0.0000001
 44
0.0000000001
 40
0.0
 40
0.0
 40
0.0
 40
0.0
 40
0.2895836205
 40
0.4230011202
 40
0.5489783846
 40
0.6683159767
 40
0.7821893045
 40
0.8921299644
 40
1.0
 40
1.0
 40
1.0
 40
1.0
 10
50.8137490787
 20
60.4979067143
 30
0.0
 10
50.9360648716
 20
60.5676886223
 30
0.0
 10
51.107444012
 20
60.6844411962
 30
0.0
 10
51.3015209776
 20
60.8684197205
 30
0.0
 10
51.419645093
 20
61.0103668954
 30
0.0
 10
51.5130238083
 20
61.1586416184
 30
0.0
 10
51.5806201888
 20
61.3119325691
 30
0.0
 10
51.6216452109
 20
61.4686442744
 30
0.0
 10
51.6307992617
 20
61.5747833346
 30
0.0
 10
51.6307997452
 20
61.6272393743
 30
0.0
  0
SPLINE
  5
31D
100
AcDbEntity
  8
0
100
AcDbSpline
 62
7
  6
CONTINUOUS
 70
0
 71
3
 72
9
 73
5
 74
0
 42
0.0000001
 43
0.0000001
 44
0.0000000001
 40
0.0
 40
0.0
 40
0.0
 40
0.0
 40
0.2534001009
 40
1.0
 40
1.0
 40
1.0
 40
1.0
 10
45.8058735825
 20
63.4139066337
 30
0.0
 10
45.838831112
 20
63.3721779423
 30
0.0
 10
45.9671799375
 20
63.2061600744
 30
0.0
 10
46.0885566038
 20
63.0347322282
 30
0.0
 10
46.1746887974
 20
62.903865127
 30
0.0
  0
SPLINE
  5
31E
100
AcDbEntity
  8
0
100
AcDbSpline
 62
7
  6
CONTINUOUS
 70
0
 71
3
 72
9
 73
5
 74
0
 42
0.0000001
 43
0.0000001
 44
0.0000000001
 40
0.0
 40
0.0
 40
0.0
 40
0.0
 40
0.256578646
 40
1.0
 40
1.0
 40
1.0
 40
1.0
 10
21.6784826004
 20
49.187212486
 30
0.0
 10
21.7194672621
 20
49.1483400478
 30
0.0
 10
21.8765911226
 20
48.9941243141
 30
0.0
 10
22.0229751724
 20
48.8288346824
 30
0.0
 10
22.1238573433
 20
48.699954337
 30
0.0
  0
SPLINE
  5
31F
100
AcDbEntity
  8
0
100
AcDbSpline
 62
7
  6
CONTINUOUS
 70
0
 71
3
 72
9
 73
5
 74
0
 42
0.0000001
 43
0.0000001
 44
0.0000000001
 40
0.0
 40
0.0
 40
0.0
 40
0.0
 40
0.5102122491
 40
1.0
 40
1.0
 40
1.0
 40
1.0
 10
22.4304751755
 20
48.2435973164
 30
0.0
 10
22.5182583
 20
48.0883955134
 30
0.0
 10
22.6665449095
 20
47.7698649949
 30
0.0
 10
22.7555452967
 20
47.4295199914
 30
0.0
 10
22.7826255972
 20
47.2605063526
 30
0.0
  0
SPLINE
  5
320
100
AcDbEntity
  8
0
100
AcDbSpline
 62
7
  6
CONTINUOUS
 70
0
 71
3
 72
11
 73
7
 74
0
 42
0.0000001
 43
0.0000001
 44
0.0000000001
 40
0.0
 40
0.0
 40
0.0
 40
0.0
 40
0.27881236
 40
0.537605793
 40
0.7771581681
 40
1.0
 40
1.0
 40
1.0
 40
1.0
 10
20.5311957942
 20
53.0510662089
 30
0.0
 10
20.7696588988
 20
52.9133925859
 30
0.0
 10
21.2152723266
 20
52.6218687298
 30
0.0
 10
21.7979566243
 20
52.1183006548
 30
0.0
 10
22.2602803813
 20
51.5723941847
 30
0.0
 10
22.4890444844
 20
51.1731500312
 30
0.0
 10
22.57739758
 20
50.9715881227
 30
0.0
  0
SPLINE
  5
321
100
AcDbEntity
  8
0
100
AcDbSpline
 62
7
  6
CONTINUOUS
 70
0
 71
3
 72
11
 73
7
 74
0
 42
0.0000001
 43
0.0000001
 44
0.0000000001
 40
0.0
 40
0.0
 40
0.0
 40
0.0
 40
0.2658725833
 40
0.5228143181
 40
0.7682216306
 40
1.0
 40
1.0
 40
1.0
 40
1.0
 10
16.9293655666
 20
54.2324071565
 30
0.0
 10
17.2635914442
 20
54.1835751574
 30
0.0
 10
17.917349674
 20
54.0613591729
 30
0.0
 10
18.8592060776
 20
53.8008445142
 30
0.0
 10
19.7327355039
 20
53.4701890481
 30
0.0
 10
20.2761846949
 20
53.198293605
 30
0.0
 10
20.5311957942
 20
53.0510662089
 30
0.0
  0
SPLINE
  5
322
100
AcDbEntity
  8
0
100
AcDbSpline
 62
7
  6
CONTINUOUS
 70
0
 71
3
 72
11
 73
7
 74
0
 42
0.0000001
 43
0.0000001
 44
0.0000000001
 40
0.0
 40
0.0
 40
0.0
 40
0.0
 40
0.2661720079
 40
0.5196673174
 40
0.7632060861
 40
1.0
 40
1.0
 40
1.0
 40
1.0
 10
22.2541989105
 20
54.1028890943
 30
0.0
 10
22.1084676214
 20
54.281384945
 30
0.0
 10
21.8439010856
 20
54.6469725779
 30
0.0
 10
21.5300239768
 20
55.2307772103
 30
0.0
 10
21.3130140867
 20
55.8303294881
 30
0.0
 10
21.2338716928
 20
56.2407097715
 30
0.0
 10
21.2117199961
 20
56.4445070212
 30
0.0
  0
SPLINE
  5
323
100
AcDbEntity
  8
0
100
AcDbSpline
 62
7
  6
CONTINUOUS
 70
0
 71
3
 72
9
 73
5
 74
0
 42
0.0000001
 43
0.0000001
 44
0.0000000001
 40
0.0
 40
0.0
 40
0.0
 40
0.0
 40
0.2575882379
 40
1.0
 40
1.0
 40
1.0
 40
1.0
 10
25.2687915036
 20
52.7652430964
 30
0.0
 10
25.1809127884
 20
52.8159787485
 30
0.0
 10
24.8429750336
 20
53.0184260547
 30
0.0
 10
24.5183050019
 20
53.2433688492
 30
0.0
 10
24.2881286676
 20
53.4237929854
 30
0.0
  0
SPLINE
  5
324
100
AcDbEntity
  8
0
100
AcDbSpline
 62
7
  6
CONTINUOUS
 70
0
 71
3
 72
9
 73
5
 74
0
 42
0.0000001
 43
0.0000001
 44
0.0000000001
 40
0.0
 40
0.0
 40
0.0
 40
0.0
 40
0.2522729875
 40
1.0
 40
1.0
 40
1.0
 40
1.0
 10
15.7341921773
 20
51.3298292245
 30
0.0
 10
15.8685626072
 20
51.3226535566
 30
0.0
 10
16.4007317154
 20
51.2861510071
 30
0.0
 10
16.9307729802
 20
51.2175902584
 30
0.0
 10
17.3233822346
 20
51.1473893623
 30
0.0
  0
SPLINE
  5
325
100
AcDbEntity
  8
0
100
AcDbSpline
 62
7
  6
CONTINUOUS
 70
0
 71
3
 72
9
 73
5
 74
0
 42
0.0000001
 43
0.0000001
 44
0.0000000001
 40
0.0
 40
0.0
 40
0.0
 40
0.0
 40
0.25545538
 40
1.0
 40
1.0
 40
1.0
 40
1.0
 10
17.668413388
 20
51.0805634535
 30
0.0
 10
17.7898010586
 20
51.0552188062
 30
0.0
 10
18.2633916595
 20
50.9486214586
 30
0.0
 10
18.7304219506
 20
50.8122074448
 30
0.0
 10
19.0714019937
 20
50.6923771247
 30
0.0
  0
SPLINE
  5
326
100
AcDbEntity
  8
0
100
AcDbSpline
 62
7
  6
CONTINUOUS
 70
0
 71
3
 72
11
 73
7
 74
0
 42
0.0000001
 43
0.0000001
 44
0.0000000001
 40
0.0
 40
0.0
 40
0.0
 40
0.0
 40
0.2354217649
 40
0.4826623754
 40
0.7386760701
 40
1.0
 40
1.0
 40
1.0
 40
1.0
 10
25.5879569906
 20
53.1128339239
 30
0.0
 10
26.0352491936
 20
52.9163325342
 30
0.0
 10
26.97598394
 20
52.5659686139
 30
0.0
 10
28.4607198688
 20
52.176013315
 30
0.0
 10
30.027808998
 20
51.914783912
 30
0.0
 10
31.099639169
 20
51.8306425093
 30
0.0
 10
31.641588442
 20
51.8110100011
 30
0.0
  0
ELLIPSE
  5
327
100
AcDbEntity
  8
0
100
AcDbEllipse
 62
7
  6
CONTINUOUS
 10
15.0157858639
 20
73.3229908816
 30
0.0
 11
-6.1520777117
 21
33.0760514292
 31
0.0
 40
0.144968668
 41
-3.9580955001
 42
-3.6773146349
  0
ELLIPSE
  5
328
100
AcDbEntity
  8
0
100
AcDbEllipse
 62
7
  6
CONTINUOUS
 10
15.0157858639
 20
73.3229908816
 30
0.0
 11
-6.1520777117
 21
33.0760514292
 31
0.0
 40
0.144968668
 41
-2.85255655
 42
-2.5717756849
  0
ENDSEC
  0
SECTION
  2
OBJECTS
  0
DICTIONARY
  5
C
100
AcDbDictionary
280
0
281
1
  3
ACAD_GROUP
350
D
  3
ACAD_MLINESTYLE
350
17
  3
ACAD_LAYOUT
350
1A
  3
ACAD_PLOTSETTINGS
350
19
  3
ACAD_PLOTSTYLENAME
350
E
  0
DICTIONARY
  5
D
102
{ACAD_REACTORS
330
C
102
}
100
AcDbDictionary
280
0
281
1
  0
ACDBDICTIONARYWDFLT
  5
E
102
{ACAD_REACTORS
330
C
102
}
100
AcDbDictionary
281
1
  3
Normal
350
F
100
AcDbDictionaryWithDefault
340
F
  0
DICTIONARY
  5
17
102
{ACAD_REACTORS
330
C
102
}
100
AcDbDictionary
280
0
281
1
  3
Standard
350
18
  0
DICTIONARY
  5
19
102
{ACAD_REACTORS
330
C
102
}
100
AcDbDictionary
281
1
  0
DICTIONARY
  5
1A
102
{ACAD_REACTORS
330
C
102
}
100
AcDbDictionary
281
1
  3
Model
350
329
  3
Layout1
350
32A
  0
ACDBPLACEHOLDER
  5
F
102
{ACAD_REACTORS
330
E
102
}
  0
MLINESTYLE
  5
18
102
{ACAD_REACTORS
330
17
102
}
100
AcDbMlineStyle
  2
STANDARD
 70
0
  3

 62
256
 51
90.0
 52
90.0
 71
2
 49
0.5
 62
256
  6
BYLAYER
 49
-0.5
 62
256
  6
BYLAYER
  0
LAYOUT
  5
329
102
{ACAD_REACTORS
330
1A
102
}
100
AcDbPlotSettings
  1

  2
none_device
  4

  6

 40
0.0
 41
0.0
 42
0.0
 43
0.0
 44
210.0
 45
297.0
 46
0.0
 47
0.0
 48
0.0
 49
0.0
140
0.0
141
0.0
142
1.0
143
1.0
 70
1024
 72
1
 73
0
 74
0
  7

 75
0
147
1.0
148
0.0
149
0.0
100
AcDbLayout
  1
Model
 70
0
 71
0
 10
0.0
 20
0.0
 11
210.0
 21
297.0
 12
0.0
 22
0.0
 32
0.0
 14
0.0
 24
0.0
 34
0.0
 15
0.0
 25
0.0
 35
0.0
146
0.0
 13
0.0
 23
0.0
 33
0.0
 16
1.0
 26
0.0
 36
0.0
 17
0.0
 27
1.0
 37
0.0
 76
0
330
210
345
0
346
0
  0
LAYOUT
  5
32A
102
{ACAD_REACTORS
330
1A
102
}
100
AcDbPlotSettings
  1

  2
none_device
  4

  6

 40
0.0
 41
0.0
 42
0.0
 43
0.0
 44
210.0
 45
297.0
 46
0.0
 47
0.0
 48
0.0
 49
0.0
140
0.0
141
0.0
142
1.0
143
1.0
 70
0
 72
1
 73
0
 74
0
  7

 75
0
147
1.0
148
0.0
149
0.0
100
AcDbLayout
  1
Layout1
 70
0
 71
1
 10
0.0
 20
0.0
 11
210.0
 21
297.0
 12
0.0
 22
0.0
 32
0.0
 14
0.0
 24
0.0
 34
0.0
 15
0.0
 25
0.0
 35
0.0
146
0.0
 13
0.0
 23
0.0
 33
0.0
 16
1.0
 26
0.0
 36
0.0
 17
0.0
 27
1.0
 37
0.0
 76
0
330
211
345
0
346
0
  0
ENDSEC
  0
EOF
