999
DXF file: C:\Users\sesa63760\Dev\_Creo\CAD\MCADUE0002390_3D-CAD\drw0001_5.dxf
999
Pro/ENGINEER 2019471 by Parametric Technology Corporation
  0
SECTION
  2
HEADER
  9
$ACADVER
  1
AC1024
  9
$DWGCODEPAGE
  3
ANSI_1252
  9
$EXTMAX
 10
480.9116685261
 20
680.1465026298
 30
0.0
  9
$EXTMIN
 10
0.0
 20
0.0
 30
0.0
  9
$LIMMIN
 10
0.0
 20
0.0
  9
$LIMMAX
 10
480.9116685261
 20
680.1465026298
  9
$VIEWCTR
 10
240.4558342631
 20
340.0732513149
  9
$VIEWSIZE
 40
680.1465026298
  9
$CLAYER
  8
0
  9
$LTSCALE
 40
44.335475727
  9
$CELTYPE
  6
BYLAYER
  9
$DIMSCALE
 40
1.0
  9
$DIMASZ
 40
5.725138911
  9
$DIMEXO
 40
1.0
  9
$DIMDLI
 40
30.6317832295
  9
$DIMEXE
 40
1.0
  9
$DIMCEN
 40
7.2548960281
  9
$DIMLFAC
 40
1.0
  9
$DIMBLK
  1
_FILLED
  9
$DIMALT
 70
0
  9
$DIMALTF
 40
0.0393700787
  9
$DIMTXT
 40
8.0151944754
  9
$DIMTOL
 70
1
  9
$DIMLIM
 70
0
  9
$DIMTFAC
 40
1.0
  9
$DIMTP
 40
0.01
  9
$DIMTM
 40
0.01
  9
$DIMGAP
 40
0.625
  9
$DIMDSEP
 70
46
  9
$AUNITS
 70
0
  9
$PDMODE
 70
3
  9
$PDSIZE
 40
0.3125
  9
$HANDSEED
  5
4EA
  9
$TILEMODE
 70
1
  9
$MEASUREMENT
 70
1
  9
$INSUNITS
 70
4
  0
ENDSEC
  0
SECTION
  2
CLASSES
  0
CLASS
  1
ACDBDICTIONARYWDFLT
  2
AcDbDictionaryWithDefault
  3
AutoCAD 2000
 90
0
 91
1
280
0
281
0
  0
CLASS
  1
ACDBPLACEHOLDER
  2
AcDbPlaceHolder
  3
AutoCAD 2000
 90
0
 91
1
280
0
281
0
  0
CLASS
  1
LAYOUT
  2
AcDbLayout
  3
AutoCAD 2000
 90
0
 91
0
280
0
281
0
  0
ENDSEC
  0
SECTION
  2
TABLES
  0
TABLE
  2
VPORT
  5
8
100
AcDbSymbolTable
 70
2
  0
VPORT
  5
1F4
100
AcDbSymbolTableRecord
100
AcDbViewportTableRecord
  2
*ACTIVE
 70
0
 10
0.0
 20
0.0
 11
1.0
 21
1.0
 12
240.4558342631
 22
340.0732513149
 13
0.0
 23
0.0
 14
1.0
 24
1.0
 15
0.0
 25
0.0
 16
0.0
 26
0.0
 36
1.0
 17
0.0
 27
0.0
 37
0.0
 40
680.1465026298
 41
0.7070707071
 42
50.0
 43
0.0
 44
0.0
 50
0.0
 51
0.0
 71
0
 72
100
 73
1
 74
1
 75
0
 76
0
 77
0
 78
0
  0
ENDTAB
  0
TABLE
  2
LTYPE
  5
5
100
AcDbSymbolTable
 70
6
  0
LTYPE
  5
14
100
AcDbSymbolTableRecord
100
AcDbLinetypeTableRecord
  2
BYBLOCK
 70
0
  3

 72
65
 73
0
 40
0.0
  0
LTYPE
  5
15
100
AcDbSymbolTableRecord
100
AcDbLinetypeTableRecord
  2
BYLAYER
 70
0
  3

 72
65
 73
0
 40
0.0
  0
LTYPE
  5
16
100
AcDbSymbolTableRecord
100
AcDbLinetypeTableRecord
  2
CONTINUOUS
 70
64
  3
Solid line
 72
65
 73
0
 40
0.0
  0
LTYPE
  5
1F5
100
AcDbSymbolTableRecord
100
AcDbLinetypeTableRecord
  2
CENTER
 70
64
  3
____ _ ____ _ ____ _ ____ _ ____ _ ____ _ ____
 72
65
 73
4
 40
0.6
 49
0.375
 74
0
 49
-0.075
 74
0
 49
0.075
 74
0
 49
-0.075
 74
0
  0
LTYPE
  5
1F6
100
AcDbSymbolTableRecord
100
AcDbLinetypeTableRecord
  2
HIDDEN
 70
64
  3
- - - - - - - - - - - - - - - - - - - -
 72
65
 73
2
 40
0.2
 49
0.1
 74
0
 49
-0.1
 74
0
  0
LTYPE
  5
1F7
100
AcDbSymbolTableRecord
100
AcDbLinetypeTableRecord
  2
PHANTOM
 70
64
  3
_____ _ _ _____ _ _ _____ _ _ _____
 72
65
 73
6
 40
0.8
 49
0.45
 74
0
 49
-0.05
 74
0
 49
0.1
 74
0
 49
-0.05
 74
0
 49
0.1
 74
0
 49
-0.05
 74
0
  0
LTYPE
  5
1F8
100
AcDbSymbolTableRecord
100
AcDbLinetypeTableRecord
  2
DOT
 70
64
  3
. . . . . . . . . . . . . . . . . . . .
 72
65
 73
2
 40
0.2
 49
0.1
 74
0
 49
-0.1
 74
0
  0
LTYPE
  5
1F9
100
AcDbSymbolTableRecord
100
AcDbLinetypeTableRecord
  2
DASHED
 70
64
  3
- - - - - - - - - - - - - - - - - - - -
 72
65
 73
2
 40
0.2
 49
0.1
 74
0
 49
-0.1
 74
0
  0
ENDTAB
  0
TABLE
  2
LAYER
  5
2
100
AcDbSymbolTable
 70
36
  0
LAYER
  5
10
100
AcDbSymbolTableRecord
100
AcDbLayerTableRecord
  2
0
 70
0
 62
7
  6
CONTINUOUS
370
-3
390
F
  0
LAYER
  5
1FA
100
AcDbSymbolTableRecord
100
AcDbLayerTableRecord
  2
DEFAULT_1
 70
0
 62
7
  6
CENTER
370
-3
390
F
  0
LAYER
  5
1FB
100
AcDbSymbolTableRecord
100
AcDbLayerTableRecord
  2
DEFAULT_2
 70
0
 62
8
  6
HIDDEN
370
-3
390
F
  0
LAYER
  5
1FC
100
AcDbSymbolTableRecord
100
AcDbLayerTableRecord
  2
DEFAULT_3
 70
0
 62
7
  6
PHANTOM
370
-3
390
F
  0
LAYER
  5
1FD
100
AcDbSymbolTableRecord
100
AcDbLayerTableRecord
  2
00_COMPONENTS
 70
0
 62
7
  6
CONTINUOUS
370
-3
390
F
  0
LAYER
  5
1FE
100
AcDbSymbolTableRecord
100
AcDbLayerTableRecord
  2
01_1_DEFAULT_DATUMS
 70
0
 62
7
  6
CONTINUOUS
370
-3
390
F
  0
LAYER
  5
1FF
100
AcDbSymbolTableRecord
100
AcDbLayerTableRecord
  2
01_PLANES
 70
0
 62
7
  6
CONTINUOUS
370
-3
390
F
  0
LAYER
  5
200
100
AcDbSymbolTableRecord
100
AcDbLayerTableRecord
  2
02_COORD_SYS
 70
0
 62
7
  6
CONTINUOUS
370
-3
390
F
  0
LAYER
  5
201
100
AcDbSymbolTableRecord
100
AcDbLayerTableRecord
  2
03_AXES
 70
0
 62
7
  6
CONTINUOUS
370
-3
390
F
  0
LAYER
  5
202
100
AcDbSymbolTableRecord
100
AcDbLayerTableRecord
  2
04_POINTS
 70
0
 62
7
  6
CONTINUOUS
370
-3
390
F
  0
LAYER
  5
203
100
AcDbSymbolTableRecord
100
AcDbLayerTableRecord
  2
05_CURVES
 70
0
 62
7
  6
CONTINUOUS
370
-3
390
F
  0
LAYER
  5
204
100
AcDbSymbolTableRecord
100
AcDbLayerTableRecord
  2
06_SURFS
 70
0
 62
7
  6
CONTINUOUS
370
-3
390
F
  0
LAYER
  5
205
100
AcDbSymbolTableRecord
100
AcDbLayerTableRecord
  2
07_COSMETICS
 70
0
 62
7
  6
CONTINUOUS
370
-3
390
F
  0
LAYER
  5
206
100
AcDbSymbolTableRecord
100
AcDbLayerTableRecord
  2
10_NOTES
 70
0
 62
7
  6
CONTINUOUS
370
-3
390
F
  0
LAYER
  5
207
100
AcDbSymbolTableRecord
100
AcDbLayerTableRecord
  2
11_NOTES_PUB
 70
0
 62
7
  6
CONTINUOUS
370
-3
390
F
  0
LAYER
  5
208
100
AcDbSymbolTableRecord
100
AcDbLayerTableRecord
  2
13_REF_GTOL
 70
0
 62
7
  6
CONTINUOUS
370
-3
390
F
  0
LAYER
  5
209
100
AcDbSymbolTableRecord
100
AcDbLayerTableRecord
  2
16_MISC
 70
0
 62
7
  6
CONTINUOUS
370
-3
390
F
  0
LAYER
  5
20A
100
AcDbSymbolTableRecord
100
AcDbLayerTableRecord
  2
17_NO_PRINT
 70
0
 62
7
  6
CONTINUOUS
370
-3
390
F
  0
LAYER
  5
20B
100
AcDbSymbolTableRecord
100
AcDbLayerTableRecord
  2
18_DATUM_CAMS_JOINTS
 70
0
 62
7
  6
CONTINUOUS
370
-3
390
F
  0
LAYER
  5
20C
100
AcDbSymbolTableRecord
100
AcDbLayerTableRecord
  2
19_DATUM_FUNCTIONAL
 70
0
 62
7
  6
CONTINUOUS
370
-3
390
F
  0
LAYER
  5
20D
100
AcDbSymbolTableRecord
100
AcDbLayerTableRecord
  2
20_DATUM_KINEMATIC_SCHEME
 70
0
 62
7
  6
CONTINUOUS
370
-3
390
F
  0
ENDTAB
  0
TABLE
  2
STYLE
  5
3
100
AcDbSymbolTable
 70
1
  0
STYLE
  5
11
100
AcDbSymbolTableRecord
100
AcDbTextStyleTableRecord
  2
STANDARD
 70
0
 40
0.0
 41
0.8
 50
0.0
 71
0
 42
0.2
  3
txt
  4

  0
STYLE
  5
20E
100
AcDbSymbolTableRecord
100
AcDbTextStyleTableRecord
  2
TEXTSTYLE_1
 70
0
 40
0.0
 41
0.8
 50
0.0
 71
0
 42
0.2
  3
gdt
  4

  0
ENDTAB
  0
TABLE
  2
VIEW
  5
6
100
AcDbSymbolTable
 70
0
  0
ENDTAB
  0
TABLE
  2
UCS
  5
7
100
AcDbSymbolTable
 70
0
  0
ENDTAB
  0
TABLE
  2
APPID
  5
9
100
AcDbSymbolTable
 70
1
  0
APPID
  5
20F
100
AcDbSymbolTableRecord
100
AcDbRegAppTableRecord
  2
ACAD
 70
0
  0
ENDTAB
  0
TABLE
  2
BLOCK_RECORD
  5
1
100
AcDbSymbolTable
 70
0
  0
BLOCK_RECORD
  5
210
100
AcDbSymbolTableRecord
100
AcDbBlockTableRecord
  2
*Model_Space
  0
BLOCK_RECORD
  5
211
100
AcDbSymbolTableRecord
100
AcDbBlockTableRecord
  2
*Paper_Space
  0
BLOCK_RECORD
  5
212
100
AcDbSymbolTableRecord
100
AcDbBlockTableRecord
  2
_FILLED
  0
ENDTAB
  0
TABLE
  2
DIMSTYLE
  5
A
100
AcDbSymbolTable
 70
1
100
AcDbDimStyleTable
 71
0
  0
DIMSTYLE
105
213
100
AcDbSymbolTableRecord
100
AcDbDimStyleTableRecord
  2
STANDARD
 70
0
  3

  4

 40
1.0
 41
5.725138911
 42
1.0
 43
0.38
 44
1.0
 45
0.0
 46
0.0
 47
0.01
 48
0.01
140
8.0151944754
141
0.09
142
0.0
143
25.4
144
1.0
145
0.0
146
1.0
147
0.625
 71
1
 72
0
 73
0
 74
0
 75
0
 76
0
 77
1
 78
8
 79
2
170
0
171
1
172
0
173
0
174
0
175
0
176
0
177
0
178
0
270
2
179
2
271
2
272
2
273
2
274
2
275
0
280
0
281
0
282
0
283
1
284
8
285
0
286
0
287
3
288
0
340
11
278
46
341
212
342
212
343
212
344
212
  0
ENDTAB
  0
ENDSEC
  0
SECTION
  2
BLOCKS
  0
BLOCK
  5
20
100
AcDbEntity
  8
0
100
AcDbBlockBegin
  2
*Model_Space
 70
0
 10
0.0
 20
0.0
 30
0.0
  3
*Model_Space
  1

  0
ENDBLK
  5
21
100
AcDbEntity
  8
0
100
AcDbBlockEnd
  0
BLOCK
  5
1C
100
AcDbEntity
  8
0
100
AcDbBlockBegin
  2
*Paper_Space
 70
0
 10
0.0
 20
0.0
 30
0.0
  3
*Paper_Space
  1

  0
ENDBLK
  5
1D
100
AcDbEntity
  8
0
100
AcDbBlockEnd
  0
BLOCK
  5
214
100
AcDbEntity
  8
0
100
AcDbBlockBegin
  2
_FILLED
 70
64
 10
0.0
 20
0.0
  3
_FILLED
  1

  0
SOLID
  5
215
100
AcDbEntity
  8
0
  6
BYBLOCK
 62
0
100
AcDbTrace
 10
0.0
 20
0.0
 11
-1.0
 21
0.25
 12
-1.0
 22
-0.25
 13
-1.0
 23
-0.25
  0
ENDBLK
  5
216
100
AcDbEntity
  8
0
  6
BYBLOCK
 62
0
100
AcDbBlockEnd
  0
ENDSEC
  0
SECTION
  2
ENTITIES
  0
LINE
  5
217
100
AcDbEntity
  8
0
100
AcDbLine
 62
7
  6
CONTINUOUS
 10
80.0423388994
 20
544.4229273776
 11
80.0486898692
 21
544.4302230693
  0
LINE
  5
218
100
AcDbEntity
  8
0
100
AcDbLine
 62
7
  6
CONTINUOUS
 10
112.9907610406
 20
542.1057439742
 11
114.2587102331
 21
542.8377947817
  0
LINE
  5
219
100
AcDbEntity
  8
0
100
AcDbLine
 62
7
  6
CONTINUOUS
 10
78.1524729223
 20
137.7509682891
 11
78.1835140305
 21
137.742775601
  0
LINE
  5
21A
100
AcDbEntity
  8
0
100
AcDbLine
 62
7
  6
CONTINUOUS
 10
112.9907610406
 20
139.7057439742
 11
114.2587102331
 21
138.9736931666
  0
LINE
  5
21B
100
AcDbEntity
  8
0
100
AcDbLine
 62
7
  6
CONTINUOUS
 10
79.9407581907
 20
137.4026020737
 11
79.9372475896
 21
137.4032960904
  0
LINE
  5
21C
100
AcDbEntity
  8
0
100
AcDbLine
 62
7
  6
CONTINUOUS
 10
79.9409900534
 20
137.4018150099
 11
79.9374742558
 21
137.4025251058
  0
LINE
  5
21D
100
AcDbEntity
  8
0
100
AcDbLine
 62
7
  6
CONTINUOUS
 10
145.1524729223
 20
137.7509682891
 11
145.1835141238
 21
137.7427755842
  0
LINE
  5
21E
100
AcDbEntity
  8
0
100
AcDbLine
 62
7
  6
CONTINUOUS
 10
147.0423388994
 20
544.4229273776
 11
147.0486898692
 21
544.4302230693
  0
LINE
  5
21F
100
AcDbEntity
  8
0
100
AcDbLine
 62
7
  6
CONTINUOUS
 10
430.0831089658
 20
144.1057439742
 11
432.049073872
 21
144.3610164103
  0
LINE
  5
220
100
AcDbEntity
  8
0
100
AcDbLine
 62
7
  6
CONTINUOUS
 10
147.2437102331
 20
137.7379756195
 11
147.7543932134
 21
137.7396220536
  0
LINE
  5
221
100
AcDbEntity
  8
0
100
AcDbLine
 62
7
  6
CONTINUOUS
 10
80.2437102331
 20
137.7379756195
 11
80.7543932172
 21
137.7396220536
  0
LINE
  5
222
100
AcDbEntity
  8
0
100
AcDbLine
 62
7
  6
CONTINUOUS
 10
80.5809446499
 20
137.7394319482
 11
80.9350067922
 21
137.7394334091
  0
LINE
  5
223
100
AcDbEntity
  8
0
100
AcDbLine
 62
7
  6
CONTINUOUS
 10
147.5809446499
 20
137.7394319482
 11
147.9350067922
 21
137.7394334091
  0
LINE
  5
224
100
AcDbEntity
  8
0
100
AcDbLine
 62
7
  6
CONTINUOUS
 10
80.9336702793
 20
137.7394380283
 11
81.2737102331
 21
137.7379756156
  0
LINE
  5
225
100
AcDbEntity
  8
0
100
AcDbLine
 62
7
  6
CONTINUOUS
 10
147.9336702793
 20
137.7394380283
 11
148.2737102331
 21
137.7379756156
  0
LINE
  5
226
100
AcDbEntity
  8
0
100
AcDbLine
 62
7
  6
CONTINUOUS
 10
78.2133220634
 20
137.7397031118
 11
78.242868297
 21
137.7388577879
  0
LINE
  5
227
100
AcDbEntity
  8
0
100
AcDbLine
 62
7
  6
CONTINUOUS
 10
78.208515614
 20
137.7493632413
 11
78.1524645801
 21
137.750969893
  0
LINE
  5
228
100
AcDbEntity
  8
0
100
AcDbLine
 62
7
  6
CONTINUOUS
 10
78.208515614
 20
137.7493632413
 11
78.1524630115
 21
137.7509693922
  0
LINE
  5
229
100
AcDbEntity
  8
0
100
AcDbLine
 62
7
  6
CONTINUOUS
 10
145.2133220634
 20
137.7397031118
 11
145.242868297
 21
137.7388577879
  0
LINE
  5
22A
100
AcDbEntity
  8
0
100
AcDbLine
 62
7
  6
CONTINUOUS
 10
145.208515614
 20
137.7493632413
 11
145.1524645801
 21
137.750969893
  0
LINE
  5
22B
100
AcDbEntity
  8
0
100
AcDbLine
 62
7
  6
CONTINUOUS
 10
80.097446915
 20
137.3769780769
 11
80.1061181576
 21
137.3762478316
  0
LINE
  5
22C
100
AcDbEntity
  8
0
100
AcDbLine
 62
7
  6
CONTINUOUS
 10
147.097446915
 20
137.3769780769
 11
147.1061181576
 21
137.3762478316
  0
LINE
  5
22D
100
AcDbEntity
  8
0
100
AcDbLine
 62
7
  6
CONTINUOUS
 10
78.1835140305
 20
137.742775601
 11
78.2133220634
 21
137.7397031118
  0
LINE
  5
22E
100
AcDbEntity
  8
0
100
AcDbLine
 62
7
  6
CONTINUOUS
 10
145.183514026
 20
137.7427756018
 11
145.2133220634
 21
137.7397031118
  0
LINE
  5
22F
100
AcDbEntity
  8
0
100
AcDbLine
 62
7
  6
CONTINUOUS
 10
146.9407581907
 20
137.4026020737
 11
146.9372475896
 21
137.4032960904
  0
LINE
  5
230
100
AcDbEntity
  8
0
100
AcDbLine
 62
7
  6
CONTINUOUS
 10
146.9409900534
 20
137.4018150099
 11
146.9374742558
 21
137.4025251058
  0
LINE
  5
231
100
AcDbEntity
  8
0
100
AcDbLine
 62
7
  6
CONTINUOUS
 10
57.0587102331
 20
156.4057439742
 11
57.0587102331
 21
169.4057439742
  0
LINE
  5
232
100
AcDbEntity
  8
0
100
AcDbLine
 62
7
  6
CONTINUOUS
 10
57.0587102331
 20
512.4057439742
 11
57.0587102331
 21
525.4057439742
  0
LINE
  5
233
100
AcDbEntity
  8
0
100
AcDbLine
 62
7
  6
CONTINUOUS
 10
57.2587102331
 20
538.7057439742
 11
57.2587102331
 21
143.1057439742
  0
LINE
  5
234
100
AcDbEntity
  8
0
100
AcDbLine
 62
7
  6
CONTINUOUS
 10
59.4587102331
 20
140.9057439742
 11
59.4587102331
 21
540.9057439742
  0
LWPOLYLINE
  5
235
100
AcDbEntity
  8
0
100
AcDbPolyline
 62
7
  6
CONTINUOUS
 90
3
 70
0
 10
150.3040984574
 20
137.7397031147
 10
150.3339064651
 20
137.7427756035
 10
150.364947574
 20
137.7509682919
  0
LWPOLYLINE
  5
236
100
AcDbEntity
  8
0
100
AcDbPolyline
 62
7
  6
CONTINUOUS
 90
3
 70
0
 10
83.3040984574
 20
137.7397031147
 10
83.3339064873
 20
137.7427756075
 10
83.364947574
 20
137.7509682919
  0
LINE
  5
237
100
AcDbEntity
  8
0
100
AcDbLine
 62
7
  6
CONTINUOUS
 10
148.4199784404
 20
137.3769784914
 11
148.4687305969
 21
137.3812648791
  0
LINE
  5
238
100
AcDbEntity
  8
0
100
AcDbLine
 62
7
  6
CONTINUOUS
 10
81.4199784404
 20
137.3769784914
 11
81.4687305969
 21
137.3812648791
  0
LINE
  5
239
100
AcDbEntity
  8
0
100
AcDbLine
 62
7
  6
CONTINUOUS
 10
148.4199779466
 20
137.3769843112
 11
148.4304491578
 21
137.377873218
  0
LINE
  5
23A
100
AcDbEntity
  8
0
100
AcDbLine
 62
7
  6
CONTINUOUS
 10
81.4199779466
 20
137.3769843112
 11
81.4304491578
 21
137.377873218
  0
LINE
  5
23B
100
AcDbEntity
  8
0
100
AcDbLine
 62
7
  6
CONTINUOUS
 10
150.2711231027
 20
137.7387596868
 11
150.3040984574
 21
137.7397031147
  0
LINE
  5
23C
100
AcDbEntity
  8
0
100
AcDbLine
 62
7
  6
CONTINUOUS
 10
150.3649516057
 20
137.750968382
 11
150.3089049251
 21
137.7493632665
  0
LINE
  5
23D
100
AcDbEntity
  8
0
100
AcDbLine
 62
7
  6
CONTINUOUS
 10
150.364957478
 20
137.7509694004
 11
150.3089049251
 21
137.7493632665
  0
LINE
  5
23E
100
AcDbEntity
  8
0
100
AcDbLine
 62
7
  6
CONTINUOUS
 10
83.2711231027
 20
137.7387596868
 11
83.3040984574
 21
137.7397031147
  0
LINE
  5
23F
100
AcDbEntity
  8
0
100
AcDbLine
 62
7
  6
CONTINUOUS
 10
83.3649516057
 20
137.750968382
 11
83.3089049251
 21
137.7493632665
  0
LINE
  5
240
100
AcDbEntity
  8
0
100
AcDbLine
 62
7
  6
CONTINUOUS
 10
83.364957478
 20
137.7509694004
 11
83.3089049251
 21
137.7493632665
  0
LINE
  5
241
100
AcDbEntity
  8
0
100
AcDbLine
 62
7
  6
CONTINUOUS
 10
152.4276523382
 20
138.8449686924
 11
147.7587102331
 21
138.8449686924
  0
LINE
  5
242
100
AcDbEntity
  8
0
100
AcDbLine
 62
7
  6
CONTINUOUS
 10
85.4276523382
 20
138.8449686924
 11
80.7587102331
 21
138.8449686924
  0
LINE
  5
243
100
AcDbEntity
  8
0
100
AcDbLine
 62
7
  6
CONTINUOUS
 10
147.7330564469
 20
138.8449744949
 11
143.0897854424
 21
138.8449558841
  0
LINE
  5
244
100
AcDbEntity
  8
0
100
AcDbLine
 62
7
  6
CONTINUOUS
 10
80.7330564469
 20
138.8449744949
 11
76.0897854424
 21
138.8449558841
  0
LINE
  5
245
100
AcDbEntity
  8
0
100
AcDbLine
 62
7
  6
CONTINUOUS
 10
152.5087102331
 20
139.0057566756
 11
143.0087102331
 21
139.0057566756
  0
LINE
  5
246
100
AcDbEntity
  8
0
100
AcDbLine
 62
7
  6
CONTINUOUS
 10
85.5087102331
 20
139.0057566756
 11
76.0087102331
 21
139.0057566756
  0
LINE
  5
247
100
AcDbEntity
  8
0
100
AcDbLine
 62
7
  6
CONTINUOUS
 10
76.0087113769
 20
139.3057439742
 11
76.162056572
 21
139.3057439742
  0
LINE
  5
248
100
AcDbEntity
  8
0
100
AcDbLine
 62
7
  6
CONTINUOUS
 10
76.6618407707
 20
139.3057439742
 11
78.3549297666
 21
139.3057439742
  0
LINE
  5
249
100
AcDbEntity
  8
0
100
AcDbLine
 62
7
  6
CONTINUOUS
 10
79.5615155315
 20
139.3057439742
 11
81.9559049598
 21
139.3057439742
  0
LINE
  5
24A
100
AcDbEntity
  8
0
100
AcDbLine
 62
7
  6
CONTINUOUS
 10
83.1624907122
 20
139.3057439742
 11
84.8555797247
 21
139.3057439742
  0
LINE
  5
24B
100
AcDbEntity
  8
0
100
AcDbLine
 62
7
  6
CONTINUOUS
 10
85.3553638888
 20
139.3057439742
 11
85.5087090892
 21
139.3057439742
  0
LINE
  5
24C
100
AcDbEntity
  8
0
100
AcDbLine
 62
7
  6
CONTINUOUS
 10
143.6618407707
 20
139.3057439742
 11
145.3549297666
 21
139.3057439742
  0
LINE
  5
24D
100
AcDbEntity
  8
0
100
AcDbLine
 62
7
  6
CONTINUOUS
 10
143.0087113769
 20
139.3057439742
 11
143.162056572
 21
139.3057439742
  0
LINE
  5
24E
100
AcDbEntity
  8
0
100
AcDbLine
 62
7
  6
CONTINUOUS
 10
146.5615155315
 20
139.3057439742
 11
148.9559049598
 21
139.3057439742
  0
LINE
  5
24F
100
AcDbEntity
  8
0
100
AcDbLine
 62
7
  6
CONTINUOUS
 10
150.1624907122
 20
139.3057439742
 11
151.8555797247
 21
139.3057439742
  0
LINE
  5
250
100
AcDbEntity
  8
0
100
AcDbLine
 62
7
  6
CONTINUOUS
 10
152.3553638888
 20
139.3057439742
 11
152.5087090892
 21
139.3057439742
  0
LINE
  5
251
100
AcDbEntity
  8
0
100
AcDbLine
 62
7
  6
CONTINUOUS
 10
151.9039092984
 20
139.363482148
 11
150.0968719139
 21
139.363482148
  0
LINE
  5
252
100
AcDbEntity
  8
0
100
AcDbLine
 62
7
  6
CONTINUOUS
 10
149.049714254
 20
139.363482148
 11
146.4677062122
 21
139.363482148
  0
LINE
  5
253
100
AcDbEntity
  8
0
100
AcDbLine
 62
7
  6
CONTINUOUS
 10
145.4205485522
 20
139.363482148
 11
143.6135111677
 21
139.363482148
  0
LINE
  5
254
100
AcDbEntity
  8
0
100
AcDbLine
 62
7
  6
CONTINUOUS
 10
84.9039092984
 20
139.363482148
 11
83.0968719139
 21
139.363482148
  0
LINE
  5
255
100
AcDbEntity
  8
0
100
AcDbLine
 62
7
  6
CONTINUOUS
 10
82.049714254
 20
139.363482148
 11
79.4677062122
 21
139.363482148
  0
LINE
  5
256
100
AcDbEntity
  8
0
100
AcDbLine
 62
7
  6
CONTINUOUS
 10
78.4205485522
 20
139.363482148
 11
76.6135111677
 21
139.363482148
  0
LINE
  5
257
100
AcDbEntity
  8
0
100
AcDbLine
 62
7
  6
CONTINUOUS
 10
76.221343323
 20
139.6057439742
 11
76.5566269099
 21
139.6057439742
  0
LINE
  5
258
100
AcDbEntity
  8
0
100
AcDbLine
 62
7
  6
CONTINUOUS
 10
78.5439877349
 20
139.6057439742
 11
79.3534339173
 21
139.6057439742
  0
LINE
  5
259
100
AcDbEntity
  8
0
100
AcDbLine
 62
7
  6
CONTINUOUS
 10
82.1639865488
 20
139.6057439742
 11
82.9734327312
 21
139.6057439742
  0
LINE
  5
25A
100
AcDbEntity
  8
0
100
AcDbLine
 62
7
  6
CONTINUOUS
 10
84.9607935562
 20
139.6057439742
 11
85.2960771431
 21
139.6057439742
  0
LINE
  5
25B
100
AcDbEntity
  8
0
100
AcDbLine
 62
7
  6
CONTINUOUS
 10
143.221343323
 20
139.6057439742
 11
143.5566269099
 21
139.6057439742
  0
LINE
  5
25C
100
AcDbEntity
  8
0
100
AcDbLine
 62
7
  6
CONTINUOUS
 10
145.5439877349
 20
139.6057439742
 11
146.3534339173
 21
139.6057439742
  0
LINE
  5
25D
100
AcDbEntity
  8
0
100
AcDbLine
 62
7
  6
CONTINUOUS
 10
149.1639865488
 20
139.6057439742
 11
149.9734327312
 21
139.6057439742
  0
LINE
  5
25E
100
AcDbEntity
  8
0
100
AcDbLine
 62
7
  6
CONTINUOUS
 10
151.9607935562
 20
139.6057439742
 11
152.2960771431
 21
139.6057439742
  0
LINE
  5
25F
100
AcDbEntity
  8
0
100
AcDbLine
 62
7
  6
CONTINUOUS
 10
154.2587102331
 20
139.7057439742
 11
74.2587102331
 21
139.7057439742
  0
LINE
  5
260
100
AcDbEntity
  8
0
100
AcDbLine
 62
7
  6
CONTINUOUS
 10
397.7728123543
 20
140.7057439742
 11
384.7728123543
 21
140.7057439742
  0
LINE
  5
261
100
AcDbEntity
  8
0
100
AcDbLine
 62
7
  6
CONTINUOUS
 10
205.7587102331
 20
140.7057439742
 11
192.7587102331
 21
140.7057439742
  0
LINE
  5
262
100
AcDbEntity
  8
0
100
AcDbLine
 62
7
  6
CONTINUOUS
 10
212.0587102331
 20
140.9057439742
 11
59.4587102331
 21
140.9057439742
  0
LINE
  5
263
100
AcDbEntity
  8
0
100
AcDbLine
 62
7
  6
CONTINUOUS
 10
223.2690068445
 20
140.9057439742
 11
403.2728123543
 21
140.9057439742
  0
LINE
  5
264
100
AcDbEntity
  8
0
100
AcDbLine
 62
7
  6
CONTINUOUS
 10
212.0587102331
 20
141.9057439742
 11
59.4587102331
 21
141.9057439742
  0
LINE
  5
265
100
AcDbEntity
  8
0
100
AcDbLine
 62
7
  6
CONTINUOUS
 10
223.2690068445
 20
142.4057439741
 11
403.2728123543
 21
142.4057439742
  0
LINE
  5
266
100
AcDbEntity
  8
0
100
AcDbLine
 62
7
  6
CONTINUOUS
 10
413.7831089657
 20
142.9057439742
 11
430.0831089657
 21
142.9057439742
  0
LINE
  5
267
100
AcDbEntity
  8
0
100
AcDbLine
 62
7
  6
CONTINUOUS
 10
413.7831089657
 20
144.1057439742
 11
430.0831089656
 21
144.1057439742
  0
LINE
  5
268
100
AcDbEntity
  8
0
100
AcDbLine
 62
7
  6
CONTINUOUS
 10
406.2728123543
 20
144.4057439742
 11
402.8690068445
 21
144.4057439742
  0
LINE
  5
269
100
AcDbEntity
  8
0
100
AcDbLine
 62
7
  6
CONTINUOUS
 10
57.0587102331
 20
156.4057439742
 11
57.2587102331
 21
156.4057439742
  0
LINE
  5
26A
100
AcDbEntity
  8
0
100
AcDbLine
 62
7
  6
CONTINUOUS
 10
81.5800235254
 20
137.4087081699
 11
81.5809896316
 21
137.3769740695
  0
LINE
  5
26B
100
AcDbEntity
  8
0
100
AcDbLine
 62
7
  6
CONTINUOUS
 10
74.2587102331
 20
542.1057439742
 11
74.2587102331
 21
540.9057439742
  0
LINE
  5
26C
100
AcDbEntity
  8
0
100
AcDbLine
 62
7
  6
CONTINUOUS
 10
74.2587102331
 20
140.9057439742
 11
74.2587102331
 21
139.7057439742
  0
LINE
  5
26D
100
AcDbEntity
  8
0
100
AcDbLine
 62
7
  6
CONTINUOUS
 10
76.0087102331
 20
542.8057312725
 11
76.0087102331
 21
542.5057439742
  0
LINE
  5
26E
100
AcDbEntity
  8
0
100
AcDbLine
 62
7
  6
CONTINUOUS
 10
76.0087102331
 20
139.0057566758
 11
76.0087102331
 21
139.3057439742
  0
LINE
  5
26F
100
AcDbEntity
  8
0
100
AcDbLine
 62
7
  6
CONTINUOUS
 10
80.2437102331
 20
137.7493650135
 11
80.2437102331
 21
137.3816430847
  0
LINE
  5
270
100
AcDbEntity
  8
0
100
AcDbLine
 62
7
  6
CONTINUOUS
 10
80.2437102331
 20
544.0621233128
 11
80.2437102331
 21
544.4298448637
  0
LINE
  5
271
100
AcDbEntity
  8
0
100
AcDbLine
 62
7
  6
CONTINUOUS
 10
80.7587102297
 20
137.7396267852
 11
80.7587102289
 21
137.7509695221
  0
LINE
  5
272
100
AcDbEntity
  8
0
100
AcDbLine
 62
7
  6
CONTINUOUS
 10
80.7587102335
 20
544.0718612173
 11
80.7587102338
 21
544.0605188078
  0
LINE
  5
273
100
AcDbEntity
  8
0
100
AcDbLine
 62
7
  6
CONTINUOUS
 10
81.2737102331
 20
544.4298448637
 11
81.2737102331
 21
544.0621232523
  0
LINE
  5
274
100
AcDbEntity
  8
0
100
AcDbLine
 62
7
  6
CONTINUOUS
 10
81.2737102331
 20
137.7493650036
 11
81.2737102331
 21
137.3816430847
  0
LINE
  5
275
100
AcDbEntity
  8
0
100
AcDbLine
 62
7
  6
CONTINUOUS
 10
81.5808804612
 20
544.4302230693
 11
81.581007936
 21
544.4352401168
  0
LINE
  5
276
100
AcDbEntity
  8
0
100
AcDbLine
 62
7
  6
CONTINUOUS
 10
81.5802095272
 20
544.4081846125
 11
81.5808804612
 21
544.4302230693
  0
LINE
  5
277
100
AcDbEntity
  8
0
100
AcDbLine
 62
7
  6
CONTINUOUS
 10
148.5796137668
 20
137.4073555884
 11
148.5744953931
 21
137.4063026152
  0
LINE
  5
278
100
AcDbEntity
  8
0
100
AcDbLine
 62
7
  6
CONTINUOUS
 10
81.5796137668
 20
137.4073555884
 11
81.5744953931
 21
137.4063026152
  0
LINE
  5
279
100
AcDbEntity
  8
0
100
AcDbLine
 62
7
  6
CONTINUOUS
 10
148.575597448
 20
137.4016471347
 11
148.5799462103
 21
137.4025251058
  0
LINE
  5
27A
100
AcDbEntity
  8
0
100
AcDbLine
 62
7
  6
CONTINUOUS
 10
81.575597448
 20
137.4016471347
 11
81.5799462103
 21
137.4025251058
  0
LINE
  5
27B
100
AcDbEntity
  8
0
100
AcDbLine
 62
7
  6
CONTINUOUS
 10
148.5800058975
 20
137.4087046757
 11
148.5749006517
 21
137.4076927259
  0
LINE
  5
27C
100
AcDbEntity
  8
0
100
AcDbLine
 62
7
  6
CONTINUOUS
 10
81.5800058975
 20
137.4087046757
 11
81.5749006517
 21
137.4076927259
  0
LINE
  5
27D
100
AcDbEntity
  8
0
100
AcDbLine
 62
7
  6
CONTINUOUS
 10
148.5758304318
 20
137.4024376252
 11
148.5801728765
 21
137.4032960904
  0
LINE
  5
27E
100
AcDbEntity
  8
0
100
AcDbLine
 62
7
  6
CONTINUOUS
 10
81.5758304318
 20
137.4024376252
 11
81.5801728765
 21
137.4032960904
  0
LINE
  5
27F
100
AcDbEntity
  8
0
100
AcDbLine
 62
7
  6
CONTINUOUS
 10
57.0587102331
 20
169.4057439742
 11
57.2587102331
 21
169.4057439742
  0
LINE
  5
280
100
AcDbEntity
  8
0
100
AcDbLine
 62
7
  6
CONTINUOUS
 10
215.6876810276
 20
160.6279801894
 11
223.2690068445
 21
159.1543197334
  0
LINE
  5
281
100
AcDbEntity
  8
0
100
AcDbLine
 62
7
  6
CONTINUOUS
 10
216.6403282239
 20
161.4244315164
 11
223.2690068445
 21
160.1359469169
  0
LINE
  5
282
100
AcDbEntity
  8
0
100
AcDbLine
 62
7
  6
CONTINUOUS
 10
79.9374543442
 20
544.4008942225
 11
79.9364308345
 21
544.4345138789
  0
LINE
  5
283
100
AcDbEntity
  8
0
100
AcDbLine
 62
7
  6
CONTINUOUS
 10
85.5087102331
 20
542.8057312725
 11
85.5087102331
 21
542.5057439742
  0
LINE
  5
284
100
AcDbEntity
  8
0
100
AcDbLine
 62
7
  6
CONTINUOUS
 10
85.5087102331
 20
139.0057566758
 11
85.5087102331
 21
139.3057439742
  0
LINE
  5
285
100
AcDbEntity
  8
0
100
AcDbLine
 62
7
  6
CONTINUOUS
 10
99.2587102331
 20
139.7057439742
 11
99.2587102331
 21
140.9057439742
  0
LINE
  5
286
100
AcDbEntity
  8
0
100
AcDbLine
 62
7
  6
CONTINUOUS
 10
99.2587102331
 20
540.9057439742
 11
99.2587102331
 21
542.1057439742
  0
LINE
  5
287
100
AcDbEntity
  8
0
100
AcDbLine
 62
7
  6
CONTINUOUS
 10
79.9364125301
 20
137.3762478316
 11
79.9365400049
 21
137.3812648791
  0
LINE
  5
288
100
AcDbEntity
  8
0
100
AcDbLine
 62
7
  6
CONTINUOUS
 10
79.937210939
 20
137.4033033359
 11
79.9365400049
 21
137.3812648791
  0
LINE
  5
289
100
AcDbEntity
  8
0
100
AcDbLine
 62
7
  6
CONTINUOUS
 10
408.0590258473
 20
161.198411572
 11
412.4831089657
 21
160.4037257362
  0
LINE
  5
28A
100
AcDbEntity
  8
0
100
AcDbLine
 62
7
  6
CONTINUOUS
 10
407.0728123543
 20
204.9057439742
 11
406.2728123543
 21
204.9057439742
  0
LINE
  5
28B
100
AcDbEntity
  8
0
100
AcDbLine
 62
7
  6
CONTINUOUS
 10
215.0587102331
 20
204.9057439742
 11
214.2587102331
 21
204.9057439742
  0
LINE
  5
28C
100
AcDbEntity
  8
0
100
AcDbLine
 62
7
  6
CONTINUOUS
 10
407.8228123543
 20
205.4057439742
 11
407.3228123543
 21
205.4057439742
  0
LINE
  5
28D
100
AcDbEntity
  8
0
100
AcDbLine
 62
7
  6
CONTINUOUS
 10
215.8087102331
 20
205.4057439742
 11
215.3087102331
 21
205.4057439742
  0
LINE
  5
28E
100
AcDbEntity
  8
0
100
AcDbLine
 62
7
  6
CONTINUOUS
 10
412.4831089657
 20
159.6982301051
 11
408.0590258473
 21
160.5581847493
  0
LINE
  5
28F
100
AcDbEntity
  8
0
100
AcDbLine
 62
7
  6
CONTINUOUS
 10
408.0590258473
 20
161.198411572
 11
407.7728123321
 21
161.2653605684
  0
LINE
  5
290
100
AcDbEntity
  8
0
100
AcDbLine
 62
7
  6
CONTINUOUS
 10
129.2587102331
 20
542.1057439742
 11
129.2587102331
 21
540.9057439742
  0
LINE
  5
291
100
AcDbEntity
  8
0
100
AcDbLine
 62
7
  6
CONTINUOUS
 10
129.2587102331
 20
140.9057439742
 11
129.2587102331
 21
139.7057439742
  0
LINE
  5
292
100
AcDbEntity
  8
0
100
AcDbLine
 62
7
  6
CONTINUOUS
 10
407.8228123543
 20
214.4057439742
 11
407.3228123543
 21
214.4057439742
  0
LINE
  5
293
100
AcDbEntity
  8
0
100
AcDbLine
 62
7
  6
CONTINUOUS
 10
215.8087102331
 20
214.4057439742
 11
215.3087102331
 21
214.4057439742
  0
LINE
  5
294
100
AcDbEntity
  8
0
100
AcDbLine
 62
7
  6
CONTINUOUS
 10
407.0728123543
 20
214.9057439742
 11
406.2728123543
 21
214.9057439742
  0
LINE
  5
295
100
AcDbEntity
  8
0
100
AcDbLine
 62
7
  6
CONTINUOUS
 10
215.0587102331
 20
214.9057439742
 11
214.2587102331
 21
214.9057439742
  0
LINE
  5
296
100
AcDbEntity
  8
0
100
AcDbLine
 62
7
  6
CONTINUOUS
 10
148.5800235254
 20
137.4087081699
 11
148.5809896316
 21
137.3769740695
  0
LINE
  5
297
100
AcDbEntity
  8
0
100
AcDbLine
 62
7
  6
CONTINUOUS
 10
146.9374543442
 20
544.4008942225
 11
146.9364308345
 21
544.4345138789
  0
LINE
  5
298
100
AcDbEntity
  8
0
100
AcDbLine
 62
7
  6
CONTINUOUS
 10
143.0087102331
 20
542.8057312725
 11
143.0087102331
 21
542.5057439742
  0
LINE
  5
299
100
AcDbEntity
  8
0
100
AcDbLine
 62
7
  6
CONTINUOUS
 10
143.0087102331
 20
139.0057566758
 11
143.0087102331
 21
139.3057439742
  0
LINE
  5
29A
100
AcDbEntity
  8
0
100
AcDbLine
 62
7
  6
CONTINUOUS
 10
147.2437102331
 20
137.7493650135
 11
147.2437102331
 21
137.3816430847
  0
LINE
  5
29B
100
AcDbEntity
  8
0
100
AcDbLine
 62
7
  6
CONTINUOUS
 10
147.2437102331
 20
544.0621233128
 11
147.2437102331
 21
544.4298448637
  0
LINE
  5
29C
100
AcDbEntity
  8
0
100
AcDbLine
 62
7
  6
CONTINUOUS
 10
147.7587102297
 20
137.7396267852
 11
147.7587102289
 21
137.7509695221
  0
LINE
  5
29D
100
AcDbEntity
  8
0
100
AcDbLine
 62
7
  6
CONTINUOUS
 10
147.7587102335
 20
544.0718612173
 11
147.7587102338
 21
544.0605188078
  0
LINE
  5
29E
100
AcDbEntity
  8
0
100
AcDbLine
 62
7
  6
CONTINUOUS
 10
148.2737102331
 20
544.4298448637
 11
148.2737102331
 21
544.0621232523
  0
LINE
  5
29F
100
AcDbEntity
  8
0
100
AcDbLine
 62
7
  6
CONTINUOUS
 10
148.2737102331
 20
137.7493650036
 11
148.2737102331
 21
137.3816430847
  0
LINE
  5
2A0
100
AcDbEntity
  8
0
100
AcDbLine
 62
7
  6
CONTINUOUS
 10
152.5087102331
 20
542.8057312725
 11
152.5087102331
 21
542.5057439742
  0
LINE
  5
2A1
100
AcDbEntity
  8
0
100
AcDbLine
 62
7
  6
CONTINUOUS
 10
152.5087102331
 20
139.0057566758
 11
152.5087102331
 21
139.3057439742
  0
LINE
  5
2A2
100
AcDbEntity
  8
0
100
AcDbLine
 62
7
  6
CONTINUOUS
 10
154.2587102331
 20
139.7057439742
 11
154.2587102331
 21
140.9057439742
  0
LINE
  5
2A3
100
AcDbEntity
  8
0
100
AcDbLine
 62
7
  6
CONTINUOUS
 10
154.2587102331
 20
540.9057439742
 11
154.2587102331
 21
542.1057439742
  0
LINE
  5
2A4
100
AcDbEntity
  8
0
100
AcDbLine
 62
7
  6
CONTINUOUS
 10
148.5808804612
 20
544.4302230693
 11
148.581007936
 21
544.4352401168
  0
LINE
  5
2A5
100
AcDbEntity
  8
0
100
AcDbLine
 62
7
  6
CONTINUOUS
 10
146.9364125301
 20
137.3762478316
 11
146.9365400049
 21
137.3812648791
  0
LINE
  5
2A6
100
AcDbEntity
  8
0
100
AcDbLine
 62
7
  6
CONTINUOUS
 10
148.5802095272
 20
544.4081846125
 11
148.5808804612
 21
544.4302230693
  0
LINE
  5
2A7
100
AcDbEntity
  8
0
100
AcDbLine
 62
7
  6
CONTINUOUS
 10
146.937210939
 20
137.4033033359
 11
146.9365400049
 21
137.3812648791
  0
LINE
  5
2A8
100
AcDbEntity
  8
0
100
AcDbLine
 62
7
  6
CONTINUOUS
 10
192.7587102331
 20
140.7057439742
 11
192.7587102331
 21
140.9057439742
  0
LINE
  5
2A9
100
AcDbEntity
  8
0
100
AcDbLine
 62
7
  6
CONTINUOUS
 10
431.5287990611
 20
537.5180270768
 11
432.049073872
 21
537.8823274214
  0
LINE
  5
2AA
100
AcDbEntity
  8
0
100
AcDbLine
 62
7
  6
CONTINUOUS
 10
433.0217242496
 20
311.1350290652
 11
433.7641705418
 21
311.3061739988
  0
LINE
  5
2AB
100
AcDbEntity
  8
0
100
AcDbLine
 62
7
  6
CONTINUOUS
 10
431.528799061
 20
144.2934608715
 11
432.049073872
 21
143.929160527
  0
LINE
  5
2AC
100
AcDbEntity
  8
0
100
AcDbLine
 62
7
  6
CONTINUOUS
 10
205.7587102331
 20
140.7057439742
 11
205.7587102331
 21
140.9057439742
  0
LINE
  5
2AD
100
AcDbEntity
  8
0
100
AcDbLine
 62
7
  6
CONTINUOUS
 10
212.0587102331
 20
540.9057439742
 11
212.0587102331
 21
140.9057439742
  0
LINE
  5
2AE
100
AcDbEntity
  8
0
100
AcDbLine
 62
7
  6
CONTINUOUS
 10
433.0217242496
 20
311.1350290652
 11
432.4831089657
 21
311.116220205
  0
LINE
  5
2AF
100
AcDbEntity
  8
0
100
AcDbLine
 62
7
  6
CONTINUOUS
 10
214.2587102331
 20
143.1057439742
 11
214.2587102331
 21
538.7057439742
  0
LINE
  5
2B0
100
AcDbEntity
  8
0
100
AcDbLine
 62
7
  6
CONTINUOUS
 10
215.0587102331
 20
476.9057439742
 11
215.0587102331
 21
466.9057439742
  0
LINE
  5
2B1
100
AcDbEntity
  8
0
100
AcDbLine
 62
7
  6
CONTINUOUS
 10
215.0587102331
 20
214.9057439742
 11
215.0587102331
 21
204.9057439742
  0
LINE
  5
2B2
100
AcDbEntity
  8
0
100
AcDbLine
 62
7
  6
CONTINUOUS
 10
215.3087102331
 20
205.4057439742
 11
215.3087102331
 21
214.4057439742
  0
LINE
  5
2B3
100
AcDbEntity
  8
0
100
AcDbLine
 62
7
  6
CONTINUOUS
 10
215.3087102331
 20
467.4057439742
 11
215.3087102331
 21
476.4057439742
  0
LINE
  5
2B4
100
AcDbEntity
  8
0
100
AcDbLine
 62
7
  6
CONTINUOUS
 10
215.8087102331
 20
476.4057439742
 11
215.8087102331
 21
467.4057439742
  0
LINE
  5
2B5
100
AcDbEntity
  8
0
100
AcDbLine
 62
7
  6
CONTINUOUS
 10
215.8087102331
 20
214.4057439742
 11
215.8087102331
 21
205.4057439742
  0
LINE
  5
2B6
100
AcDbEntity
  8
0
100
AcDbLine
 62
7
  6
CONTINUOUS
 10
216.0587102331
 20
476.1556885626
 11
216.0587102331
 21
467.6557993858
  0
LINE
  5
2B7
100
AcDbEntity
  8
0
100
AcDbLine
 62
7
  6
CONTINUOUS
 10
216.0587102331
 20
214.1556885626
 11
216.0587102331
 21
205.6557993858
  0
LINE
  5
2B8
100
AcDbEntity
  8
0
100
AcDbLine
 62
7
  6
CONTINUOUS
 10
216.6403282239
 20
161.4244315164
 11
216.6403282239
 21
520.387056432
  0
LINE
  5
2B9
100
AcDbEntity
  8
0
100
AcDbLine
 62
7
  6
CONTINUOUS
 10
223.2690068445
 20
140.9057439742
 11
223.2690068444
 21
540.9057439742
  0
LINE
  5
2BA
100
AcDbEntity
  8
0
100
AcDbLine
 62
7
  6
CONTINUOUS
 10
438.1728756678
 20
317.8916889556
 11
438.1633831611
 21
317.8916889556
  0
LINE
  5
2BB
100
AcDbEntity
  8
0
100
AcDbLine
 62
7
  6
CONTINUOUS
 10
438.163384291
 20
319.3202800182
 11
438.1728756678
 21
319.3202800182
  0
LINE
  5
2BC
100
AcDbEntity
  8
0
100
AcDbLine
 62
7
  6
CONTINUOUS
 10
215.8241044138
 20
161.3298176689
 11
215.6876810276
 21
160.6279801894
  0
LINE
  5
2BD
100
AcDbEntity
  8
0
100
AcDbLine
 62
7
  6
CONTINUOUS
 10
216.6403282239
 20
160.4428043329
 11
216.8053056738
 21
161.2915397352
  0
LINE
  5
2BE
100
AcDbEntity
  8
0
100
AcDbLine
 62
7
  6
CONTINUOUS
 10
81.4743937965
 20
137.3877704931
 11
81.4687305969
 21
137.3812648791
  0
LINE
  5
2BF
100
AcDbEntity
  8
0
100
AcDbLine
 62
7
  6
CONTINUOUS
 10
438.1728756678
 20
352.8912079302
 11
438.1633838852
 21
352.8912079302
  0
LINE
  5
2C0
100
AcDbEntity
  8
0
100
AcDbLine
 62
7
  6
CONTINUOUS
 10
438.1633835815
 20
354.3197989927
 11
438.1728756678
 21
354.3197989927
  0
LINE
  5
2C1
100
AcDbEntity
  8
0
100
AcDbLine
 62
7
  6
CONTINUOUS
 10
215.6876810276
 20
521.183507759
 11
215.8241044138
 21
520.4816702795
  0
LINE
  5
2C2
100
AcDbEntity
  8
0
100
AcDbLine
 62
7
  6
CONTINUOUS
 10
216.8052536007
 20
520.5202161059
 11
216.6403282239
 21
521.3686836155
  0
LINE
  5
2C3
100
AcDbEntity
  8
0
100
AcDbLine
 62
7
  6
CONTINUOUS
 10
432.4831089657
 20
361.0952677433
 11
433.0217242496
 21
361.0764588832
  0
LINE
  5
2C4
100
AcDbEntity
  8
0
100
AcDbLine
 62
7
  6
CONTINUOUS
 10
406.9472124819
 20
520.7872677784
 11
407.1850478179
 21
521.345695841
  0
LINE
  5
2C5
100
AcDbEntity
  8
0
100
AcDbLine
 62
7
  6
CONTINUOUS
 10
148.4743937965
 20
137.3877704931
 11
148.4687305969
 21
137.3812648791
  0
LINE
  5
2C6
100
AcDbEntity
  8
0
100
AcDbLine
 62
7
  6
CONTINUOUS
 10
433.0217242496
 20
361.0764588832
 11
433.7641705418
 21
360.9053139496
  0
LINE
  5
2C7
100
AcDbEntity
  8
0
100
AcDbLine
 62
7
  6
CONTINUOUS
 10
406.947212482
 20
161.0242201699
 11
407.1850478179
 21
160.4657921073
  0
LINE
  5
2C8
100
AcDbEntity
  8
0
100
AcDbLine
 62
7
  6
CONTINUOUS
 10
115.5266594255
 20
139.7057439742
 11
114.2587102331
 21
138.9736931666
  0
LINE
  5
2C9
100
AcDbEntity
  8
0
100
AcDbLine
 62
7
  6
CONTINUOUS
 10
115.5266594255
 20
542.1057439742
 11
114.2587102331
 21
542.8377947817
  0
LINE
  5
2CA
100
AcDbEntity
  8
0
100
AcDbLine
 62
7
  6
CONTINUOUS
 10
407.0728123543
 20
466.9057439742
 11
406.2728123543
 21
466.9057439742
  0
LINE
  5
2CB
100
AcDbEntity
  8
0
100
AcDbLine
 62
7
  6
CONTINUOUS
 10
215.0587102331
 20
466.9057439742
 11
214.2587102331
 21
466.9057439742
  0
LINE
  5
2CC
100
AcDbEntity
  8
0
100
AcDbLine
 62
7
  6
CONTINUOUS
 10
407.8228123543
 20
467.4057439742
 11
407.3228123543
 21
467.4057439742
  0
LINE
  5
2CD
100
AcDbEntity
  8
0
100
AcDbLine
 62
7
  6
CONTINUOUS
 10
215.8087102331
 20
467.4057439742
 11
215.3087102331
 21
467.4057439742
  0
LINE
  5
2CE
100
AcDbEntity
  8
0
100
AcDbLine
 62
7
  6
CONTINUOUS
 10
384.7728123543
 20
140.7057439742
 11
384.7728123543
 21
140.9057439742
  0
LINE
  5
2CF
100
AcDbEntity
  8
0
100
AcDbLine
 62
7
  6
CONTINUOUS
 10
397.7728123543
 20
140.7057439742
 11
397.7728123543
 21
140.9057439742
  0
LINE
  5
2D0
100
AcDbEntity
  8
0
100
AcDbLine
 62
7
  6
CONTINUOUS
 10
407.7728123321
 20
520.5461273799
 11
408.0590258473
 21
520.6130763764
  0
LINE
  5
2D1
100
AcDbEntity
  8
0
100
AcDbLine
 62
7
  6
CONTINUOUS
 10
408.0590258473
 20
521.253303199
 11
412.4831089657
 21
522.1132578432
  0
LINE
  5
2D2
100
AcDbEntity
  8
0
100
AcDbLine
 62
7
  6
CONTINUOUS
 10
412.4831089657
 20
521.4077622122
 11
408.0590258473
 21
520.6130763764
  0
LINE
  5
2D3
100
AcDbEntity
  8
0
100
AcDbLine
 62
7
  6
CONTINUOUS
 10
407.8228123543
 20
476.4057439742
 11
407.3228123543
 21
476.4057439742
  0
LINE
  5
2D4
100
AcDbEntity
  8
0
100
AcDbLine
 62
7
  6
CONTINUOUS
 10
215.8087102331
 20
476.4057439742
 11
215.3087102331
 21
476.4057439742
  0
LINE
  5
2D5
100
AcDbEntity
  8
0
100
AcDbLine
 62
7
  6
CONTINUOUS
 10
407.0728123543
 20
476.9057439742
 11
406.2728123543
 21
476.9057439742
  0
LINE
  5
2D6
100
AcDbEntity
  8
0
100
AcDbLine
 62
7
  6
CONTINUOUS
 10
215.0587102331
 20
476.9057439742
 11
214.2587102331
 21
476.9057439742
  0
LINE
  5
2D7
100
AcDbEntity
  8
0
100
AcDbLine
 62
7
  6
CONTINUOUS
 10
402.8690068445
 20
140.9057439742
 11
402.8690068445
 21
144.4057439742
  0
LINE
  5
2D8
100
AcDbEntity
  8
0
100
AcDbLine
 62
7
  6
CONTINUOUS
 10
402.8690068445
 20
537.4057439742
 11
402.8690068444
 21
540.9057439742
  0
LINE
  5
2D9
100
AcDbEntity
  8
0
100
AcDbLine
 62
7
  6
CONTINUOUS
 10
403.2728123543
 20
537.4057439742
 11
403.2728123543
 21
144.4057439742
  0
LINE
  5
2DA
100
AcDbEntity
  8
0
100
AcDbLine
 62
7
  6
CONTINUOUS
 10
404.7728123543
 20
143.9057439742
 11
404.7728123543
 21
144.3957439742
  0
LINE
  5
2DB
100
AcDbEntity
  8
0
100
AcDbLine
 62
7
  6
CONTINUOUS
 10
404.7728123542
 20
537.4157439742
 11
404.7728123542
 21
537.9057439742
  0
LINE
  5
2DC
100
AcDbEntity
  8
0
100
AcDbLine
 62
7
  6
CONTINUOUS
 10
406.2728123543
 20
143.9057439742
 11
406.2728123543
 21
144.3957439742
  0
LINE
  5
2DD
100
AcDbEntity
  8
0
100
AcDbLine
 62
7
  6
CONTINUOUS
 10
406.2728123543
 20
144.4057439742
 11
406.2728123542
 21
537.4057439742
  0
LINE
  5
2DE
100
AcDbEntity
  8
0
100
AcDbLine
 62
7
  6
CONTINUOUS
 10
406.2728123542
 20
537.4157439742
 11
406.2728123542
 21
537.9057439742
  0
LINE
  5
2DF
100
AcDbEntity
  8
0
100
AcDbLine
 62
7
  6
CONTINUOUS
 10
407.0728123543
 20
476.9057439742
 11
407.0728123543
 21
466.9057439742
  0
LINE
  5
2E0
100
AcDbEntity
  8
0
100
AcDbLine
 62
7
  6
CONTINUOUS
 10
407.0728123543
 20
214.9057439742
 11
407.0728123543
 21
204.9057439742
  0
LINE
  5
2E1
100
AcDbEntity
  8
0
100
AcDbLine
 62
7
  6
CONTINUOUS
 10
407.3228123543
 20
205.4057439742
 11
407.3228123543
 21
214.4057439742
  0
LINE
  5
2E2
100
AcDbEntity
  8
0
100
AcDbLine
 62
7
  6
CONTINUOUS
 10
407.3228123543
 20
467.4057439742
 11
407.3228123543
 21
476.4057439742
  0
LINE
  5
2E3
100
AcDbEntity
  8
0
100
AcDbLine
 62
7
  6
CONTINUOUS
 10
407.8228123543
 20
476.4057439742
 11
407.8228123543
 21
467.4057439742
  0
LINE
  5
2E4
100
AcDbEntity
  8
0
100
AcDbLine
 62
7
  6
CONTINUOUS
 10
407.8228123543
 20
214.4057439742
 11
407.8228123543
 21
205.4057439742
  0
LINE
  5
2E5
100
AcDbEntity
  8
0
100
AcDbLine
 62
7
  6
CONTINUOUS
 10
408.0590258473
 20
161.198411572
 11
408.0590258473
 21
205.6557439742
  0
LINE
  5
2E6
100
AcDbEntity
  8
0
100
AcDbLine
 62
7
  6
CONTINUOUS
 10
408.0590258473
 20
214.1556885626
 11
408.0590258473
 21
467.6557439742
  0
LINE
  5
2E7
100
AcDbEntity
  8
0
100
AcDbLine
 62
7
  6
CONTINUOUS
 10
408.0590258473
 20
476.1556885626
 11
408.0590258473
 21
520.6130763764
  0
LINE
  5
2E8
100
AcDbEntity
  8
0
100
AcDbLine
 62
7
  6
CONTINUOUS
 10
408.0728123543
 20
476.1556885626
 11
408.0728123543
 21
467.6557993858
  0
LINE
  5
2E9
100
AcDbEntity
  8
0
100
AcDbLine
 62
7
  6
CONTINUOUS
 10
408.0728123543
 20
214.1556885626
 11
408.0728123543
 21
205.6557993858
  0
LINE
  5
2EA
100
AcDbEntity
  8
0
100
AcDbLine
 62
7
  6
CONTINUOUS
 10
412.4831089657
 20
144.9972534199
 11
412.4831089657
 21
536.8142345285
  0
LINE
  5
2EB
100
AcDbEntity
  8
0
100
AcDbLine
 62
7
  6
CONTINUOUS
 10
413.7831089657
 20
142.9057439742
 11
413.7831089657
 21
538.9057439742
  0
LINE
  5
2EC
100
AcDbEntity
  8
0
100
AcDbLine
 62
7
  6
CONTINUOUS
 10
81.5766622754
 20
544.4088858746
 11
81.5802095272
 21
544.4081846125
  0
LINE
  5
2ED
100
AcDbEntity
  8
0
100
AcDbLine
 62
7
  6
CONTINUOUS
 10
81.5764304127
 20
544.4096729385
 11
81.5799829192
 21
544.4089554154
  0
LINE
  5
2EE
100
AcDbEntity
  8
0
100
AcDbLine
 62
7
  6
CONTINUOUS
 10
83.364947574
 20
544.0605196564
 11
83.3339064853
 21
544.0687123412
  0
LINE
  5
2EF
100
AcDbEntity
  8
0
100
AcDbLine
 62
7
  6
CONTINUOUS
 10
424.2316726622
 20
142.9057439742
 11
424.2316726622
 21
538.9057439742
  0
LINE
  5
2F0
100
AcDbEntity
  8
0
100
AcDbLine
 62
7
  6
CONTINUOUS
 10
425.2146551154
 20
144.1057439742
 11
425.2146551154
 21
142.9057439742
  0
LINE
  5
2F1
100
AcDbEntity
  8
0
100
AcDbLine
 62
7
  6
CONTINUOUS
 10
425.2146551154
 20
537.7057439742
 11
425.2146551154
 21
538.9057439742
  0
LINE
  5
2F2
100
AcDbEntity
  8
0
100
AcDbLine
 62
7
  6
CONTINUOUS
 10
426.1976375686
 20
144.1057439742
 11
426.1976375686
 21
537.7057439742
  0
LINE
  5
2F3
100
AcDbEntity
  8
0
100
AcDbLine
 62
7
  6
CONTINUOUS
 10
430.0831089657
 20
538.9057439742
 11
430.0831089657
 21
537.7057439742
  0
LINE
  5
2F4
100
AcDbEntity
  8
0
100
AcDbLine
 62
7
  6
CONTINUOUS
 10
430.0831089657
 20
144.1057439742
 11
430.0831089657
 21
142.9057439742
  0
LINE
  5
2F5
100
AcDbEntity
  8
0
100
AcDbLine
 62
7
  6
CONTINUOUS
 10
432.049073872
 20
537.4504715381
 11
432.049073872
 21
144.3610164103
  0
LINE
  5
2F6
100
AcDbEntity
  8
0
100
AcDbLine
 62
7
  6
CONTINUOUS
 10
432.4831089657
 20
145.3057439742
 11
432.4831089657
 21
536.5057439742
  0
LINE
  5
2F7
100
AcDbEntity
  8
0
100
AcDbLine
 62
7
  6
CONTINUOUS
 10
433.0217242496
 20
361.0764588832
 11
433.0217242496
 21
358.2076152423
  0
LINE
  5
2F8
100
AcDbEntity
  8
0
100
AcDbLine
 62
7
  6
CONTINUOUS
 10
433.0217242496
 20
314.0038725478
 11
433.0217242496
 21
311.1350290652
  0
LINE
  5
2F9
100
AcDbEntity
  8
0
100
AcDbLine
 62
7
  6
CONTINUOUS
 10
433.7641761576
 20
311.3061764946
 11
433.7641761576
 21
314.1554084173
  0
LINE
  5
2FA
100
AcDbEntity
  8
0
100
AcDbLine
 62
7
  6
CONTINUOUS
 10
433.7641761576
 20
358.0560751525
 11
433.7641761576
 21
360.9053114538
  0
LINE
  5
2FB
100
AcDbEntity
  8
0
100
AcDbLine
 62
7
  6
CONTINUOUS
 10
434.3227071306
 20
351.336163422
 11
434.3227071306
 21
320.8753245263
  0
LINE
  5
2FC
100
AcDbEntity
  8
0
100
AcDbLine
 62
7
  6
CONTINUOUS
 10
223.2690068445
 20
521.6755410314
 11
216.6403282239
 21
520.387056432
  0
LINE
  5
2FD
100
AcDbEntity
  8
0
100
AcDbLine
 62
7
  6
CONTINUOUS
 10
223.2690068445
 20
522.6571682149
 11
215.6876810276
 21
521.183507759
  0
LINE
  5
2FE
100
AcDbEntity
  8
0
100
AcDbLine
 62
7
  6
CONTINUOUS
 10
57.0587102331
 20
512.4057439742
 11
57.2587102331
 21
512.4057439742
  0
LINE
  5
2FF
100
AcDbEntity
  8
0
100
AcDbLine
 62
7
  6
CONTINUOUS
 10
57.0587102331
 20
525.4057439742
 11
57.2587102331
 21
525.4057439742
  0
LINE
  5
300
100
AcDbEntity
  8
0
100
AcDbLine
 62
7
  6
CONTINUOUS
 10
83.3339064853
 20
544.0687123412
 11
83.3040984574
 21
544.0717848336
  0
LINE
  5
301
100
AcDbEntity
  8
0
100
AcDbLine
 62
7
  6
CONTINUOUS
 10
148.5766622754
 20
544.4088858746
 11
148.5802095272
 21
544.4081846125
  0
LINE
  5
302
100
AcDbEntity
  8
0
100
AcDbLine
 62
7
  6
CONTINUOUS
 10
148.5764304127
 20
544.4096729385
 11
148.5799829192
 21
544.4089554154
  0
LINE
  5
303
100
AcDbEntity
  8
0
100
AcDbLine
 62
7
  6
CONTINUOUS
 10
150.364947574
 20
544.0605196564
 11
150.333906487
 21
544.0687123409
  0
LINE
  5
304
100
AcDbEntity
  8
0
100
AcDbLine
 62
7
  6
CONTINUOUS
 10
437.7898764516
 20
356.4861110419
 11
437.7720305353
 21
356.5447082417
  0
LINE
  5
305
100
AcDbEntity
  8
0
100
AcDbLine
 62
7
  6
CONTINUOUS
 10
437.777718313
 20
356.5260302846
 11
437.7904468626
 21
356.4811094164
  0
LINE
  5
306
100
AcDbEntity
  8
0
100
AcDbLine
 62
7
  6
CONTINUOUS
 10
437.905212444
 20
356.0676313577
 11
437.7898764516
 21
356.4861110419
  0
LWPOLYLINE
  5
307
100
AcDbEntity
  8
0
100
AcDbPolyline
 62
7
  6
CONTINUOUS
 90
3
 70
0
 10
437.8419504685
 20
353.0667492422
 10
437.7970747164
 20
353.5375569905
 10
437.7831092768
 20
353.857310874
  0
LWPOLYLINE
  5
308
100
AcDbEntity
  8
0
100
AcDbPolyline
 62
7
  6
CONTINUOUS
 90
3
 70
0
 10
438.172669018
 20
352.9002972837
 10
438.0861073318
 20
353.8927001436
 10
437.9745279834
 20
354.6521652821
  0
LWPOLYLINE
  5
309
100
AcDbEntity
  8
0
100
AcDbPolyline
 62
7
  6
CONTINUOUS
 90
3
 70
0
 10
438.1726053626
 20
354.3300681332
 10
438.1398887368
 20
354.7527894911
 10
437.9890811473
 20
355.7067083529
  0
LWPOLYLINE
  5
30A
100
AcDbEntity
  8
0
100
AcDbPolyline
 62
7
  6
CONTINUOUS
 90
4
 70
0
 10
437.9870510204
 20
350.8471067804
 10
437.9440668389
 20
351.8524583563
 10
437.9098555454
 20
352.3411181237
 10
437.8419477019
 20
353.0668363328
  0
LINE
  5
30B
100
AcDbEntity
  8
0
100
AcDbLine
 62
7
  6
CONTINUOUS
 10
438.1728645455
 20
352.8890987292
 11
438.1726691293
 21
352.9002948442
  0
LINE
  5
30C
100
AcDbEntity
  8
0
100
AcDbLine
 62
7
  6
CONTINUOUS
 10
437.7831089658
 20
318.3553482645
 11
437.7831092638
 21
318.3540539197
  0
LINE
  5
30D
100
AcDbEntity
  8
0
100
AcDbLine
 62
7
  6
CONTINUOUS
 10
438.1633831611
 20
317.8917574979
 11
438.1633831611
 21
319.1617730099
  0
LINE
  5
30E
100
AcDbEntity
  8
0
100
AcDbLine
 62
7
  6
CONTINUOUS
 10
438.163384291
 20
319.320242723
 11
438.163384291
 21
337.3447557205
  0
LINE
  5
30F
100
AcDbEntity
  8
0
100
AcDbLine
 62
7
  6
CONTINUOUS
 10
438.1633838852
 20
344.4667288969
 11
438.1633838852
 21
352.8912218889
  0
LINE
  5
310
100
AcDbEntity
  8
0
100
AcDbLine
 62
7
  6
CONTINUOUS
 10
438.1633835815
 20
353.0067519312
 11
438.1633835815
 21
354.3197961692
  0
LINE
  5
311
100
AcDbEntity
  8
0
100
AcDbLine
 62
7
  6
CONTINUOUS
 10
438.1728756678
 20
317.8916889556
 11
438.1728756678
 21
337.2178832119
  0
LINE
  5
312
100
AcDbEntity
  8
0
100
AcDbLine
 62
7
  6
CONTINUOUS
 10
438.1728756678
 20
344.5936047364
 11
438.1728756678
 21
352.8912079302
  0
LINE
  5
313
100
AcDbEntity
  8
0
100
AcDbLine
 62
7
  6
CONTINUOUS
 10
438.1728756678
 20
352.9003757258
 11
438.1728756678
 21
354.3197989927
  0
LINE
  5
314
100
AcDbEntity
  8
0
100
AcDbLine
 62
7
  6
CONTINUOUS
 10
437.7831092339
 20
353.8573471583
 11
437.7831089658
 21
353.856120393
  0
LINE
  5
315
100
AcDbEntity
  8
0
100
AcDbLine
 62
7
  6
CONTINUOUS
 10
437.7831089657
 20
316.3550047179
 11
437.7831090697
 21
316.3553550169
  0
LWPOLYLINE
  5
316
100
AcDbEntity
  8
0
100
AcDbPolyline
 62
7
  6
CONTINUOUS
 90
3
 70
0
 10
437.9870410167
 20
321.3643908127
 10
438.1503024058
 20
336.0992097519
 10
437.9870410981
 20
350.8470984413
  0
LWPOLYLINE
  5
317
100
AcDbEntity
  8
0
100
AcDbPolyline
 62
7
  6
CONTINUOUS
 90
3
 70
0
 10
437.783106584
 20
318.3541082971
 10
437.7968388831
 20
318.6707407496
 10
437.8419513653
 20
319.1447415252
  0
LWPOLYLINE
  5
318
100
AcDbEntity
  8
0
100
AcDbPolyline
 62
7
  6
CONTINUOUS
 90
9
 70
0
 10
437.7831209448
 20
316.3557000167
 10
437.7854599704
 20
316.4058766026
 10
437.8082488335
 20
316.5912159579
 10
437.8603906045
 20
316.9044818349
 10
437.8975279826
 20
317.1141463445
 10
437.9866889343
 20
317.6332487078
 10
438.0804366538
 20
318.273785516
 10
438.1547665084
 20
319.012425191
 10
438.1717593205
 20
319.3069524866
  0
LWPOLYLINE
  5
319
100
AcDbEntity
  8
0
100
AcDbPolyline
 62
7
  6
CONTINUOUS
 90
4
 70
0
 10
437.8419473638
 20
319.1446486502
 10
437.9092308232
 20
319.8624798507
 10
437.943560199
 20
320.3507540161
 10
437.9870510767
 20
321.3643818256
  0
LINE
  5
31A
100
AcDbEntity
  8
0
100
AcDbLine
 62
7
  6
CONTINUOUS
 10
437.8419513653
 20
319.1447415252
 11
437.8419411973
 21
319.1446497231
  0
LINE
  5
31B
100
AcDbEntity
  8
0
100
AcDbLine
 62
7
  6
CONTINUOUS
 10
408.0590258473
 20
160.5581847493
 11
408.1789424418
 21
161.1751021472
  0
LWPOLYLINE
  5
31C
100
AcDbEntity
  8
0
100
AcDbPolyline
 62
7
  6
CONTINUOUS
 90
4
 70
0
 10
437.9048320049
 20
316.1423685564
 10
437.9886027857
 20
316.5025237952
 10
438.1392585894
 20
317.4525497158
 10
438.1725881687
 20
317.8814607349
  0
LINE
  5
31D
100
AcDbEntity
  8
0
100
AcDbLine
 62
7
  6
CONTINUOUS
 10
437.7911525323
 20
315.7298517195
 11
437.9048320049
 21
316.1423685564
  0
LINE
  5
31E
100
AcDbEntity
  8
0
100
AcDbLine
 62
7
  6
CONTINUOUS
 10
437.7934116066
 20
315.7380393384
 11
437.7720635539
 21
315.6668748772
  0
LINE
  5
31F
100
AcDbEntity
  8
0
100
AcDbLine
 62
7
  6
CONTINUOUS
 10
437.7745564534
 20
315.6745133963
 11
437.7911525323
 21
315.7298517195
  0
LINE
  5
320
100
AcDbEntity
  8
0
100
AcDbLine
 62
7
  6
CONTINUOUS
 10
145.1524630115
 20
544.0605185562
 11
145.2085155459
 21
544.0621246836
  0
LINE
  5
321
100
AcDbEntity
  8
0
100
AcDbLine
 62
7
  6
CONTINUOUS
 10
145.2428682488
 20
544.0726301457
 11
145.2133220634
 21
544.0717848366
  0
LINE
  5
322
100
AcDbEntity
  8
0
100
AcDbLine
 62
7
  6
CONTINUOUS
 10
148.2737102331
 20
544.07351253
 11
147.7587102335
 21
544.0718612173
  0
LINE
  5
323
100
AcDbEntity
  8
0
100
AcDbLine
 62
7
  6
CONTINUOUS
 10
81.2737102331
 20
544.07351253
 11
80.7587102335
 21
544.0718612173
  0
LINE
  5
324
100
AcDbEntity
  8
0
100
AcDbLine
 62
7
  6
CONTINUOUS
 10
402.8690068445
 20
537.4057439742
 11
406.2728123543
 21
537.4057439742
  0
LINE
  5
325
100
AcDbEntity
  8
0
100
AcDbLine
 62
7
  6
CONTINUOUS
 10
413.7831089657
 20
537.7057439742
 11
430.0831089656
 21
537.7057439742
  0
LINE
  5
326
100
AcDbEntity
  8
0
100
AcDbLine
 62
7
  6
CONTINUOUS
 10
413.7831089657
 20
538.9057439742
 11
430.0831089657
 21
538.9057439742
  0
LINE
  5
327
100
AcDbEntity
  8
0
100
AcDbLine
 62
7
  6
CONTINUOUS
 10
223.2690068445
 20
539.4057439741
 11
403.2728123542
 21
539.4057439742
  0
LINE
  5
328
100
AcDbEntity
  8
0
100
AcDbLine
 62
7
  6
CONTINUOUS
 10
212.0587102331
 20
539.9057439742
 11
59.4587102331
 21
539.9057439742
  0
LINE
  5
329
100
AcDbEntity
  8
0
100
AcDbLine
 62
7
  6
CONTINUOUS
 10
403.2728123542
 20
540.9057439742
 11
223.2690068444
 21
540.9057439742
  0
LINE
  5
32A
100
AcDbEntity
  8
0
100
AcDbLine
 62
7
  6
CONTINUOUS
 10
212.0587102331
 20
540.9057439742
 11
59.4587102331
 21
540.9057439742
  0
LINE
  5
32B
100
AcDbEntity
  8
0
100
AcDbLine
 62
7
  6
CONTINUOUS
 10
74.2587102331
 20
542.1057439742
 11
154.2587102331
 21
542.1057439742
  0
LINE
  5
32C
100
AcDbEntity
  8
0
100
AcDbLine
 62
7
  6
CONTINUOUS
 10
152.2960771431
 20
542.2057439742
 11
151.9607935562
 21
542.2057439742
  0
LINE
  5
32D
100
AcDbEntity
  8
0
100
AcDbLine
 62
7
  6
CONTINUOUS
 10
149.9734327315
 20
542.2057439742
 11
149.1639865488
 21
542.2057439742
  0
LINE
  5
32E
100
AcDbEntity
  8
0
100
AcDbLine
 62
7
  6
CONTINUOUS
 10
146.3534339173
 20
542.2057439742
 11
145.5439877347
 21
542.2057439742
  0
LINE
  5
32F
100
AcDbEntity
  8
0
100
AcDbLine
 62
7
  6
CONTINUOUS
 10
143.55662691
 20
542.2057439742
 11
143.221343323
 21
542.2057439742
  0
LINE
  5
330
100
AcDbEntity
  8
0
100
AcDbLine
 62
7
  6
CONTINUOUS
 10
85.2960771431
 20
542.2057439742
 11
84.9607935562
 21
542.2057439742
  0
LINE
  5
331
100
AcDbEntity
  8
0
100
AcDbLine
 62
7
  6
CONTINUOUS
 10
82.9734327315
 20
542.2057439742
 11
82.1639865488
 21
542.2057439742
  0
LINE
  5
332
100
AcDbEntity
  8
0
100
AcDbLine
 62
7
  6
CONTINUOUS
 10
79.3534339173
 20
542.2057439742
 11
78.5439877347
 21
542.2057439742
  0
LINE
  5
333
100
AcDbEntity
  8
0
100
AcDbLine
 62
7
  6
CONTINUOUS
 10
76.55662691
 20
542.2057439742
 11
76.221343323
 21
542.2057439742
  0
LINE
  5
334
100
AcDbEntity
  8
0
100
AcDbLine
 62
7
  6
CONTINUOUS
 10
76.6135111677
 20
542.4480058004
 11
78.4205485522
 21
542.4480058004
  0
LINE
  5
335
100
AcDbEntity
  8
0
100
AcDbLine
 62
7
  6
CONTINUOUS
 10
79.4677062121
 20
542.4480058004
 11
82.049714254
 21
542.4480058004
  0
LINE
  5
336
100
AcDbEntity
  8
0
100
AcDbLine
 62
7
  6
CONTINUOUS
 10
83.0968719139
 20
542.4480058004
 11
84.9039092985
 21
542.4480058004
  0
LINE
  5
337
100
AcDbEntity
  8
0
100
AcDbLine
 62
7
  6
CONTINUOUS
 10
143.6135111677
 20
542.4480058004
 11
145.4205485522
 21
542.4480058004
  0
LINE
  5
338
100
AcDbEntity
  8
0
100
AcDbLine
 62
7
  6
CONTINUOUS
 10
146.4677062121
 20
542.4480058004
 11
149.049714254
 21
542.4480058004
  0
LINE
  5
339
100
AcDbEntity
  8
0
100
AcDbLine
 62
7
  6
CONTINUOUS
 10
150.0968719139
 20
542.4480058004
 11
151.9039092985
 21
542.4480058004
  0
LINE
  5
33A
100
AcDbEntity
  8
0
100
AcDbLine
 62
7
  6
CONTINUOUS
 10
152.5087090892
 20
542.5057439742
 11
152.3553638941
 21
542.5057439742
  0
LINE
  5
33B
100
AcDbEntity
  8
0
100
AcDbLine
 62
7
  6
CONTINUOUS
 10
151.8555796955
 20
542.5057439742
 11
150.1624906996
 21
542.5057439742
  0
LINE
  5
33C
100
AcDbEntity
  8
0
100
AcDbLine
 62
7
  6
CONTINUOUS
 10
148.9559049344
 20
542.5057439742
 11
146.5615155064
 21
542.5057439742
  0
LINE
  5
33D
100
AcDbEntity
  8
0
100
AcDbLine
 62
7
  6
CONTINUOUS
 10
145.3549297538
 20
542.5057439742
 11
143.6618407415
 21
542.5057439742
  0
LINE
  5
33E
100
AcDbEntity
  8
0
100
AcDbLine
 62
7
  6
CONTINUOUS
 10
143.1620565774
 20
542.5057439742
 11
143.0087113769
 21
542.5057439742
  0
LINE
  5
33F
100
AcDbEntity
  8
0
100
AcDbLine
 62
7
  6
CONTINUOUS
 10
85.5087090892
 20
542.5057439742
 11
85.3553638941
 21
542.5057439742
  0
LINE
  5
340
100
AcDbEntity
  8
0
100
AcDbLine
 62
7
  6
CONTINUOUS
 10
84.8555796955
 20
542.5057439742
 11
83.1624906996
 21
542.5057439742
  0
LINE
  5
341
100
AcDbEntity
  8
0
100
AcDbLine
 62
7
  6
CONTINUOUS
 10
81.9559049344
 20
542.5057439742
 11
79.5615155064
 21
542.5057439742
  0
LINE
  5
342
100
AcDbEntity
  8
0
100
AcDbLine
 62
7
  6
CONTINUOUS
 10
78.3549297538
 20
542.5057439742
 11
76.6618407415
 21
542.5057439742
  0
LINE
  5
343
100
AcDbEntity
  8
0
100
AcDbLine
 62
7
  6
CONTINUOUS
 10
76.1620565774
 20
542.5057439742
 11
76.0087113769
 21
542.5057439742
  0
LINE
  5
344
100
AcDbEntity
  8
0
100
AcDbLine
 62
7
  6
CONTINUOUS
 10
76.0087102331
 20
542.8057312728
 11
85.5087102331
 21
542.8057312728
  0
LINE
  5
345
100
AcDbEntity
  8
0
100
AcDbLine
 62
7
  6
CONTINUOUS
 10
143.0087102331
 20
542.8057312728
 11
152.5087102331
 21
542.8057312728
  0
LINE
  5
346
100
AcDbEntity
  8
0
100
AcDbLine
 62
7
  6
CONTINUOUS
 10
76.0897854409
 20
542.9665320628
 11
85.4276523382
 21
542.966519256
  0
LINE
  5
347
100
AcDbEntity
  8
0
100
AcDbLine
 62
7
  6
CONTINUOUS
 10
143.0897854409
 20
542.9665320628
 11
152.4276523382
 21
542.966519256
  0
LINE
  5
348
100
AcDbEntity
  8
0
100
AcDbLine
 62
7
  6
CONTINUOUS
 10
80.9367119864
 20
544.0720564091
 11
80.5823287695
 21
544.0720544831
  0
LINE
  5
349
100
AcDbEntity
  8
0
100
AcDbLine
 62
7
  6
CONTINUOUS
 10
147.9367119864
 20
544.0720564091
 11
147.5823287695
 21
544.0720544831
  0
LINE
  5
34A
100
AcDbEntity
  8
0
100
AcDbLine
 62
7
  6
CONTINUOUS
 10
80.5835956777
 20
544.0720500996
 11
80.2437102331
 21
544.0735126584
  0
LINE
  5
34B
100
AcDbEntity
  8
0
100
AcDbLine
 62
7
  6
CONTINUOUS
 10
147.5835956777
 20
544.0720500996
 11
147.2437102331
 21
544.0735126584
  0
LINE
  5
34C
100
AcDbEntity
  8
0
100
AcDbLine
 62
7
  6
CONTINUOUS
 10
83.3089048557
 20
544.0621247058
 11
83.364957478
 21
544.060518548
  0
LINE
  5
34D
100
AcDbEntity
  8
0
100
AcDbLine
 62
7
  6
CONTINUOUS
 10
83.3089048557
 20
544.0621247058
 11
83.3649516057
 21
544.0605195664
  0
LINE
  5
34E
100
AcDbEntity
  8
0
100
AcDbLine
 62
7
  6
CONTINUOUS
 10
83.3040984574
 20
544.0717848336
 11
83.2711230371
 21
544.0727282799
  0
LINE
  5
34F
100
AcDbEntity
  8
0
100
AcDbLine
 62
7
  6
CONTINUOUS
 10
150.3089048557
 20
544.0621247058
 11
150.364957478
 21
544.060518548
  0
LINE
  5
350
100
AcDbEntity
  8
0
100
AcDbLine
 62
7
  6
CONTINUOUS
 10
150.3089048557
 20
544.0621247058
 11
150.3649516057
 21
544.0605195664
  0
LINE
  5
351
100
AcDbEntity
  8
0
100
AcDbLine
 62
7
  6
CONTINUOUS
 10
150.3040984574
 20
544.0717848336
 11
150.2711230371
 21
544.0727282799
  0
LINE
  5
352
100
AcDbEntity
  8
0
100
AcDbLine
 62
7
  6
CONTINUOUS
 10
81.4113023085
 20
544.4352401168
 11
81.4199784404
 21
544.434509457
  0
LINE
  5
353
100
AcDbEntity
  8
0
100
AcDbLine
 62
7
  6
CONTINUOUS
 10
148.4113023085
 20
544.4352401168
 11
148.4199784404
 21
544.434509457
  0
LINE
  5
354
100
AcDbEntity
  8
0
100
AcDbLine
 62
7
  6
CONTINUOUS
 10
150.333906487
 20
544.0687123409
 11
150.3040984574
 21
544.0717848336
  0
LINE
  5
355
100
AcDbEntity
  8
0
100
AcDbLine
 62
7
  6
CONTINUOUS
 10
437.9890811473
 20
355.7067083529
 11
437.905212444
 21
356.0676313577
  0
LINE
  5
356
100
AcDbEntity
  8
0
100
AcDbLine
 62
7
  6
CONTINUOUS
 10
408.1789424418
 20
520.6363858011
 11
408.0590258473
 21
521.253303199
  0
LWPOLYLINE
  5
357
100
AcDbEntity
  8
0
100
AcDbPolyline
 62
7
  6
CONTINUOUS
 90
4
 70
0
 10
437.9745279834
 20
354.6521652821
 10
437.8225121461
 20
355.5291890626
 10
437.7922251973
 20
355.7381504401
 10
437.7831185525
 20
355.8558616289
  0
LINE
  5
358
100
AcDbEntity
  8
0
100
AcDbLine
 62
7
  6
CONTINUOUS
 10
438.1726653235
 20
352.9003781541
 11
438.1725880628
 21
352.9010041043
  0
LINE
  5
359
100
AcDbEntity
  8
0
100
AcDbLine
 62
7
  6
CONTINUOUS
 10
437.8419571868
 20
353.066750133
 11
437.8419477019
 21
353.0668363328
  0
LINE
  5
35A
100
AcDbEntity
  8
0
100
AcDbLine
 62
7
  6
CONTINUOUS
 10
146.9432380989
 20
544.402109219
 11
146.9374543442
 21
544.4008942225
  0
LINE
  5
35B
100
AcDbEntity
  8
0
100
AcDbLine
 62
7
  6
CONTINUOUS
 10
146.9442127207
 20
544.4054498792
 11
146.938433596
 21
544.404262051
  0
LINE
  5
35C
100
AcDbEntity
  8
0
100
AcDbLine
 62
7
  6
CONTINUOUS
 10
146.9418230182
 20
544.4098408137
 11
146.9374589106
 21
544.4089597378
  0
LINE
  5
35D
100
AcDbEntity
  8
0
100
AcDbLine
 62
7
  6
CONTINUOUS
 10
146.9415900344
 20
544.4090503232
 11
146.9372322687
 21
544.4081888292
  0
LWPOLYLINE
  5
35E
100
AcDbEntity
  8
0
100
AcDbPolyline
 62
7
  6
CONTINUOUS
 90
3
 70
0
 10
145.2133220634
 20
544.0717848366
 10
145.1835140371
 20
544.0687123486
 10
145.1524729223
 20
544.0605196593
  0
LWPOLYLINE
  5
35F
100
AcDbEntity
  8
0
100
AcDbPolyline
 62
7
  6
CONTINUOUS
 90
3
 70
0
 10
78.2133220634
 20
544.0717848366
 10
78.1835140339
 20
544.068712348
 10
78.1524729223
 20
544.0605196593
  0
LINE
  5
360
100
AcDbEntity
  8
0
100
AcDbLine
 62
7
  6
CONTINUOUS
 10
78.1524630115
 20
544.0605185562
 11
78.2085155459
 21
544.0621246836
  0
LINE
  5
361
100
AcDbEntity
  8
0
100
AcDbLine
 62
7
  6
CONTINUOUS
 10
78.1524645905
 20
544.0605180637
 11
78.2085155459
 21
544.0621246836
  0
LINE
  5
362
100
AcDbEntity
  8
0
100
AcDbLine
 62
7
  6
CONTINUOUS
 10
78.2428682488
 20
544.0726301457
 11
78.2133220634
 21
544.0717848366
  0
LINE
  5
363
100
AcDbEntity
  8
0
100
AcDbLine
 62
7
  6
CONTINUOUS
 10
432.049073872
 20
537.4504715381
 11
430.0831089658
 21
537.7057439742
  0
LINE
  5
364
100
AcDbEntity
  8
0
100
AcDbLine
 62
7
  6
CONTINUOUS
 10
79.9432380989
 20
544.402109219
 11
79.9374543442
 21
544.4008942225
  0
LINE
  5
365
100
AcDbEntity
  8
0
100
AcDbLine
 62
7
  6
CONTINUOUS
 10
79.9442127207
 20
544.4054498792
 11
79.938433596
 21
544.404262051
  0
LINE
  5
366
100
AcDbEntity
  8
0
100
AcDbLine
 62
7
  6
CONTINUOUS
 10
79.9418230182
 20
544.4098408137
 11
79.9374589106
 21
544.4089597378
  0
LINE
  5
367
100
AcDbEntity
  8
0
100
AcDbLine
 62
7
  6
CONTINUOUS
 10
79.9415900344
 20
544.4090503232
 11
79.9372322687
 21
544.4081888292
  0
ARC
  5
368
100
AcDbEntity
  8
0
100
AcDbCircle
 62
7
  6
CONTINUOUS
 10
80.7596995011
 20
54.7604989852
 40
82.9904698779
100
AcDbArc
 50
90.0006829806
 51
90.3562360576
  0
ARC
  5
369
100
AcDbEntity
  8
0
100
AcDbCircle
 62
7
  6
CONTINUOUS
 10
80.7608692409
 20
55.770507967
 40
81.9804609187
100
AcDbArc
 50
89.6415753738
 51
90.001508921
  0
ARC
  5
36A
100
AcDbEntity
  8
0
100
AcDbCircle
 62
7
  6
CONTINUOUS
 10
59.5252294173
 20
135.8839662444
 40
26.0382069655
100
AcDbArc
 50
7.6794812906
 51
8.2177325528
  0
ARC
  5
36B
100
AcDbEntity
  8
0
100
AcDbCircle
 62
7
  6
CONTINUOUS
 10
67.4862740438
 20
143.5809608928
 40
17.9209704464
100
AcDbArc
 50
346.3884847749
 51
347.1840889192
  0
ARC
  5
36C
100
AcDbEntity
  8
0
100
AcDbCircle
 62
7
  6
CONTINUOUS
 10
59.4587102331
 20
143.1057439742
 40
2.2
100
AcDbArc
 50
180.0
 51
270.0
  0
ARC
  5
36D
100
AcDbEntity
  8
0
100
AcDbCircle
 62
7
  6
CONTINUOUS
 10
55.5286853878
 20
152.0211150094
 40
29.3867437101
100
AcDbArc
 50
334.4863679175
 51
335.0086123392
  0
ARC
  5
36E
100
AcDbEntity
  8
0
100
AcDbCircle
 62
7
  6
CONTINUOUS
 10
94.0311485323
 20
143.5809613912
 40
17.9209726143
100
AcDbArc
 50
192.8159111382
 51
193.6115152734
  0
ARC
  5
36F
100
AcDbEntity
  8
0
100
AcDbCircle
 62
7
  6
CONTINUOUS
 10
80.7587102331
 20
145.1565252242
 40
7.85078125
100
AcDbArc
 50
289.3884977495
 51
306.4919975871
  0
ARC
  5
370
100
AcDbEntity
  8
0
100
AcDbCircle
 62
7
  6
CONTINUOUS
 10
80.7587102331
 20
145.1565252242
 40
7.85078125
100
AcDbArc
 50
233.5080024152
 51
250.6115025664
  0
ARC
  5
371
100
AcDbEntity
  8
0
100
AcDbCircle
 62
7
  6
CONTINUOUS
 10
80.7587102331
 20
145.1565252242
 40
7.8338714079
100
AcDbArc
 50
277.035724314
 51
288.9979901194
  0
ARC
  5
372
100
AcDbEntity
  8
0
100
AcDbCircle
 62
7
  6
CONTINUOUS
 10
80.7587102331
 20
145.1565252242
 40
7.8338714079
100
AcDbArc
 50
251.0020081208
 51
262.964275686
  0
ARC
  5
373
100
AcDbEntity
  8
0
100
AcDbCircle
 62
7
  6
CONTINUOUS
 10
80.7590999043
 20
145.1818771305
 40
7.8328943511
100
AcDbArc
 50
264.7963670848
 51
265.1543898116
  0
ARC
  5
374
100
AcDbEntity
  8
0
100
AcDbCircle
 62
7
  6
CONTINUOUS
 10
81.0529656494
 20
142.9044387112
 40
5.6138555709
100
AcDbArc
 50
254.0857724326
 51
258.5388606509
  0
ARC
  5
375
100
AcDbEntity
  8
0
100
AcDbCircle
 62
7
  6
CONTINUOUS
 10
80.5164620723
 20
142.5604411317
 40
5.2616136646
100
AcDbArc
 50
279.8871743227
 51
281.6004333559
  0
ARC
  5
376
100
AcDbEntity
  8
0
100
AcDbCircle
 62
7
  6
CONTINUOUS
 10
80.9761872807
 20
142.5346179398
 40
5.2361530933
100
AcDbArc
 50
258.597397625
 51
259.797169323
  0
ARC
  5
377
100
AcDbEntity
  8
0
100
AcDbCircle
 62
7
  6
CONTINUOUS
 10
80.5413562646
 20
142.5339602833
 40
5.235484035
100
AcDbArc
 50
280.2027798984
 51
281.3934058788
  0
ARC
  5
378
100
AcDbEntity
  8
0
100
AcDbCircle
 62
7
  6
CONTINUOUS
 10
81.4969120843
 20
141.314854265
 40
3.9395392187
100
AcDbArc
 50
266.7520628425
 51
267.4200462089
  0
ARC
  5
379
100
AcDbEntity
  8
0
100
AcDbCircle
 62
7
  6
CONTINUOUS
 10
80.0205083819
 20
141.3148542641
 40
3.9395392178
100
AcDbArc
 50
272.579953791
 51
273.2479371576
  0
ARC
  5
37A
100
AcDbEntity
  8
0
100
AcDbCircle
 62
7
  6
CONTINUOUS
 10
80.0208408457
 20
141.307500815
 40
3.9321782569
100
AcDbArc
 50
271.9111198322
 51
272.5799374352
  0
ARC
  5
37B
100
AcDbEntity
  8
0
100
AcDbCircle
 62
7
  6
CONTINUOUS
 10
81.4965796204
 20
141.3075008136
 40
3.9321782555
100
AcDbArc
 50
267.4200625646
 51
268.0888801678
  0
ARC
  5
37C
100
AcDbEntity
  8
0
100
AcDbCircle
 62
7
  6
CONTINUOUS
 10
80.0210597372
 20
141.3009746997
 40
3.9256484718
100
AcDbArc
 50
271.2415451737
 51
271.9111033492
  0
ARC
  5
37D
100
AcDbEntity
  8
0
100
AcDbCircle
 62
7
  6
CONTINUOUS
 10
81.496360729
 20
141.3009747001
 40
3.9256484723
100
AcDbArc
 50
268.0888966507
 51
268.7584548263
  0
ARC
  5
37E
100
AcDbEntity
  8
0
100
AcDbCircle
 62
7
  6
CONTINUOUS
 10
80.0211435323
 20
141.281015899
 40
3.9056872638
100
AcDbArc
 50
268.0850753044
 51
268.7569128362
  0
ARC
  5
37F
100
AcDbEntity
  8
0
100
AcDbCircle
 62
7
  6
CONTINUOUS
 10
81.4962769339
 20
141.2810158988
 40
3.9056872637
100
AcDbArc
 50
271.2430871638
 51
271.9149246955
  0
ARC
  5
380
100
AcDbEntity
  8
0
100
AcDbCircle
 62
7
  6
CONTINUOUS
 10
80.02107931
 20
141.2790605264
 40
3.9037308372
100
AcDbArc
 50
267.4129955209
 51
268.0850583757
  0
ARC
  5
381
100
AcDbEntity
  8
0
100
AcDbCircle
 62
7
  6
CONTINUOUS
 10
81.4963411561
 20
141.2790605258
 40
3.9037308367
100
AcDbArc
 50
271.9149416243
 51
272.5870044792
  0
ARC
  5
382
100
AcDbEntity
  8
0
100
AcDbCircle
 62
7
  6
CONTINUOUS
 10
80.0210297552
 20
141.2779381654
 40
3.9026073834
100
AcDbArc
 50
266.7407876122
 51
267.412978563
  0
ARC
  5
383
100
AcDbEntity
  8
0
100
AcDbCircle
 62
7
  6
CONTINUOUS
 10
81.4963907109
 20
141.2779381662
 40
3.9026073842
100
AcDbArc
 50
272.587021437
 51
273.2592123877
  0
ARC
  5
384
100
AcDbEntity
  8
0
100
AcDbCircle
 62
7
  6
CONTINUOUS
 10
80.961029114
 20
140.3803085901
 40
3.0666544126
100
AcDbArc
 50
281.6634064585
 51
284.1865685498
  0
ARC
  5
385
100
AcDbEntity
  8
0
100
AcDbCircle
 62
7
  6
CONTINUOUS
 10
85.3087102331
 20
139.0057566758
 40
0.2
100
AcDbArc
 50
306.4919988791
 51
360.0
  0
ARC
  5
386
100
AcDbEntity
  8
0
100
AcDbCircle
 62
7
  6
CONTINUOUS
 10
76.2087102331
 20
139.0057566758
 40
0.2
100
AcDbArc
 50
180.0
 51
233.5080011209
  0
ARC
  5
387
100
AcDbEntity
  8
0
100
AcDbCircle
 62
7
  6
CONTINUOUS
 10
83.1625352817
 20
139.3926862267
 40
0.086942264
100
AcDbArc
 50
260.6875564025
 51
269.9706030988
  0
ARC
  5
388
100
AcDbEntity
  8
0
100
AcDbCircle
 62
7
  6
CONTINUOUS
 10
77.6837102331
 20
162.9057439742
 40
21.625
100
AcDbArc
 50
162.5076754749
 51
197.4923245251
  0
ARC
  5
389
100
AcDbEntity
  8
0
100
AcDbCircle
 62
7
  6
CONTINUOUS
 10
105.9887428041
 20
152.0211186631
 40
29.3867522561
100
AcDbArc
 50
204.9913877537
 51
205.5136320808
  0
ARC
  5
38A
100
AcDbEntity
  8
0
100
AcDbCircle
 62
7
  6
CONTINUOUS
 10
122.5286853984
 20
152.0211150067
 40
29.3867436993
100
AcDbArc
 50
334.4863679134
 51
335.0086123353
  0
ARC
  5
38B
100
AcDbEntity
  8
0
100
AcDbCircle
 62
7
  6
CONTINUOUS
 10
101.9921938874
 20
135.8839658506
 40
26.0382098312
100
AcDbArc
 50
171.7822674822
 51
172.3205186264
  0
ARC
  5
38C
100
AcDbEntity
  8
0
100
AcDbCircle
 62
7
  6
CONTINUOUS
 10
126.5252294097
 20
135.8839662436
 40
26.0382069732
100
AcDbArc
 50
7.6794812903
 51
8.2177325523
  0
ARC
  5
38D
100
AcDbEntity
  8
0
100
AcDbCircle
 62
7
  6
CONTINUOUS
 10
134.4862740508
 20
143.5809608924
 40
17.9209704395
100
AcDbArc
 50
346.3884847707
 51
347.1840889155
  0
ARC
  5
38E
100
AcDbEntity
  8
0
100
AcDbCircle
 62
7
  6
CONTINUOUS
 10
-153.1080177577
 20
336.3696876362
 40
591.2753873136
100
AcDbArc
 50
358.5451805088
 51
358.6757795803
  0
ARC
  5
38F
100
AcDbEntity
  8
0
100
AcDbCircle
 62
7
  6
CONTINUOUS
 10
-152.7902555134
 20
335.8491913932
 40
590.9575398499
100
AcDbArc
 50
1.3243780831
 51
1.4548851459
  0
ARC
  5
390
100
AcDbEntity
  8
0
100
AcDbCircle
 62
7
  6
CONTINUOUS
 10
55.5286764041
 20
529.7903686969
 40
29.3867536448
100
AcDbArc
 50
24.9913877572
 51
25.5136320594
  0
ARC
  5
391
100
AcDbEntity
  8
0
100
AcDbCircle
 62
7
  6
CONTINUOUS
 10
59.5252265839
 20
545.9275220956
 40
26.0382098258
100
AcDbArc
 50
351.7822674854
 51
352.3205186295
  0
ARC
  5
392
100
AcDbEntity
  8
0
100
AcDbCircle
 62
7
  6
CONTINUOUS
 10
67.4862719229
 20
538.2305265564
 40
17.9209726251
100
AcDbArc
 50
12.8159111329
 51
13.6115152673
  0
ARC
  5
393
100
AcDbEntity
  8
0
100
AcDbCircle
 62
7
  6
CONTINUOUS
 10
59.4587102331
 20
538.7057439742
 40
2.2
100
AcDbArc
 50
90.0
 51
180.0
  0
ARC
  5
394
100
AcDbEntity
  8
0
100
AcDbCircle
 62
7
  6
CONTINUOUS
 10
77.6837102331
 20
518.9057439742
 40
21.625
100
AcDbArc
 50
162.5076754749
 51
197.4923245251
  0
ARC
  5
395
100
AcDbEntity
  8
0
100
AcDbCircle
 62
7
  6
CONTINUOUS
 10
94.0311464322
 20
538.2305270549
 40
17.9209704561
100
AcDbArc
 50
166.3884847807
 51
167.1840889242
  0
ARC
  5
396
100
AcDbEntity
  8
0
100
AcDbCircle
 62
7
  6
CONTINUOUS
 10
80.7587102331
 20
536.6549627242
 40
7.85078125
100
AcDbArc
 50
53.5080024129
 51
70.6115022505
  0
ARC
  5
397
100
AcDbEntity
  8
0
100
AcDbCircle
 62
7
  6
CONTINUOUS
 10
80.7587102331
 20
536.6549627242
 40
7.85078125
100
AcDbArc
 50
109.3884974336
 51
126.4919975848
  0
ARC
  5
398
100
AcDbEntity
  8
0
100
AcDbCircle
 62
7
  6
CONTINUOUS
 10
80.7587102331
 20
536.6549627242
 40
7.8338714079
100
AcDbArc
 50
97.035724314
 51
108.9979892965
  0
ARC
  5
399
100
AcDbEntity
  8
0
100
AcDbCircle
 62
7
  6
CONTINUOUS
 10
80.7587102331
 20
536.6549627242
 40
7.8338714079
100
AcDbArc
 50
71.0020095898
 51
82.964275686
  0
ARC
  5
39A
100
AcDbEntity
  8
0
100
AcDbCircle
 62
7
  6
CONTINUOUS
 10
80.7583204765
 20
536.6296098397
 40
7.832895333
100
AcDbArc
 50
84.7963671124
 51
85.1543539024
  0
ARC
  5
39B
100
AcDbEntity
  8
0
100
AcDbCircle
 62
7
  6
CONTINUOUS
 10
80.7590999081
 20
536.6296107743
 40
7.8328943948
100
AcDbArc
 50
94.845263152
 51
95.2036329139
  0
ARC
  5
39C
100
AcDbEntity
  8
0
100
AcDbCircle
 62
7
  6
CONTINUOUS
 10
80.4644461585
 20
538.9070145135
 40
5.6138913378
100
AcDbArc
 50
74.0857846257
 51
78.5384622197
  0
ARC
  5
39D
100
AcDbEntity
  8
0
100
AcDbCircle
 62
7
  6
CONTINUOUS
 10
80.5412331857
 20
539.2768700102
 40
5.2361530917
100
AcDbArc
 50
78.5973976248
 51
79.7971693231
  0
ARC
  5
39E
100
AcDbEntity
  8
0
100
AcDbCircle
 62
7
  6
CONTINUOUS
 10
80.9760642016
 20
539.2775276649
 40
5.2354840352
100
AcDbArc
 50
100.2027798984
 51
101.3934058788
  0
ARC
  5
39F
100
AcDbEntity
  8
0
100
AcDbCircle
 62
7
  6
CONTINUOUS
 10
80.9930459313
 20
539.2927078746
 40
5.2192127672
100
AcDbArc
 50
99.8801332997
 51
101.5928810818
  0
ARC
  5
3A0
100
AcDbEntity
  8
0
100
AcDbCircle
 62
7
  6
CONTINUOUS
 10
81.4969120841
 20
540.4966336867
 40
3.9395392153
100
AcDbArc
 50
92.5799537908
 51
93.2479371578
  0
ARC
  5
3A1
100
AcDbEntity
  8
0
100
AcDbCircle
 62
7
  6
CONTINUOUS
 10
80.020508382
 20
540.4966336869
 40
3.9395392151
100
AcDbArc
 50
86.7520628421
 51
87.4200462092
  0
ARC
  5
3A2
100
AcDbEntity
  8
0
100
AcDbCircle
 62
7
  6
CONTINUOUS
 10
81.4965796205
 20
540.5039871335
 40
3.9321782568
100
AcDbArc
 50
91.9111198323
 51
92.5799374353
  0
ARC
  5
3A3
100
AcDbEntity
  8
0
100
AcDbCircle
 62
7
  6
CONTINUOUS
 10
80.0208408457
 20
540.5039871334
 40
3.9321782569
100
AcDbArc
 50
87.4200625647
 51
88.0888801676
  0
ARC
  5
3A4
100
AcDbEntity
  8
0
100
AcDbCircle
 62
7
  6
CONTINUOUS
 10
81.496360729
 20
540.5105132494
 40
3.9256484711
100
AcDbArc
 50
91.2415451736
 51
91.9111033493
  0
ARC
  5
3A5
100
AcDbEntity
  8
0
100
AcDbCircle
 62
7
  6
CONTINUOUS
 10
80.0210597372
 20
540.5105132493
 40
3.9256484712
100
AcDbArc
 50
88.0888966507
 51
88.7584548264
  0
ARC
  5
3A6
100
AcDbEntity
  8
0
100
AcDbCircle
 62
7
  6
CONTINUOUS
 10
80.0211435323
 20
540.5304720474
 40
3.9056872658
100
AcDbArc
 50
91.2430871639
 51
91.9149246953
  0
ARC
  5
3A7
100
AcDbEntity
  8
0
100
AcDbCircle
 62
7
  6
CONTINUOUS
 10
81.4962769338
 20
540.5304720474
 40
3.9056872658
100
AcDbArc
 50
88.0850753047
 51
88.7569128361
  0
ARC
  5
3A8
100
AcDbEntity
  8
0
100
AcDbCircle
 62
7
  6
CONTINUOUS
 10
80.02107931
 20
540.5324274232
 40
3.903730836
100
AcDbArc
 50
91.9149416243
 51
92.5870044793
  0
ARC
  5
3A9
100
AcDbEntity
  8
0
100
AcDbCircle
 62
7
  6
CONTINUOUS
 10
81.4963411562
 20
540.5324274232
 40
3.903730836
100
AcDbArc
 50
87.4129955207
 51
88.0850583757
  0
ARC
  5
3AA
100
AcDbEntity
  8
0
100
AcDbCircle
 62
7
  6
CONTINUOUS
 10
80.021029755
 20
540.5335497871
 40
3.9026073792
100
AcDbArc
 50
92.5870214365
 51
93.2592123881
  0
ARC
  5
3AB
100
AcDbEntity
  8
0
100
AcDbCircle
 62
7
  6
CONTINUOUS
 10
81.4963907111
 20
540.533549787
 40
3.9026073793
100
AcDbArc
 50
86.7407876119
 51
87.4129785635
  0
ARC
  5
3AC
100
AcDbEntity
  8
0
100
AcDbCircle
 62
7
  6
CONTINUOUS
 10
80.5563913522
 20
541.4311793581
 40
3.0666544128
100
AcDbArc
 50
101.6634064586
 51
104.1865685497
  0
ARC
  5
3AD
100
AcDbEntity
  8
0
100
AcDbCircle
 62
7
  6
CONTINUOUS
 10
85.3087102331
 20
542.8057312725
 40
0.2
100
AcDbArc
 50
0.0
 51
53.5080011209
  0
ARC
  5
3AE
100
AcDbEntity
  8
0
100
AcDbCircle
 62
7
  6
CONTINUOUS
 10
76.2087102331
 20
542.8057312725
 40
0.2
100
AcDbArc
 50
126.4919988791
 51
180.0
  0
ARC
  5
3AF
100
AcDbEntity
  8
0
100
AcDbCircle
 62
7
  6
CONTINUOUS
 10
78.3548851858
 20
542.4188017306
 40
0.0869422551
100
AcDbArc
 50
80.6875563201
 51
89.9706030478
  0
ARC
  5
3B0
100
AcDbEntity
  8
0
100
AcDbCircle
 62
7
  6
CONTINUOUS
 10
80.7596124357
 20
626.3955701026
 40
82.3350510165
100
AcDbArc
 50
269.9993721701
 51
270.3577555984
  0
ARC
  5
3B1
100
AcDbEntity
  8
0
100
AcDbCircle
 62
7
  6
CONTINUOUS
 10
80.7548288048
 20
625.4811143625
 40
81.4205953639
100
AcDbArc
 50
269.6403228299
 51
270.0027313662
  0
ARC
  5
3B2
100
AcDbEntity
  8
0
100
AcDbCircle
 62
7
  6
CONTINUOUS
 10
122.5286764023
 20
529.790368696
 40
29.3867536468
100
AcDbArc
 50
24.9913877572
 51
25.5136320593
  0
ARC
  5
3B3
100
AcDbEntity
  8
0
100
AcDbCircle
 62
7
  6
CONTINUOUS
 10
105.9887350908
 20
529.7903729371
 40
29.3867437222
100
AcDbArc
 50
154.4863679249
 51
155.0086123461
  0
ARC
  5
3B4
100
AcDbEntity
  8
0
100
AcDbCircle
 62
7
  6
CONTINUOUS
 10
126.5252265812
 20
545.927522096
 40
26.0382098285
100
AcDbArc
 50
351.7822674854
 51
352.3205186294
  0
ARC
  5
3B5
100
AcDbEntity
  8
0
100
AcDbCircle
 62
7
  6
CONTINUOUS
 10
101.9921906289
 20
545.9275216436
 40
26.0382065412
100
AcDbArc
 50
187.6794812827
 51
188.2177325535
  0
ARC
  5
3B6
100
AcDbEntity
  8
0
100
AcDbCircle
 62
7
  6
CONTINUOUS
 10
134.4862719225
 20
538.2305265563
 40
17.9209726256
100
AcDbArc
 50
12.8159111329
 51
13.6115152673
  0
ARC
  5
3B7
100
AcDbEntity
  8
0
100
AcDbCircle
 62
7
  6
CONTINUOUS
 10
147.7596995011
 20
54.7604989915
 40
82.9904698716
100
AcDbArc
 50
90.0006829806
 51
90.3562360576
  0
ARC
  5
3B8
100
AcDbEntity
  8
0
100
AcDbCircle
 62
7
  6
CONTINUOUS
 10
147.7608692409
 20
55.7705079608
 40
81.9804609249
100
AcDbArc
 50
89.6415753738
 51
90.001508921
  0
ARC
  5
3B9
100
AcDbEntity
  8
0
100
AcDbCircle
 62
7
  6
CONTINUOUS
 10
148.0529656494
 20
142.9044387113
 40
5.6138555709
100
AcDbArc
 50
254.0857724327
 51
258.5388606509
  0
ARC
  5
3BA
100
AcDbEntity
  8
0
100
AcDbCircle
 62
7
  6
CONTINUOUS
 10
147.5164620722
 20
142.5604411318
 40
5.2616136647
100
AcDbArc
 50
279.8871743227
 51
281.6004333559
  0
ARC
  5
3BB
100
AcDbEntity
  8
0
100
AcDbCircle
 62
7
  6
CONTINUOUS
 10
147.9761872807
 20
142.5346179398
 40
5.2361530933
100
AcDbArc
 50
258.597397625
 51
259.797169323
  0
ARC
  5
3BC
100
AcDbEntity
  8
0
100
AcDbCircle
 62
7
  6
CONTINUOUS
 10
147.5413562646
 20
142.5339602834
 40
5.2354840352
100
AcDbArc
 50
280.2027798985
 51
281.3934058788
  0
ARC
  5
3BD
100
AcDbEntity
  8
0
100
AcDbCircle
 62
7
  6
CONTINUOUS
 10
147.0205083819
 20
141.3148542647
 40
3.9395392183
100
AcDbArc
 50
272.579953791
 51
273.2479371576
  0
ARC
  5
3BE
100
AcDbEntity
  8
0
100
AcDbCircle
 62
7
  6
CONTINUOUS
 10
148.4969120843
 20
141.3148542651
 40
3.9395392187
100
AcDbArc
 50
266.7520628425
 51
267.4200462089
  0
ARC
  5
3BF
100
AcDbEntity
  8
0
100
AcDbCircle
 62
7
  6
CONTINUOUS
 10
147.0208408456
 20
141.3075008156
 40
3.9321782575
100
AcDbArc
 50
271.9111198323
 51
272.5799374351
  0
ARC
  5
3C0
100
AcDbEntity
  8
0
100
AcDbCircle
 62
7
  6
CONTINUOUS
 10
148.4965796205
 20
141.307500815
 40
3.9321782569
100
AcDbArc
 50
267.4200625647
 51
268.0888801676
  0
ARC
  5
3C1
100
AcDbEntity
  8
0
100
AcDbCircle
 62
7
  6
CONTINUOUS
 10
147.0210597372
 20
141.3009746999
 40
3.925648472
100
AcDbArc
 50
271.2415451736
 51
271.9111033492
  0
ARC
  5
3C2
100
AcDbEntity
  8
0
100
AcDbCircle
 62
7
  6
CONTINUOUS
 10
148.496360729
 20
141.3009747001
 40
3.9256484722
100
AcDbArc
 50
268.0888966507
 51
268.7584548263
  0
ARC
  5
3C3
100
AcDbEntity
  8
0
100
AcDbCircle
 62
7
  6
CONTINUOUS
 10
147.0211435323
 20
141.2810158989
 40
3.9056872638
100
AcDbArc
 50
268.0850753044
 51
268.7569128362
  0
ARC
  5
3C4
100
AcDbEntity
  8
0
100
AcDbCircle
 62
7
  6
CONTINUOUS
 10
148.4962769339
 20
141.2810158988
 40
3.9056872637
100
AcDbArc
 50
271.2430871638
 51
271.9149246955
  0
ARC
  5
3C5
100
AcDbEntity
  8
0
100
AcDbCircle
 62
7
  6
CONTINUOUS
 10
147.02107931
 20
141.2790605264
 40
3.9037308373
100
AcDbArc
 50
267.4129955209
 51
268.0850583757
  0
ARC
  5
3C6
100
AcDbEntity
  8
0
100
AcDbCircle
 62
7
  6
CONTINUOUS
 10
148.4963411561
 20
141.2790605264
 40
3.9037308373
100
AcDbArc
 50
271.9149416244
 51
272.5870044792
  0
ARC
  5
3C7
100
AcDbEntity
  8
0
100
AcDbCircle
 62
7
  6
CONTINUOUS
 10
147.0210297552
 20
141.2779381654
 40
3.9026073834
100
AcDbArc
 50
266.7407876122
 51
267.412978563
  0
ARC
  5
3C8
100
AcDbEntity
  8
0
100
AcDbCircle
 62
7
  6
CONTINUOUS
 10
148.4963907109
 20
141.2779381654
 40
3.9026073834
100
AcDbArc
 50
272.5870214369
 51
273.2592123878
  0
ARC
  5
3C9
100
AcDbEntity
  8
0
100
AcDbCircle
 62
7
  6
CONTINUOUS
 10
147.9610291139
 20
140.3803085902
 40
3.0666544126
100
AcDbArc
 50
281.6634064585
 51
284.1865685497
  0
ARC
  5
3CA
100
AcDbEntity
  8
0
100
AcDbCircle
 62
7
  6
CONTINUOUS
 10
152.3087102331
 20
139.0057566758
 40
0.2
100
AcDbArc
 50
306.4919988791
 51
360.0
  0
ARC
  5
3CB
100
AcDbEntity
  8
0
100
AcDbCircle
 62
7
  6
CONTINUOUS
 10
143.2087102331
 20
139.0057566758
 40
0.2
100
AcDbArc
 50
180.0
 51
233.5080011209
  0
ARC
  5
3CC
100
AcDbEntity
  8
0
100
AcDbCircle
 62
7
  6
CONTINUOUS
 10
150.1625352817
 20
139.3926862267
 40
0.086942264
100
AcDbArc
 50
260.6875564033
 51
269.9706030988
  0
ARC
  5
3CD
100
AcDbEntity
  8
0
100
AcDbCircle
 62
7
  6
CONTINUOUS
 10
147.7587102331
 20
145.1565252242
 40
7.85078125
100
AcDbArc
 50
289.3884977495
 51
306.4919975871
  0
ARC
  5
3CE
100
AcDbEntity
  8
0
100
AcDbCircle
 62
7
  6
CONTINUOUS
 10
147.7587102331
 20
145.1565252242
 40
7.85078125
100
AcDbArc
 50
233.5080024152
 51
250.6115025664
  0
ARC
  5
3CF
100
AcDbEntity
  8
0
100
AcDbCircle
 62
7
  6
CONTINUOUS
 10
147.7587102331
 20
145.1565252242
 40
7.8338714079
100
AcDbArc
 50
277.035724314
 51
288.9979901194
  0
ARC
  5
3D0
100
AcDbEntity
  8
0
100
AcDbCircle
 62
7
  6
CONTINUOUS
 10
147.7587102331
 20
145.1565252242
 40
7.8338714079
100
AcDbArc
 50
251.0020081208
 51
262.964275686
  0
ARC
  5
3D1
100
AcDbEntity
  8
0
100
AcDbCircle
 62
7
  6
CONTINUOUS
 10
147.7590999041
 20
145.1818771282
 40
7.8328943488
100
AcDbArc
 50
264.7963670847
 51
265.1543898116
  0
ARC
  5
3D2
100
AcDbEntity
  8
0
100
AcDbCircle
 62
7
  6
CONTINUOUS
 10
168.992193886
 20
135.8839658504
 40
26.0382098298
100
AcDbArc
 50
171.7822674814
 51
172.3205186257
  0
ARC
  5
3D3
100
AcDbEntity
  8
0
100
AcDbCircle
 62
7
  6
CONTINUOUS
 10
161.0311485318
 20
143.5809613916
 40
17.920972614
100
AcDbArc
 50
192.8159111399
 51
193.6115152752
  0
ARC
  5
3D4
100
AcDbEntity
  8
0
100
AcDbCircle
 62
7
  6
CONTINUOUS
 10
172.9887428008
 20
152.0211186619
 40
29.3867522525
100
AcDbArc
 50
204.9913877542
 51
205.5136320813
  0
ARC
  5
3D5
100
AcDbEntity
  8
0
100
AcDbCircle
 62
7
  6
CONTINUOUS
 10
225.0616244647
 20
33.9941851447
 40
127.7066490313
100
AcDbArc
 50
94.0683194895
 51
94.2094195326
  0
ARC
  5
3D6
100
AcDbEntity
  8
0
100
AcDbCircle
 62
7
  6
CONTINUOUS
 10
199.2587102331
 20
161.3307439742
 40
21.625
100
AcDbArc
 50
252.5076754749
 51
287.4923245251
  0
ARC
  5
3D7
100
AcDbEntity
  8
0
100
AcDbCircle
 62
7
  6
CONTINUOUS
 10
212.0587102331
 20
143.1057439742
 40
2.2
100
AcDbArc
 50
270.0
 51
360.0
  0
ARC
  5
3D8
100
AcDbEntity
  8
0
100
AcDbCircle
 62
7
  6
CONTINUOUS
 10
215.4587102331
 20
159.4500275693
 40
1.2
100
AcDbArc
 50
79.0
 51
180.0
  0
ARC
  5
3D9
100
AcDbEntity
  8
0
100
AcDbCircle
 62
7
  6
CONTINUOUS
 10
215.3087102331
 20
214.1557439742
 40
0.25
100
AcDbArc
 50
90.0
 51
180.0
  0
ARC
  5
3DA
100
AcDbEntity
  8
0
100
AcDbCircle
 62
7
  6
CONTINUOUS
 10
215.3087102331
 20
205.6557439742
 40
0.25
100
AcDbArc
 50
180.0
 51
270.0
  0
ARC
  5
3DB
100
AcDbEntity
  8
0
100
AcDbCircle
 62
7
  6
CONTINUOUS
 10
215.8087102331
 20
214.1557439742
 40
0.25
100
AcDbArc
 50
0.0
 51
90.0
  0
ARC
  5
3DC
100
AcDbEntity
  8
0
100
AcDbCircle
 62
7
  6
CONTINUOUS
 10
215.8087102331
 20
205.6557439742
 40
0.25
100
AcDbArc
 50
270.0
 51
360.0
  0
ARC
  5
3DD
100
AcDbEntity
  8
0
100
AcDbCircle
 62
7
  6
CONTINUOUS
 10
391.2728123543
 20
161.3307439742
 40
21.625
100
AcDbArc
 50
252.5076754749
 51
287.4923245251
  0
ARC
  5
3DE
100
AcDbEntity
  8
0
100
AcDbCircle
 62
7
  6
CONTINUOUS
 10
416.5523958285
 20
154.8677192104
 40
11.4233522472
100
AcDbArc
 50
145.0865391165
 51
145.4903800901
  0
ARC
  5
3DF
100
AcDbEntity
  8
0
100
AcDbCircle
 62
7
  6
CONTINUOUS
 10
416.0755096677
 20
150.2560909205
 40
6.551363622
100
AcDbArc
 50
243.4864682902
 51
244.6418076525
  0
ARC
  5
3E0
100
AcDbEntity
  8
0
100
AcDbCircle
 62
7
  6
CONTINUOUS
 10
411.5406283555
 20
158.0583098984
 40
5.4795991864
100
AcDbArc
 50
150.8394828557
 51
151.9411527152
  0
ARC
  5
3E1
100
AcDbEntity
  8
0
100
AcDbCircle
 62
7
  6
CONTINUOUS
 10
403.2728123543
 20
143.9057439742
 40
3.0
100
AcDbArc
 50
270.0000000001
 51
360.0
  0
ARC
  5
3E2
100
AcDbEntity
  8
0
100
AcDbCircle
 62
7
  6
CONTINUOUS
 10
430.0831089657
 20
145.3057439742
 40
2.4
100
AcDbArc
 50
270.0
 51
360.0
  0
ARC
  5
3E3
100
AcDbEntity
  8
0
100
AcDbCircle
 62
7
  6
CONTINUOUS
 10
407.7728123543
 20
159.0857439742
 40
1.5
100
AcDbArc
 50
79.0
 51
180.0
  0
ARC
  5
3E4
100
AcDbEntity
  8
0
100
AcDbCircle
 62
7
  6
CONTINUOUS
 10
403.2728123543
 20
143.9057439742
 40
1.5
100
AcDbArc
 50
270.0000000002
 51
360.0
  0
ARC
  5
3E5
100
AcDbEntity
  8
0
100
AcDbCircle
 62
7
  6
CONTINUOUS
 10
413.7831089657
 20
144.2057439742
 40
1.3
100
AcDbArc
 50
157.182926172
 51
270.0
  0
ARC
  5
3E6
100
AcDbEntity
  8
0
100
AcDbCircle
 62
7
  6
CONTINUOUS
 10
418.4732880925
 20
320.8470504066
 40
19.7752864281
100
AcDbArc
 50
351.065586669
 51
351.407870238
  0
ARC
  5
3E7
100
AcDbEntity
  8
0
100
AcDbCircle
 62
7
  6
CONTINUOUS
 10
427.9384725466
 20
318.6686657241
 40
10.2815512855
100
AcDbArc
 50
343.3682472377
 51
343.5889095426
  0
ARC
  5
3E8
100
AcDbEntity
  8
0
100
AcDbCircle
 62
7
  6
CONTINUOUS
 10
428.1122729436
 20
318.6186866067
 40
10.100711247
100
AcDbArc
 50
343.5823272551
 51
345.3265577078
  0
ARC
  5
3E9
100
AcDbEntity
  8
0
100
AcDbCircle
 62
7
  6
CONTINUOUS
 10
428.3124240465
 20
318.5660970376
 40
9.8937665786
100
AcDbArc
 50
345.3275664291
 51
346.2972479651
  0
ARC
  5
3EA
100
AcDbEntity
  8
0
100
AcDbCircle
 62
7
  6
CONTINUOUS
 10
428.4326474435
 20
318.5367656537
 40
9.7700168515
100
AcDbArc
 50
346.2973502984
 51
346.8467826305
  0
ARC
  5
3EB
100
AcDbEntity
  8
0
100
AcDbCircle
 62
7
  6
CONTINUOUS
 10
428.4986001789
 20
318.5213528211
 40
9.7022871038
100
AcDbArc
 50
346.846785856
 51
347.2723960992
  0
ARC
  5
3EC
100
AcDbEntity
  8
0
100
AcDbCircle
 62
7
  6
CONTINUOUS
 10
428.6263449143
 20
318.4928657246
 40
9.5714050851
100
AcDbArc
 50
347.27025842
 51
348.2830923884
  0
ARC
  5
3ED
100
AcDbEntity
  8
0
100
AcDbCircle
 62
7
  6
CONTINUOUS
 10
429.186554063
 20
318.3867344459
 40
9.0013216978
100
AcDbArc
 50
348.2204240773
 51
353.6931189674
  0
ARC
  5
3EE
100
AcDbEntity
  8
0
100
AcDbCircle
 62
7
  6
CONTINUOUS
 10
429.9003003857
 20
318.3088865129
 40
8.2833433143
100
AcDbArc
 50
353.6859883697
 51
357.0402718228
  0
ARC
  5
3EF
100
AcDbEntity
  8
0
100
AcDbCircle
 62
7
  6
CONTINUOUS
 10
430.7422756323
 20
318.1057439742
 40
7.4408333333
100
AcDbArc
 50
293.9615779875
 51
340.8667596539
  0
ARC
  5
3F0
100
AcDbEntity
  8
0
100
AcDbCircle
 62
7
  6
CONTINUOUS
 10
431.6170003799
 20
319.6470270819
 40
6.564209092
100
AcDbArc
 50
356.7429793654
 51
356.9380018606
  0
ARC
  5
3F1
100
AcDbEntity
  8
0
100
AcDbCircle
 62
7
  6
CONTINUOUS
 10
438.9435774641
 20
316.2646996223
 40
1.1722126032
100
AcDbArc
 50
175.4080633227
 51
176.626946411
  0
ARC
  5
3F2
100
AcDbEntity
  8
0
100
AcDbCircle
 62
7
  6
CONTINUOUS
 10
407.3228123543
 20
214.1557439742
 40
0.25
100
AcDbArc
 50
90.0
 51
180.0
  0
ARC
  5
3F3
100
AcDbEntity
  8
0
100
AcDbCircle
 62
7
  6
CONTINUOUS
 10
407.3228123543
 20
205.6557439742
 40
0.25
100
AcDbArc
 50
180.0
 51
270.0
  0
ARC
  5
3F4
100
AcDbEntity
  8
0
100
AcDbCircle
 62
7
  6
CONTINUOUS
 10
407.8228123543
 20
214.1557439742
 40
0.25
100
AcDbArc
 50
0.0
 51
90.0
  0
ARC
  5
3F5
100
AcDbEntity
  8
0
100
AcDbCircle
 62
7
  6
CONTINUOUS
 10
407.8228123543
 20
205.6557439742
 40
0.25
100
AcDbArc
 50
270.0
 51
360.0
  0
ARC
  5
3F6
100
AcDbEntity
  8
0
100
AcDbCircle
 62
7
  6
CONTINUOUS
 10
437.9728756678
 20
319.3202800182
 40
0.2
100
AcDbArc
 50
356.1534866721
 51
360.0
  0
ARC
  5
3F7
100
AcDbEntity
  8
0
100
AcDbCircle
 62
7
  6
CONTINUOUS
 10
437.9728756677
 20
317.8916889556
 40
0.2
100
AcDbArc
 50
357.0682264469
 51
359.9999999996
  0
ARC
  5
3F8
100
AcDbEntity
  8
0
100
AcDbCircle
 62
7
  6
CONTINUOUS
 10
215.3087102331
 20
476.1557439742
 40
0.25
100
AcDbArc
 50
90.0
 51
180.0
  0
ARC
  5
3F9
100
AcDbEntity
  8
0
100
AcDbCircle
 62
7
  6
CONTINUOUS
 10
215.3087102331
 20
467.6557439742
 40
0.25
100
AcDbArc
 50
180.0
 51
270.0
  0
ARC
  5
3FA
100
AcDbEntity
  8
0
100
AcDbCircle
 62
7
  6
CONTINUOUS
 10
215.8087102331
 20
476.1557439742
 40
0.25
100
AcDbArc
 50
0.0
 51
90.0
  0
ARC
  5
3FB
100
AcDbEntity
  8
0
100
AcDbCircle
 62
7
  6
CONTINUOUS
 10
215.8087102331
 20
467.6557439742
 40
0.25
100
AcDbArc
 50
270.0
 51
360.0
  0
ARC
  5
3FC
100
AcDbEntity
  8
0
100
AcDbCircle
 62
7
  6
CONTINUOUS
 10
147.7587102331
 20
536.6549627242
 40
7.85078125
100
AcDbArc
 50
53.5080024129
 51
70.6115022505
  0
ARC
  5
3FD
100
AcDbEntity
  8
0
100
AcDbCircle
 62
7
  6
CONTINUOUS
 10
147.7587102331
 20
536.6549627242
 40
7.85078125
100
AcDbArc
 50
109.3884974336
 51
126.4919975848
  0
ARC
  5
3FE
100
AcDbEntity
  8
0
100
AcDbCircle
 62
7
  6
CONTINUOUS
 10
147.7587102331
 20
536.6549627242
 40
7.8338714079
100
AcDbArc
 50
97.035724314
 51
108.9979892965
  0
ARC
  5
3FF
100
AcDbEntity
  8
0
100
AcDbCircle
 62
7
  6
CONTINUOUS
 10
147.7587102331
 20
536.6549627242
 40
7.8338714079
100
AcDbArc
 50
71.0020095898
 51
82.964275686
  0
ARC
  5
400
100
AcDbEntity
  8
0
100
AcDbCircle
 62
7
  6
CONTINUOUS
 10
147.7583204774
 20
536.6296098494
 40
7.8328953232
100
AcDbArc
 50
84.7963671121
 51
85.1543539025
  0
ARC
  5
401
100
AcDbEntity
  8
0
100
AcDbCircle
 62
7
  6
CONTINUOUS
 10
147.7590999097
 20
536.6296107561
 40
7.8328944131
100
AcDbArc
 50
94.8452631524
 51
95.2036329135
  0
ARC
  5
402
100
AcDbEntity
  8
0
100
AcDbCircle
 62
7
  6
CONTINUOUS
 10
147.4644461584
 20
538.9070145133
 40
5.6138913379
100
AcDbArc
 50
74.0857846257
 51
78.5384622196
  0
ARC
  5
403
100
AcDbEntity
  8
0
100
AcDbCircle
 62
7
  6
CONTINUOUS
 10
147.5412331856
 20
539.2768700092
 40
5.2361530927
100
AcDbArc
 50
78.5973976249
 51
79.797169323
  0
ARC
  5
404
100
AcDbEntity
  8
0
100
AcDbCircle
 62
7
  6
CONTINUOUS
 10
147.9760642016
 20
539.2775276648
 40
5.2354840353
100
AcDbArc
 50
100.2027798984
 51
101.3934058788
  0
ARC
  5
405
100
AcDbEntity
  8
0
100
AcDbCircle
 62
7
  6
CONTINUOUS
 10
147.9930459312
 20
539.2927078747
 40
5.2192127672
100
AcDbArc
 50
99.8801332996
 51
101.5928810818
  0
ARC
  5
406
100
AcDbEntity
  8
0
100
AcDbCircle
 62
7
  6
CONTINUOUS
 10
148.4969120841
 20
540.4966336868
 40
3.9395392152
100
AcDbArc
 50
92.5799537908
 51
93.2479371578
  0
ARC
  5
407
100
AcDbEntity
  8
0
100
AcDbCircle
 62
7
  6
CONTINUOUS
 10
147.020508382
 20
540.4966336868
 40
3.9395392152
100
AcDbArc
 50
86.7520628422
 51
87.4200462092
  0
ARC
  5
408
100
AcDbEntity
  8
0
100
AcDbCircle
 62
7
  6
CONTINUOUS
 10
148.4965796205
 20
540.5039871334
 40
3.9321782569
100
AcDbArc
 50
91.9111198324
 51
92.5799374353
  0
ARC
  5
409
100
AcDbEntity
  8
0
100
AcDbCircle
 62
7
  6
CONTINUOUS
 10
147.0208408457
 20
540.5039871334
 40
3.9321782569
100
AcDbArc
 50
87.4200625647
 51
88.0888801676
  0
ARC
  5
40A
100
AcDbEntity
  8
0
100
AcDbCircle
 62
7
  6
CONTINUOUS
 10
148.496360729
 20
540.5105132493
 40
3.9256484712
100
AcDbArc
 50
91.2415451736
 51
91.9111033493
  0
ARC
  5
40B
100
AcDbEntity
  8
0
100
AcDbCircle
 62
7
  6
CONTINUOUS
 10
147.0210597372
 20
540.5105132494
 40
3.9256484711
100
AcDbArc
 50
88.0888966507
 51
88.7584548264
  0
ARC
  5
40C
100
AcDbEntity
  8
0
100
AcDbCircle
 62
7
  6
CONTINUOUS
 10
147.0211435323
 20
540.5304720474
 40
3.9056872658
100
AcDbArc
 50
91.2430871639
 51
91.9149246953
  0
ARC
  5
40D
100
AcDbEntity
  8
0
100
AcDbCircle
 62
7
  6
CONTINUOUS
 10
148.4962769338
 20
540.5304720473
 40
3.9056872659
100
AcDbArc
 50
88.0850753047
 51
88.7569128361
  0
ARC
  5
40E
100
AcDbEntity
  8
0
100
AcDbCircle
 62
7
  6
CONTINUOUS
 10
147.02107931
 20
540.5324274232
 40
3.903730836
100
AcDbArc
 50
91.9149416243
 51
92.5870044793
  0
ARC
  5
40F
100
AcDbEntity
  8
0
100
AcDbCircle
 62
7
  6
CONTINUOUS
 10
148.4963411562
 20
540.5324274232
 40
3.903730836
100
AcDbArc
 50
87.4129955207
 51
88.0850583757
  0
ARC
  5
410
100
AcDbEntity
  8
0
100
AcDbCircle
 62
7
  6
CONTINUOUS
 10
147.0210297553
 20
540.5335497816
 40
3.9026073847
100
AcDbArc
 50
92.587021437
 51
93.2592123876
  0
ARC
  5
411
100
AcDbEntity
  8
0
100
AcDbCircle
 62
7
  6
CONTINUOUS
 10
148.4963907109
 20
540.5335497817
 40
3.9026073846
100
AcDbArc
 50
86.7407876124
 51
87.412978563
  0
ARC
  5
412
100
AcDbEntity
  8
0
100
AcDbCircle
 62
7
  6
CONTINUOUS
 10
147.5563913523
 20
541.4311793579
 40
3.0666544129
100
AcDbArc
 50
101.6634064586
 51
104.1865685496
  0
ARC
  5
413
100
AcDbEntity
  8
0
100
AcDbCircle
 62
7
  6
CONTINUOUS
 10
152.3087102331
 20
542.8057312725
 40
0.2
100
AcDbArc
 50
0.0
 51
53.5080011209
  0
ARC
  5
414
100
AcDbEntity
  8
0
100
AcDbCircle
 62
7
  6
CONTINUOUS
 10
143.2087102331
 20
542.8057312725
 40
0.2
100
AcDbArc
 50
126.4919988791
 51
180.0
  0
ARC
  5
415
100
AcDbEntity
  8
0
100
AcDbCircle
 62
7
  6
CONTINUOUS
 10
145.3548851858
 20
542.4188017306
 40
0.0869422551
100
AcDbArc
 50
80.6875563201
 51
89.9706030478
  0
ARC
  5
416
100
AcDbEntity
  8
0
100
AcDbCircle
 62
7
  6
CONTINUOUS
 10
172.9887350908
 20
529.7903729371
 40
29.3867437222
100
AcDbArc
 50
154.4863679249
 51
155.0086123461
  0
ARC
  5
417
100
AcDbEntity
  8
0
100
AcDbCircle
 62
7
  6
CONTINUOUS
 10
168.9921906289
 20
545.9275216436
 40
26.0382065412
100
AcDbArc
 50
187.6794812827
 51
188.2177325535
  0
ARC
  5
418
100
AcDbEntity
  8
0
100
AcDbCircle
 62
7
  6
CONTINUOUS
 10
161.0311464353
 20
538.2305270542
 40
17.9209704593
100
AcDbArc
 50
166.3884847808
 51
167.1840889242
  0
ARC
  5
419
100
AcDbEntity
  8
0
100
AcDbCircle
 62
7
  6
CONTINUOUS
 10
147.7596124357
 20
626.3955701026
 40
82.3350510165
100
AcDbArc
 50
269.9993721701
 51
270.3577555984
  0
ARC
  5
41A
100
AcDbEntity
  8
0
100
AcDbCircle
 62
7
  6
CONTINUOUS
 10
147.7548288047
 20
625.4811143624
 40
81.4205953639
100
AcDbArc
 50
269.6403228299
 51
270.0027313662
  0
ARC
  5
41B
100
AcDbEntity
  8
0
100
AcDbCircle
 62
7
  6
CONTINUOUS
 10
212.0587102331
 20
538.7057439742
 40
2.2
100
AcDbArc
 50
0.0
 51
90.0
  0
ARC
  5
41C
100
AcDbEntity
  8
0
100
AcDbCircle
 62
7
  6
CONTINUOUS
 10
215.4587102331
 20
522.3614603791
 40
1.2
100
AcDbArc
 50
180.0
 51
281.0000000026
  0
ARC
  5
41D
100
AcDbEntity
  8
0
100
AcDbCircle
 62
7
  6
CONTINUOUS
 10
418.4476902456
 20
351.3640507267
 40
19.8006365301
100
AcDbArc
 50
8.1777612076
 51
9.1480570863
  0
ARC
  5
41E
100
AcDbEntity
  8
0
100
AcDbCircle
 62
7
  6
CONTINUOUS
 10
421.9984106566
 20
351.8792350485
 40
16.2127400286
100
AcDbArc
 50
6.7994391041
 51
8.1605353119
  0
ARC
  5
41F
100
AcDbEntity
  8
0
100
AcDbCircle
 62
7
  6
CONTINUOUS
 10
428.0511347787
 20
353.5759805247
 40
10.16411553
100
AcDbArc
 50
14.637921011
 51
16.2961029206
  0
ARC
  5
420
100
AcDbEntity
  8
0
100
AcDbCircle
 62
7
  6
CONTINUOUS
 10
428.3126322003
 20
353.6454538016
 40
9.8935492471
100
AcDbArc
 50
13.36235097
 51
14.6313458453
  0
ARC
  5
421
100
AcDbEntity
  8
0
100
AcDbCircle
 62
7
  6
CONTINUOUS
 10
428.5669008867
 20
353.7062672498
 40
9.6321096304
100
AcDbArc
 50
11.3495028156
 51
13.3599513059
  0
ARC
  5
422
100
AcDbEntity
  8
0
100
AcDbCircle
 62
7
  6
CONTINUOUS
 10
428.7139706012
 20
353.7730178601
 40
9.4726206126
100
AcDbArc
 50
16.295324097
 51
16.770470689
  0
ARC
  5
423
100
AcDbEntity
  8
0
100
AcDbCircle
 62
7
  6
CONTINUOUS
 10
428.9493556831
 20
353.7828827992
 40
9.2420563121
100
AcDbArc
 50
8.4780835984
 51
11.3504154565
  0
ARC
  5
424
100
AcDbEntity
  8
0
100
AcDbCircle
 62
7
  6
CONTINUOUS
 10
430.7422756323
 20
354.1057439742
 40
7.4408333333
100
AcDbArc
 50
19.1334460691
 51
66.0384220125
  0
ARC
  5
425
100
AcDbEntity
  8
0
100
AcDbCircle
 62
7
  6
CONTINUOUS
 10
431.2495081151
 20
352.5395956725
 40
6.9325069287
100
AcDbArc
 50
2.9883228715
 51
3.9853193204
  0
ARC
  5
426
100
AcDbEntity
  8
0
100
AcDbCircle
 62
7
  6
CONTINUOUS
 10
437.3140586993
 20
337.2174119402
 40
0.8588193317
100
AcDbArc
 50
0.0314521565
 51
8.5271966371
  0
ARC
  5
427
100
AcDbEntity
  8
0
100
AcDbCircle
 62
7
  6
CONTINUOUS
 10
437.3140593486
 20
344.594075924
 40
0.8588186816
100
AcDbArc
 50
351.4726178971
 51
359.9685535002
  0
ARC
  5
428
100
AcDbEntity
  8
0
100
AcDbCircle
 62
7
  6
CONTINUOUS
 10
407.3228123543
 20
476.1557439742
 40
0.25
100
AcDbArc
 50
90.0
 51
180.0
  0
ARC
  5
429
100
AcDbEntity
  8
0
100
AcDbCircle
 62
7
  6
CONTINUOUS
 10
407.3228123543
 20
467.6557439742
 40
0.25
100
AcDbArc
 50
180.0
 51
270.0
  0
ARC
  5
42A
100
AcDbEntity
  8
0
100
AcDbCircle
 62
7
  6
CONTINUOUS
 10
407.8228123543
 20
476.1557439742
 40
0.25
100
AcDbArc
 50
0.0
 51
90.0
  0
ARC
  5
42B
100
AcDbEntity
  8
0
100
AcDbCircle
 62
7
  6
CONTINUOUS
 10
407.8228123543
 20
467.6557439742
 40
0.25
100
AcDbArc
 50
270.0
 51
360.0
  0
ARC
  5
42C
100
AcDbEntity
  8
0
100
AcDbCircle
 62
7
  6
CONTINUOUS
 10
437.9728756678
 20
354.3197989927
 40
0.2
100
AcDbArc
 50
0.0
 51
2.943800935
  0
ARC
  5
42D
100
AcDbEntity
  8
0
100
AcDbCircle
 62
7
  6
CONTINUOUS
 10
416.5523958813
 20
526.9437687732
 40
11.4233523107
100
AcDbArc
 50
214.5096199055
 51
214.913460877
  0
ARC
  5
42E
100
AcDbEntity
  8
0
100
AcDbCircle
 62
7
  6
CONTINUOUS
 10
416.0858493301
 20
531.5354317283
 40
6.5738386558
100
AcDbArc
 50
115.345722076
 51
116.4859354656
  0
ARC
  5
42F
100
AcDbEntity
  8
0
100
AcDbCircle
 62
7
  6
CONTINUOUS
 10
403.2728123542
 20
537.9057439742
 40
3.0
100
AcDbArc
 50
0.0
 51
89.9999999999
  0
ARC
  5
430
100
AcDbEntity
  8
0
100
AcDbCircle
 62
7
  6
CONTINUOUS
 10
430.0831089657
 20
536.5057439742
 40
2.4
100
AcDbArc
 50
0.0
 51
90.0
  0
ARC
  5
431
100
AcDbEntity
  8
0
100
AcDbCircle
 62
7
  6
CONTINUOUS
 10
403.2728123542
 20
537.9057439742
 40
1.5
100
AcDbArc
 50
0.0
 51
89.9999999998
  0
ARC
  5
432
100
AcDbEntity
  8
0
100
AcDbCircle
 62
7
  6
CONTINUOUS
 10
407.7728123542
 20
522.7257439742
 40
1.5
100
AcDbArc
 50
180.0
 51
281.0
  0
ARC
  5
433
100
AcDbEntity
  8
0
100
AcDbCircle
 62
7
  6
CONTINUOUS
 10
413.7831089657
 20
537.6057439742
 40
1.3
100
AcDbArc
 50
90.0
 51
202.6749639461
  0
SPLINE
  5
434
100
AcDbEntity
  8
0
100
AcDbSpline
 62
7
  6
CONTINUOUS
 70
0
 71
3
 72
9
 73
5
 74
0
 42
0.0000001
 43
0.0000001
 44
0.0000000001
 40
0.0
 40
0.0
 40
0.0
 40
0.0
 40
0.24494781
 40
1.0
 40
1.0
 40
1.0
 40
1.0
 10
79.938433596
 20
544.404262051
 30
0.0
 10
79.8913580118
 20
544.394559261
 30
0.0
 10
79.6997091866
 20
544.352366213
 30
0.0
 10
79.5103030598
 20
544.3001257004
 30
0.0
 10
79.3689457521
 20
544.2557439742
 30
0.0
  0
LINE
  5
435
100
AcDbEntity
  8
0
100
AcDbLine
 62
7
  6
CONTINUOUS
 10
80.1061181576
 20
544.4352401168
 11
80.1018483158
 21
544.4348765229
  0
LINE
  5
436
100
AcDbEntity
  8
0
100
AcDbLine
 62
7
  6
CONTINUOUS
 10
80.1018483158
 20
544.4348765229
 11
80.0974941885
 21
544.4345138789
  0
LINE
  5
437
100
AcDbEntity
  8
0
100
AcDbLine
 62
7
  6
CONTINUOUS
 10
83.0781518569
 20
542.4480025733
 11
82.9734327315
 21
542.2057439742
  0
SPLINE
  5
438
100
AcDbEntity
  8
0
100
AcDbSpline
 62
7
  6
CONTINUOUS
 70
0
 71
3
 72
13
 73
9
 74
0
 42
0.0000001
 43
0.0000001
 44
0.0000000001
 40
0.0
 40
0.0
 40
0.0
 40
0.0
 40
0.3432278109
 40
0.6631249526
 40
0.7948520846
 40
0.8970038041
 40
0.9650950091
 40
1.0
 40
1.0
 40
1.0
 40
1.0
 10
78.5439923284
 20
542.2057356995
 30
0.0
 10
78.5493378607
 20
542.193357156
 30
0.0
 10
78.5603724926
 20
542.1697565549
 30
0.0
 10
78.5753496817
 20
542.142269799
 30
0.0
 10
78.5870153154
 20
542.1239799562
 30
0.0
 10
78.5940861814
 20
542.1142705508
 30
0.0
 10
78.5993269326
 20
542.1084953045
 30
0.0
 10
78.6028522778
 20
542.1057439742
 30
0.0
 10
78.6042234931
 20
542.1057439742
 30
0.0
  0
SPLINE
  5
439
100
AcDbEntity
  8
0
100
AcDbSpline
 62
7
  6
CONTINUOUS
 70
0
 71
3
 72
9
 73
5
 74
0
 42
0.0000001
 43
0.0000001
 44
0.0000000001
 40
0.0
 40
0.0
 40
0.0
 40
0.0
 40
0.5178513115
 40
1.0
 40
1.0
 40
1.0
 40
1.0
 10
76.2213459848
 20
542.2057356974
 30
0.0
 10
76.2250478673
 20
542.1801024314
 30
0.0
 10
76.2478321657
 20
542.1319266399
 30
0.0
 10
76.2973672634
 20
542.1057439742
 30
0.0
 10
76.3214808694
 20
542.1057439742
 30
0.0
  0
LINE
  5
43A
100
AcDbEntity
  8
0
100
AcDbLine
 62
7
  6
CONTINUOUS
 10
78.4392685977
 20
542.4480025998
 11
78.5439877347
 21
542.2057439742
  0
SPLINE
  5
43B
100
AcDbEntity
  8
0
100
AcDbSpline
 62
7
  6
CONTINUOUS
 70
0
 71
3
 72
9
 73
5
 74
0
 42
0.0000001
 43
0.0000001
 44
0.0000000001
 40
0.0
 40
0.0
 40
0.0
 40
0.0
 40
0.5162242643
 40
1.0
 40
1.0
 40
1.0
 40
1.0
 10
78.4392685977
 20
542.4480025998
 30
0.0
 10
78.4328983068
 20
542.4627164073
 30
0.0
 10
78.4135445552
 20
542.4888489269
 30
0.0
 10
78.3837823692
 20
542.5021703476
 30
0.0
 10
78.3689540203
 20
542.5045981385
 30
0.0
  0
SPLINE
  5
43C
100
AcDbEntity
  8
0
100
AcDbSpline
 62
7
  6
CONTINUOUS
 70
0
 71
3
 72
11
 73
7
 74
0
 42
0.0000001
 43
0.0000001
 44
0.0000000001
 40
0.0
 40
0.0
 40
0.0
 40
0.0
 40
0.3749431122
 40
0.6693349398
 40
0.8723871189
 40
1.0
 40
1.0
 40
1.0
 40
1.0
 10
76.1875176587
 20
542.4480025989
 30
0.0
 10
76.1864173785
 20
542.4561625238
 30
0.0
 10
76.18385054
 20
542.4706669334
 30
0.0
 10
76.1779138284
 20
542.4889873451
 30
0.0
 10
76.1716046957
 20
542.5011943225
 30
0.0
 10
76.1648590674
 20
542.5057439742
 30
0.0
 10
76.1620566815
 20
542.5057439742
 30
0.0
  0
SPLINE
  5
43D
100
AcDbEntity
  8
0
100
AcDbSpline
 62
7
  6
CONTINUOUS
 70
0
 71
3
 72
11
 73
7
 74
0
 42
0.0000001
 43
0.0000001
 44
0.0000000001
 40
0.0
 40
0.0
 40
0.0
 40
0.0
 40
0.1275888878
 40
0.3306783971
 40
0.6250780715
 40
1.0
 40
1.0
 40
1.0
 40
1.0
 10
85.3553638934
 20
542.5057439742
 30
0.0
 10
85.3525620145
 20
542.5057439742
 30
0.0
 10
85.3458149817
 20
542.5011962106
 30
0.0
 10
85.3395079816
 20
542.4889864035
 30
0.0
 10
85.333568674
 20
542.4706668459
 30
0.0
 10
85.3310030297
 20
542.4561620942
 30
0.0
 10
85.3299028039
 20
542.4480025724
 30
0.0
  0
SPLINE
  5
43E
100
AcDbEntity
  8
0
100
AcDbSpline
 62
7
  6
CONTINUOUS
 70
0
 71
3
 72
8
 73
4
 74
0
 42
0.0000001
 43
0.0000001
 44
0.0000000001
 40
0.0
 40
0.0
 40
0.0
 40
0.0
 40
1.0
 40
1.0
 40
1.0
 40
1.0
 10
83.1624907415
 20
542.5057439742
 30
0.0
 10
83.150718553
 20
542.5057439742
 30
0.0
 10
83.1387236993
 20
542.5032405855
 30
0.0
 10
83.1279038283
 20
542.4986021791
 30
0.0
  0
SPLINE
  5
43F
100
AcDbEntity
  8
0
100
AcDbSpline
 62
7
  6
CONTINUOUS
 70
0
 71
3
 72
9
 73
5
 74
0
 42
0.0000001
 43
0.0000001
 44
0.0000000001
 40
0.0
 40
0.0
 40
0.0
 40
0.0
 40
0.4868868792
 40
1.0
 40
1.0
 40
1.0
 40
1.0
 10
83.1279038283
 20
542.4986021791
 30
0.0
 10
83.1171264117
 20
542.4939819726
 30
0.0
 10
83.0967337745
 20
542.4799343491
 30
0.0
 10
83.0830616447
 20
542.4593429773
 30
0.0
 10
83.0781518569
 20
542.4480025733
 30
0.0
  0
SPLINE
  5
440
100
AcDbEntity
  8
0
100
AcDbSpline
 62
7
  6
CONTINUOUS
 70
0
 71
3
 72
11
 73
7
 74
0
 42
0.0000001
 43
0.0000001
 44
0.0000000001
 40
0.0
 40
0.0
 40
0.0
 40
0.0
 40
0.3193142592
 40
0.5890740093
 40
0.809832532
 40
1.0
 40
1.0
 40
1.0
 40
1.0
 10
84.9039111333
 20
542.4480025989
 30
0.0
 10
84.9018970273
 20
542.4563166033
 30
0.0
 10
84.8969119916
 20
542.4714074491
 30
0.0
 10
84.8857308532
 20
542.4902586622
 30
0.0
 10
84.8717906849
 20
542.5026625345
 30
0.0
 10
84.8606743433
 20
542.5057439742
 30
0.0
 10
84.8555797207
 20
542.5057439742
 30
0.0
  0
SPLINE
  5
441
100
AcDbEntity
  8
0
100
AcDbSpline
 62
7
  6
CONTINUOUS
 70
0
 71
3
 72
11
 73
7
 74
0
 42
0.0000001
 43
0.0000001
 44
0.0000000001
 40
0.0
 40
0.0
 40
0.0
 40
0.0
 40
0.1901444182
 40
0.4109319627
 40
0.6807057904
 40
1.0
 40
1.0
 40
1.0
 40
1.0
 10
76.6618407859
 20
542.5057439742
 30
0.0
 10
76.6567467606
 20
542.5057439742
 30
0.0
 10
76.6456293783
 20
542.5026648622
 30
0.0
 10
76.6316912144
 20
542.4902571187
 30
0.0
 10
76.6205066813
 20
542.4714077912
 30
0.0
 10
76.6155233139
 20
542.4563160878
 30
0.0
 10
76.6135093264
 20
542.4480025724
 30
0.0
  0
SPLINE
  5
442
100
AcDbEntity
  8
0
100
AcDbSpline
 62
7
  6
CONTINUOUS
 70
0
 71
3
 72
11
 73
7
 74
0
 42
0.0000001
 43
0.0000001
 44
0.0000000001
 40
0.0
 40
0.0
 40
0.0
 40
0.0
 40
0.2456827548
 40
0.4872285469
 40
0.7365302467
 40
1.0
 40
1.0
 40
1.0
 40
1.0
 10
84.9607943868
 20
542.205735697
 30
0.0
 10
84.96350366
 20
542.1938321351
 30
0.0
 10
84.964778233
 20
542.1689017332
 30
0.0
 10
84.9498543657
 20
542.1338314641
 30
0.0
 10
84.9185895521
 20
542.1103129512
 30
0.0
 10
84.8926494267
 20
542.1057439742
 30
0.0
 10
84.8795576029
 20
542.1057439742
 30
0.0
  0
SPLINE
  5
443
100
AcDbEntity
  8
0
100
AcDbSpline
 62
7
  6
CONTINUOUS
 70
0
 71
3
 72
9
 73
5
 74
0
 42
0.0000001
 43
0.0000001
 44
0.0000000001
 40
0.0
 40
0.0
 40
0.0
 40
0.0
 40
0.5031323346
 40
1.0
 40
1.0
 40
1.0
 40
1.0
 10
82.0497169905
 20
542.4480025989
 30
0.0
 10
82.0414302485
 20
542.4653592402
 30
0.0
 10
82.013954496
 20
542.4954944549
 30
0.0
 10
81.9748988838
 20
542.5057439742
 30
0.0
 10
81.9559049804
 20
542.5057439742
 30
0.0
  0
SPLINE
  5
444
100
AcDbEntity
  8
0
100
AcDbSpline
 62
7
  6
CONTINUOUS
 70
0
 71
3
 72
9
 73
5
 74
0
 42
0.0000001
 43
0.0000001
 44
0.0000000001
 40
0.0
 40
0.0
 40
0.0
 40
0.0
 40
0.4968650115
 40
1.0
 40
1.0
 40
1.0
 40
1.0
 10
79.5615155644
 20
542.5057439742
 30
0.0
 10
79.5425218554
 20
542.5057439742
 30
0.0
 10
79.5034673129
 20
542.4954925668
 30
0.0
 10
79.4759902081
 20
542.4653592203
 30
0.0
 10
79.467703463
 20
542.4480025724
 30
0.0
  0
SPLINE
  5
445
100
AcDbEntity
  8
0
100
AcDbSpline
 62
7
  6
CONTINUOUS
 70
0
 71
3
 72
12
 73
8
 74
0
 42
0.0000001
 43
0.0000001
 44
0.0000000001
 40
0.0
 40
0.0
 40
0.0
 40
0.0
 40
0.3258505773
 40
0.6034601314
 40
0.8107981315
 40
0.9025511127
 40
1.0
 40
1.0
 40
1.0
 40
1.0
 10
82.1639903849
 20
542.205735698
 30
0.0
 10
82.1694621292
 20
542.1940011811
 30
0.0
 10
82.1776969441
 20
542.1712686345
 30
0.0
 10
82.1822361708
 20
542.1391754923
 30
0.0
 10
82.1744755593
 20
542.1153908873
 30
0.0
 10
82.1605808893
 20
542.1067877484
 30
0.0
 10
82.1529567165
 20
542.1057439742
 30
0.0
 10
82.1490846237
 20
542.1057439742
 30
0.0
  0
SPLINE
  5
446
100
AcDbEntity
  8
0
100
AcDbSpline
 62
7
  6
CONTINUOUS
 70
0
 71
3
 72
9
 73
5
 74
0
 42
0.0000001
 43
0.0000001
 44
0.0000000001
 40
0.0
 40
0.0
 40
0.0
 40
0.0
 40
0.2461010597
 40
1.0
 40
1.0
 40
1.0
 40
1.0
 10
82.0037629428
 20
544.3057439742
 30
0.0
 10
81.9699558899
 20
544.318637606
 30
0.0
 10
81.8315467268
 20
544.3682802438
 30
0.0
 10
81.6892502784
 20
544.4069532634
 30
0.0
 10
81.5808804612
 20
544.4302230693
 30
0.0
  0
SPLINE
  5
447
100
AcDbEntity
  8
0
100
AcDbSpline
 62
7
  6
CONTINUOUS
 70
0
 71
3
 72
9
 73
5
 74
0
 42
0.0000001
 43
0.0000001
 44
0.0000000001
 40
0.0
 40
0.0
 40
0.0
 40
0.0
 40
0.2542301673
 40
1.0
 40
1.0
 40
1.0
 40
1.0
 10
79.8048153244
 20
544.4043094867
 30
0.0
 10
79.7669600399
 20
544.3947306674
 30
0.0
 10
79.6188144286
 20
544.3541489579
 30
0.0
 10
79.4738760602
 20
544.3016838186
 30
0.0
 10
79.3689457521
 20
544.2557439742
 30
0.0
  0
SPLINE
  5
448
100
AcDbEntity
  8
0
100
AcDbSpline
 62
7
  6
CONTINUOUS
 70
0
 71
3
 72
9
 73
5
 74
0
 42
0.0000001
 43
0.0000001
 44
0.0000000001
 40
0.0
 40
0.0
 40
0.0
 40
0.0
 40
0.24494781
 40
1.0
 40
1.0
 40
1.0
 40
1.0
 10
146.938433596
 20
544.404262051
 30
0.0
 10
146.8913580118
 20
544.394559261
 30
0.0
 10
146.6997091866
 20
544.352366213
 30
0.0
 10
146.5103030598
 20
544.3001257004
 30
0.0
 10
146.3689457521
 20
544.2557439742
 30
0.0
  0
LINE
  5
449
100
AcDbEntity
  8
0
100
AcDbLine
 62
7
  6
CONTINUOUS
 10
147.1061181576
 20
544.4352401168
 11
147.1018483158
 21
544.4348765229
  0
LINE
  5
44A
100
AcDbEntity
  8
0
100
AcDbLine
 62
7
  6
CONTINUOUS
 10
147.1018483158
 20
544.4348765229
 11
147.0974941885
 21
544.4345138789
  0
LINE
  5
44B
100
AcDbEntity
  8
0
100
AcDbLine
 62
7
  6
CONTINUOUS
 10
150.0781518569
 20
542.4480025733
 11
149.9734327315
 21
542.2057439742
  0
SPLINE
  5
44C
100
AcDbEntity
  8
0
100
AcDbSpline
 62
7
  6
CONTINUOUS
 70
0
 71
3
 72
13
 73
9
 74
0
 42
0.0000001
 43
0.0000001
 44
0.0000000001
 40
0.0
 40
0.0
 40
0.0
 40
0.0
 40
0.3432278109
 40
0.6631249526
 40
0.7948520846
 40
0.8970038041
 40
0.9650950091
 40
1.0
 40
1.0
 40
1.0
 40
1.0
 10
145.5439923284
 20
542.2057356995
 30
0.0
 10
145.5493378607
 20
542.193357156
 30
0.0
 10
145.5603724926
 20
542.1697565549
 30
0.0
 10
145.5753496817
 20
542.142269799
 30
0.0
 10
145.5870153154
 20
542.1239799562
 30
0.0
 10
145.5940861814
 20
542.1142705508
 30
0.0
 10
145.5993269326
 20
542.1084953045
 30
0.0
 10
145.6028522778
 20
542.1057439742
 30
0.0
 10
145.6042234931
 20
542.1057439742
 30
0.0
  0
SPLINE
  5
44D
100
AcDbEntity
  8
0
100
AcDbSpline
 62
7
  6
CONTINUOUS
 70
0
 71
3
 72
9
 73
5
 74
0
 42
0.0000001
 43
0.0000001
 44
0.0000000001
 40
0.0
 40
0.0
 40
0.0
 40
0.0
 40
0.5178513115
 40
1.0
 40
1.0
 40
1.0
 40
1.0
 10
143.2213459848
 20
542.2057356974
 30
0.0
 10
143.2250478673
 20
542.1801024314
 30
0.0
 10
143.2478321657
 20
542.1319266399
 30
0.0
 10
143.2973672634
 20
542.1057439742
 30
0.0
 10
143.3214808694
 20
542.1057439742
 30
0.0
  0
LINE
  5
44E
100
AcDbEntity
  8
0
100
AcDbLine
 62
7
  6
CONTINUOUS
 10
145.4392685977
 20
542.4480025998
 11
145.5439877347
 21
542.2057439742
  0
SPLINE
  5
44F
100
AcDbEntity
  8
0
100
AcDbSpline
 62
7
  6
CONTINUOUS
 70
0
 71
3
 72
9
 73
5
 74
0
 42
0.0000001
 43
0.0000001
 44
0.0000000001
 40
0.0
 40
0.0
 40
0.0
 40
0.0
 40
0.5162242643
 40
1.0
 40
1.0
 40
1.0
 40
1.0
 10
145.4392685977
 20
542.4480025998
 30
0.0
 10
145.4328983068
 20
542.4627164073
 30
0.0
 10
145.4135445552
 20
542.4888489269
 30
0.0
 10
145.3837823692
 20
542.5021703476
 30
0.0
 10
145.3689540203
 20
542.5045981385
 30
0.0
  0
SPLINE
  5
450
100
AcDbEntity
  8
0
100
AcDbSpline
 62
7
  6
CONTINUOUS
 70
0
 71
3
 72
11
 73
7
 74
0
 42
0.0000001
 43
0.0000001
 44
0.0000000001
 40
0.0
 40
0.0
 40
0.0
 40
0.0
 40
0.3749431122
 40
0.6693349398
 40
0.8723871189
 40
1.0
 40
1.0
 40
1.0
 40
1.0
 10
143.1875176587
 20
542.4480025989
 30
0.0
 10
143.1864173785
 20
542.4561625238
 30
0.0
 10
143.18385054
 20
542.4706669334
 30
0.0
 10
143.1779138284
 20
542.4889873451
 30
0.0
 10
143.1716046957
 20
542.5011943225
 30
0.0
 10
143.1648590674
 20
542.5057439742
 30
0.0
 10
143.1620566815
 20
542.5057439742
 30
0.0
  0
SPLINE
  5
451
100
AcDbEntity
  8
0
100
AcDbSpline
 62
7
  6
CONTINUOUS
 70
0
 71
3
 72
11
 73
7
 74
0
 42
0.0000001
 43
0.0000001
 44
0.0000000001
 40
0.0
 40
0.0
 40
0.0
 40
0.0
 40
0.1275888878
 40
0.3306783971
 40
0.6250780715
 40
1.0
 40
1.0
 40
1.0
 40
1.0
 10
152.3553638934
 20
542.5057439742
 30
0.0
 10
152.3525620145
 20
542.5057439742
 30
0.0
 10
152.3458149817
 20
542.5011962106
 30
0.0
 10
152.3395079816
 20
542.4889864035
 30
0.0
 10
152.333568674
 20
542.4706668459
 30
0.0
 10
152.3310030297
 20
542.4561620942
 30
0.0
 10
152.3299028039
 20
542.4480025724
 30
0.0
  0
SPLINE
  5
452
100
AcDbEntity
  8
0
100
AcDbSpline
 62
7
  6
CONTINUOUS
 70
0
 71
3
 72
8
 73
4
 74
0
 42
0.0000001
 43
0.0000001
 44
0.0000000001
 40
0.0
 40
0.0
 40
0.0
 40
0.0
 40
1.0
 40
1.0
 40
1.0
 40
1.0
 10
150.1624907415
 20
542.5057439742
 30
0.0
 10
150.150718553
 20
542.5057439742
 30
0.0
 10
150.1387236993
 20
542.5032405855
 30
0.0
 10
150.1279038283
 20
542.4986021791
 30
0.0
  0
SPLINE
  5
453
100
AcDbEntity
  8
0
100
AcDbSpline
 62
7
  6
CONTINUOUS
 70
0
 71
3
 72
9
 73
5
 74
0
 42
0.0000001
 43
0.0000001
 44
0.0000000001
 40
0.0
 40
0.0
 40
0.0
 40
0.0
 40
0.4868868792
 40
1.0
 40
1.0
 40
1.0
 40
1.0
 10
150.1279038283
 20
542.4986021791
 30
0.0
 10
150.1171264117
 20
542.4939819726
 30
0.0
 10
150.0967337745
 20
542.4799343491
 30
0.0
 10
150.0830616447
 20
542.4593429773
 30
0.0
 10
150.0781518569
 20
542.4480025733
 30
0.0
  0
SPLINE
  5
454
100
AcDbEntity
  8
0
100
AcDbSpline
 62
7
  6
CONTINUOUS
 70
0
 71
3
 72
11
 73
7
 74
0
 42
0.0000001
 43
0.0000001
 44
0.0000000001
 40
0.0
 40
0.0
 40
0.0
 40
0.0
 40
0.3193142592
 40
0.5890740093
 40
0.809832532
 40
1.0
 40
1.0
 40
1.0
 40
1.0
 10
151.9039111333
 20
542.4480025989
 30
0.0
 10
151.9018970273
 20
542.4563166033
 30
0.0
 10
151.8969119916
 20
542.4714074491
 30
0.0
 10
151.8857308532
 20
542.4902586622
 30
0.0
 10
151.8717906849
 20
542.5026625345
 30
0.0
 10
151.8606743433
 20
542.5057439742
 30
0.0
 10
151.8555797207
 20
542.5057439742
 30
0.0
  0
SPLINE
  5
455
100
AcDbEntity
  8
0
100
AcDbSpline
 62
7
  6
CONTINUOUS
 70
0
 71
3
 72
11
 73
7
 74
0
 42
0.0000001
 43
0.0000001
 44
0.0000000001
 40
0.0
 40
0.0
 40
0.0
 40
0.0
 40
0.1901444182
 40
0.4109319627
 40
0.6807057904
 40
1.0
 40
1.0
 40
1.0
 40
1.0
 10
143.6618407859
 20
542.5057439742
 30
0.0
 10
143.6567467606
 20
542.5057439742
 30
0.0
 10
143.6456293783
 20
542.5026648622
 30
0.0
 10
143.6316912144
 20
542.4902571187
 30
0.0
 10
143.6205066813
 20
542.4714077912
 30
0.0
 10
143.6155233139
 20
542.4563160878
 30
0.0
 10
143.6135093264
 20
542.4480025724
 30
0.0
  0
SPLINE
  5
456
100
AcDbEntity
  8
0
100
AcDbSpline
 62
7
  6
CONTINUOUS
 70
0
 71
3
 72
11
 73
7
 74
0
 42
0.0000001
 43
0.0000001
 44
0.0000000001
 40
0.0
 40
0.0
 40
0.0
 40
0.0
 40
0.2456827548
 40
0.4872285469
 40
0.7365302467
 40
1.0
 40
1.0
 40
1.0
 40
1.0
 10
151.9607943868
 20
542.205735697
 30
0.0
 10
151.96350366
 20
542.1938321351
 30
0.0
 10
151.964778233
 20
542.1689017332
 30
0.0
 10
151.9498543657
 20
542.1338314641
 30
0.0
 10
151.9185895521
 20
542.1103129512
 30
0.0
 10
151.8926494267
 20
542.1057439742
 30
0.0
 10
151.8795576029
 20
542.1057439742
 30
0.0
  0
SPLINE
  5
457
100
AcDbEntity
  8
0
100
AcDbSpline
 62
7
  6
CONTINUOUS
 70
0
 71
3
 72
9
 73
5
 74
0
 42
0.0000001
 43
0.0000001
 44
0.0000000001
 40
0.0
 40
0.0
 40
0.0
 40
0.0
 40
0.5031323346
 40
1.0
 40
1.0
 40
1.0
 40
1.0
 10
149.0497169905
 20
542.4480025989
 30
0.0
 10
149.0414302485
 20
542.4653592402
 30
0.0
 10
149.013954496
 20
542.4954944549
 30
0.0
 10
148.9748988838
 20
542.5057439742
 30
0.0
 10
148.9559049804
 20
542.5057439742
 30
0.0
  0
SPLINE
  5
458
100
AcDbEntity
  8
0
100
AcDbSpline
 62
7
  6
CONTINUOUS
 70
0
 71
3
 72
9
 73
5
 74
0
 42
0.0000001
 43
0.0000001
 44
0.0000000001
 40
0.0
 40
0.0
 40
0.0
 40
0.0
 40
0.4968650115
 40
1.0
 40
1.0
 40
1.0
 40
1.0
 10
146.5615155644
 20
542.5057439742
 30
0.0
 10
146.5425218554
 20
542.5057439742
 30
0.0
 10
146.5034673129
 20
542.4954925668
 30
0.0
 10
146.4759902081
 20
542.4653592203
 30
0.0
 10
146.467703463
 20
542.4480025724
 30
0.0
  0
SPLINE
  5
459
100
AcDbEntity
  8
0
100
AcDbSpline
 62
7
  6
CONTINUOUS
 70
0
 71
3
 72
12
 73
8
 74
0
 42
0.0000001
 43
0.0000001
 44
0.0000000001
 40
0.0
 40
0.0
 40
0.0
 40
0.0
 40
0.3258505773
 40
0.6034601314
 40
0.8107981315
 40
0.9025511127
 40
1.0
 40
1.0
 40
1.0
 40
1.0
 10
149.1639903849
 20
542.205735698
 30
0.0
 10
149.1694621292
 20
542.1940011811
 30
0.0
 10
149.1776969441
 20
542.1712686345
 30
0.0
 10
149.1822361708
 20
542.1391754923
 30
0.0
 10
149.1744755593
 20
542.1153908873
 30
0.0
 10
149.1605808893
 20
542.1067877484
 30
0.0
 10
149.1529567165
 20
542.1057439742
 30
0.0
 10
149.1490846237
 20
542.1057439742
 30
0.0
  0
SPLINE
  5
45A
100
AcDbEntity
  8
0
100
AcDbSpline
 62
7
  6
CONTINUOUS
 70
0
 71
3
 72
9
 73
5
 74
0
 42
0.0000001
 43
0.0000001
 44
0.0000000001
 40
0.0
 40
0.0
 40
0.0
 40
0.0
 40
0.2461010597
 40
1.0
 40
1.0
 40
1.0
 40
1.0
 10
149.0037629428
 20
544.3057439742
 30
0.0
 10
148.9699558899
 20
544.318637606
 30
0.0
 10
148.8315467268
 20
544.3682802438
 30
0.0
 10
148.6892502784
 20
544.4069532634
 30
0.0
 10
148.5808804612
 20
544.4302230693
 30
0.0
  0
SPLINE
  5
45B
100
AcDbEntity
  8
0
100
AcDbSpline
 62
7
  6
CONTINUOUS
 70
0
 71
3
 72
9
 73
5
 74
0
 42
0.0000001
 43
0.0000001
 44
0.0000000001
 40
0.0
 40
0.0
 40
0.0
 40
0.0
 40
0.2542301673
 40
1.0
 40
1.0
 40
1.0
 40
1.0
 10
146.8048153244
 20
544.4043094867
 30
0.0
 10
146.7669600399
 20
544.3947306674
 30
0.0
 10
146.6188144286
 20
544.3541489579
 30
0.0
 10
146.4738760602
 20
544.3016838186
 30
0.0
 10
146.3689457521
 20
544.2557439742
 30
0.0
  0
LINE
  5
45C
100
AcDbEntity
  8
0
100
AcDbLine
 62
7
  6
CONTINUOUS
 10
148.4113023085
 20
137.3762478316
 11
148.4155721531
 21
137.3766114183
  0
LINE
  5
45D
100
AcDbEntity
  8
0
100
AcDbLine
 62
7
  6
CONTINUOUS
 10
148.4155721531
 20
137.3766114183
 11
148.4199262776
 21
137.3769740695
  0
LINE
  5
45E
100
AcDbEntity
  8
0
100
AcDbLine
 62
7
  6
CONTINUOUS
 10
150.078151869
 20
139.3634853477
 11
149.9734327312
 21
139.6057439742
  0
SPLINE
  5
45F
100
AcDbEntity
  8
0
100
AcDbSpline
 62
7
  6
CONTINUOUS
 70
0
 71
3
 72
11
 73
7
 74
0
 42
0.0000001
 43
0.0000001
 44
0.0000000001
 40
0.0
 40
0.0
 40
0.0
 40
0.0
 40
0.1275888879
 40
0.3306783971
 40
0.6250780714
 40
1.0
 40
1.0
 40
1.0
 40
1.0
 10
143.1620565728
 20
139.3057439742
 30
0.0
 10
143.1648584517
 20
139.3057439742
 30
0.0
 10
143.1716054844
 20
139.3102917377
 30
0.0
 10
143.1779124845
 20
139.3225015448
 30
0.0
 10
143.1838517921
 20
139.3408211024
 30
0.0
 10
143.1864174364
 20
139.355325854
 30
0.0
 10
143.1875176622
 20
139.3634853758
 30
0.0
  0
LINE
  5
460
100
AcDbEntity
  8
0
100
AcDbLine
 62
7
  6
CONTINUOUS
 10
145.4392686086
 20
139.3634853741
 11
145.5439877349
 21
139.6057439742
  0
SPLINE
  5
461
100
AcDbEntity
  8
0
100
AcDbSpline
 62
7
  6
CONTINUOUS
 70
0
 71
3
 72
13
 73
9
 74
0
 42
0.0000001
 43
0.0000001
 44
0.0000000001
 40
0.0
 40
0.0
 40
0.0
 40
0.0
 40
0.3432132658
 40
0.6631193934
 40
0.7948470623
 40
0.8969966875
 40
0.9650895353
 40
1.0
 40
1.0
 40
1.0
 40
1.0
 10
149.9734281213
 20
139.6057522871
 30
0.0
 10
149.9680828267
 20
139.6181302803
 30
0.0
 10
149.9570482688
 20
139.6417306056
 30
0.0
 10
149.9420712338
 20
139.6692171775
 30
0.0
 10
149.9304057803
 20
139.6875073528
 30
0.0
 10
149.9233349123
 20
139.6972168825
 30
0.0
 10
149.9180937675
 20
139.7029917312
 30
0.0
 10
149.9145685466
 20
139.7057439742
 30
0.0
 10
149.9131971191
 20
139.7057439742
 30
0.0
  0
SPLINE
  5
462
100
AcDbEntity
  8
0
100
AcDbSpline
 62
7
  6
CONTINUOUS
 70
0
 71
3
 72
9
 73
5
 74
0
 42
0.0000001
 43
0.0000001
 44
0.0000000001
 40
0.0
 40
0.0
 40
0.0
 40
0.0
 40
0.5178479041
 40
1.0
 40
1.0
 40
1.0
 40
1.0
 10
152.2960744757
 20
139.6057522914
 30
0.0
 10
152.2923726395
 20
139.6313852371
 30
0.0
 10
152.2695886803
 20
139.6795605582
 30
0.0
 10
152.220054165
 20
139.7057439742
 30
0.0
 10
152.1959405313
 20
139.7057439742
 30
0.0
  0
SPLINE
  5
463
100
AcDbEntity
  8
0
100
AcDbSpline
 62
7
  6
CONTINUOUS
 70
0
 71
3
 72
11
 73
7
 74
0
 42
0.0000001
 43
0.0000001
 44
0.0000000001
 40
0.0
 40
0.0
 40
0.0
 40
0.0
 40
0.3749431078
 40
0.6693349335
 40
0.872387117
 40
1.0
 40
1.0
 40
1.0
 40
1.0
 10
152.3299028075
 20
139.3634853494
 30
0.0
 10
152.3310030876
 20
139.3553254247
 30
0.0
 10
152.3335699261
 20
139.3408210154
 30
0.0
 10
152.3395066376
 20
139.3225006039
 30
0.0
 10
152.34581577
 20
139.3102936267
 30
0.0
 10
152.352561398
 20
139.3057439742
 30
0.0
 10
152.3553637839
 20
139.3057439742
 30
0.0
  0
SPLINE
  5
464
100
AcDbEntity
  8
0
100
AcDbSpline
 62
7
  6
CONTINUOUS
 70
0
 71
3
 72
9
 73
5
 74
0
 42
0.0000001
 43
0.0000001
 44
0.0000000001
 40
0.0
 40
0.0
 40
0.0
 40
0.0
 40
0.5162242644
 40
1.0
 40
1.0
 40
1.0
 40
1.0
 10
150.078151869
 20
139.3634853477
 30
0.0
 10
150.0845221599
 20
139.3487715403
 30
0.0
 10
150.1038759114
 20
139.3226390211
 30
0.0
 10
150.1336380971
 20
139.3093176008
 30
0.0
 10
150.1484664458
 20
139.30688981
 30
0.0
  0
SPLINE
  5
465
100
AcDbEntity
  8
0
100
AcDbSpline
 62
7
  6
CONTINUOUS
 70
0
 71
3
 72
8
 73
4
 74
0
 42
0.0000001
 43
0.0000001
 44
0.0000000001
 40
0.0
 40
0.0
 40
0.0
 40
0.0
 40
1.0
 40
1.0
 40
1.0
 40
1.0
 10
145.3549297246
 20
139.3057439742
 30
0.0
 10
145.3667019132
 20
139.3057439742
 30
0.0
 10
145.3786967669
 20
139.3082473628
 30
0.0
 10
145.3895166379
 20
139.3128857693
 30
0.0
  0
SPLINE
  5
466
100
AcDbEntity
  8
0
100
AcDbSpline
 62
7
  6
CONTINUOUS
 70
0
 71
3
 72
9
 73
5
 74
0
 42
0.0000001
 43
0.0000001
 44
0.0000000001
 40
0.0
 40
0.0
 40
0.0
 40
0.0
 40
0.4868868793
 40
1.0
 40
1.0
 40
1.0
 40
1.0
 10
145.3895166379
 20
139.3128857693
 30
0.0
 10
145.4002940543
 20
139.3175059757
 30
0.0
 10
145.4206866912
 20
139.3315535989
 30
0.0
 10
145.4343588209
 20
139.3521449703
 30
0.0
 10
145.4392686086
 20
139.3634853741
 30
0.0
  0
SPLINE
  5
467
100
AcDbEntity
  8
0
100
AcDbSpline
 62
7
  6
CONTINUOUS
 70
0
 71
3
 72
9
 73
5
 74
0
 42
0.0000001
 43
0.0000001
 44
0.0000000001
 40
0.0
 40
0.0
 40
0.0
 40
0.0
 40
0.2550944233
 40
1.0
 40
1.0
 40
1.0
 40
1.0
 10
149.148474714
 20
137.5557439742
 30
0.0
 10
149.100769349
 20
137.5407659976
 30
0.0
 10
148.9130722056
 20
137.4842732485
 30
0.0
 10
148.7226144175
 20
137.4368467851
 30
0.0
 10
148.5796137668
 20
137.4073555884
 30
0.0
  0
SPLINE
  5
468
100
AcDbEntity
  8
0
100
AcDbSpline
 62
7
  6
CONTINUOUS
 70
0
 71
3
 72
11
 73
7
 74
0
 42
0.0000001
 43
0.0000001
 44
0.0000000001
 40
0.0
 40
0.0
 40
0.0
 40
0.0
 40
0.1901444183
 40
0.4109319628
 40
0.6807057903
 40
1.0
 40
1.0
 40
1.0
 40
1.0
 10
151.8555796803
 20
139.3057439742
 30
0.0
 10
151.8606737055
 20
139.3057439742
 30
0.0
 10
151.8717910879
 20
139.3088230861
 30
0.0
 10
151.8857292517
 20
139.3212308296
 30
0.0
 10
151.8969137848
 20
139.340080157
 30
0.0
 10
151.9018971522
 20
139.3551718604
 30
0.0
 10
151.9039111396
 20
139.3634853758
 30
0.0
  0
SPLINE
  5
469
100
AcDbEntity
  8
0
100
AcDbSpline
 62
7
  6
CONTINUOUS
 70
0
 71
3
 72
9
 73
5
 74
0
 42
0.0000001
 43
0.0000001
 44
0.0000000001
 40
0.0
 40
0.0
 40
0.0
 40
0.0
 40
0.5031323346
 40
1.0
 40
1.0
 40
1.0
 40
1.0
 10
146.4677034757
 20
139.3634853494
 30
0.0
 10
146.4759902178
 20
139.3461287079
 30
0.0
 10
146.5034659709
 20
139.3159934927
 30
0.0
 10
146.5425215837
 20
139.3057439742
 30
0.0
 10
146.5615154874
 20
139.3057439742
 30
0.0
  0
SPLINE
  5
46A
100
AcDbEntity
  8
0
100
AcDbSpline
 62
7
  6
CONTINUOUS
 70
0
 71
3
 72
9
 73
5
 74
0
 42
0.0000001
 43
0.0000001
 44
0.0000000001
 40
0.0
 40
0.0
 40
0.0
 40
0.0
 40
0.4968650115
 40
1.0
 40
1.0
 40
1.0
 40
1.0
 10
148.9559049017
 20
139.3057439742
 30
0.0
 10
148.9748986107
 20
139.3057439742
 30
0.0
 10
149.0139531532
 20
139.3159953816
 30
0.0
 10
149.041430258
 20
139.346128728
 30
0.0
 10
149.0497170031
 20
139.3634853758
 30
0.0
  0
SPLINE
  5
46B
100
AcDbEntity
  8
0
100
AcDbSpline
 62
7
  6
CONTINUOUS
 70
0
 71
3
 72
11
 73
7
 74
0
 42
0.0000001
 43
0.0000001
 44
0.0000000001
 40
0.0
 40
0.0
 40
0.0
 40
0.0
 40
0.3193142593
 40
0.5890740093
 40
0.8098325319
 40
1.0
 40
1.0
 40
1.0
 40
1.0
 10
143.6135093329
 20
139.3634853493
 30
0.0
 10
143.6155234389
 20
139.355171345
 30
0.0
 10
143.6205084746
 20
139.3400804991
 30
0.0
 10
143.631689613
 20
139.3212292861
 30
0.0
 10
143.6456297813
 20
139.3088254138
 30
0.0
 10
143.6567461229
 20
139.3057439742
 30
0.0
 10
143.6618407454
 20
139.3057439742
 30
0.0
  0
SPLINE
  5
46C
100
AcDbEntity
  8
0
100
AcDbSpline
 62
7
  6
CONTINUOUS
 70
0
 71
3
 72
11
 73
7
 74
0
 42
0.0000001
 43
0.0000001
 44
0.0000000001
 40
0.0
 40
0.0
 40
0.0
 40
0.0
 40
0.2456844674
 40
0.4872316467
 40
0.7365321675
 40
1.0
 40
1.0
 40
1.0
 40
1.0
 10
143.5566260793
 20
139.6057522512
 30
0.0
 10
143.5539169946
 20
139.6176549849
 30
0.0
 10
143.5526422429
 20
139.6425834375
 30
0.0
 10
143.5675629921
 20
139.6776519088
 30
0.0
 10
143.5988230881
 20
139.7011704471
 30
0.0
 10
143.6247605246
 20
139.7057439742
 30
0.0
 10
143.6378512509
 20
139.7057439742
 30
0.0
  0
SPLINE
  5
46D
100
AcDbEntity
  8
0
100
AcDbSpline
 62
7
  6
CONTINUOUS
 70
0
 71
3
 72
12
 73
8
 74
0
 42
0.0000001
 43
0.0000001
 44
0.0000000001
 40
0.0
 40
0.0
 40
0.0
 40
0.0
 40
0.3258391119
 40
0.603458686
 40
0.8107934014
 40
0.9025496509
 40
1.0
 40
1.0
 40
1.0
 40
1.0
 10
146.3534300623
 20
139.6057522908
 30
0.0
 10
146.3479585007
 20
139.6174864159
 30
0.0
 10
146.3397239594
 20
139.6402190819
 30
0.0
 10
146.3351841831
 20
139.6723117306
 30
0.0
 10
146.3429446175
 20
139.6960974774
 30
0.0
 10
146.3568400383
 20
139.7046994017
 30
0.0
 10
146.3644642095
 20
139.7057439742
 30
0.0
 10
146.3683363673
 20
139.7057439742
 30
0.0
  0
SPLINE
  5
46E
100
AcDbEntity
  8
0
100
AcDbSpline
 62
7
  6
CONTINUOUS
 70
0
 71
3
 72
9
 73
5
 74
0
 42
0.0000001
 43
0.0000001
 44
0.0000000001
 40
0.0
 40
0.0
 40
0.0
 40
0.0
 40
0.2461010597
 40
1.0
 40
1.0
 40
1.0
 40
1.0
 10
146.5136575233
 20
137.5057439742
 30
0.0
 10
146.5474645762
 20
137.4928503423
 30
0.0
 10
146.6858737394
 20
137.4432077046
 30
0.0
 10
146.8281701877
 20
137.404534685
 30
0.0
 10
146.9365400049
 20
137.3812648791
 30
0.0
  0
SPLINE
  5
46F
100
AcDbEntity
  8
0
100
AcDbSpline
 62
7
  6
CONTINUOUS
 70
0
 71
3
 72
9
 73
5
 74
0
 42
0.0000001
 43
0.0000001
 44
0.0000000001
 40
0.0
 40
0.0
 40
0.0
 40
0.0
 40
0.2542301673
 40
1.0
 40
1.0
 40
1.0
 40
1.0
 10
148.7126051418
 20
137.4071784617
 30
0.0
 10
148.7504604262
 20
137.416757281
 30
0.0
 10
148.8986060375
 20
137.4573389904
 30
0.0
 10
149.043544406
 20
137.5098041297
 30
0.0
 10
149.148474714
 20
137.5557439742
 30
0.0
  0
LINE
  5
470
100
AcDbEntity
  8
0
100
AcDbLine
 62
7
  6
CONTINUOUS
 10
147.7587102331
 20
138.84496349
 11
147.7330564469
 21
138.8449744949
  0
LINE
  5
471
100
AcDbEntity
  8
0
100
AcDbLine
 62
7
  6
CONTINUOUS
 10
81.4113023085
 20
137.3762478316
 11
81.4155721531
 21
137.3766114183
  0
LINE
  5
472
100
AcDbEntity
  8
0
100
AcDbLine
 62
7
  6
CONTINUOUS
 10
81.4155721531
 20
137.3766114183
 11
81.4199262776
 21
137.3769740695
  0
LINE
  5
473
100
AcDbEntity
  8
0
100
AcDbLine
 62
7
  6
CONTINUOUS
 10
83.0781518691
 20
139.3634853476
 11
82.9734327312
 21
139.6057439742
  0
SPLINE
  5
474
100
AcDbEntity
  8
0
100
AcDbSpline
 62
7
  6
CONTINUOUS
 70
0
 71
3
 72
11
 73
7
 74
0
 42
0.0000001
 43
0.0000001
 44
0.0000000001
 40
0.0
 40
0.0
 40
0.0
 40
0.0
 40
0.1275888879
 40
0.3306783971
 40
0.6250780714
 40
1.0
 40
1.0
 40
1.0
 40
1.0
 10
76.1620565728
 20
139.3057439742
 30
0.0
 10
76.1648584517
 20
139.3057439742
 30
0.0
 10
76.1716054844
 20
139.3102917377
 30
0.0
 10
76.1779124845
 20
139.3225015448
 30
0.0
 10
76.1838517921
 20
139.3408211024
 30
0.0
 10
76.1864174364
 20
139.3553258541
 30
0.0
 10
76.1875176622
 20
139.3634853759
 30
0.0
  0
LINE
  5
475
100
AcDbEntity
  8
0
100
AcDbLine
 62
7
  6
CONTINUOUS
 10
78.4392686086
 20
139.3634853741
 11
78.5439877349
 21
139.6057439742
  0
SPLINE
  5
476
100
AcDbEntity
  8
0
100
AcDbSpline
 62
7
  6
CONTINUOUS
 70
0
 71
3
 72
13
 73
9
 74
0
 42
0.0000001
 43
0.0000001
 44
0.0000000001
 40
0.0
 40
0.0
 40
0.0
 40
0.0
 40
0.3432132659
 40
0.6631193935
 40
0.7948470624
 40
0.8969966876
 40
0.9650895353
 40
1.0
 40
1.0
 40
1.0
 40
1.0
 10
82.9734281212
 20
139.6057522872
 30
0.0
 10
82.9680828267
 20
139.6181302805
 30
0.0
 10
82.9570482687
 20
139.6417306057
 30
0.0
 10
82.9420712337
 20
139.6692171775
 30
0.0
 10
82.9304057802
 20
139.6875073529
 30
0.0
 10
82.9233349123
 20
139.6972168825
 30
0.0
 10
82.9180937675
 20
139.7029917312
 30
0.0
 10
82.9145685466
 20
139.7057439742
 30
0.0
 10
82.9131971191
 20
139.7057439742
 30
0.0
  0
SPLINE
  5
477
100
AcDbEntity
  8
0
100
AcDbSpline
 62
7
  6
CONTINUOUS
 70
0
 71
3
 72
9
 73
5
 74
0
 42
0.0000001
 43
0.0000001
 44
0.0000000001
 40
0.0
 40
0.0
 40
0.0
 40
0.0
 40
0.5178479041
 40
1.0
 40
1.0
 40
1.0
 40
1.0
 10
85.2960744757
 20
139.6057522914
 30
0.0
 10
85.2923726395
 20
139.631385237
 30
0.0
 10
85.2695886803
 20
139.6795605582
 30
0.0
 10
85.220054165
 20
139.7057439742
 30
0.0
 10
85.1959405313
 20
139.7057439742
 30
0.0
  0
SPLINE
  5
478
100
AcDbEntity
  8
0
100
AcDbSpline
 62
7
  6
CONTINUOUS
 70
0
 71
3
 72
11
 73
7
 74
0
 42
0.0000001
 43
0.0000001
 44
0.0000000001
 40
0.0
 40
0.0
 40
0.0
 40
0.0
 40
0.3749431078
 40
0.6693349335
 40
0.872387117
 40
1.0
 40
1.0
 40
1.0
 40
1.0
 10
85.3299028075
 20
139.3634853494
 30
0.0
 10
85.3310030876
 20
139.3553254247
 30
0.0
 10
85.3335699261
 20
139.3408210154
 30
0.0
 10
85.3395066376
 20
139.3225006038
 30
0.0
 10
85.34581577
 20
139.3102936267
 30
0.0
 10
85.352561398
 20
139.3057439742
 30
0.0
 10
85.3553637839
 20
139.3057439742
 30
0.0
  0
SPLINE
  5
479
100
AcDbEntity
  8
0
100
AcDbSpline
 62
7
  6
CONTINUOUS
 70
0
 71
3
 72
9
 73
5
 74
0
 42
0.0000001
 43
0.0000001
 44
0.0000000001
 40
0.0
 40
0.0
 40
0.0
 40
0.0
 40
0.5162242644
 40
1.0
 40
1.0
 40
1.0
 40
1.0
 10
83.0781518691
 20
139.3634853476
 30
0.0
 10
83.0845221599
 20
139.3487715402
 30
0.0
 10
83.1038759115
 20
139.322639021
 30
0.0
 10
83.1336380971
 20
139.3093176008
 30
0.0
 10
83.1484664458
 20
139.30688981
 30
0.0
  0
SPLINE
  5
47A
100
AcDbEntity
  8
0
100
AcDbSpline
 62
7
  6
CONTINUOUS
 70
0
 71
3
 72
8
 73
4
 74
0
 42
0.0000001
 43
0.0000001
 44
0.0000000001
 40
0.0
 40
0.0
 40
0.0
 40
0.0
 40
1.0
 40
1.0
 40
1.0
 40
1.0
 10
78.3549297246
 20
139.3057439742
 30
0.0
 10
78.3667019132
 20
139.3057439742
 30
0.0
 10
78.3786967669
 20
139.3082473628
 30
0.0
 10
78.3895166379
 20
139.3128857693
 30
0.0
  0
SPLINE
  5
47B
100
AcDbEntity
  8
0
100
AcDbSpline
 62
7
  6
CONTINUOUS
 70
0
 71
3
 72
9
 73
5
 74
0
 42
0.0000001
 43
0.0000001
 44
0.0000000001
 40
0.0
 40
0.0
 40
0.0
 40
0.0
 40
0.4868868793
 40
1.0
 40
1.0
 40
1.0
 40
1.0
 10
78.3895166379
 20
139.3128857693
 30
0.0
 10
78.4002940543
 20
139.3175059757
 30
0.0
 10
78.4206866912
 20
139.3315535989
 30
0.0
 10
78.4343588209
 20
139.3521449703
 30
0.0
 10
78.4392686086
 20
139.3634853741
 30
0.0
  0
SPLINE
  5
47C
100
AcDbEntity
  8
0
100
AcDbSpline
 62
7
  6
CONTINUOUS
 70
0
 71
3
 72
9
 73
5
 74
0
 42
0.0000001
 43
0.0000001
 44
0.0000000001
 40
0.0
 40
0.0
 40
0.0
 40
0.0
 40
0.2550944233
 40
1.0
 40
1.0
 40
1.0
 40
1.0
 10
82.148474714
 20
137.5557439742
 30
0.0
 10
82.100769349
 20
137.5407659976
 30
0.0
 10
81.9130722056
 20
137.4842732485
 30
0.0
 10
81.7226144175
 20
137.4368467851
 30
0.0
 10
81.5796137668
 20
137.4073555884
 30
0.0
  0
SPLINE
  5
47D
100
AcDbEntity
  8
0
100
AcDbSpline
 62
7
  6
CONTINUOUS
 70
0
 71
3
 72
11
 73
7
 74
0
 42
0.0000001
 43
0.0000001
 44
0.0000000001
 40
0.0
 40
0.0
 40
0.0
 40
0.0
 40
0.1901444183
 40
0.4109319627
 40
0.6807057904
 40
1.0
 40
1.0
 40
1.0
 40
1.0
 10
84.8555796803
 20
139.3057439742
 30
0.0
 10
84.8606737055
 20
139.3057439742
 30
0.0
 10
84.8717910879
 20
139.3088230861
 30
0.0
 10
84.8857292518
 20
139.3212308296
 30
0.0
 10
84.8969137849
 20
139.340080157
 30
0.0
 10
84.9018971522
 20
139.3551718605
 30
0.0
 10
84.9039111397
 20
139.3634853759
 30
0.0
  0
SPLINE
  5
47E
100
AcDbEntity
  8
0
100
AcDbSpline
 62
7
  6
CONTINUOUS
 70
0
 71
3
 72
9
 73
5
 74
0
 42
0.0000001
 43
0.0000001
 44
0.0000000001
 40
0.0
 40
0.0
 40
0.0
 40
0.0
 40
0.5031323346
 40
1.0
 40
1.0
 40
1.0
 40
1.0
 10
79.4677034757
 20
139.3634853494
 30
0.0
 10
79.4759902178
 20
139.3461287079
 30
0.0
 10
79.5034659709
 20
139.3159934927
 30
0.0
 10
79.5425215837
 20
139.3057439742
 30
0.0
 10
79.5615154874
 20
139.3057439742
 30
0.0
  0
SPLINE
  5
47F
100
AcDbEntity
  8
0
100
AcDbSpline
 62
7
  6
CONTINUOUS
 70
0
 71
3
 72
9
 73
5
 74
0
 42
0.0000001
 43
0.0000001
 44
0.0000000001
 40
0.0
 40
0.0
 40
0.0
 40
0.0
 40
0.4968650115
 40
1.0
 40
1.0
 40
1.0
 40
1.0
 10
81.9559049017
 20
139.3057439742
 30
0.0
 10
81.9748986107
 20
139.3057439742
 30
0.0
 10
82.0139531532
 20
139.3159953816
 30
0.0
 10
82.041430258
 20
139.346128728
 30
0.0
 10
82.0497170031
 20
139.3634853759
 30
0.0
  0
SPLINE
  5
480
100
AcDbEntity
  8
0
100
AcDbSpline
 62
7
  6
CONTINUOUS
 70
0
 71
3
 72
11
 73
7
 74
0
 42
0.0000001
 43
0.0000001
 44
0.0000000001
 40
0.0
 40
0.0
 40
0.0
 40
0.0
 40
0.3193142592
 40
0.5890740093
 40
0.809832532
 40
1.0
 40
1.0
 40
1.0
 40
1.0
 10
76.6135093329
 20
139.3634853494
 30
0.0
 10
76.6155234389
 20
139.355171345
 30
0.0
 10
76.6205084746
 20
139.3400804991
 30
0.0
 10
76.631689613
 20
139.3212292861
 30
0.0
 10
76.6456297813
 20
139.3088254138
 30
0.0
 10
76.6567461229
 20
139.3057439742
 30
0.0
 10
76.6618407454
 20
139.3057439742
 30
0.0
  0
SPLINE
  5
481
100
AcDbEntity
  8
0
100
AcDbSpline
 62
7
  6
CONTINUOUS
 70
0
 71
3
 72
11
 73
7
 74
0
 42
0.0000001
 43
0.0000001
 44
0.0000000001
 40
0.0
 40
0.0
 40
0.0
 40
0.0
 40
0.2456844674
 40
0.4872316467
 40
0.7365321675
 40
1.0
 40
1.0
 40
1.0
 40
1.0
 10
76.5566260793
 20
139.6057522513
 30
0.0
 10
76.5539169946
 20
139.617654985
 30
0.0
 10
76.552642243
 20
139.6425834376
 30
0.0
 10
76.5675629921
 20
139.6776519088
 30
0.0
 10
76.5988230882
 20
139.7011704471
 30
0.0
 10
76.6247605246
 20
139.7057439742
 30
0.0
 10
76.6378512509
 20
139.7057439742
 30
0.0
  0
SPLINE
  5
482
100
AcDbEntity
  8
0
100
AcDbSpline
 62
7
  6
CONTINUOUS
 70
0
 71
3
 72
12
 73
8
 74
0
 42
0.0000001
 43
0.0000001
 44
0.0000000001
 40
0.0
 40
0.0
 40
0.0
 40
0.0
 40
0.325839112
 40
0.603458686
 40
0.8107934014
 40
0.9025496509
 40
1.0
 40
1.0
 40
1.0
 40
1.0
 10
79.3534300623
 20
139.6057522909
 30
0.0
 10
79.3479585007
 20
139.617486416
 30
0.0
 10
79.3397239594
 20
139.6402190819
 30
0.0
 10
79.3351841831
 20
139.6723117306
 30
0.0
 10
79.3429446175
 20
139.6960974774
 30
0.0
 10
79.3568400383
 20
139.7046994017
 30
0.0
 10
79.3644642095
 20
139.7057439742
 30
0.0
 10
79.3683363673
 20
139.7057439742
 30
0.0
  0
SPLINE
  5
483
100
AcDbEntity
  8
0
100
AcDbSpline
 62
7
  6
CONTINUOUS
 70
0
 71
3
 72
9
 73
5
 74
0
 42
0.0000001
 43
0.0000001
 44
0.0000000001
 40
0.0
 40
0.0
 40
0.0
 40
0.0
 40
0.2461010597
 40
1.0
 40
1.0
 40
1.0
 40
1.0
 10
79.5136575233
 20
137.5057439742
 30
0.0
 10
79.5474645762
 20
137.4928503423
 30
0.0
 10
79.6858737394
 20
137.4432077046
 30
0.0
 10
79.8281701877
 20
137.404534685
 30
0.0
 10
79.9365400049
 20
137.3812648791
 30
0.0
  0
SPLINE
  5
484
100
AcDbEntity
  8
0
100
AcDbSpline
 62
7
  6
CONTINUOUS
 70
0
 71
3
 72
9
 73
5
 74
0
 42
0.0000001
 43
0.0000001
 44
0.0000000001
 40
0.0
 40
0.0
 40
0.0
 40
0.0
 40
0.2542301673
 40
1.0
 40
1.0
 40
1.0
 40
1.0
 10
81.7126051418
 20
137.4071784617
 30
0.0
 10
81.7504604262
 20
137.416757281
 30
0.0
 10
81.8986060375
 20
137.4573389904
 30
0.0
 10
82.043544406
 20
137.5098041297
 30
0.0
 10
82.148474714
 20
137.5557439742
 30
0.0
  0
LINE
  5
485
100
AcDbEntity
  8
0
100
AcDbLine
 62
7
  6
CONTINUOUS
 10
80.7587102331
 20
138.84496349
 11
80.7330564469
 21
138.8449744949
  0
SPLINE
  5
486
100
AcDbEntity
  8
0
100
AcDbSpline
 62
7
  6
CONTINUOUS
 70
0
 71
3
 72
10
 73
6
 74
0
 42
0.0000001
 43
0.0000001
 44
0.0000000001
 40
0.0
 40
0.0
 40
0.0
 40
0.0
 40
0.5882061623
 40
0.8245691972
 40
1.0
 40
1.0
 40
1.0
 40
1.0
 10
438.1725935818
 20
354.3303192858
 30
0.0
 10
438.1565631581
 20
354.627636109
 30
0.0
 10
438.1085047144
 20
355.0442355501
 30
0.0
 10
437.9936993705
 20
355.5374948646
 30
0.0
 10
437.9308437467
 20
355.7366817668
 30
0.0
 10
437.8984139848
 20
355.8193511546
 30
0.0
  0
SPLINE
  5
487
100
AcDbEntity
  8
0
100
AcDbSpline
 62
7
  6
CONTINUOUS
 70
0
 71
3
 72
18
 73
14
 74
0
 42
0.0000001
 43
0.0000001
 44
0.0000000001
 40
0.0
 40
0.0
 40
0.0
 40
0.0
 40
0.2351477332
 40
0.412401355
 40
0.5324621742
 40
0.5724830116
 40
0.6012063208
 40
0.6229506435
 40
0.6458256944
 40
0.676686019
 40
0.7182720445
 40
0.8360891125
 40
1.0
 40
1.0
 40
1.0
 40
1.0
 10
437.8984139848
 20
355.8193511546
 30
0.0
 10
437.8886492341
 20
355.8442432881
 30
0.0
 10
437.8705551493
 20
355.8875849453
 30
0.0
 10
437.8432642763
 20
355.941568584
 30
0.0
 10
437.8224049672
 20
355.9741625229
 30
0.0
 10
437.8071184994
 20
355.989311594
 30
0.0
 10
437.7981601439
 20
355.9948288343
 30
0.0
 10
437.7891875777
 20
355.9949514419
 30
0.0
 10
437.7824274892
 20
355.9887859807
 30
0.0
 10
437.7779915863
 20
355.9788069575
 30
0.0
 10
437.7730656376
 20
355.9576533771
 30
0.0
 10
437.7713899276
 20
355.9207351489
 30
0.0
 10
437.7726606477
 20
355.8887405556
 30
0.0
 10
437.7738730057
 20
355.8701415461
 30
0.0
  0
SPLINE
  5
488
100
AcDbEntity
  8
0
100
AcDbSpline
 62
7
  6
CONTINUOUS
 70
0
 71
3
 72
9
 73
5
 74
0
 42
0.0000001
 43
0.0000001
 44
0.0000000001
 40
0.0
 40
0.0
 40
0.0
 40
0.0
 40
0.2298779561
 40
1.0
 40
1.0
 40
1.0
 40
1.0
 10
437.7738730057
 20
355.8701415461
 30
0.0
 10
437.7742469819
 20
355.8644043082
 30
0.0
 10
437.7760689237
 20
355.8394592536
 30
0.0
 10
437.7785629708
 20
355.8145668072
 30
0.0
 10
437.780709993
 20
355.7954255352
 30
0.0
  0
SPLINE
  5
489
100
AcDbEntity
  8
0
100
AcDbSpline
 62
7
  6
CONTINUOUS
 70
0
 71
3
 72
8
 73
4
 74
0
 42
0.0000001
 43
0.0000001
 44
0.0000000001
 40
0.0
 40
0.0
 40
0.0
 40
0.0
 40
1.0
 40
1.0
 40
1.0
 40
1.0
 10
438.1725940619
 20
352.9009219586
 30
0.0
 10
438.1723821395
 20
352.8984104857
 30
0.0
 10
438.1703756244
 20
352.8962158249
 30
0.0
 10
438.1684353982
 20
352.8946071207
 30
0.0
  0
SPLINE
  5
48A
100
AcDbEntity
  8
0
100
AcDbSpline
 62
7
  6
CONTINUOUS
 70
0
 71
3
 72
8
 73
4
 74
0
 42
0.0000001
 43
0.0000001
 44
0.0000000001
 40
0.0
 40
0.0
 40
0.0
 40
0.0
 40
1.0
 40
1.0
 40
1.0
 40
1.0
 10
438.1684353982
 20
352.8946071207
 30
0.0
 10
438.1668716228
 20
352.8933105439
 30
0.0
 10
438.1651441267
 20
352.8922092939
 30
0.0
 10
438.163373406
 20
352.8912137773
 30
0.0
  0
LINE
  5
48B
100
AcDbEntity
  8
0
100
AcDbLine
 62
7
  6
CONTINUOUS
 10
438.1633832903
 20
354.3197961011
 11
438.1628712445
 21
354.3294008375
  0
SPLINE
  5
48C
100
AcDbEntity
  8
0
100
AcDbSpline
 62
7
  6
CONTINUOUS
 70
0
 71
3
 72
24
 73
20
 74
0
 42
0.0000001
 43
0.0000001
 44
0.0000000001
 40
0.0
 40
0.0
 40
0.0
 40
0.0
 40
0.2287548467
 40
0.4407552385
 40
0.5374128881
 40
0.6261795353
 40
0.7057881866
 40
0.7751472941
 40
0.8334468565
 40
0.8800578489
 40
0.9148377273
 40
0.9379321444
 40
0.9454380238
 40
0.9507313855
 40
0.9548652754
 40
0.9596356547
 40
0.9662601152
 40
0.9751476306
 40
1.0
 40
1.0
 40
1.0
 40
1.0
 10
438.1628712445
 20
354.3294008375
 30
0.0
 10
438.1556850691
 20
354.4623746203
 30
0.0
 10
438.1341597489
 20
354.7182193054
 30
0.0
 10
438.0902217721
 20
355.0281686831
 30
0.0
 10
438.0466642705
 20
355.2554278469
 30
0.0
 10
438.0125929513
 20
355.4059367128
 30
0.0
 10
437.9774955324
 20
355.5398330067
 30
0.0
 10
437.9426335864
 20
355.6553880727
 30
0.0
 10
437.9093165826
 20
355.7512167813
 30
0.0
 10
437.8787203541
 20
355.8266922676
 30
0.0
 10
437.851789127
 20
355.8811227561
 30
0.0
 10
437.8311996915
 20
355.9136477592
 30
0.0
 10
437.8161517437
 20
355.9281521813
 30
0.0
 10
437.807183987
 20
355.9331038882
 30
0.0
 10
437.7983092229
 20
355.931790918
 30
0.0
 10
437.7923150217
 20
355.9243318507
 30
0.0
 10
437.7882534541
 20
355.9132477836
 30
0.0
 10
437.7838913635
 20
355.8900507738
 30
0.0
 10
437.7833444626
 20
355.8703403151
 30
0.0
 10
437.7833301006
 20
355.8558727126
 30
0.0
  0
SPLINE
  5
48D
100
AcDbEntity
  8
0
100
AcDbSpline
 62
7
  6
CONTINUOUS
 70
0
 71
3
 72
8
 73
4
 74
0
 42
0.0000001
 43
0.0000001
 44
0.0000000001
 40
0.0
 40
0.0
 40
0.0
 40
0.0
 40
1.0
 40
1.0
 40
1.0
 40
1.0
 10
437.8419148206
 20
353.0668334299
 30
0.0
 10
437.8408104924
 20
353.0767553743
 30
0.0
 10
437.8380135446
 20
353.0866136758
 30
0.0
 10
437.8337926296
 20
353.0956606864
 30
0.0
  0
SPLINE
  5
48E
100
AcDbEntity
  8
0
100
AcDbSpline
 62
7
  6
CONTINUOUS
 70
0
 71
3
 72
9
 73
5
 74
0
 42
0.0000001
 43
0.0000001
 44
0.0000000001
 40
0.0
 40
0.0
 40
0.0
 40
0.0
 40
0.1465409028
 40
1.0
 40
1.0
 40
1.0
 40
1.0
 10
437.9869139209
 20
350.8471038398
 30
0.0
 10
437.9868883771
 20
350.8477074722
 30
0.0
 10
437.9848060305
 20
350.8515817105
 30
0.0
 10
437.9801521267
 20
350.8524990913
 30
0.0
 10
437.9767755565
 20
350.8534891292
 30
0.0
  0
SPLINE
  5
48F
100
AcDbEntity
  8
0
100
AcDbSpline
 62
7
  6
CONTINUOUS
 70
0
 71
3
 72
9
 73
5
 74
0
 42
0.0000001
 43
0.0000001
 44
0.0000000001
 40
0.0
 40
0.0
 40
0.0
 40
0.0
 40
0.1465930325
 40
1.0
 40
1.0
 40
1.0
 40
1.0
 10
437.9869241021
 20
321.3643853004
 30
0.0
 10
437.9869002022
 20
321.3637818666
 30
0.0
 10
437.9848290896
 20
321.3599047455
 30
0.0
 10
437.9801750655
 20
321.3589865156
 30
0.0
 10
437.9768017421
 20
321.3579961153
 30
0.0
  0
SPLINE
  5
490
100
AcDbEntity
  8
0
100
AcDbSpline
 62
7
  6
CONTINUOUS
 70
0
 71
3
 72
8
 73
4
 74
0
 42
0.0000001
 43
0.0000001
 44
0.0000000001
 40
0.0
 40
0.0
 40
0.0
 40
0.0
 40
1.0
 40
1.0
 40
1.0
 40
1.0
 10
437.8419083698
 20
319.144654113
 30
0.0
 10
437.8407956454
 20
319.1347271784
 30
0.0
 10
437.8379886893
 20
319.1248652051
 30
0.0
 10
437.8337569907
 20
319.1158167294
 30
0.0
  0
SPLINE
  5
491
100
AcDbEntity
  8
0
100
AcDbSpline
 62
7
  6
CONTINUOUS
 70
0
 71
3
 72
21
 73
17
 74
0
 42
0.0000001
 43
0.0000001
 44
0.0000000001
 40
0.0
 40
0.0
 40
0.0
 40
0.0
 40
0.0559027822
 40
0.1041043487
 40
0.1437222236
 40
0.1738554272
 40
0.194592665
 40
0.2026707518
 40
0.2107769646
 40
0.2326393801
 40
0.2679946825
 40
0.3190653045
 40
0.3853021587
 40
0.5581937719
 40
0.7692413465
 40
1.0
 40
1.0
 40
1.0
 40
1.0
 10
437.7831213196
 20
318.3541797715
 30
0.0
 10
437.7831389846
 20
318.3226958445
 30
0.0
 10
437.7841825135
 20
318.264036284
 30
0.0
 10
437.7898122052
 20
318.1833048666
 30
0.0
 10
437.7998088161
 20
318.1173340351
 30
0.0
 10
437.8138416824
 20
318.0685915497
 30
0.0
 10
437.8317479443
 20
318.0386580407
 30
0.0
 10
437.851104451
 20
318.0291967021
 30
0.0
 10
437.8733359539
 20
318.0306032663
 30
0.0
 10
437.9032163607
 20
318.0558576958
 30
0.0
 10
437.936128578
 20
318.1067605638
 30
0.0
 10
437.972465311
 20
318.1852109455
 30
0.0
 10
438.0268486466
 20
318.339347497
 30
0.0
 10
438.0848990127
 20
318.586890873
 30
0.0
 10
438.1362166011
 20
318.9294301885
 30
0.0
 10
438.1558872958
 20
319.1776997256
 30
0.0
 10
438.1627193576
 20
319.3074811686
 30
0.0
  0
LINE
  5
492
100
AcDbEntity
  8
0
100
AcDbLine
 62
7
  6
CONTINUOUS
 10
438.1627193576
 20
319.3074811686
 11
438.1633794762
 21
319.3202411739
  0
SPLINE
  5
493
100
AcDbEntity
  8
0
100
AcDbSpline
 62
7
  6
CONTINUOUS
 70
0
 71
3
 72
11
 73
7
 74
0
 42
0.0000001
 43
0.0000001
 44
0.0000000001
 40
0.0
 40
0.0
 40
0.0
 40
0.0
 40
0.1787779999
 40
0.3950309256
 40
0.6690930841
 40
1.0
 40
1.0
 40
1.0
 40
1.0
 10
433.0217056711
 20
314.0038722364
 30
0.0
 10
433.0216930245
 20
314.0459121635
 30
0.0
 10
432.9917306616
 20
314.1397973974
 30
0.0
 10
432.8735200848
 20
314.2497216344
 30
0.0
 10
432.6996180859
 20
314.3365755829
 30
0.0
 10
432.5623944324
 20
314.3764087423
 30
0.0
 10
432.4866183914
 20
314.3940976869
 30
0.0
  0
SPLINE
  5
494
100
AcDbEntity
  8
0
100
AcDbSpline
 62
7
  6
CONTINUOUS
 70
0
 71
3
 72
9
 73
5
 74
0
 42
0.0000001
 43
0.0000001
 44
0.0000000001
 40
0.0
 40
0.0
 40
0.0
 40
0.0
 40
0.7507447376
 40
1.0
 40
1.0
 40
1.0
 40
1.0
 10
433.0217242402
 20
314.0039150583
 30
0.0
 10
433.2117799465
 20
314.0097959465
 30
0.0
 10
433.4655954156
 20
314.0504300621
 30
0.0
 10
433.7054216483
 20
314.1323189544
 30
0.0
 10
433.764169282
 20
314.1554318026
 30
0.0
  0
SPLINE
  5
495
100
AcDbEntity
  8
0
100
AcDbSpline
 62
7
  6
CONTINUOUS
 70
0
 71
3
 72
11
 73
7
 74
0
 42
0.0000001
 43
0.0000001
 44
0.0000000001
 40
0.0
 40
0.0
 40
0.0
 40
0.0
 40
0.2342535325
 40
0.4798220859
 40
0.7356841994
 40
1.0
 40
1.0
 40
1.0
 40
1.0
 10
432.4847370957
 20
316.610731887
 30
0.0
 10
432.7938644005
 20
316.8241550342
 30
0.0
 10
433.3500425956
 20
317.3785385449
 30
0.0
 10
433.9212201948
 20
318.4241376814
 30
0.0
 10
434.2541755321
 20
319.615096924
 30
0.0
 10
434.3227077415
 20
320.4514726674
 30
0.0
 10
434.3227082526
 20
320.875324958
 30
0.0
  0
SPLINE
  5
496
100
AcDbEntity
  8
0
100
AcDbSpline
 62
7
  6
CONTINUOUS
 70
0
 71
3
 72
11
 73
7
 74
0
 42
0.0000001
 43
0.0000001
 44
0.0000000001
 40
0.0
 40
0.0
 40
0.0
 40
0.0
 40
0.2643157819
 40
0.5201778845
 40
0.7657464445
 40
1.0
 40
1.0
 40
1.0
 40
1.0
 10
434.3227082478
 20
351.3361629902
 30
0.0
 10
434.3227077403
 20
351.7600147878
 30
0.0
 10
434.2541756902
 20
352.5963895644
 30
0.0
 10
433.9212211562
 20
353.7873475632
 30
0.0
 10
433.3500449496
 20
354.8329459626
 30
0.0
 10
432.7938681009
 20
355.3873295829
 30
0.0
 10
432.4847414665
 20
355.6007530435
 30
0.0
  0
SPLINE
  5
497
100
AcDbEntity
  8
0
100
AcDbSpline
 62
7
  6
CONTINUOUS
 70
0
 71
3
 72
13
 73
9
 74
0
 42
0.0000001
 43
0.0000001
 44
0.0000000001
 40
0.0
 40
0.0
 40
0.0
 40
0.0
 40
0.3168568232
 40
0.5959456978
 40
0.7170021574
 40
0.8241284152
 40
0.9176463056
 40
1.0
 40
1.0
 40
1.0
 40
1.0
 10
432.5055780038
 20
357.113542804
 30
0.0
 10
432.6668559498
 20
357.1719162339
 30
0.0
 10
432.9646551952
 20
357.2978002444
 30
0.0
 10
433.3011705336
 20
357.494879801
 30
0.0
 10
433.51585908
 20
357.6668516981
 30
0.0
 10
433.6371388361
 20
357.7928559228
 30
0.0
 10
433.7212700565
 20
357.9221965631
 30
0.0
 10
433.7541879048
 20
358.0125885105
 30
0.0
 10
433.7642650005
 20
358.0560132445
 30
0.0
  0
SPLINE
  5
498
100
AcDbEntity
  8
0
100
AcDbSpline
 62
7
  6
CONTINUOUS
 70
0
 71
3
 72
9
 73
5
 74
0
 42
0.0000001
 43
0.0000001
 44
0.0000000001
 40
0.0
 40
0.0
 40
0.0
 40
0.0
 40
0.2492553501
 40
1.0
 40
1.0
 40
1.0
 40
1.0
 10
433.7641692835
 20
358.0560509051
 30
0.0
 10
433.7054216564
 20
358.079163935
 30
0.0
 10
433.4655955099
 20
358.1610535484
 30
0.0
 10
433.211780021
 20
358.2016884733
 30
0.0
 10
433.0217242405
 20
358.2075699545
 30
0.0
  0
SPLINE
  5
499
100
AcDbEntity
  8
0
100
AcDbSpline
 62
7
  6
CONTINUOUS
 70
0
 71
3
 72
11
 73
7
 74
0
 42
0.0000001
 43
0.0000001
 44
0.0000000001
 40
0.0
 40
0.0
 40
0.0
 40
0.0
 40
0.3309070988
 40
0.6049694281
 40
0.8212223183
 40
1.0
 40
1.0
 40
1.0
 40
1.0
 10
432.4866138484
 20
357.8173892055
 30
0.0
 10
432.5623904514
 20
357.835078105
 30
0.0
 10
432.6996151494
 20
357.8749112154
 30
0.0
 10
432.8735185608
 20
357.9617652256
 30
0.0
 10
432.9917302597
 20
358.0716897178
 30
0.0
 10
433.0216929864
 20
358.1655754346
 30
0.0
 10
433.0217056743
 20
358.2076155538
 30
0.0
  0
SPLINE
  5
49A
100
AcDbEntity
  8
0
100
AcDbSpline
 62
7
  6
CONTINUOUS
 70
0
 71
3
 72
22
 73
18
 74
0
 42
0.0000001
 43
0.0000001
 44
0.0000000001
 40
0.0
 40
0.0
 40
0.0
 40
0.0
 40
0.2303156414
 40
0.4412969734
 40
0.6145861693
 40
0.6811138585
 40
0.732502364
 40
0.7681678379
 40
0.7806696662
 40
0.7904217237
 40
0.7985363434
 40
0.8065558597
 40
0.8270719475
 40
0.856962663
 40
0.8963461138
 40
0.944320543
 40
1.0
 40
1.0
 40
1.0
 40
1.0
 10
438.1633843907
 20
352.8912224183
 30
0.0
 10
438.1567417665
 20
353.0217781288
 30
0.0
 10
438.1373928067
 20
353.2717152423
 30
0.0
 10
438.0863432047
 20
353.6170328066
 30
0.0
 10
438.0283943813
 20
353.8668254713
 30
0.0
 10
437.9737414922
 20
354.0230936585
 30
0.0
 10
437.9374289424
 20
354.1023314147
 30
0.0
 10
437.9067477445
 20
354.1505477297
 30
0.0
 10
437.8824275301
 20
354.1729734918
 30
0.0
 10
437.8669307388
 20
354.1811902104
 30
0.0
 10
437.8517246041
 20
354.1823895693
 30
0.0
 10
437.8321636788
 20
354.1733122589
 30
0.0
 10
437.814045623
 20
354.1434445432
 30
0.0
 10
437.7999304147
 20
354.0947520108
 30
0.0
 10
437.7898519961
 20
354.0286585071
 30
0.0
 10
437.7841868521
 20
353.9476893694
 30
0.0
 10
437.7831380624
 20
353.8888262911
 30
0.0
 10
437.7831215647
 20
353.8572232568
 30
0.0
  0
SPLINE
  5
49B
100
AcDbEntity
  8
0
100
AcDbSpline
 62
7
  6
CONTINUOUS
 70
0
 71
3
 72
9
 73
5
 74
0
 42
0.0000001
 43
0.0000001
 44
0.0000000001
 40
0.0
 40
0.0
 40
0.0
 40
0.0
 40
0.2547728469
 40
1.0
 40
1.0
 40
1.0
 40
1.0
 10
438.165251486
 20
353.0214109313
 30
0.0
 10
438.1632900148
 20
353.0495263221
 30
0.0
 10
438.1548940394
 20
353.1598302539
 30
0.0
 10
438.1436232136
 20
353.2699237445
 30
0.0
 10
438.1333203302
 20
353.3517166474
 30
0.0
  0
SPLINE
  5
49C
100
AcDbEntity
  8
0
100
AcDbSpline
 62
7
  6
CONTINUOUS
 70
0
 71
3
 72
20
 73
16
 74
0
 42
0.0000001
 43
0.0000001
 44
0.0000000001
 40
0.0
 40
0.0
 40
0.0
 40
0.0
 40
0.2411792923
 40
0.3489059645
 40
0.4451320937
 40
0.52770423
 40
0.5951556383
 40
0.6468027224
 40
0.68320509
 40
0.7070003518
 40
0.7253037866
 40
0.7483574706
 40
0.7806180737
 40
0.8736137275
 40
1.0
 40
1.0
 40
1.0
 40
1.0
 10
438.1333203302
 20
353.3517166474
 30
0.0
 10
438.1198977323
 20
353.4582764517
 30
0.0
 10
438.0959101429
 20
353.6119724378
 30
0.0
 10
438.0532545323
 20
353.8056138241
 30
0.0
 10
438.0199944527
 20
353.9288415043
 30
0.0
 10
437.9853933055
 20
354.0330248562
 30
0.0
 10
437.9509889808
 20
354.115956249
 30
0.0
 10
437.9177574986
 20
354.177285238
 30
0.0
 10
437.8874513523
 20
354.2163084455
 30
0.0
 10
437.8569342635
 20
354.2380433236
 30
0.0
 10
437.8255638291
 20
354.2309492163
 30
0.0
 10
437.8065454536
 20
354.2021088084
 30
0.0
 10
437.7850319532
 20
354.1399998478
 30
0.0
 10
437.7729291425
 20
354.0271881006
 30
0.0
 10
437.771545788
 20
353.9298039474
 30
0.0
 10
437.7723456915
 20
353.8735273544
 30
0.0
  0
SPLINE
  5
49D
100
AcDbEntity
  8
0
100
AcDbSpline
 62
7
  6
CONTINUOUS
 70
0
 71
3
 72
9
 73
5
 74
0
 42
0.0000001
 43
0.0000001
 44
0.0000000001
 40
0.0
 40
0.0
 40
0.0
 40
0.0
 40
0.4547549367
 40
1.0
 40
1.0
 40
1.0
 40
1.0
 10
437.7723456915
 20
353.8735273544
 30
0.0
 10
437.7740276184
 20
353.7551966737
 30
0.0
 10
437.7911672693
 20
353.495275554
 30
0.0
 10
437.8179998307
 20
353.2364532256
 30
0.0
 10
437.8337863102
 20
353.0954429146
 30
0.0
  0
LINE
  5
49E
100
AcDbEntity
  8
0
100
AcDbLine
 62
7
  6
CONTINUOUS
 10
437.8337921061
 20
353.095665447
 11
437.8363677609
 21
353.0709685224
  0
SPLINE
  5
49F
100
AcDbEntity
  8
0
100
AcDbSpline
 62
7
  6
CONTINUOUS
 70
0
 71
3
 72
9
 73
5
 74
0
 42
0.0000001
 43
0.0000001
 44
0.0000000001
 40
0.0
 40
0.0
 40
0.0
 40
0.0
 40
0.4715540289
 40
1.0
 40
1.0
 40
1.0
 40
1.0
 10
437.8363677609
 20
353.0709685224
 30
0.0
 10
437.872411618
 20
352.7235180168
 30
0.0
 10
437.93307067
 20
351.9850413696
 30
0.0
 10
437.9671682381
 20
351.2448334905
 30
0.0
 10
437.9768018549
 20
350.8534929009
 30
0.0
  0
SPLINE
  5
4A0
100
AcDbEntity
  8
0
100
AcDbSpline
 62
7
  6
CONTINUOUS
 70
0
 71
3
 72
9
 73
5
 74
0
 42
0.0000001
 43
0.0000001
 44
0.0000000001
 40
0.0
 40
0.0
 40
0.0
 40
0.0
 40
0.4996316054
 40
1.0
 40
1.0
 40
1.0
 40
1.0
 10
438.0094194103
 20
349.5078156104
 30
0.0
 10
438.0596757722
 20
347.3315808934
 30
0.0
 10
438.1308248717
 20
342.9751670635
 30
0.0
 10
438.14739687
 20
338.6182830371
 30
0.0
 10
438.1482070597
 20
336.4382581836
 30
0.0
  0
LINE
  5
4A1
100
AcDbEntity
  8
0
100
AcDbLine
 62
7
  6
CONTINUOUS
 10
438.1482070597
 20
336.4382581836
 11
438.1481981266
 21
335.7500487532
  0
SPLINE
  5
4A2
100
AcDbEntity
  8
0
100
AcDbSpline
 62
7
  6
CONTINUOUS
 70
0
 71
3
 72
9
 73
5
 74
0
 42
0.0000001
 43
0.0000001
 44
0.0000000001
 40
0.0
 40
0.0
 40
0.0
 40
0.0
 40
0.5003685183
 40
1.0
 40
1.0
 40
1.0
 40
1.0
 10
438.1481981266
 20
335.7500487532
 30
0.0
 10
438.1473322395
 20
333.5741685149
 30
0.0
 10
438.1306750278
 20
329.225569253
 30
0.0
 10
438.0596118196
 20
324.8774401105
 30
0.0
 10
438.0094573248
 20
322.7053437106
 30
0.0
  0
SPLINE
  5
4A3
100
AcDbEntity
  8
0
100
AcDbSpline
 62
7
  6
CONTINUOUS
 70
0
 71
3
 72
9
 73
5
 74
0
 42
0.0000001
 43
0.0000001
 44
0.0000000001
 40
0.0
 40
0.0
 40
0.0
 40
0.0
 40
0.5284448043
 40
1.0
 40
1.0
 40
1.0
 40
1.0
 10
437.9768017945
 20
321.3579982865
 30
0.0
 10
437.9671647331
 20
320.9666423593
 30
0.0
 10
437.9330686292
 20
320.2264037755
 30
0.0
 10
437.8724095114
 20
319.4878959353
 30
0.0
 10
437.8363579111
 20
319.140430757
 30
0.0
  0
LINE
  5
4A4
100
AcDbEntity
  8
0
100
AcDbLine
 62
7
  6
CONTINUOUS
 10
437.8363579111
 20
319.140430757
 11
437.83379135
 21
319.1158254333
  0
SPLINE
  5
4A5
100
AcDbEntity
  8
0
100
AcDbSpline
 62
7
  6
CONTINUOUS
 70
0
 71
3
 72
8
 73
4
 74
0
 42
0.0000001
 43
0.0000001
 44
0.0000000001
 40
0.0
 40
0.0
 40
0.0
 40
0.0
 40
1.0
 40
1.0
 40
1.0
 40
1.0
 10
438.1633849477
 20
319.3202521996
 30
0.0
 10
438.1665379958
 20
319.3186439193
 30
0.0
 10
438.170183013
 20
319.3166929916
 30
0.0
 10
438.1715048275
 20
319.3134095355
 30
0.0
  0
SPLINE
  5
4A6
100
AcDbEntity
  8
0
100
AcDbSpline
 62
7
  6
CONTINUOUS
 70
0
 71
3
 72
8
 73
4
 74
0
 42
0.0000001
 43
0.0000001
 44
0.0000000001
 40
0.0
 40
0.0
 40
0.0
 40
0.0
 40
1.0
 40
1.0
 40
1.0
 40
1.0
 10
438.1715048275
 20
319.3134095355
 30
0.0
 10
438.1723255154
 20
319.3113709041
 30
0.0
 10
438.1723720737
 20
319.309066349
 30
0.0
 10
438.1723342743
 20
319.3068690512
 30
0.0
  0
LINE
  5
4A7
100
AcDbEntity
  8
0
100
AcDbLine
 62
7
  6
CONTINUOUS
 10
438.1633831611
 20
317.8917574979
 11
438.1628421572
 21
317.8822496407
  0
SPLINE
  5
4A8
100
AcDbEntity
  8
0
100
AcDbSpline
 62
7
  6
CONTINUOUS
 70
0
 71
3
 72
24
 73
20
 74
0
 42
0.0000001
 43
0.0000001
 44
0.0000000001
 40
0.0
 40
0.0
 40
0.0
 40
0.0
 40
0.2274884182
 40
0.4391460475
 40
0.5357464429
 40
0.624534536
 40
0.7043363767
 40
0.7740182831
 40
0.8326925651
 40
0.8796030133
 40
0.9145331497
 40
0.9377986645
 40
0.9453678073
 40
0.9507074781
 40
0.9548659348
 40
0.9596298732
 40
0.9662410745
 40
0.9751242032
 40
1.0
 40
1.0
 40
1.0
 40
1.0
 10
438.1628421572
 20
317.8822496407
 30
0.0
 10
438.1552421716
 20
317.7500332066
 30
0.0
 10
438.1346538038
 20
317.4950681929
 30
0.0
 10
438.0908649548
 20
317.1860390976
 30
0.0
 10
438.0472443019
 20
316.9590127465
 30
0.0
 10
438.0132165724
 20
316.8083961379
 30
0.0
 10
437.9781528984
 20
316.674163713
 30
0.0
 10
437.9432768019
 20
316.5580677206
 30
0.0
 10
437.9098740415
 20
316.4616501705
 30
0.0
 10
437.8791774587
 20
316.3856958991
 30
0.0
 10
437.8520740061
 20
316.3309353598
 30
0.0
 10
437.8313843092
 20
316.2982252942
 30
0.0
 10
437.8162925977
 20
316.2835270372
 30
0.0
 10
437.8073148807
 20
316.2784612707
 30
0.0
 10
437.7983825885
 20
316.2796036197
 30
0.0
 10
437.7922463334
 20
316.2869638402
 30
0.0
 10
437.788116466
 20
316.298018629
 30
0.0
 10
437.7836628282
 20
316.3212003
 30
0.0
 10
437.7831142772
 20
316.3409299747
 30
0.0
 10
437.7831103695
 20
316.3554116708
 30
0.0
  0
SPLINE
  5
4A9
100
AcDbEntity
  8
0
100
AcDbSpline
 62
7
  6
CONTINUOUS
 70
0
 71
3
 72
9
 73
5
 74
0
 42
0.0000001
 43
0.0000001
 44
0.0000000001
 40
0.0
 40
0.0
 40
0.0
 40
0.0
 40
0.3059092297
 40
1.0
 40
1.0
 40
1.0
 40
1.0
 10
438.1633356655
 20
317.8916946274
 30
0.0
 10
438.1643105555
 20
317.8911279491
 30
0.0
 10
438.1674068541
 20
317.8891726923
 30
0.0
 10
438.170366868
 20
317.8866907507
 30
0.0
 10
438.1716308992
 20
317.8844662911
 30
0.0
  0
SPLINE
  5
4AA
100
AcDbEntity
  8
0
100
AcDbSpline
 62
7
  6
CONTINUOUS
 70
0
 71
3
 72
9
 73
5
 74
0
 42
0.0000001
 43
0.0000001
 44
0.0000000001
 40
0.0
 40
0.0
 40
0.0
 40
0.0
 40
0.5222432618
 40
1.0
 40
1.0
 40
1.0
 40
1.0
 10
438.1716308992
 20
317.8844662911
 30
0.0
 10
438.171929741
 20
317.8839403852
 30
0.0
 10
438.1724064314
 20
317.8828716343
 30
0.0
 10
438.1725800559
 20
317.881707397
 30
0.0
 10
438.1725755009
 20
317.8811540588
 30
0.0
  0
SPLINE
  5
4AB
100
AcDbEntity
  8
0
100
AcDbSpline
 62
7
  6
CONTINUOUS
 70
0
 71
3
 72
8
 73
4
 74
0
 42
0.0000001
 43
0.0000001
 44
0.0000000001
 40
0.0
 40
0.0
 40
0.0
 40
0.0
 40
1.0
 40
1.0
 40
1.0
 40
1.0
 10
438.1725917981
 20
354.3303359329
 30
0.0
 10
438.1726148879
 20
354.3276422781
 30
0.0
 10
438.1705292328
 20
354.3251346124
 30
0.0
 10
438.1684926689
 20
354.3233714571
 30
0.0
  0
SPLINE
  5
4AC
100
AcDbEntity
  8
0
100
AcDbSpline
 62
7
  6
CONTINUOUS
 70
0
 71
3
 72
8
 73
4
 74
0
 42
0.0000001
 43
0.0000001
 44
0.0000000001
 40
0.0
 40
0.0
 40
0.0
 40
0.0
 40
1.0
 40
1.0
 40
1.0
 40
1.0
 10
438.1684926689
 20
354.3233714571
 30
0.0
 10
438.1669165863
 20
354.3220069636
 30
0.0
 10
438.1651618122
 20
354.3208465403
 30
0.0
 10
438.1633596603
 20
354.3197986244
 30
0.0
  0
LINE
  5
4AD
100
AcDbEntity
  8
0
100
AcDbLine
 62
7
  6
CONTINUOUS
 10
437.8060589359
 20
356.4309251168
 11
437.8069006637
 21
356.4280458295
  0
SPLINE
  5
4AE
100
AcDbEntity
  8
0
100
AcDbSpline
 62
7
  6
CONTINUOUS
 70
0
 71
3
 72
9
 73
5
 74
0
 42
0.0000001
 43
0.0000001
 44
0.0000000001
 40
0.0
 40
0.0
 40
0.0
 40
0.0
 40
0.2398108485
 40
1.0
 40
1.0
 40
1.0
 40
1.0
 10
438.0904178545
 20
355.1454492216
 30
0.0
 10
438.1000559763
 20
355.0806593741
 30
0.0
 10
438.1372938296
 20
354.8100630678
 30
0.0
 10
438.1619049359
 20
354.5376848245
 30
0.0
 10
438.1725935818
 20
354.3303192858
 30
0.0
  0
SPLINE
  5
4AF
100
AcDbEntity
  8
0
100
AcDbSpline
 62
7
  6
CONTINUOUS
 70
0
 71
3
 72
23
 73
19
 74
0
 42
0.0000001
 43
0.0000001
 44
0.0000000001
 40
0.0
 40
0.0
 40
0.0
 40
0.0
 40
0.2307782188
 40
0.4405421822
 40
0.5319101581
 40
0.6108660404
 40
0.675244813
 40
0.7238733292
 40
0.7570098743
 40
0.7774094644
 40
0.7854425236
 40
0.7940236676
 40
0.8043349263
 40
0.8169080702
 40
0.8493379285
 40
0.8912732822
 40
0.9418089773
 40
1.0
 40
1.0
 40
1.0
 40
1.0
 10
438.170606412
 20
319.2740807333
 30
0.0
 10
438.1629416943
 20
319.1393937129
 30
0.0
 10
438.140689705
 20
318.8826515739
 30
0.0
 10
438.0922093411
 20
318.5751064851
 30
0.0
 10
438.0416666814
 20
318.3586633896
 30
0.0
 10
438.0027554326
 20
318.2269584322
 30
0.0
 10
437.9633847273
 20
318.1218672648
 30
0.0
 10
437.9247064111
 20
318.045065326
 30
0.0
 10
437.8903774724
 20
317.9966989144
 30
0.0
 10
437.8580855611
 20
317.9747294411
 30
0.0
 10
437.8356838181
 20
317.9776642122
 30
0.0
 10
437.8225324181
 20
317.987096738
 30
0.0
 10
437.8115235875
 20
318.0020327303
 30
0.0
 10
437.7977220772
 20
318.0314208302
 30
0.0
 10
437.7854832258
 20
318.0811029357
 30
0.0
 10
437.7764179125
 20
318.1535774902
 30
0.0
 10
437.7719744357
 20
318.241612559
 30
0.0
 10
437.7718607015
 20
318.3051831268
 30
0.0
 10
437.7723581937
 20
318.3391959402
 30
0.0
  0
SPLINE
  5
4B0
100
AcDbEntity
  8
0
100
AcDbSpline
 62
7
  6
CONTINUOUS
 70
0
 71
3
 72
9
 73
5
 74
0
 42
0.0000001
 43
0.0000001
 44
0.0000000001
 40
0.0
 40
0.0
 40
0.0
 40
0.0
 40
0.4549295942
 40
1.0
 40
1.0
 40
1.0
 40
1.0
 10
437.7723581937
 20
318.3391959402
 30
0.0
 10
437.7740866161
 20
318.457365632
 30
0.0
 10
437.7912399261
 20
318.7168297098
 30
0.0
 10
437.8180169272
 20
318.9752034734
 30
0.0
 10
437.8337699159
 20
319.1159237359
 30
0.0
  0
SPLINE
  5
4B1
100
AcDbEntity
  8
0
100
AcDbSpline
 62
7
  6
CONTINUOUS
 70
0
 71
3
 72
10
 73
6
 74
0
 42
0.0000001
 43
0.0000001
 44
0.0000000001
 40
0.0
 40
0.0
 40
0.0
 40
0.0
 40
0.5934761507
 40
0.82883257
 40
1.0
 40
1.0
 40
1.0
 40
1.0
 10
438.172594331
 20
317.8811841096
 30
0.0
 10
438.1561306709
 20
317.5767846922
 30
0.0
 10
438.1066602035
 20
317.1517769681
 30
0.0
 10
437.9876969602
 20
316.6518376038
 30
0.0
 10
437.9233269362
 20
316.4526852887
 30
0.0
 10
437.8900848612
 20
316.371290045
 30
0.0
  0
SPLINE
  5
4B2
100
AcDbEntity
  8
0
100
AcDbSpline
 62
7
  6
CONTINUOUS
 70
0
 71
3
 72
16
 73
12
 74
0
 42
0.0000001
 43
0.0000001
 44
0.0000000001
 40
0.0
 40
0.0
 40
0.0
 40
0.0
 40
0.2425835842
 40
0.4297822136
 40
0.562786896
 40
0.6100308644
 40
0.6457970985
 40
0.6937193684
 40
0.7538407703
 40
0.8546667748
 40
1.0
 40
1.0
 40
1.0
 40
1.0
 10
437.8900848612
 20
316.371290045
 30
0.0
 10
437.8816332211
 20
316.3505956898
 30
0.0
 10
437.8658931835
 20
316.314201284
 30
0.0
 10
437.8420233833
 20
316.2681838417
 30
0.0
 10
437.8236993868
 20
316.2394648631
 30
0.0
 10
437.8099631881
 20
316.2249774311
 30
0.0
 10
437.8006638199
 20
316.2172639262
 30
0.0
 10
437.7849394742
 20
316.2159908084
 30
0.0
 10
437.7761109643
 20
316.2364294797
 30
0.0
 10
437.7723789594
 20
316.2632307669
 30
0.0
 10
437.7719018223
 20
316.2863709394
 30
0.0
 10
437.772095316
 20
316.2997617541
 30
0.0
  0
SPLINE
  5
4B3
100
AcDbEntity
  8
0
100
AcDbSpline
 62
7
  6
CONTINUOUS
 70
0
 71
3
 72
13
 73
9
 74
0
 42
0.0000001
 43
0.0000001
 44
0.0000000001
 40
0.0
 40
0.0
 40
0.0
 40
0.0
 40
0.0668747794
 40
0.1557425269
 40
0.266147988
 40
0.3950621846
 40
0.6906954169
 40
1.0
 40
1.0
 40
1.0
 40
1.0
 10
437.9767998178
 20
321.357993556
 30
0.0
 10
437.9037726482
 20
321.3193603584
 30
0.0
 10
437.7241309719
 20
321.2480056656
 30
0.0
 10
437.4074173419
 20
321.1589684506
 30
0.0
 10
437.0098147688
 20
321.077988939
 30
0.0
 10
436.3561290066
 20
320.9795490676
 30
0.0
 10
435.4520927615
 20
320.901081817
 30
0.0
 10
434.7048120098
 20
320.8776806272
 30
0.0
 10
434.3227070468
 20
320.8753214413
 30
0.0
  0
SPLINE
  5
4B4
100
AcDbEntity
  8
0
100
AcDbSpline
 62
7
  6
CONTINUOUS
 70
0
 71
3
 72
11
 73
7
 74
0
 42
0.0000001
 43
0.0000001
 44
0.0000000001
 40
0.0
 40
0.0
 40
0.0
 40
0.0
 40
0.2505213961
 40
0.5008388189
 40
0.7507467996
 40
1.0
 40
1.0
 40
1.0
 40
1.0
 10
433.7641761576
 20
314.1554007352
 30
0.0
 10
434.2610171527
 20
314.3933455597
 30
0.0
 10
435.2012391097
 20
314.9887430376
 30
0.0
 10
436.3739167665
 20
316.1681112718
 30
0.0
 10
437.274563452
 20
317.5614244077
 30
0.0
 10
437.6810712809
 20
318.5895330412
 30
0.0
 10
437.8337699159
 20
319.1159237359
 30
0.0
  0
SPLINE
  5
4B5
100
AcDbEntity
  8
0
100
AcDbSpline
 62
7
  6
CONTINUOUS
 70
0
 71
3
 72
11
 73
7
 74
0
 42
0.0000001
 43
0.0000001
 44
0.0000000001
 40
0.0
 40
0.0
 40
0.0
 40
0.0
 40
0.3172921446
 40
0.5969814463
 40
0.8249811424
 40
1.0
 40
1.0
 40
1.0
 40
1.0
 10
432.4982450389
 20
315.1018944562
 30
0.0
 10
432.6601240499
 20
315.0427702481
 30
0.0
 10
432.9591030515
 20
314.915664739
 30
0.0
 10
433.3484465566
 20
314.6894502962
 30
0.0
 10
433.6305401551
 20
314.4466325839
 30
0.0
 10
433.7472189044
 20
314.248973504
 30
0.0
 10
433.7642712767
 20
314.1554533709
 30
0.0
  0
SPLINE
  5
4B6
100
AcDbEntity
  8
0
100
AcDbSpline
 62
7
  6
CONTINUOUS
 70
0
 71
3
 72
11
 73
7
 74
0
 42
0.0000001
 43
0.0000001
 44
0.0000000001
 40
0.0
 40
0.0
 40
0.0
 40
0.0
 40
0.2492555445
 40
0.4991632616
 40
0.7494800664
 40
1.0
 40
1.0
 40
1.0
 40
1.0
 10
437.8337863102
 20
353.0954429146
 30
0.0
 10
437.6810872919
 20
353.6218491044
 30
0.0
 10
437.27461515
 20
354.6499983521
 30
0.0
 10
436.3739438505
 20
356.0433385323
 30
0.0
 10
435.201259403
 20
357.2227329584
 30
0.0
 10
434.2610231609
 20
357.8181383089
 30
0.0
 10
433.7641761576
 20
358.0560860249
 30
0.0
  0
SPLINE
  5
4B7
100
AcDbEntity
  8
0
100
AcDbSpline
 62
7
  6
CONTINUOUS
 70
0
 71
3
 72
13
 73
9
 74
0
 42
0.0000001
 43
0.0000001
 44
0.0000000001
 40
0.0
 40
0.0
 40
0.0
 40
0.0
 40
0.3093058691
 40
0.6049393327
 40
0.7338532599
 40
0.8442583041
 40
0.9331255999
 40
1.0
 40
1.0
 40
1.0
 40
1.0
 10
434.3227070468
 20
351.3361652205
 30
0.0
 10
434.7048136103
 20
351.33380596
 30
0.0
 10
435.452096257
 20
351.3104045101
 30
0.0
 10
436.3561340367
 20
351.231936709
 30
0.0
 10
437.0098192014
 20
351.1334964925
 30
0.0
 10
437.4074203467
 20
351.0525169587
 30
0.0
 10
437.7241324374
 20
350.9634799181
 30
0.0
 10
437.9037731042
 20
350.8921254792
 30
0.0
 10
437.9767998556
 20
350.8534924877
 30
0.0
  0
SPLINE
  5
4B8
100
AcDbEntity
  8
0
100
AcDbSpline
 62
7
  6
CONTINUOUS
 70
0
 71
3
 72
8
 73
4
 74
0
 42
0.0000001
 43
0.0000001
 44
0.0000000001
 40
0.0
 40
0.0
 40
0.0
 40
0.0
 40
1.0
 40
1.0
 40
1.0
 40
1.0
 10
437.772095316
 20
316.2997617541
 30
0.0
 10
437.7722587357
 20
316.3110712855
 30
0.0
 10
437.772736188
 20
316.3223774934
 30
0.0
 10
437.7733955909
 20
316.3336689677
 30
0.0
  0
SPLINE
  5
4B9
100
AcDbEntity
  8
0
100
AcDbSpline
 62
7
  6
CONTINUOUS
 70
0
 71
3
 72
9
 73
5
 74
0
 42
0.0000001
 43
0.0000001
 44
0.0000000001
 40
0.0
 40
0.0
 40
0.0
 40
0.0
 40
0.199456441
 40
1.0
 40
1.0
 40
1.0
 40
1.0
 10
437.7751274816
 20
316.3585453753
 30
0.0
 10
437.7770401716
 20
316.3825215057
 30
0.0
 10
437.7897243603
 20
316.5024752879
 30
0.0
 10
437.8094074327
 20
316.6215346045
 30
0.0
 10
437.8255645281
 20
316.716709862
 30
0.0
  0
SPLINE
  5
4BA
100
AcDbEntity
  8
0
100
AcDbSpline
 62
7
  6
CONTINUOUS
 70
0
 71
3
 72
9
 73
5
 74
0
 42
0.0000001
 43
0.0000001
 44
0.0000000001
 40
0.0
 40
0.0
 40
0.0
 40
0.0
 40
0.4521091015
 40
1.0
 40
1.0
 40
1.0
 40
1.0
 10
437.8255645281
 20
316.716709862
 30
0.0
 10
437.8526758606
 20
316.876412332
 30
0.0
 10
437.9174502931
 20
317.2288074075
 30
0.0
 10
437.978157669
 20
317.581949461
 30
0.0
 10
438.0086363134
 20
317.7758742141
 30
0.0
  0
SPLINE
  5
4BB
100
AcDbEntity
  8
0
100
AcDbSpline
 62
7
  6
CONTINUOUS
 70
0
 71
3
 72
9
 73
5
 74
0
 42
0.0000001
 43
0.0000001
 44
0.0000000001
 40
0.0
 40
0.0
 40
0.0
 40
0.0
 40
0.2366780455
 40
1.0
 40
1.0
 40
1.0
 40
1.0
 10
438.0266347434
 20
317.8926320093
 30
0.0
 10
438.0430891513
 20
318.001564454
 30
0.0
 10
438.1085601677
 20
318.4623832166
 30
0.0
 10
438.1541038691
 20
318.9263692939
 30
0.0
 10
438.1711237835
 20
319.2812701686
 30
0.0
  0
LINE
  5
4BC
100
AcDbEntity
  8
0
100
AcDbLine
 62
7
  6
CONTINUOUS
 10
438.1711237835
 20
319.2812701686
 11
438.1718378745
 21
319.2963899143
  0
SPLINE
  5
4BD
100
AcDbEntity
  8
0
100
AcDbSpline
 62
7
  6
CONTINUOUS
 70
0
 71
3
 72
10
 73
6
 74
0
 42
0.0000001
 43
0.0000001
 44
0.0000000001
 40
0.0
 40
0.0
 40
0.0
 40
0.0
 40
0.1798990964
 40
0.4131745695
 40
1.0
 40
1.0
 40
1.0
 40
1.0
 10
437.780709993
 20
355.7954255352
 30
0.0
 10
437.7894092518
 20
355.7178693342
 30
0.0
 10
437.8168657655
 20
355.5406447165
 30
0.0
 10
437.8926400702
 20
355.1135493756
 30
0.0
 10
437.9560473063
 20
354.7634201909
 30
0.0
 10
437.9964785921
 20
354.512078868
 30
0.0
  0
SPLINE
  5
4BE
100
AcDbEntity
  8
0
100
AcDbSpline
 62
7
  6
CONTINUOUS
 70
0
 71
3
 72
9
 73
5
 74
0
 42
0.0000001
 43
0.0000001
 44
0.0000000001
 40
0.0
 40
0.0
 40
0.0
 40
0.0
 40
0.2436295171
 40
1.0
 40
1.0
 40
1.0
 40
1.0
 10
438.0971210885
 20
353.7987302071
 30
0.0
 10
438.1057460184
 20
353.7260706335
 30
0.0
 10
438.1389209656
 20
353.4275799809
 30
0.0
 10
438.1622014518
 20
353.1279286188
 30
0.0
 10
438.1725880844
 20
352.9010041055
 30
0.0
  0
SPLINE
  5
4BF
100
AcDbEntity
  8
0
100
AcDbSpline
 62
7
  6
CONTINUOUS
 70
0
 71
3
 72
9
 73
5
 74
0
 42
0.0000001
 43
0.0000001
 44
0.0000000001
 40
0.0
 40
0.0
 40
0.0
 40
0.0
 40
0.2131101208
 40
1.0
 40
1.0
 40
1.0
 40
1.0
 10
412.4831090097
 20
536.8142352368
 30
0.0
 10
412.483105089
 20
536.8396683458
 30
0.0
 10
412.5031643576
 20
536.9595687029
 30
0.0
 10
412.5915357769
 20
537.054541317
 30
0.0
 10
412.6626449763
 20
537.1158802797
 30
0.0
  0
SPLINE
  5
4C0
100
AcDbEntity
  8
0
100
AcDbSpline
 62
7
  6
CONTINUOUS
 70
0
 71
3
 72
9
 73
5
 74
0
 42
0.0000001
 43
0.0000001
 44
0.0000000001
 40
0.0
 40
0.0
 40
0.0
 40
0.0
 40
0.2137196808
 40
1.0
 40
1.0
 40
1.0
 40
1.0
 10
412.6626449763
 20
537.1158802797
 30
0.0
 10
412.6938480971
 20
537.142796165
 30
0.0
 10
412.8474803772
 20
537.2598571229
 30
0.0
 10
413.0184069259
 20
537.3516143889
 30
0.0
 10
413.1540611386
 20
537.4193056794
 30
0.0
  0
SPLINE
  5
4C1
100
AcDbEntity
  8
0
100
AcDbSpline
 62
7
  6
CONTINUOUS
 70
0
 71
3
 72
8
 73
4
 74
0
 42
0.0000001
 43
0.0000001
 44
0.0000000001
 40
0.0
 40
0.0
 40
0.0
 40
0.0
 40
1.0
 40
1.0
 40
1.0
 40
1.0
 10
413.2717258307
 20
537.4764807604
 30
0.0
 10
413.4116935688
 20
537.5428791722
 30
0.0
 10
413.5535000012
 20
537.6053647285
 30
0.0
 10
413.695435169
 20
537.6674463276
 30
0.0
  0
LINE
  5
4C2
100
AcDbEntity
  8
0
100
AcDbLine
 62
7
  6
CONTINUOUS
 10
413.695435169
 20
537.6674463276
 11
413.7831089657
 21
537.7057439742
  0
SPLINE
  5
4C3
100
AcDbEntity
  8
0
100
AcDbSpline
 62
7
  6
CONTINUOUS
 70
0
 71
3
 72
9
 73
5
 74
0
 42
0.0000001
 43
0.0000001
 44
0.0000000001
 40
0.0
 40
0.0
 40
0.0
 40
0.0
 40
0.2138811308
 40
1.0
 40
1.0
 40
1.0
 40
1.0
 10
412.4831089508
 20
144.9972773679
 30
0.0
 10
412.4831059601
 20
144.9722251216
 30
0.0
 10
412.5024295858
 20
144.8545512711
 30
0.0
 10
412.5881855017
 20
144.760630172
 30
0.0
 10
412.6575082653
 20
144.7000251547
 30
0.0
  0
SPLINE
  5
4C4
100
AcDbEntity
  8
0
100
AcDbSpline
 62
7
  6
CONTINUOUS
 70
0
 71
3
 72
9
 73
5
 74
0
 42
0.0000001
 43
0.0000001
 44
0.0000000001
 40
0.0
 40
0.0
 40
0.0
 40
0.0
 40
0.2130788568
 40
1.0
 40
1.0
 40
1.0
 40
1.0
 10
412.6575082653
 20
144.7000251547
 30
0.0
 10
412.6886129005
 20
144.6728321108
 30
0.0
 10
412.8425536052
 20
144.5543569583
 30
0.0
 10
413.0144267377
 20
144.461935742
 30
0.0
 10
413.150920937
 20
144.3937410449
 30
0.0
  0
SPLINE
  5
4C5
100
AcDbEntity
  8
0
100
AcDbSpline
 62
7
  6
CONTINUOUS
 70
0
 71
3
 72
8
 73
4
 74
0
 42
0.0000001
 43
0.0000001
 44
0.0000000001
 40
0.0
 40
0.0
 40
0.0
 40
0.0
 40
1.0
 40
1.0
 40
1.0
 40
1.0
 10
413.2697186964
 20
144.3359640357
 30
0.0
 10
413.4102482169
 20
144.2692595108
 30
0.0
 10
413.5526354662
 20
144.2065060674
 30
0.0
 10
413.6951545004
 20
144.1441653529
 30
0.0
  0
LINE
  5
4C6
100
AcDbEntity
  8
0
100
AcDbLine
 62
7
  6
CONTINUOUS
 10
413.6951545004
 20
144.1441653529
 11
413.7831089657
 21
144.1057439742
  0
SPLINE
  5
4C7
100
AcDbEntity
  8
0
100
AcDbSpline
 62
7
  6
CONTINUOUS
 70
0
 71
3
 72
9
 73
5
 74
0
 42
0.0000001
 43
0.0000001
 44
0.0000000001
 40
0.0
 40
0.0
 40
0.0
 40
0.0
 40
0.2753276969
 40
1.0
 40
1.0
 40
1.0
 40
1.0
 10
432.049073872
 20
144.3610164103
 30
0.0
 10
432.0942693464
 20
144.4117918369
 30
0.0
 10
432.251674907
 20
144.6014147749
 30
0.0
 10
432.3799798227
 20
144.8201195364
 30
0.0
 10
432.4335264041
 20
144.9908347862
 30
0.0
  0
SPLINE
  5
4C8
100
AcDbEntity
  8
0
100
AcDbSpline
 62
7
  6
CONTINUOUS
 70
0
 71
3
 72
8
 73
4
 74
0
 42
0.0000001
 43
0.0000001
 44
0.0000000001
 40
0.0
 40
0.0
 40
0.0
 40
0.0
 40
1.0
 40
1.0
 40
1.0
 40
1.0
 10
432.4335264041
 20
144.9908347862
 30
0.0
 10
432.4653291215
 20
145.0922270451
 30
0.0
 10
432.4831089657
 20
145.1994810784
 30
0.0
 10
432.4831089657
 20
145.3057439742
 30
0.0
  0
SPLINE
  5
4C9
100
AcDbEntity
  8
0
100
AcDbSpline
 62
7
  6
CONTINUOUS
 70
0
 71
3
 72
9
 73
5
 74
0
 42
0.0000001
 43
0.0000001
 44
0.0000000001
 40
0.0
 40
0.0
 40
0.0
 40
0.0
 40
0.2255111035
 40
1.0
 40
1.0
 40
1.0
 40
1.0
 10
432.4831089657
 20
536.5057439742
 30
0.0
 10
432.4831089657
 20
536.5850107281
 30
0.0
 10
432.4399570049
 20
536.9377449016
 30
0.0
 10
432.2300727508
 20
537.2471260613
 30
0.0
 10
432.049073872
 20
537.4504715381
 30
0.0
  0
LINE
  5
4CA
100
AcDbEntity
  8
0
100
AcDbLine
 62
7
  6
CONTINUOUS
 10
216.2595682596
 20
520.4141456412
 11
216.0013588508
 21
520.4324536504
  0
LINE
  5
4CB
100
AcDbEntity
  8
0
100
AcDbLine
 62
7
  6
CONTINUOUS
 10
216.0013588508
 20
520.4324536504
 11
215.8946821938
 21
520.4400903885
  0
LINE
  5
4CC
100
AcDbEntity
  8
0
100
AcDbLine
 62
7
  6
CONTINUOUS
 10
215.8946821938
 20
520.4400903885
 11
215.6876810276
 21
520.4551522595
  0
SPLINE
  5
4CD
100
AcDbEntity
  8
0
100
AcDbSpline
 62
7
  6
CONTINUOUS
 70
0
 71
3
 72
9
 73
5
 74
0
 42
0.0000001
 43
0.0000001
 44
0.0000000001
 40
0.0
 40
0.0
 40
0.0
 40
0.0
 40
0.2209683891
 40
1.0
 40
1.0
 40
1.0
 40
1.0
 10
214.4383593204
 20
160.0854636092
 30
0.0
 10
214.4849083003
 20
160.1692221468
 30
0.0
 10
214.7263069844
 20
160.5313080963
 30
0.0
 10
215.0484632921
 20
160.8303712492
 30
0.0
 10
215.3063584828
 20
161.0485924044
 30
0.0
  0
SPLINE
  5
4CE
100
AcDbEntity
  8
0
100
AcDbSpline
 62
7
  6
CONTINUOUS
 70
0
 71
3
 72
8
 73
4
 74
0
 42
0.0000001
 43
0.0000001
 44
0.0000000001
 40
0.0
 40
0.0
 40
0.0
 40
0.0
 40
1.0
 40
1.0
 40
1.0
 40
1.0
 10
215.3063584828
 20
161.0485924044
 30
0.0
 10
215.4310477241
 20
161.1540997239
 30
0.0
 10
215.5586536288
 20
161.2561801511
 30
0.0
 10
215.6876810276
 20
161.3563356889
 30
0.0
  0
SPLINE
  5
4CF
100
AcDbEntity
  8
0
100
AcDbSpline
 62
7
  6
CONTINUOUS
 70
0
 71
3
 72
9
 73
5
 74
0
 42
0.0000001
 43
0.0000001
 44
0.0000000001
 40
0.0
 40
0.0
 40
0.0
 40
0.0
 40
0.2612451868
 40
1.0
 40
1.0
 40
1.0
 40
1.0
 10
215.6876810276
 20
520.4551522595
 30
0.0
 10
215.620427315
 20
520.5073569215
 30
0.0
 10
215.3646833567
 20
520.7092329066
 30
0.0
 10
215.1164300209
 20
520.9215373763
 30
0.0
 10
214.9450121886
 20
521.0905882994
 30
0.0
  0
SPLINE
  5
4D0
100
AcDbEntity
  8
0
100
AcDbSpline
 62
7
  6
CONTINUOUS
 70
0
 71
3
 72
9
 73
5
 74
0
 42
0.0000001
 43
0.0000001
 44
0.0000000001
 40
0.0
 40
0.0
 40
0.0
 40
0.0
 40
0.2712396921
 40
1.0
 40
1.0
 40
1.0
 40
1.0
 10
214.9450121886
 20
521.0905882994
 30
0.0
 10
214.892608514
 20
521.1422683927
 30
0.0
 10
214.7040716425
 20
521.3370526408
 30
0.0
 10
214.5344197214
 20
521.553176755
 30
0.0
 10
214.4383593204
 20
521.7260243392
 30
0.0
  0
LINE
  5
4D1
100
AcDbEntity
  8
0
100
AcDbLine
 62
7
  6
CONTINUOUS
 10
216.0013588508
 20
161.379034298
 11
216.2595682596
 21
161.3973423071
  0
SPLINE
  5
4D2
100
AcDbEntity
  8
0
100
AcDbSpline
 62
7
  6
CONTINUOUS
 70
0
 71
3
 72
9
 73
5
 74
0
 42
0.0000001
 43
0.0000001
 44
0.0000000001
 40
0.0
 40
0.0
 40
0.0
 40
0.0
 40
0.3732338897
 40
1.0
 40
1.0
 40
1.0
 40
1.0
 10
214.2587102331
 20
538.7057439742
 30
0.0
 10
214.2587102331
 20
538.8295234513
 30
0.0
 10
214.0136152842
 20
539.1205082536
 30
0.0
 10
213.7218989648
 20
539.2563324777
 30
0.0
 10
213.5336223311
 20
539.3444126556
 30
0.0
  0
SPLINE
  5
4D3
100
AcDbEntity
  8
0
100
AcDbSpline
 62
7
  6
CONTINUOUS
 70
0
 71
3
 72
9
 73
5
 74
0
 42
0.0000001
 43
0.0000001
 44
0.0000000001
 40
0.0
 40
0.0
 40
0.0
 40
0.0
 40
0.2306028034
 40
1.0
 40
1.0
 40
1.0
 40
1.0
 10
213.5336223311
 20
539.3444126556
 30
0.0
 10
213.4808684627
 20
539.3690921393
 30
0.0
 10
213.2502940239
 20
539.4722523196
 30
0.0
 10
213.0146421733
 20
539.563614105
 30
0.0
 10
212.8324531305
 20
539.6311960907
 30
0.0
  0
SPLINE
  5
4D4
100
AcDbEntity
  8
0
100
AcDbSpline
 62
7
  6
CONTINUOUS
 70
0
 71
3
 72
8
 73
4
 74
0
 42
0.0000001
 43
0.0000001
 44
0.0000000001
 40
0.0
 40
0.0
 40
0.0
 40
0.0
 40
1.0
 40
1.0
 40
1.0
 40
1.0
 10
212.8324531305
 20
539.6311960907
 30
0.0
 10
212.5758679561
 20
539.7263748967
 30
0.0
 10
212.3172365393
 20
539.8159714515
 30
0.0
 10
212.0587102331
 20
539.9057439742
 30
0.0
  0
SPLINE
  5
4D5
100
AcDbEntity
  8
0
100
AcDbSpline
 62
7
  6
CONTINUOUS
 70
0
 71
3
 72
8
 73
4
 74
0
 42
0.0000001
 43
0.0000001
 44
0.0000000001
 40
0.0
 40
0.0
 40
0.0
 40
0.0
 40
1.0
 40
1.0
 40
1.0
 40
1.0
 10
212.0587102331
 20
141.9057439742
 30
0.0
 10
212.3172352934
 20
141.9955160642
 30
0.0
 10
212.5758654632
 20
142.0851121866
 30
0.0
 10
212.8324494209
 20
142.1802904805
 30
0.0
  0
SPLINE
  5
4D6
100
AcDbEntity
  8
0
100
AcDbSpline
 62
7
  6
CONTINUOUS
 70
0
 71
3
 72
9
 73
5
 74
0
 42
0.0000001
 43
0.0000001
 44
0.0000000001
 40
0.0
 40
0.0
 40
0.0
 40
0.0
 40
0.280647631
 40
1.0
 40
1.0
 40
1.0
 40
1.0
 10
212.8324494209
 20
142.1802904805
 30
0.0
 10
212.9248258399
 20
142.2145569641
 30
0.0
 10
213.2525628723
 20
142.3397608817
 30
0.0
 10
213.5774232939
 20
142.4772961373
 30
0.0
 10
213.7971380885
 20
142.6018096101
 30
0.0
  0
SPLINE
  5
4D7
100
AcDbEntity
  8
0
100
AcDbSpline
 62
7
  6
CONTINUOUS
 70
0
 71
3
 72
9
 73
5
 74
0
 42
0.0000001
 43
0.0000001
 44
0.0000000001
 40
0.0
 40
0.0
 40
0.0
 40
0.0
 40
0.3371579402
 40
1.0
 40
1.0
 40
1.0
 40
1.0
 10
213.7971380885
 20
142.6018096101
 30
0.0
 10
213.8651322389
 20
142.6403422352
 30
0.0
 10
214.0553489064
 20
142.7566474789
 30
0.0
 10
214.2587102331
 20
142.9520966393
 30
0.0
 10
214.2587102331
 20
143.1057439742
 30
0.0
  0
SPLINE
  5
4D8
100
AcDbEntity
  8
0
100
AcDbSpline
 62
7
  6
CONTINUOUS
 70
0
 71
3
 72
9
 73
5
 74
0
 42
0.0000001
 43
0.0000001
 44
0.0000000001
 40
0.0
 40
0.0
 40
0.0
 40
0.0
 40
0.3732338897
 40
1.0
 40
1.0
 40
1.0
 40
1.0
 10
57.2587102331
 20
143.1057439742
 30
0.0
 10
57.2587102331
 20
142.9819644971
 30
0.0
 10
57.503805182
 20
142.6909796947
 30
0.0
 10
57.7955215013
 20
142.5551554706
 30
0.0
 10
57.9837981351
 20
142.4670752928
 30
0.0
  0
SPLINE
  5
4D9
100
AcDbEntity
  8
0
100
AcDbSpline
 62
7
  6
CONTINUOUS
 70
0
 71
3
 72
9
 73
5
 74
0
 42
0.0000001
 43
0.0000001
 44
0.0000000001
 40
0.0
 40
0.0
 40
0.0
 40
0.0
 40
0.2306028034
 40
1.0
 40
1.0
 40
1.0
 40
1.0
 10
57.9837981351
 20
142.4670752928
 30
0.0
 10
58.0365520035
 20
142.4423958091
 30
0.0
 10
58.2671264423
 20
142.3392356287
 30
0.0
 10
58.5027782928
 20
142.2478738434
 30
0.0
 10
58.6849673357
 20
142.1802918577
 30
0.0
  0
SPLINE
  5
4DA
100
AcDbEntity
  8
0
100
AcDbSpline
 62
7
  6
CONTINUOUS
 70
0
 71
3
 72
8
 73
4
 74
0
 42
0.0000001
 43
0.0000001
 44
0.0000000001
 40
0.0
 40
0.0
 40
0.0
 40
0.0
 40
1.0
 40
1.0
 40
1.0
 40
1.0
 10
58.6849673357
 20
142.1802918577
 30
0.0
 10
58.9415525101
 20
142.0851130516
 30
0.0
 10
59.2001839268
 20
141.9955164968
 30
0.0
 10
59.4587102331
 20
141.9057439742
 30
0.0
  0
SPLINE
  5
4DB
100
AcDbEntity
  8
0
100
AcDbSpline
 62
7
  6
CONTINUOUS
 70
0
 71
3
 72
8
 73
4
 74
0
 42
0.0000001
 43
0.0000001
 44
0.0000000001
 40
0.0
 40
0.0
 40
0.0
 40
0.0
 40
1.0
 40
1.0
 40
1.0
 40
1.0
 10
59.4587102331
 20
539.9057439742
 30
0.0
 10
59.2001851727
 20
539.8159718841
 30
0.0
 10
58.941555003
 20
539.7263757618
 30
0.0
 10
58.6849710453
 20
539.6311974678
 30
0.0
  0
SPLINE
  5
4DC
100
AcDbEntity
  8
0
100
AcDbSpline
 62
7
  6
CONTINUOUS
 70
0
 71
3
 72
9
 73
5
 74
0
 42
0.0000001
 43
0.0000001
 44
0.0000000001
 40
0.0
 40
0.0
 40
0.0
 40
0.0
 40
0.280647631
 40
1.0
 40
1.0
 40
1.0
 40
1.0
 10
58.6849710453
 20
539.6311974678
 30
0.0
 10
58.5925946262
 20
539.5969309843
 30
0.0
 10
58.2648575939
 20
539.4717270667
 30
0.0
 10
57.9399971723
 20
539.334191811
 30
0.0
 10
57.7202823776
 20
539.2096783382
 30
0.0
  0
SPLINE
  5
4DD
100
AcDbEntity
  8
0
100
AcDbSpline
 62
7
  6
CONTINUOUS
 70
0
 71
3
 72
9
 73
5
 74
0
 42
0.0000001
 43
0.0000001
 44
0.0000000001
 40
0.0
 40
0.0
 40
0.0
 40
0.0
 40
0.3371579403
 40
1.0
 40
1.0
 40
1.0
 40
1.0
 10
57.7202823776
 20
539.2096783382
 30
0.0
 10
57.6522882272
 20
539.1711457132
 30
0.0
 10
57.4620715597
 20
539.0548404695
 30
0.0
 10
57.2587102331
 20
538.859391309
 30
0.0
 10
57.2587102331
 20
538.7057439742
 30
0.0
  0
LINE
  5
4DE
100
AcDbEntity
  8
0
100
AcDbLine
 62
7
  6
CONTINUOUS
 10
216.6403282238
 20
520.387056432
 11
216.2595682596
 21
520.4141456412
  0
LINE
  5
4DF
100
AcDbEntity
  8
0
100
AcDbLine
 62
7
  6
CONTINUOUS
 10
216.2595682596
 20
161.3973423071
 11
216.6403282238
 21
161.4244315164
  0
SPLINE
  5
4E0
100
AcDbEntity
  8
0
100
AcDbSpline
 62
7
  6
CONTINUOUS
 70
0
 71
3
 72
9
 73
5
 74
0
 42
0.0000001
 43
0.0000001
 44
0.0000000001
 40
0.0
 40
0.0
 40
0.0
 40
0.0
 40
0.7451005017
 40
1.0
 40
1.0
 40
1.0
 40
1.0
 10
406.2728123543
 20
159.0957439742
 30
0.0
 10
406.2728123543
 20
159.2893479936
 30
0.0
 10
406.3028721849
 20
159.5501827015
 30
0.0
 10
406.3668333267
 20
159.8020426395
 30
0.0
 10
406.3851409479
 20
159.8656942023
 30
0.0
  0
SPLINE
  5
4E1
100
AcDbEntity
  8
0
100
AcDbSpline
 62
7
  6
CONTINUOUS
 70
0
 71
3
 72
9
 73
5
 74
0
 42
0.0000001
 43
0.0000001
 44
0.0000000001
 40
0.0
 40
0.0
 40
0.0
 40
0.0
 40
0.2422739892
 40
1.0
 40
1.0
 40
1.0
 40
1.0
 10
406.3851409479
 20
159.8656942023
 30
0.0
 10
406.4037765738
 20
159.9304861649
 30
0.0
 10
406.4893158613
 20
160.1954440141
 30
0.0
 10
406.6059185987
 20
160.4497066025
 30
0.0
 10
406.7050741724
 20
160.635793746
 30
0.0
  0
SPLINE
  5
4E2
100
AcDbEntity
  8
0
100
AcDbSpline
 62
7
  6
CONTINUOUS
 70
0
 71
3
 72
9
 73
5
 74
0
 42
0.0000001
 43
0.0000001
 44
0.0000000001
 40
0.0
 40
0.0
 40
0.0
 40
0.0
 40
0.2446001066
 40
1.0
 40
1.0
 40
1.0
 40
1.0
 10
406.7555242174
 20
160.7282884807
 30
0.0
 10
406.784194982
 20
160.7796890263
 30
0.0
 10
406.9046542327
 20
160.9880231665
 30
0.0
 10
407.0362275988
 20
161.189772508
 30
0.0
 10
407.1391985629
 20
161.3395577284
 30
0.0
  0
SPLINE
  5
4E3
100
AcDbEntity
  8
0
100
AcDbSpline
 62
7
  6
CONTINUOUS
 70
0
 71
3
 72
9
 73
5
 74
0
 42
0.0000001
 43
0.0000001
 44
0.0000000001
 40
0.0
 40
0.0
 40
0.0
 40
0.0
 40
0.256049377
 40
1.0
 40
1.0
 40
1.0
 40
1.0
 10
407.1391985629
 20
520.4719302199
 30
0.0
 10
407.0992069522
 20
520.5301034368
 30
0.0
 10
406.9452499146
 20
520.7587814548
 30
0.0
 10
406.8015273854
 20
520.9946786301
 30
0.0
 10
406.7050741724
 20
521.1756942023
 30
0.0
  0
SPLINE
  5
4E4
100
AcDbEntity
  8
0
100
AcDbSpline
 62
7
  6
CONTINUOUS
 70
0
 71
3
 72
9
 73
5
 74
0
 42
0.0000001
 43
0.0000001
 44
0.0000000001
 40
0.0
 40
0.0
 40
0.0
 40
0.0
 40
0.2584705868
 40
1.0
 40
1.0
 40
1.0
 40
1.0
 10
406.7050741724
 20
521.1756942023
 30
0.0
 10
406.67125531
 20
521.2391627019
 30
0.0
 10
406.5455038577
 20
521.4873039254
 30
0.0
 10
406.4421716218
 20
521.7475106661
 30
0.0
 10
406.3851409479
 20
521.945793746
 30
0.0
  0
SPLINE
  5
4E5
100
AcDbEntity
  8
0
100
AcDbSpline
 62
7
  6
CONTINUOUS
 70
0
 71
3
 72
9
 73
5
 74
0
 42
0.0000001
 43
0.0000001
 44
0.0000000001
 40
0.0
 40
0.0
 40
0.0
 40
0.0
 40
0.2548994983
 40
1.0
 40
1.0
 40
1.0
 40
1.0
 10
406.3851409479
 20
521.945793746
 30
0.0
 10
406.3668333267
 20
522.0094453088
 30
0.0
 10
406.3028721849
 20
522.2613052469
 30
0.0
 10
406.2728123543
 20
522.5221399547
 30
0.0
 10
406.2728123543
 20
522.7157439742
 30
0.0
  0
SPLINE
  5
4E6
100
AcDbEntity
  8
0
100
AcDbSpline
 62
7
  6
CONTINUOUS
 70
0
 71
3
 72
9
 73
5
 74
0
 42
0.0000001
 43
0.0000001
 44
0.0000000001
 40
0.0
 40
0.0
 40
0.0
 40
0.0
 40
0.2413915432
 40
1.0
 40
1.0
 40
1.0
 40
1.0
 10
407.1850478179
 20
520.4057439742
 30
0.0
 10
407.2321909742
 20
520.4176550766
 30
0.0
 10
407.4277426277
 20
520.4659951582
 30
0.0
 10
407.6239705913
 20
520.5115294139
 30
0.0
 10
407.7728123277
 20
520.5461273983
 30
0.0
  0
SPLINE
  5
4E7
100
AcDbEntity
  8
0
100
AcDbSpline
 62
7
  6
CONTINUOUS
 70
0
 71
3
 72
9
 73
5
 74
0
 42
0.0000001
 43
0.0000001
 44
0.0000000001
 40
0.0
 40
0.0
 40
0.0
 40
0.0
 40
0.2561121741
 40
1.0
 40
1.0
 40
1.0
 40
1.0
 10
407.7728123276
 20
161.2653605501
 30
0.0
 10
407.7225624757
 20
161.2770410345
 30
0.0
 10
407.5263617367
 20
161.3226457412
 30
0.0
 10
407.3303263929
 20
161.3690381587
 30
0.0
 10
407.1850478179
 20
161.4057439742
 30
0.0
  0
ENDSEC
  0
SECTION
  2
OBJECTS
  0
DICTIONARY
  5
C
100
AcDbDictionary
280
0
281
1
  3
ACAD_GROUP
350
D
  3
ACAD_MLINESTYLE
350
17
  3
ACAD_LAYOUT
350
1A
  3
ACAD_PLOTSETTINGS
350
19
  3
ACAD_PLOTSTYLENAME
350
E
  0
DICTIONARY
  5
D
102
{ACAD_REACTORS
330
C
102
}
100
AcDbDictionary
280
0
281
1
  0
ACDBDICTIONARYWDFLT
  5
E
102
{ACAD_REACTORS
330
C
102
}
100
AcDbDictionary
281
1
  3
Normal
350
F
100
AcDbDictionaryWithDefault
340
F
  0
DICTIONARY
  5
17
102
{ACAD_REACTORS
330
C
102
}
100
AcDbDictionary
280
0
281
1
  3
Standard
350
18
  0
DICTIONARY
  5
19
102
{ACAD_REACTORS
330
C
102
}
100
AcDbDictionary
281
1
  0
DICTIONARY
  5
1A
102
{ACAD_REACTORS
330
C
102
}
100
AcDbDictionary
281
1
  3
Model
350
4E8
  3
Layout1
350
4E9
  0
ACDBPLACEHOLDER
  5
F
102
{ACAD_REACTORS
330
E
102
}
  0
MLINESTYLE
  5
18
102
{ACAD_REACTORS
330
17
102
}
100
AcDbMlineStyle
  2
STANDARD
 70
0
  3

 62
256
 51
90.0
 52
90.0
 71
2
 49
0.5
 62
256
  6
BYLAYER
 49
-0.5
 62
256
  6
BYLAYER
  0
LAYOUT
  5
4E8
102
{ACAD_REACTORS
330
1A
102
}
100
AcDbPlotSettings
  1

  2
none_device
  4

  6

 40
0.0
 41
0.0
 42
0.0
 43
0.0
 44
210.0
 45
297.0
 46
0.0
 47
0.0
 48
0.0
 49
0.0
140
0.0
141
0.0
142
1.0
143
1.0
 70
1024
 72
1
 73
0
 74
0
  7

 75
0
147
1.0
148
0.0
149
0.0
100
AcDbLayout
  1
Model
 70
0
 71
0
 10
0.0
 20
0.0
 11
210.0
 21
297.0
 12
0.0
 22
0.0
 32
0.0
 14
0.0
 24
0.0
 34
0.0
 15
0.0
 25
0.0
 35
0.0
146
0.0
 13
0.0
 23
0.0
 33
0.0
 16
1.0
 26
0.0
 36
0.0
 17
0.0
 27
1.0
 37
0.0
 76
0
330
210
345
0
346
0
  0
LAYOUT
  5
4E9
102
{ACAD_REACTORS
330
1A
102
}
100
AcDbPlotSettings
  1

  2
none_device
  4

  6

 40
0.0
 41
0.0
 42
0.0
 43
0.0
 44
210.0
 45
297.0
 46
0.0
 47
0.0
 48
0.0
 49
0.0
140
0.0
141
0.0
142
1.0
143
1.0
 70
0
 72
1
 73
0
 74
0
  7

 75
0
147
1.0
148
0.0
149
0.0
100
AcDbLayout
  1
Layout1
 70
0
 71
1
 10
0.0
 20
0.0
 11
210.0
 21
297.0
 12
0.0
 22
0.0
 32
0.0
 14
0.0
 24
0.0
 34
0.0
 15
0.0
 25
0.0
 35
0.0
146
0.0
 13
0.0
 23
0.0
 33
0.0
 16
1.0
 26
0.0
 36
0.0
 17
0.0
 27
1.0
 37
0.0
 76
0
330
211
345
0
346
0
  0
ENDSEC
  0
EOF
