999
DXF file: C:\Users\sesa63760\Dev\_Creo\CAD\MCADID0003806_3D-CAD\drw0001_7.dxf
999
Pro/ENGINEER 2019471 by Parametric Technology Corporation
  0
SECTION
  2
HEADER
  9
$ACADVER
  1
AC1024
  9
$DWGCODEPAGE
  3
ANSI_1252
  9
$EXTMAX
 10
76.3771212121
 20
108.0190714286
 30
0.0
  9
$EXTMIN
 10
0.0
 20
0.0
 30
0.0
  9
$LIMMIN
 10
0.0
 20
0.0
  9
$LIMMAX
 10
76.3771212121
 20
108.0190714286
  9
$VIEWCTR
 10
38.1885606061
 20
54.0095357143
  9
$VIEWSIZE
 40
108.0190714286
  9
$CLAYER
  8
0
  9
$LTSCALE
 40
7.0412431746
  9
$CELTYPE
  6
BYLAYER
  9
$DIMSCALE
 40
1.0
  9
$DIMASZ
 40
0.909251443
  9
$DIMEXO
 40
1.0
  9
$DIMDLI
 40
4.8648589206
  9
$DIMEXE
 40
1.0
  9
$DIMCEN
 40
1.1522034286
  9
$DIMLFAC
 40
1.0
  9
$DIMBLK
  1
_FILLED
  9
$DIMALT
 70
0
  9
$DIMALTF
 40
0.0393700787
  9
$DIMTXT
 40
1.2729520202
  9
$DIMTOL
 70
1
  9
$DIMLIM
 70
0
  9
$DIMTFAC
 40
1.0
  9
$DIMTP
 40
0.01
  9
$DIMTM
 40
0.01
  9
$DIMGAP
 40
0.625
  9
$DIMDSEP
 70
46
  9
$AUNITS
 70
0
  9
$PDMODE
 70
3
  9
$PDSIZE
 40
0.3125
  9
$HANDSEED
  5
2D1
  9
$TILEMODE
 70
1
  9
$MEASUREMENT
 70
1
  9
$INSUNITS
 70
4
  0
ENDSEC
  0
SECTION
  2
CLASSES
  0
CLASS
  1
ACDBDICTIONARYWDFLT
  2
AcDbDictionaryWithDefault
  3
AutoCAD 2000
 90
0
 91
1
280
0
281
0
  0
CLASS
  1
ACDBPLACEHOLDER
  2
AcDbPlaceHolder
  3
AutoCAD 2000
 90
0
 91
1
280
0
281
0
  0
CLASS
  1
LAYOUT
  2
AcDbLayout
  3
AutoCAD 2000
 90
0
 91
0
280
0
281
0
  0
ENDSEC
  0
SECTION
  2
TABLES
  0
TABLE
  2
VPORT
  5
8
100
AcDbSymbolTable
 70
2
  0
VPORT
  5
1F4
100
AcDbSymbolTableRecord
100
AcDbViewportTableRecord
  2
*ACTIVE
 70
0
 10
0.0
 20
0.0
 11
1.0
 21
1.0
 12
38.1885606061
 22
54.0095357143
 13
0.0
 23
0.0
 14
1.0
 24
1.0
 15
0.0
 25
0.0
 16
0.0
 26
0.0
 36
1.0
 17
0.0
 27
0.0
 37
0.0
 40
108.0190714286
 41
0.7070707071
 42
50.0
 43
0.0
 44
0.0
 50
0.0
 51
0.0
 71
0
 72
100
 73
1
 74
1
 75
0
 76
0
 77
0
 78
0
  0
ENDTAB
  0
TABLE
  2
LTYPE
  5
5
100
AcDbSymbolTable
 70
6
  0
LTYPE
  5
14
100
AcDbSymbolTableRecord
100
AcDbLinetypeTableRecord
  2
BYBLOCK
 70
0
  3

 72
65
 73
0
 40
0.0
  0
LTYPE
  5
15
100
AcDbSymbolTableRecord
100
AcDbLinetypeTableRecord
  2
BYLAYER
 70
0
  3

 72
65
 73
0
 40
0.0
  0
LTYPE
  5
16
100
AcDbSymbolTableRecord
100
AcDbLinetypeTableRecord
  2
CONTINUOUS
 70
64
  3
Solid line
 72
65
 73
0
 40
0.0
  0
LTYPE
  5
1F5
100
AcDbSymbolTableRecord
100
AcDbLinetypeTableRecord
  2
CENTER
 70
64
  3
____ _ ____ _ ____ _ ____ _ ____ _ ____ _ ____
 72
65
 73
4
 40
0.6
 49
0.375
 74
0
 49
-0.075
 74
0
 49
0.075
 74
0
 49
-0.075
 74
0
  0
LTYPE
  5
1F6
100
AcDbSymbolTableRecord
100
AcDbLinetypeTableRecord
  2
HIDDEN
 70
64
  3
- - - - - - - - - - - - - - - - - - - -
 72
65
 73
2
 40
0.2
 49
0.1
 74
0
 49
-0.1
 74
0
  0
LTYPE
  5
1F7
100
AcDbSymbolTableRecord
100
AcDbLinetypeTableRecord
  2
PHANTOM
 70
64
  3
_____ _ _ _____ _ _ _____ _ _ _____
 72
65
 73
6
 40
0.8
 49
0.45
 74
0
 49
-0.05
 74
0
 49
0.1
 74
0
 49
-0.05
 74
0
 49
0.1
 74
0
 49
-0.05
 74
0
  0
LTYPE
  5
1F8
100
AcDbSymbolTableRecord
100
AcDbLinetypeTableRecord
  2
DOT
 70
64
  3
. . . . . . . . . . . . . . . . . . . .
 72
65
 73
2
 40
0.2
 49
0.1
 74
0
 49
-0.1
 74
0
  0
LTYPE
  5
1F9
100
AcDbSymbolTableRecord
100
AcDbLinetypeTableRecord
  2
DASHED
 70
64
  3
- - - - - - - - - - - - - - - - - - - -
 72
65
 73
2
 40
0.2
 49
0.1
 74
0
 49
-0.1
 74
0
  0
ENDTAB
  0
TABLE
  2
LAYER
  5
2
100
AcDbSymbolTable
 70
36
  0
LAYER
  5
10
100
AcDbSymbolTableRecord
100
AcDbLayerTableRecord
  2
0
 70
0
 62
7
  6
CONTINUOUS
370
-3
390
F
  0
LAYER
  5
1FA
100
AcDbSymbolTableRecord
100
AcDbLayerTableRecord
  2
DEFAULT_1
 70
0
 62
7
  6
CENTER
370
-3
390
F
  0
LAYER
  5
1FB
100
AcDbSymbolTableRecord
100
AcDbLayerTableRecord
  2
DEFAULT_2
 70
0
 62
7
  6
HIDDEN
370
-3
390
F
  0
LAYER
  5
1FC
100
AcDbSymbolTableRecord
100
AcDbLayerTableRecord
  2
DEFAULT_3
 70
0
 62
7
  6
PHANTOM
370
-3
390
F
  0
LAYER
  5
1FD
100
AcDbSymbolTableRecord
100
AcDbLayerTableRecord
  2
00_COMPONENTS
 70
0
 62
7
  6
CONTINUOUS
370
-3
390
F
  0
LAYER
  5
1FE
100
AcDbSymbolTableRecord
100
AcDbLayerTableRecord
  2
01_1_DEFAULT_DATUMS
 70
0
 62
7
  6
CONTINUOUS
370
-3
390
F
  0
LAYER
  5
1FF
100
AcDbSymbolTableRecord
100
AcDbLayerTableRecord
  2
01_PLANES
 70
0
 62
7
  6
CONTINUOUS
370
-3
390
F
  0
LAYER
  5
200
100
AcDbSymbolTableRecord
100
AcDbLayerTableRecord
  2
02_COORD_SYS
 70
0
 62
7
  6
CONTINUOUS
370
-3
390
F
  0
LAYER
  5
201
100
AcDbSymbolTableRecord
100
AcDbLayerTableRecord
  2
03_AXES
 70
0
 62
7
  6
CONTINUOUS
370
-3
390
F
  0
LAYER
  5
202
100
AcDbSymbolTableRecord
100
AcDbLayerTableRecord
  2
04_POINTS
 70
0
 62
7
  6
CONTINUOUS
370
-3
390
F
  0
LAYER
  5
203
100
AcDbSymbolTableRecord
100
AcDbLayerTableRecord
  2
05_CURVES
 70
0
 62
7
  6
CONTINUOUS
370
-3
390
F
  0
LAYER
  5
204
100
AcDbSymbolTableRecord
100
AcDbLayerTableRecord
  2
06_SURFS
 70
0
 62
7
  6
CONTINUOUS
370
-3
390
F
  0
LAYER
  5
205
100
AcDbSymbolTableRecord
100
AcDbLayerTableRecord
  2
07_COSMETICS
 70
0
 62
7
  6
CONTINUOUS
370
-3
390
F
  0
LAYER
  5
206
100
AcDbSymbolTableRecord
100
AcDbLayerTableRecord
  2
10_NOTES
 70
0
 62
7
  6
CONTINUOUS
370
-3
390
F
  0
LAYER
  5
207
100
AcDbSymbolTableRecord
100
AcDbLayerTableRecord
  2
11_NOTES_PUB
 70
0
 62
7
  6
CONTINUOUS
370
-3
390
F
  0
LAYER
  5
208
100
AcDbSymbolTableRecord
100
AcDbLayerTableRecord
  2
13_REF_GTOL
 70
0
 62
7
  6
CONTINUOUS
370
-3
390
F
  0
LAYER
  5
209
100
AcDbSymbolTableRecord
100
AcDbLayerTableRecord
  2
16_MISC
 70
0
 62
7
  6
CONTINUOUS
370
-3
390
F
  0
LAYER
  5
20A
100
AcDbSymbolTableRecord
100
AcDbLayerTableRecord
  2
17_NO_PRINT
 70
0
 62
7
  6
CONTINUOUS
370
-3
390
F
  0
LAYER
  5
20B
100
AcDbSymbolTableRecord
100
AcDbLayerTableRecord
  2
18_DATUM_CAMS_JOINTS
 70
0
 62
7
  6
CONTINUOUS
370
-3
390
F
  0
LAYER
  5
20C
100
AcDbSymbolTableRecord
100
AcDbLayerTableRecord
  2
19_DATUM_FUNCTIONAL
 70
0
 62
7
  6
CONTINUOUS
370
-3
390
F
  0
LAYER
  5
20D
100
AcDbSymbolTableRecord
100
AcDbLayerTableRecord
  2
20_DATUM_KINEMATIC_SCHEME
 70
0
 62
7
  6
CONTINUOUS
370
-3
390
F
  0
ENDTAB
  0
TABLE
  2
STYLE
  5
3
100
AcDbSymbolTable
 70
1
  0
STYLE
  5
11
100
AcDbSymbolTableRecord
100
AcDbTextStyleTableRecord
  2
STANDARD
 70
0
 40
0.0
 41
1.0
 50
0.0
 71
0
 42
0.2
  3
ARIAL.TTF
  4

  0
STYLE
  5
20E
100
AcDbSymbolTableRecord
100
AcDbTextStyleTableRecord
  2
TEXTSTYLE_1
 70
0
 40
0.0
 41
0.8
 50
0.0
 71
0
 42
0.2
  3
gdt
  4

  0
ENDTAB
  0
TABLE
  2
VIEW
  5
6
100
AcDbSymbolTable
 70
0
  0
ENDTAB
  0
TABLE
  2
UCS
  5
7
100
AcDbSymbolTable
 70
0
  0
ENDTAB
  0
TABLE
  2
APPID
  5
9
100
AcDbSymbolTable
 70
1
  0
APPID
  5
20F
100
AcDbSymbolTableRecord
100
AcDbRegAppTableRecord
  2
ACAD
 70
0
  0
ENDTAB
  0
TABLE
  2
BLOCK_RECORD
  5
1
100
AcDbSymbolTable
 70
0
  0
BLOCK_RECORD
  5
210
100
AcDbSymbolTableRecord
100
AcDbBlockTableRecord
  2
*Model_Space
  0
BLOCK_RECORD
  5
211
100
AcDbSymbolTableRecord
100
AcDbBlockTableRecord
  2
*Paper_Space
  0
BLOCK_RECORD
  5
212
100
AcDbSymbolTableRecord
100
AcDbBlockTableRecord
  2
_FILLED
  0
ENDTAB
  0
TABLE
  2
DIMSTYLE
  5
A
100
AcDbSymbolTable
 70
1
100
AcDbDimStyleTable
 71
0
  0
DIMSTYLE
105
213
100
AcDbSymbolTableRecord
100
AcDbDimStyleTableRecord
  2
STANDARD
 70
0
  3

  4

 40
1.0
 41
0.909251443
 42
1.0
 43
0.38
 44
1.0
 45
0.0
 46
0.0
 47
0.01
 48
0.01
140
1.2729520202
141
0.09
142
0.0
143
25.4
144
1.0
145
0.0
146
1.0
147
0.625
 71
1
 72
0
 73
0
 74
0
 75
0
 76
0
 77
1
 78
8
 79
2
170
0
171
1
172
0
173
0
174
0
175
0
176
0
177
0
178
0
270
2
179
2
271
2
272
2
273
2
274
2
275
0
280
0
281
0
282
0
283
1
284
8
285
0
286
0
287
3
288
0
340
11
278
46
341
212
342
212
343
212
344
212
  0
ENDTAB
  0
ENDSEC
  0
SECTION
  2
BLOCKS
  0
BLOCK
  5
20
100
AcDbEntity
  8
0
100
AcDbBlockBegin
  2
*Model_Space
 70
0
 10
0.0
 20
0.0
 30
0.0
  3
*Model_Space
  1

  0
ENDBLK
  5
21
100
AcDbEntity
  8
0
100
AcDbBlockEnd
  0
BLOCK
  5
1C
100
AcDbEntity
  8
0
100
AcDbBlockBegin
  2
*Paper_Space
 70
0
 10
0.0
 20
0.0
 30
0.0
  3
*Paper_Space
  1

  0
ENDBLK
  5
1D
100
AcDbEntity
  8
0
100
AcDbBlockEnd
  0
BLOCK
  5
214
100
AcDbEntity
  8
0
100
AcDbBlockBegin
  2
_FILLED
 70
64
 10
0.0
 20
0.0
  3
_FILLED
  1

  0
SOLID
  5
215
100
AcDbEntity
  8
0
  6
BYBLOCK
 62
0
100
AcDbTrace
 10
0.0
 20
0.0
 11
-1.0
 21
0.25
 12
-1.0
 22
-0.25
 13
-1.0
 23
-0.25
  0
ENDBLK
  5
216
100
AcDbEntity
  8
0
  6
BYBLOCK
 62
0
100
AcDbBlockEnd
  0
ENDSEC
  0
SECTION
  2
ENTITIES
  0
LINE
  5
217
100
AcDbEntity
  8
0
100
AcDbLine
 62
7
  6
BYLAYER
 10
43.3209551741
 20
7.9989642857
 11
33.3205946095
 21
7.9989642857
  0
LINE
  5
218
100
AcDbEntity
  8
0
100
AcDbLine
 62
7
  6
BYLAYER
 10
43.5207748918
 20
8.9989642857
 11
33.1207748918
 21
8.9989642857
  0
LINE
  5
219
100
AcDbEntity
  8
0
100
AcDbLine
 62
7
  6
BYLAYER
 10
33.1207748918
 20
9.6989642857
 11
43.5207748918
 21
9.6989642857
  0
LINE
  5
21A
100
AcDbEntity
  8
0
100
AcDbLine
 62
7
  6
BYLAYER
 10
43.3207748918
 20
10.0453744472
 11
33.3207748918
 21
10.0453744472
  0
LINE
  5
21B
100
AcDbEntity
  8
0
100
AcDbLine
 62
7
  6
BYLAYER
 10
27.3207748918
 20
100.5489642857
 11
26.8207748918
 21
100.0489642857
  0
LINE
  5
21C
100
AcDbEntity
  8
0
100
AcDbLine
 62
7
  6
BYLAYER
 10
33.3207748918
 20
11.1989642857
 11
43.3207748918
 21
11.1989642857
  0
LINE
  5
21D
100
AcDbEntity
  8
0
100
AcDbLine
 62
7
  6
BYLAYER
 10
44.3207748918
 20
12.1989642857
 11
32.3207748918
 21
12.1989642857
  0
LINE
  5
21E
100
AcDbEntity
  8
0
100
AcDbLine
 62
7
  6
BYLAYER
 10
26.8207748918
 20
87.0489642857
 11
25.3207748918
 21
86.1829388819
  0
LINE
  5
21F
100
AcDbEntity
  8
0
100
AcDbLine
 62
7
  6
BYLAYER
 10
46.5193986248
 20
19.9484472393
 11
46.2855177189
 21
19.9237281629
  0
LINE
  5
220
100
AcDbEntity
  8
0
100
AcDbLine
 62
7
  6
BYLAYER
 10
30.3303950302
 20
19.6587830843
 11
30.3266804229
 21
19.6585150205
  0
LINE
  5
221
100
AcDbEntity
  8
0
100
AcDbLine
 62
7
  6
BYLAYER
 10
46.3148385303
 20
19.6434566625
 11
57.8097782595
 21
19.8441015889
  0
LINE
  5
222
100
AcDbEntity
  8
0
100
AcDbLine
 62
7
  6
BYLAYER
 10
32.3207748918
 20
17.9989642857
 11
44.3207748918
 21
17.9989642857
  0
LINE
  5
223
100
AcDbEntity
  8
0
100
AcDbLine
 62
7
  6
BYLAYER
 10
46.0148693607
 20
18.9989642857
 11
30.6266804229
 21
18.9989642857
  0
LINE
  5
224
100
AcDbEntity
  8
0
100
AcDbLine
 62
7
  6
BYLAYER
 10
46.3148693607
 20
19.2989642857
 11
30.3266804229
 21
19.2989642857
  0
LINE
  5
225
100
AcDbEntity
  8
0
100
AcDbLine
 62
7
  6
BYLAYER
 10
18.831771524
 20
19.8441015889
 11
30.3305500848
 21
19.6433896554
  0
LINE
  5
226
100
AcDbEntity
  8
0
100
AcDbLine
 62
7
  6
BYLAYER
 10
30.3609285066
 20
19.9227616565
 11
30.135628747
 21
19.9483764138
  0
LINE
  5
227
100
AcDbEntity
  8
0
100
AcDbLine
 62
7
  6
BYLAYER
 10
32.3207748918
 20
12.1989642857
 11
33.3207748918
 21
11.1989642857
  0
LINE
  5
228
100
AcDbEntity
  8
0
100
AcDbLine
 62
7
  6
BYLAYER
 10
58.3662752879
 20
22.4989642857
 11
58.7327525642
 21
22.4989642857
  0
LINE
  5
229
100
AcDbEntity
  8
0
100
AcDbLine
 62
7
  6
BYLAYER
 10
58.726116955
 20
22.7489642857
 11
58.3493413437
 21
22.7489642857
  0
LINE
  5
22A
100
AcDbEntity
  8
0
100
AcDbLine
 62
7
  6
BYLAYER
 10
23.3207748918
 20
80.0548867373
 11
22.8898347841
 21
79.6989642857
  0
LINE
  5
22B
100
AcDbEntity
  8
0
100
AcDbLine
 62
7
  6
BYLAYER
 10
17.7483764674
 20
73.1502086121
 11
17.7484784004
 21
73.1508091288
  0
LINE
  5
22C
100
AcDbEntity
  8
0
100
AcDbLine
 62
7
  6
BYLAYER
 10
22.1949418669
 20
78.4953744472
 11
22.0650713176
 21
78.1818392059
  0
LINE
  5
22D
100
AcDbEntity
  8
0
100
AcDbLine
 62
7
  6
BYLAYER
 10
22.8898347841
 20
79.6989642857
 11
22.1949418669
 21
78.4953744472
  0
LINE
  5
22E
100
AcDbEntity
  8
0
100
AcDbLine
 62
7
  6
BYLAYER
 10
17.7484784004
 20
73.1508091288
 11
17.8480953219
 21
20.8428287953
  0
LINE
  5
22F
100
AcDbEntity
  8
0
100
AcDbLine
 62
7
  6
BYLAYER
 10
18.3276283925
 20
21.1541445842
 11
18.3276283973
 21
72.7747963522
  0
LINE
  5
230
100
AcDbEntity
  8
0
100
AcDbLine
 62
7
  6
BYLAYER
 10
22.0650713176
 20
78.1818392059
 11
22.0207748918
 21
77.8453744472
  0
LINE
  5
231
100
AcDbEntity
  8
0
100
AcDbLine
 62
7
  6
BYLAYER
 10
50.3207748918
 20
81.0489642857
 11
51.3207748918
 21
81.6263145549
  0
LINE
  5
232
100
AcDbEntity
  8
0
100
AcDbLine
 62
7
  6
BYLAYER
 10
57.8097782595
 20
19.8441015889
 11
57.3317256737
 21
20.1544496296
  0
LINE
  5
233
100
AcDbEntity
  8
0
100
AcDbLine
 62
7
  6
BYLAYER
 10
58.3139213911
 20
21.1541445829
 11
58.7934544617
 21
20.8428287953
  0
LINE
  5
234
100
AcDbEntity
  8
0
100
AcDbLine
 62
7
  6
BYLAYER
 10
43.5207748918
 20
9.6989642857
 11
43.3207748918
 21
10.0453744472
  0
LINE
  5
235
100
AcDbEntity
  8
0
100
AcDbLine
 62
7
  6
BYLAYER
 10
22.0207748918
 20
77.8453744472
 11
22.0207748918
 21
73.7783650388
  0
LINE
  5
236
100
AcDbEntity
  8
0
100
AcDbLine
 62
7
  6
BYLAYER
 10
23.3207748918
 20
80.0548867373
 11
23.3207748918
 21
80.0989642857
  0
LINE
  5
237
100
AcDbEntity
  8
0
100
AcDbLine
 62
7
  6
BYLAYER
 10
33.1207748918
 20
8.9989642857
 11
33.3205946095
 21
7.9989642857
  0
LINE
  5
238
100
AcDbEntity
  8
0
100
AcDbLine
 62
7
  6
BYLAYER
 10
25.3207748918
 20
86.1829388819
 11
25.3207748918
 21
81.6263145549
  0
LINE
  5
239
100
AcDbEntity
  8
0
100
AcDbLine
 62
7
  6
BYLAYER
 10
25.4284700464
 20
81.6263145549
 11
25.4284700464
 21
86.1829388819
  0
LINE
  5
23A
100
AcDbEntity
  8
0
100
AcDbLine
 62
7
  6
BYLAYER
 10
26.3207748918
 20
81.0489642857
 11
26.3207748918
 21
80.0989642857
  0
LINE
  5
23B
100
AcDbEntity
  8
0
100
AcDbLine
 62
7
  6
BYLAYER
 10
26.8207748918
 20
100.0489642857
 11
26.8207748918
 21
87.0489642857
  0
LINE
  5
23C
100
AcDbEntity
  8
0
100
AcDbLine
 62
7
  6
BYLAYER
 10
30.3266804229
 20
19.6585150205
 11
30.3266804229
 21
19.2989642857
  0
LINE
  5
23D
100
AcDbEntity
  8
0
100
AcDbLine
 62
7
  6
BYLAYER
 10
30.4284700464
 20
86.1829388819
 11
30.4284700464
 21
81.6263145549
  0
LINE
  5
23E
100
AcDbEntity
  8
0
100
AcDbLine
 62
7
  6
BYLAYER
 10
58.3465301986
 20
45.1189793688
 11
58.3400998128
 21
45.1189793688
  0
LINE
  5
23F
100
AcDbEntity
  8
0
100
AcDbLine
 62
7
  6
BYLAYER
 10
32.3207748918
 20
17.9989642857
 11
32.3207748918
 21
12.1989642857
  0
LINE
  5
240
100
AcDbEntity
  8
0
100
AcDbLine
 62
7
  6
BYLAYER
 10
33.1207748918
 20
9.6989642857
 11
33.1207748918
 21
8.9989642857
  0
LINE
  5
241
100
AcDbEntity
  8
0
100
AcDbLine
 62
7
  6
BYLAYER
 10
33.3207748918
 20
11.1989642857
 11
33.3207748918
 21
10.0453744472
  0
LINE
  5
242
100
AcDbEntity
  8
0
100
AcDbLine
 62
7
  6
BYLAYER
 10
33.3207748918
 20
81.6263145549
 11
33.3207748918
 21
86.1829388819
  0
LINE
  5
243
100
AcDbEntity
  8
0
100
AcDbLine
 62
7
  6
BYLAYER
 10
30.3267023868
 20
19.6588541072
 11
30.3266804229
 21
19.6585150205
  0
LINE
  5
244
100
AcDbEntity
  8
0
100
AcDbLine
 62
7
  6
BYLAYER
 10
57.3316718238
 20
73.7744919102
 11
57.9120158839
 21
74.1512672952
  0
LINE
  5
245
100
AcDbEntity
  8
0
100
AcDbLine
 62
7
  6
BYLAYER
 10
58.8930713832
 20
73.1508091288
 11
58.3139213862
 21
72.7747963537
  0
LINE
  5
246
100
AcDbEntity
  8
0
100
AcDbLine
 62
7
  6
BYLAYER
 10
38.3207946511
 20
20.145204965
 11
38.3208012713
 21
19.957924845
  0
LINE
  5
247
100
AcDbEntity
  8
0
100
AcDbLine
 62
7
  6
BYLAYER
 10
46.3148693607
 20
19.6416916624
 11
46.3148662805
 21
19.6418016772
  0
LINE
  5
248
100
AcDbEntity
  8
0
100
AcDbLine
 62
7
  6
BYLAYER
 10
43.3207748918
 20
86.1829388819
 11
43.3207748918
 21
81.6263145549
  0
LINE
  5
249
100
AcDbEntity
  8
0
100
AcDbLine
 62
7
  6
BYLAYER
 10
43.3207748918
 20
11.1989642857
 11
43.3207748918
 21
10.0453744472
  0
LINE
  5
24A
100
AcDbEntity
  8
0
100
AcDbLine
 62
7
  6
BYLAYER
 10
43.5207748918
 20
9.6989642857
 11
43.5207748918
 21
8.9989642857
  0
LINE
  5
24B
100
AcDbEntity
  8
0
100
AcDbLine
 62
7
  6
BYLAYER
 10
44.3207748918
 20
17.9989642857
 11
44.3207748918
 21
12.1989642857
  0
LINE
  5
24C
100
AcDbEntity
  8
0
100
AcDbLine
 62
7
  6
BYLAYER
 10
58.3465055301
 20
61.1189793688
 11
58.3400983411
 21
61.1189793688
  0
LINE
  5
24D
100
AcDbEntity
  8
0
100
AcDbLine
 62
7
  6
BYLAYER
 10
18.3276283973
 20
72.7747963522
 11
17.7484784004
 21
73.1508091288
  0
LINE
  5
24E
100
AcDbEntity
  8
0
100
AcDbLine
 62
7
  6
BYLAYER
 10
18.7295338997
 20
74.1512672952
 11
19.3098776894
 21
73.7744919055
  0
LINE
  5
24F
100
AcDbEntity
  8
0
100
AcDbLine
 62
7
  6
BYLAYER
 10
46.2130797372
 20
81.6263145549
 11
46.2130797372
 21
86.1829388819
  0
LINE
  5
250
100
AcDbEntity
  8
0
100
AcDbLine
 62
7
  6
BYLAYER
 10
46.3148693607
 20
19.6416903887
 11
46.3148693607
 21
19.2989642857
  0
LINE
  5
251
100
AcDbEntity
  8
0
100
AcDbLine
 62
7
  6
BYLAYER
 10
49.8207748918
 20
100.0489642857
 11
49.8207748918
 21
87.0489642857
  0
LINE
  5
252
100
AcDbEntity
  8
0
100
AcDbLine
 62
7
  6
BYLAYER
 10
50.3207748918
 20
81.0489642857
 11
50.3207748918
 21
80.0989642857
  0
LINE
  5
253
100
AcDbEntity
  8
0
100
AcDbLine
 62
7
  6
BYLAYER
 10
51.2130797372
 20
86.1829388819
 11
51.2130797372
 21
81.6263145549
  0
LINE
  5
254
100
AcDbEntity
  8
0
100
AcDbLine
 62
7
  6
BYLAYER
 10
51.3207748918
 20
86.1829388819
 11
51.3207748918
 21
81.6263145549
  0
LINE
  5
255
100
AcDbEntity
  8
0
100
AcDbLine
 62
7
  6
BYLAYER
 10
53.3207748918
 20
80.0548867373
 11
53.3207748918
 21
80.0989642857
  0
LINE
  5
256
100
AcDbEntity
  8
0
100
AcDbLine
 62
7
  6
BYLAYER
 10
54.6207748918
 20
77.8453744472
 11
54.6207748918
 21
73.778364286
  0
LINE
  5
257
100
AcDbEntity
  8
0
100
AcDbLine
 62
7
  6
BYLAYER
 10
43.5207748918
 20
8.9989642857
 11
43.3209551741
 21
7.9989642857
  0
LWPOLYLINE
  5
258
100
AcDbEntity
  8
0
100
AcDbPolyline
 62
7
  6
BYLAYER
 90
4
 70
0
 10
46.3153130983
 20
19.6418175358
 10
46.3477616753
 20
19.7938867133
 10
46.4839791491
 20
19.925319998
 10
46.5204531877
 20
19.9384694349
  0
LINE
  5
259
100
AcDbEntity
  8
0
100
AcDbLine
 62
7
  6
BYLAYER
 10
17.8480953219
 20
20.8428287953
 11
18.3276283925
 21
21.1541445842
  0
LINE
  5
25A
100
AcDbEntity
  8
0
100
AcDbLine
 62
7
  6
BYLAYER
 10
58.3493415009
 20
71.2489642857
 11
58.726116955
 21
71.2489642857
  0
LINE
  5
25B
100
AcDbEntity
  8
0
100
AcDbLine
 62
7
  6
BYLAYER
 10
58.7327525642
 20
71.4989642857
 11
58.3662752879
 21
71.4989642857
  0
LINE
  5
25C
100
AcDbEntity
  8
0
100
AcDbLine
 62
7
  6
BYLAYER
 10
26.3207748918
 20
81.0489642857
 11
25.3207748918
 21
81.6263145549
  0
LINE
  5
25D
100
AcDbEntity
  8
0
100
AcDbLine
 62
7
  6
BYLAYER
 10
58.3139213862
 20
72.7747963537
 11
58.3139213911
 21
21.1541445829
  0
LINE
  5
25E
100
AcDbEntity
  8
0
100
AcDbLine
 62
7
  6
BYLAYER
 10
58.3400983396
 20
70.4989642857
 11
58.3400998128
 21
61.1189793688
  0
LINE
  5
25F
100
AcDbEntity
  8
0
100
AcDbLine
 62
7
  6
BYLAYER
 10
58.3400998128
 20
45.1189793688
 11
58.3400983396
 21
23.4989642857
  0
LINE
  5
260
100
AcDbEntity
  8
0
100
AcDbLine
 62
7
  6
BYLAYER
 10
58.3465301986
 20
61.1189793688
 11
58.3465512045
 21
70.2489642857
  0
LINE
  5
261
100
AcDbEntity
  8
0
100
AcDbLine
 62
7
  6
BYLAYER
 10
58.3465512045
 20
23.7489642857
 11
58.3465301986
 21
45.1189793688
  0
LINE
  5
262
100
AcDbEntity
  8
0
100
AcDbLine
 62
7
  6
BYLAYER
 10
58.7522939033
 20
70.2489642857
 11
58.7522939033
 21
23.7489642857
  0
LINE
  5
263
100
AcDbEntity
  8
0
100
AcDbLine
 62
7
  6
BYLAYER
 10
58.7589295125
 20
23.4989642857
 11
58.7589295125
 21
70.4989642857
  0
LINE
  5
264
100
AcDbEntity
  8
0
100
AcDbLine
 62
7
  6
BYLAYER
 10
58.7934544617
 20
20.8428287953
 11
58.8930713832
 21
73.1508091288
  0
LINE
  5
265
100
AcDbEntity
  8
0
100
AcDbLine
 62
7
  6
BYLAYER
 10
33.1207748918
 20
9.6989642857
 11
33.3207748918
 21
10.0453744472
  0
LINE
  5
266
100
AcDbEntity
  8
0
100
AcDbLine
 62
7
  6
BYLAYER
 10
19.3098242154
 20
20.1544496273
 11
18.831771524
 21
19.8441015889
  0
LINE
  5
267
100
AcDbEntity
  8
0
100
AcDbLine
 62
7
  6
BYLAYER
 10
22.0207748918
 20
74.2087161204
 11
18.7295338997
 21
74.1512672952
  0
LWPOLYLINE
  5
268
100
AcDbEntity
  8
0
100
AcDbPolyline
 62
7
  6
BYLAYER
 90
3
 70
0
 10
53.6639880376
 20
73.6525867015
 10
56.2702949949
 20
73.6920348997
 10
57.3316718238
 20
73.7744919102
  0
LINE
  5
269
100
AcDbEntity
  8
0
100
AcDbLine
 62
7
  6
BYLAYER
 10
53.6632860819
 20
73.6989642857
 11
43.8032453739
 21
73.6989642857
  0
LINE
  5
26A
100
AcDbEntity
  8
0
100
AcDbLine
 62
7
  6
BYLAYER
 10
32.8375528109
 20
73.6989642857
 11
22.9782637017
 21
73.6989642857
  0
LINE
  5
26B
100
AcDbEntity
  8
0
100
AcDbLine
 62
7
  6
BYLAYER
 10
20.3712922711
 20
73.6920336517
 11
22.9775617831
 21
73.6525874612
  0
LINE
  5
26C
100
AcDbEntity
  8
0
100
AcDbLine
 62
7
  6
BYLAYER
 10
57.9120158839
 20
74.1512672952
 11
54.6207748918
 21
74.2087161204
  0
LINE
  5
26D
100
AcDbEntity
  8
0
100
AcDbLine
 62
7
  6
BYLAYER
 10
19.3098776894
 20
73.7744919055
 11
20.3712922711
 21
73.6920336517
  0
LINE
  5
26E
100
AcDbEntity
  8
0
100
AcDbLine
 62
7
  6
BYLAYER
 10
54.5764784659
 20
78.1818392059
 11
54.6207748918
 21
77.8453744472
  0
LINE
  5
26F
100
AcDbEntity
  8
0
100
AcDbLine
 62
7
  6
BYLAYER
 10
22.0207748918
 20
77.8453744472
 11
54.6207748918
 21
77.8453744472
  0
LINE
  5
270
100
AcDbEntity
  8
0
100
AcDbLine
 62
7
  6
BYLAYER
 10
58.8930713832
 20
73.1508091288
 11
58.8931733811
 21
73.1502119689
  0
LINE
  5
271
100
AcDbEntity
  8
0
100
AcDbLine
 62
7
  6
BYLAYER
 10
54.4466079167
 20
78.4953744472
 11
22.1949418669
 21
78.4953744472
  0
LINE
  5
272
100
AcDbEntity
  8
0
100
AcDbLine
 62
7
  6
BYLAYER
 10
22.8898347841
 20
79.6989642857
 11
53.7517149995
 21
79.6989642857
  0
LINE
  5
273
100
AcDbEntity
  8
0
100
AcDbLine
 62
7
  6
BYLAYER
 10
53.3207748918
 20
80.0548867373
 11
23.3207748918
 21
80.0548867373
  0
LINE
  5
274
100
AcDbEntity
  8
0
100
AcDbLine
 62
7
  6
BYLAYER
 10
23.3207748918
 20
80.0989642857
 11
53.3207748918
 21
80.0989642857
  0
LINE
  5
275
100
AcDbEntity
  8
0
100
AcDbLine
 62
7
  6
BYLAYER
 10
26.3207748918
 20
81.0489642857
 11
50.3207748918
 21
81.0489642857
  0
LINE
  5
276
100
AcDbEntity
  8
0
100
AcDbLine
 62
7
  6
BYLAYER
 10
51.3207748918
 20
81.6263145549
 11
51.2130797372
 21
81.6263145549
  0
LINE
  5
277
100
AcDbEntity
  8
0
100
AcDbLine
 62
7
  6
BYLAYER
 10
46.2130797372
 20
81.6263145549
 11
43.3207748918
 21
81.6263145549
  0
LINE
  5
278
100
AcDbEntity
  8
0
100
AcDbLine
 62
7
  6
BYLAYER
 10
33.3207748918
 20
81.6263145549
 11
30.4284700464
 21
81.6263145549
  0
LINE
  5
279
100
AcDbEntity
  8
0
100
AcDbLine
 62
7
  6
BYLAYER
 10
25.4284700464
 20
81.6263145549
 11
25.3207748918
 21
81.6263145549
  0
LINE
  5
27A
100
AcDbEntity
  8
0
100
AcDbLine
 62
7
  6
BYLAYER
 10
53.7517149995
 20
79.6989642857
 11
54.4466079167
 21
78.4953744472
  0
LINE
  5
27B
100
AcDbEntity
  8
0
100
AcDbLine
 62
7
  6
BYLAYER
 10
54.4466079167
 20
78.4953744472
 11
54.5764784659
 21
78.1818392059
  0
LINE
  5
27C
100
AcDbEntity
  8
0
100
AcDbLine
 62
7
  6
BYLAYER
 10
53.3207748918
 20
80.0548867373
 11
53.7517149995
 21
79.6989642857
  0
LINE
  5
27D
100
AcDbEntity
  8
0
100
AcDbLine
 62
7
  6
BYLAYER
 10
44.3207748918
 20
12.1989642857
 11
43.3207748918
 21
11.1989642857
  0
LINE
  5
27E
100
AcDbEntity
  8
0
100
AcDbLine
 62
7
  6
BYLAYER
 10
25.3207748918
 20
86.1829388819
 11
25.4284700464
 21
86.1829388819
  0
LINE
  5
27F
100
AcDbEntity
  8
0
100
AcDbLine
 62
7
  6
BYLAYER
 10
30.4284700464
 20
86.1829388819
 11
33.3207748918
 21
86.1829388819
  0
LINE
  5
280
100
AcDbEntity
  8
0
100
AcDbLine
 62
7
  6
BYLAYER
 10
43.3207748918
 20
86.1829388819
 11
46.2130797372
 21
86.1829388819
  0
LINE
  5
281
100
AcDbEntity
  8
0
100
AcDbLine
 62
7
  6
BYLAYER
 10
51.2130797372
 20
86.1829388819
 11
51.3207748918
 21
86.1829388819
  0
LINE
  5
282
100
AcDbEntity
  8
0
100
AcDbLine
 62
7
  6
BYLAYER
 10
49.8207748918
 20
87.0489642857
 11
26.8207748918
 21
87.0489642857
  0
LINE
  5
283
100
AcDbEntity
  8
0
100
AcDbLine
 62
7
  6
BYLAYER
 10
49.8207748918
 20
87.0489642857
 11
51.3207748918
 21
86.1829388819
  0
LINE
  5
284
100
AcDbEntity
  8
0
100
AcDbLine
 62
7
  6
BYLAYER
 10
49.3207748918
 20
100.5489642857
 11
49.8207748918
 21
100.0489642857
  0
LINE
  5
285
100
AcDbEntity
  8
0
100
AcDbLine
 62
7
  6
BYLAYER
 10
26.8207748918
 20
100.0489642857
 11
49.8207748918
 21
100.0489642857
  0
LINE
  5
286
100
AcDbEntity
  8
0
100
AcDbLine
 62
7
  6
BYLAYER
 10
27.3210615489
 20
100.5489642857
 11
49.3204882346
 21
100.5489642857
  0
ARC
  5
287
100
AcDbEntity
  8
0
100
AcDbCircle
 62
7
  6
BYLAYER
 10
24.2125653888
 20
862.9818045175
 40
789.3299651556
100
AcDbArc
 50
270.6260886439
 51
271.0241801453
  0
ARC
  5
288
100
AcDbEntity
  8
0
100
AcDbCircle
 62
7
  6
BYLAYER
 10
52.141953046
 20
843.0694430017
 40
769.4156372388
100
AcDbArc
 50
268.9707700751
 51
269.3792322968
  0
ARC
  5
289
100
AcDbEntity
  8
0
100
AcDbCircle
 62
7
  6
BYLAYER
 10
46.0171766753
 20
-418.8527050611
 40
438.8781187448
100
AcDbArc
 50
90.4917384045
 51
91.0048175433
  0
ARC
  5
28A
100
AcDbEntity
  8
0
100
AcDbCircle
 62
7
  6
BYLAYER
 10
49.1445521449
 20
70.9716028235
 40
9.4096005382
100
AcDbArc
 50
1.7330033535
 51
2.0468996687
  0
ARC
  5
28B
100
AcDbEntity
  8
0
100
AcDbCircle
 62
7
  6
BYLAYER
 10
44.3304038737
 20
77.2084535366
 40
4.5094679514
100
AcDbArc
 50
265.7667964402
 51
269.3570503155
  0
ARC
  5
28C
100
AcDbEntity
  8
0
100
AcDbCircle
 62
7
  6
BYLAYER
 10
32.3129269128
 20
77.1667168138
 40
4.4677132851
100
AcDbArc
 50
270.6242651979
 51
274.2499356808
  0
CIRCLE
  5
28D
100
AcDbEntity
  8
0
100
AcDbCircle
 62
7
  6
BYLAYER
 10
38.3207748918
 20
26.7989642857
 40
2.5
  0
ARC
  5
28E
100
AcDbEntity
  8
0
100
AcDbCircle
 62
7
  6
BYLAYER
 10
18.8488387453
 20
20.8447420446
 40
1.0007707763
100
AcDbArc
 50
180.1095395425
 51
269.0228320185
  0
ARC
  5
28F
100
AcDbEntity
  8
0
100
AcDbCircle
 62
7
  6
BYLAYER
 10
57.792711362
 20
20.844742361
 40
1.0007707712
100
AcDbArc
 50
270.9771492952
 51
359.8904423073
  0
ARC
  5
290
100
AcDbEntity
  8
0
100
AcDbCircle
 62
7
  6
BYLAYER
 10
19.3279832911
 20
21.154627188
 40
1.0003541976
100
AcDbArc
 50
180.0276271145
 51
268.9592562537
  0
ARC
  5
291
100
AcDbEntity
  8
0
100
AcDbCircle
 62
7
  6
BYLAYER
 10
57.3135666142
 20
21.1546270609
 40
1.0003540768
100
AcDbArc
 50
271.0407370565
 51
359.9723801615
  0
ARC
  5
292
100
AcDbEntity
  8
0
100
AcDbCircle
 62
7
  6
BYLAYER
 10
57.3135697107
 20
72.774316736
 40
1.0003510107
100
AcDbArc
 50
0.0274361846
 51
88.9619837211
  0
ARC
  5
293
100
AcDbEntity
  8
0
100
AcDbCircle
 62
7
  6
BYLAYER
 10
19.3279800905
 20
72.7743169936
 40
1.0003508905
100
AcDbArc
 50
91.038017571
 51
179.9725785677
  0
ARC
  5
294
100
AcDbEntity
  8
0
100
AcDbCircle
 62
7
  6
BYLAYER
 10
31.3207748918
 20
17.9989642857
 40
1.0
100
AcDbArc
 50
0.0
 51
90.0
  0
ARC
  5
295
100
AcDbEntity
  8
0
100
AcDbCircle
 62
7
  6
BYLAYER
 10
45.3207748918
 20
17.9989642857
 40
1.0
100
AcDbArc
 50
90.0
 51
180.0
  0
ARC
  5
296
100
AcDbEntity
  8
0
100
AcDbCircle
 62
7
  6
BYLAYER
 10
18.7473585821
 20
73.1525899568
 40
0.998861628
100
AcDbArc
 50
91.0225228859
 51
180.1021482064
  0
ARC
  5
297
100
AcDbEntity
  8
0
100
AcDbCircle
 62
7
  6
BYLAYER
 10
57.8943473254
 20
73.1525732259
 40
0.9988503501
100
AcDbArc
 50
359.939112799
 51
88.9864483668
  0
ARC
  5
298
100
AcDbEntity
  8
0
100
AcDbCircle
 62
7
  6
BYLAYER
 10
46.0148693607
 20
19.2989642857
 40
0.3
100
AcDbArc
 50
270.0
 51
360.0
  0
ARC
  5
299
100
AcDbEntity
  8
0
100
AcDbCircle
 62
7
  6
BYLAYER
 10
30.6266804229
 20
19.2989642857
 40
0.3
100
AcDbArc
 50
180.0
 51
270.0
  0
SPLINE
  5
29A
100
AcDbEntity
  8
0
100
AcDbSpline
 62
7
  6
BYLAYER
 70
0
 71
3
 72
21
 73
17
 74
0
 42
0.0000001
 43
0.0000001
 44
0.0000000001
 40
0.0
 40
0.0
 40
0.0
 40
0.0
 40
0.1946459084
 40
0.3821841758
 40
0.5547993149
 40
0.7061001728
 40
0.771955031
 40
0.8303735229
 40
0.8807847014
 40
0.9227557296
 40
0.955866897
 40
0.9797880967
 40
0.9882609628
 40
0.9944019967
 40
0.9982393833
 40
1.0
 40
1.0
 40
1.0
 40
1.0
 10
58.7522482289
 20
70.2489642857
 30
0.0
 10
58.7522482289
 20
70.3139405035
 30
0.0
 10
58.7519227877
 20
70.4415205063
 30
0.0
 10
58.7504866082
 20
70.626717661
 30
0.0
 10
58.7481527402
 20
70.7974350005
 30
0.0
 10
58.7454453867
 20
70.9275213557
 30
0.0
 10
58.742820882
 20
71.0194752585
 30
0.0
 10
58.7407921462
 20
71.0777546819
 30
0.0
 10
58.7386346884
 20
71.1280445977
 30
0.0
 10
58.7363745893
 20
71.1698893374
 30
0.0
 10
58.7340641892
 20
71.2028264243
 30
0.0
 10
58.7319215861
 20
71.2246629665
 30
0.0
 10
58.7301323703
 20
71.2373114538
 30
0.0
 10
58.7288347203
 20
71.243500907
 30
0.0
 10
58.7278809857
 20
71.246988071
 30
0.0
 10
58.7266590053
 20
71.2489642857
 30
0.0
 10
58.7260712806
 20
71.2489642857
 30
0.0
  0
SPLINE
  5
29B
100
AcDbEntity
  8
0
100
AcDbSpline
 62
7
  6
BYLAYER
 70
0
 71
3
 72
21
 73
17
 74
0
 42
0.0000001
 43
0.0000001
 44
0.0000000001
 40
0.0
 40
0.0
 40
0.0
 40
0.0
 40
0.0017606207
 40
0.0055980212
 40
0.0117390752
 40
0.0202119641
 40
0.0441332039
 40
0.077244414
 40
0.1192155168
 40
0.1696267546
 40
0.2280452675
 40
0.2939001747
 40
0.4452010943
 40
0.6178161756
 40
0.8053542032
 40
1.0
 40
1.0
 40
1.0
 40
1.0
 10
58.7260712806
 20
22.7489642857
 30
0.0
 10
58.7266590067
 20
22.7489642857
 30
0.0
 10
58.727880986
 20
22.7509405123
 30
0.0
 10
58.7288347211
 20
22.7544276854
 30
0.0
 10
58.7301323717
 20
22.7606171598
 30
0.0
 10
58.7319215887
 20
22.7732656737
 30
0.0
 10
58.7340641957
 20
22.7951022516
 30
0.0
 10
58.7363746
 20
22.8280393905
 30
0.0
 10
58.7386346982
 20
22.8698841893
 30
0.0
 10
58.7407921561
 20
22.9201741566
 30
0.0
 10
58.7428208932
 20
22.978453623
 30
0.0
 10
58.7454453942
 20
23.0704075697
 30
0.0
 10
58.7481527472
 20
23.2004939422
 30
0.0
 10
58.7504866103
 20
23.3712112026
 30
0.0
 10
58.7519227903
 20
23.5564082202
 30
0.0
 10
58.7522482289
 20
23.6839881053
 30
0.0
 10
58.7522482289
 20
23.7489642857
 30
0.0
  0
SPLINE
  5
29C
100
AcDbEntity
  8
0
100
AcDbSpline
 62
7
  6
BYLAYER
 70
0
 71
3
 72
17
 73
13
 74
0
 42
0.0000001
 43
0.0000001
 44
0.0000000001
 40
0.0
 40
0.0
 40
0.0
 40
0.0
 40
0.0063830641
 40
0.0198809119
 40
0.0412891676
 40
0.0706494917
 40
0.152873211
 40
0.265629516
 40
0.4078406509
 40
0.5783925436
 40
0.7761571573
 40
1.0
 40
1.0
 40
1.0
 40
1.0
 10
58.3662752879
 20
22.4989642857
 30
0.0
 10
58.3657569114
 20
22.4989642857
 30
0.0
 10
58.3646431204
 20
22.5006053305
 30
0.0
 10
58.3637723411
 20
22.5036062096
 30
0.0
 10
58.3625993235
 20
22.5088182269
 30
0.0
 10
58.360981842
 20
22.5194317133
 30
0.0
 10
58.3590393035
 20
22.5376022755
 30
0.0
 10
58.3569196857
 20
22.5648818039
 30
0.0
 10
58.3548298398
 20
22.599385692
 30
0.0
 10
58.3528137029
 20
22.6407947087
 30
0.0
 10
58.3508906386
 20
22.6888477679
 30
0.0
 10
58.3497538838
 20
22.7230681221
 30
0.0
 10
58.3491980064
 20
22.7412381747
 30
0.0
  0
SPLINE
  5
29D
100
AcDbEntity
  8
0
100
AcDbSpline
 62
7
  6
BYLAYER
 70
0
 71
3
 72
9
 73
5
 74
0
 42
0.0000001
 43
0.0000001
 44
0.0000000001
 40
0.0
 40
0.0
 40
0.0
 40
0.0
 40
0.449960722
 40
1.0
 40
1.0
 40
1.0
 40
1.0
 10
58.3491980064
 20
22.7412381747
 30
0.0
 10
58.3457224299
 20
22.8548449004
 30
0.0
 10
58.341536286
 20
23.1074273136
 30
0.0
 10
58.3400983396
 20
23.3600246096
 30
0.0
 10
58.3400983396
 20
23.4989642857
 30
0.0
  0
SPLINE
  5
29E
100
AcDbEntity
  8
0
100
AcDbSpline
 62
7
  6
BYLAYER
 70
0
 71
3
 72
9
 73
5
 74
0
 42
0.0000001
 43
0.0000001
 44
0.0000000001
 40
0.0
 40
0.0
 40
0.0
 40
0.0
 40
0.5613581154
 40
1.0
 40
1.0
 40
1.0
 40
1.0
 10
58.3400983396
 20
70.4989642857
 30
0.0
 10
58.3400983396
 20
70.6502463906
 30
0.0
 10
58.3417907968
 20
70.9197332785
 30
0.0
 10
58.3465950116
 20
71.189213071
 30
0.0
 10
58.3508856806
 20
71.3073461116
 30
0.0
  0
SPLINE
  5
29F
100
AcDbEntity
  8
0
100
AcDbSpline
 62
7
  6
BYLAYER
 70
0
 71
3
 72
16
 73
12
 74
0
 42
0.0000001
 43
0.0000001
 44
0.0000000001
 40
0.0
 40
0.0
 40
0.0
 40
0.0
 40
0.224757209
 40
0.4228572153
 40
0.5933131595
 40
0.735146393
 40
0.8473959235
 40
0.9291464796
 40
0.9796472275
 40
0.9932226059
 40
1.0
 40
1.0
 40
1.0
 40
1.0
 10
58.3508856806
 20
71.3073461116
 30
0.0
 10
58.3514103973
 20
71.3217928984
 30
0.0
 10
58.352473905
 20
71.3489709639
 30
0.0
 10
58.3542443175
 20
71.3870896827
 30
0.0
 10
58.3560824707
 20
71.4198737213
 30
0.0
 10
58.3579541277
 20
71.4470973645
 30
0.0
 10
58.3598796333
 20
71.4686654981
 30
0.0
 10
58.3617054185
 20
71.4841685149
 30
0.0
 10
58.3634958153
 20
71.4936070675
 30
0.0
 10
58.3648511336
 20
71.4977447048
 30
0.0
 10
58.3658393681
 20
71.4989642857
 30
0.0
 10
58.3662752879
 20
71.4989642857
 30
0.0
  0
SPLINE
  5
2A0
100
AcDbEntity
  8
0
100
AcDbSpline
 62
7
  6
BYLAYER
 70
0
 71
3
 72
17
 73
13
 74
0
 42
0.0000001
 43
0.0000001
 44
0.0000000001
 40
0.0
 40
0.0
 40
0.0
 40
0.0
 40
0.0150244835
 40
0.0347135839
 40
0.0551532036
 40
0.0852847877
 40
0.1306579796
 40
0.198156105
 40
0.4050518311
 40
0.5417623807
 40
0.6906099776
 40
1.0
 40
1.0
 40
1.0
 40
1.0
 10
30.1347523565
 20
19.9408143576
 30
0.0
 10
30.1328883442
 20
19.9411525876
 30
0.0
 10
30.1252186367
 20
19.9428098961
 30
0.0
 10
30.1378180676
 20
19.9395206728
 30
0.0
 10
30.1442527887
 20
19.9371381193
 30
0.0
 10
30.1564632369
 20
19.9327650341
 30
0.0
 10
30.1723800764
 20
19.9251404676
 30
0.0
 10
30.2079428892
 20
19.9055550409
 30
0.0
 10
30.2482447728
 20
19.8718739983
 30
0.0
 10
30.285804756
 20
19.8220690146
 30
0.0
 10
30.3211651793
 20
19.755684436
 30
0.0
 10
30.3323867053
 20
19.6965412399
 30
0.0
 10
30.3306587627
 20
19.657568271
 30
0.0
  0
SPLINE
  5
2A1
100
AcDbEntity
  8
0
100
AcDbSpline
 62
7
  6
BYLAYER
 70
0
 71
3
 72
10
 73
6
 74
0
 42
0.0000001
 43
0.0000001
 44
0.0000000001
 40
0.0
 40
0.0
 40
0.0
 40
0.0
 40
0.244434715
 40
0.4914491423
 40
1.0
 40
1.0
 40
1.0
 40
1.0
 10
27.9284700464
 20
81.0489642857
 30
0.0
 10
27.7180680182
 20
81.0489642857
 30
0.0
 10
27.2945881307
 20
81.0752763147
 30
0.0
 10
26.4462309046
 20
81.229334777
 30
0.0
 10
25.8285355102
 20
81.4486392447
 30
0.0
 10
25.4284700464
 20
81.6263145549
 30
0.0
  0
SPLINE
  5
2A2
100
AcDbEntity
  8
0
100
AcDbSpline
 62
7
  6
BYLAYER
 70
0
 71
3
 72
9
 73
5
 74
0
 42
0.0000001
 43
0.0000001
 44
0.0000000001
 40
0.0
 40
0.0
 40
0.0
 40
0.0
 40
0.4999721703
 40
1.0
 40
1.0
 40
1.0
 40
1.0
 10
38.3207748918
 20
81.0489642857
 30
0.0
 10
37.4806829812
 20
81.0489642857
 30
0.0
 10
35.7990521539
 20
81.1536583095
 30
0.0
 10
34.1409815895
 20
81.4441812635
 30
0.0
 10
33.3207748918
 20
81.6263145549
 30
0.0
  0
SPLINE
  5
2A3
100
AcDbEntity
  8
0
100
AcDbSpline
 62
7
  6
BYLAYER
 70
0
 71
3
 72
10
 73
6
 74
0
 42
0.0000001
 43
0.0000001
 44
0.0000000001
 40
0.0
 40
0.0
 40
0.0
 40
0.0
 40
0.5085633139
 40
0.7555702933
 40
1.0
 40
1.0
 40
1.0
 40
1.0
 10
30.4284700464
 20
81.6263145549
 30
0.0
 10
30.0283878877
 20
81.4486318303
 30
0.0
 10
29.410764052
 20
81.2290685902
 30
0.0
 10
28.5623511951
 20
81.0751316613
 30
0.0
 10
28.13887139
 20
81.0489642857
 30
0.0
 10
27.9284700464
 20
81.0489642857
 30
0.0
  0
SPLINE
  5
2A4
100
AcDbEntity
  8
0
100
AcDbSpline
 62
7
  6
BYLAYER
 70
0
 71
3
 72
10
 73
6
 74
0
 42
0.0000001
 43
0.0000001
 44
0.0000000001
 40
0.0
 40
0.0
 40
0.0
 40
0.0
 40
0.244434715
 40
0.4914491423
 40
1.0
 40
1.0
 40
1.0
 40
1.0
 10
48.7130797372
 20
81.0489642857
 30
0.0
 10
48.502677709
 20
81.0489642857
 30
0.0
 10
48.0791978216
 20
81.0752763147
 30
0.0
 10
47.2308405954
 20
81.229334777
 30
0.0
 10
46.613145201
 20
81.4486392447
 30
0.0
 10
46.2130797372
 20
81.6263145549
 30
0.0
  0
SPLINE
  5
2A5
100
AcDbEntity
  8
0
100
AcDbSpline
 62
7
  6
BYLAYER
 70
0
 71
3
 72
9
 73
5
 74
0
 42
0.0000001
 43
0.0000001
 44
0.0000000001
 40
0.0
 40
0.0
 40
0.0
 40
0.0
 40
0.500028196
 40
1.0
 40
1.0
 40
1.0
 40
1.0
 10
43.3207748918
 20
81.6263145549
 30
0.0
 10
42.5005628014
 20
81.444180066
 30
0.0
 10
40.8425583906
 20
81.1531266673
 30
0.0
 10
39.1608710945
 20
81.0489642857
 30
0.0
 10
38.3207748918
 20
81.0489642857
 30
0.0
  0
SPLINE
  5
2A6
100
AcDbEntity
  8
0
100
AcDbSpline
 62
7
  6
BYLAYER
 70
0
 71
3
 72
10
 73
6
 74
0
 42
0.0000001
 43
0.0000001
 44
0.0000000001
 40
0.0
 40
0.0
 40
0.0
 40
0.0
 40
0.5085633139
 40
0.7555702933
 40
1.0
 40
1.0
 40
1.0
 40
1.0
 10
51.2130797372
 20
81.6263145549
 30
0.0
 10
50.8129975785
 20
81.4486318303
 30
0.0
 10
50.1953737428
 20
81.2290685902
 30
0.0
 10
49.346960886
 20
81.0751316613
 30
0.0
 10
48.9234810808
 20
81.0489642857
 30
0.0
 10
48.7130797372
 20
81.0489642857
 30
0.0
  0
SPLINE
  5
2A7
100
AcDbEntity
  8
0
100
AcDbSpline
 62
7
  6
BYLAYER
 70
0
 71
3
 72
16
 73
12
 74
0
 42
0.0000001
 43
0.0000001
 44
0.0000000001
 40
0.0
 40
0.0
 40
0.0
 40
0.0
 40
0.2310035515
 40
0.432670729
 40
0.6040651552
 40
0.7445377717
 40
0.8538915136
 40
0.9320720445
 40
0.9796642782
 40
0.9926624969
 40
1.0
 40
1.0
 40
1.0
 40
1.0
 10
22.9782637017
 20
73.6989642857
 30
0.0
 10
22.9039128432
 20
73.7012861261
 30
0.0
 10
22.7646639391
 20
73.7060467651
 30
0.0
 10
22.5703216691
 20
73.7142714846
 30
0.0
 10
22.4051690904
 20
73.7230974531
 30
0.0
 10
22.2698903294
 20
73.7324469727
 30
0.0
 10
22.1645924209
 20
73.7423289059
 30
0.0
 10
22.0897825068
 20
73.7522807555
 30
0.0
 10
22.0455683904
 20
73.7620154354
 30
0.0
 10
22.0256615078
 20
73.7703031126
 30
0.0
 10
22.020755628
 20
73.776007842
 30
0.0
 10
22.020755628
 20
73.7783706438
 30
0.0
  0
LINE
  5
2A8
100
AcDbEntity
  8
0
100
AcDbLine
 62
7
  6
BYLAYER
 10
22.9357404422
 20
73.6513276777
 11
23.1456054858
 21
73.6500441004
  0
SPLINE
  5
2A9
100
AcDbEntity
  8
0
100
AcDbSpline
 62
7
  6
BYLAYER
 70
0
 71
3
 72
10
 73
6
 74
0
 42
0.0000001
 43
0.0000001
 44
0.0000000001
 40
0.0
 40
0.0
 40
0.0
 40
0.0
 40
0.2057481118
 40
0.4449435076
 40
1.0
 40
1.0
 40
1.0
 40
1.0
 10
23.1456054858
 20
73.6500441004
 30
0.0
 10
23.7969041991
 20
73.6463546266
 30
0.0
 10
25.2054110269
 20
73.6438863514
 30
0.0
 10
28.3709665374
 20
73.6543205037
 30
0.0
 10
30.8851396347
 20
73.6779454474
 30
0.0
 10
32.6420816993
 20
73.6989642809
 30
0.0
  0
SPLINE
  5
2AA
100
AcDbEntity
  8
0
100
AcDbSpline
 62
7
  6
BYLAYER
 70
0
 71
3
 72
10
 73
6
 74
0
 42
0.0000001
 43
0.0000001
 44
0.0000000001
 40
0.0
 40
0.0
 40
0.0
 40
0.0
 40
0.2500351794
 40
0.5000809112
 40
1.0
 40
1.0
 40
1.0
 40
1.0
 10
38.3207748918
 20
86.7602891128
 30
0.0
 10
38.7409997275
 20
86.7602891128
 30
0.0
 10
39.58171194
 20
86.7346258124
 30
0.0
 10
41.256293621
 20
86.5836164778
 30
0.0
 10
42.5005584281
 20
86.365074342
 30
0.0
 10
43.3207748918
 20
86.1829388819
 30
0.0
  0
SPLINE
  5
2AB
100
AcDbEntity
  8
0
100
AcDbSpline
 62
7
  6
BYLAYER
 70
0
 71
3
 72
13
 73
9
 74
0
 42
0.0000001
 43
0.0000001
 44
0.0000000001
 40
0.0
 40
0.0
 40
0.0
 40
0.0
 40
0.2542846119
 40
0.3777826447
 40
0.4999998149
 40
0.6222164404
 40
0.7457156587
 40
1.0
 40
1.0
 40
1.0
 40
1.0
 10
46.2130797372
 20
86.1829388819
 30
0.0
 10
46.6131736497
 20
86.3606268266
 30
0.0
 10
47.2306752087
 20
86.5804272908
 30
0.0
 10
48.0792396693
 20
86.7343378889
 30
0.0
 10
48.7130781672
 20
86.7730536712
 30
0.0
 10
49.3469276642
 20
86.7343978978
 30
0.0
 10
50.1954743839
 20
86.5803821641
 30
0.0
 10
50.8129862504
 20
86.3606266375
 30
0.0
 10
51.2130797372
 20
86.1829388819
 30
0.0
  0
SPLINE
  5
2AC
100
AcDbEntity
  8
0
100
AcDbSpline
 62
7
  6
BYLAYER
 70
0
 71
3
 72
13
 73
9
 74
0
 42
0.0000001
 43
0.0000001
 44
0.0000000001
 40
0.0
 40
0.0
 40
0.0
 40
0.0
 40
0.2542846119
 40
0.3777826447
 40
0.4999998149
 40
0.6222164404
 40
0.7457156587
 40
1.0
 40
1.0
 40
1.0
 40
1.0
 10
25.4284700464
 20
86.1829388819
 30
0.0
 10
25.8285639588
 20
86.3606268266
 30
0.0
 10
26.4460655179
 20
86.5804272908
 30
0.0
 10
27.2946299785
 20
86.7343378889
 30
0.0
 10
27.9284684764
 20
86.7730536712
 30
0.0
 10
28.5623179734
 20
86.7343978978
 30
0.0
 10
29.4108646931
 20
86.5803821641
 30
0.0
 10
30.0283765596
 20
86.3606266375
 30
0.0
 10
30.4284700464
 20
86.1829388819
 30
0.0
  0
SPLINE
  5
2AD
100
AcDbEntity
  8
0
100
AcDbSpline
 62
7
  6
BYLAYER
 70
0
 71
3
 72
10
 73
6
 74
0
 42
0.0000001
 43
0.0000001
 44
0.0000000001
 40
0.0
 40
0.0
 40
0.0
 40
0.0
 40
0.49991919
 40
0.7499650754
 40
1.0
 40
1.0
 40
1.0
 40
1.0
 10
33.3207748918
 20
86.1829388819
 30
0.0
 10
34.1409913556
 20
86.365074342
 30
0.0
 10
35.3852584511
 20
86.583603748
 30
0.0
 10
37.059838718
 20
86.7346204638
 30
0.0
 10
37.9005505694
 20
86.7602891128
 30
0.0
 10
38.3207748918
 20
86.7602891128
 30
0.0
  0
SPLINE
  5
2AE
100
AcDbEntity
  8
0
100
AcDbSpline
 62
7
  6
BYLAYER
 70
0
 71
3
 72
10
 73
6
 74
0
 42
0.0000001
 43
0.0000001
 44
0.0000000001
 40
0.0
 40
0.0
 40
0.0
 40
0.0
 40
0.5550576995
 40
0.7942528673
 40
1.0
 40
1.0
 40
1.0
 40
1.0
 10
43.9994690443
 20
73.6989642809
 30
0.0
 10
45.7564317931
 20
73.6779452341
 30
0.0
 10
48.2706321216
 20
73.6543200611
 30
0.0
 10
51.4362180164
 20
73.6438862505
 30
0.0
 10
52.8447345416
 20
73.6463548966
 30
0.0
 10
53.4960364051
 20
73.6500446413
 30
0.0
  0
LINE
  5
2AF
100
AcDbEntity
  8
0
100
AcDbLine
 62
7
  6
BYLAYER
 10
53.4960364051
 20
73.6500446413
 11
53.7057880815
 21
73.6513275575
  0
SPLINE
  5
2B0
100
AcDbEntity
  8
0
100
AcDbSpline
 62
7
  6
BYLAYER
 70
0
 71
3
 72
16
 73
12
 74
0
 42
0.0000001
 43
0.0000001
 44
0.0000000001
 40
0.0
 40
0.0
 40
0.0
 40
0.0
 40
0.0073375046
 40
0.0203357869
 40
0.0679282683
 40
0.1461091037
 40
0.2554630965
 40
0.3959358235
 40
0.5673301424
 40
0.7689969816
 40
1.0
 40
1.0
 40
1.0
 40
1.0
 10
54.6207929209
 20
73.7783702845
 30
0.0
 10
54.6207929209
 20
73.7760074855
 30
0.0
 10
54.6158869844
 20
73.770302771
 30
0.0
 10
54.5959800246
 20
73.7620151561
 30
0.0
 10
54.5517657451
 20
73.7522805099
 30
0.0
 10
54.4769556767
 20
73.7423287181
 30
0.0
 10
54.3716576912
 20
73.7324468289
 30
0.0
 10
54.2363790331
 20
73.7230973557
 30
0.0
 10
54.0712267875
 20
73.7142714253
 30
0.0
 10
53.8768850991
 20
73.7060467393
 30
0.0
 10
53.7376366667
 20
73.7012861175
 30
0.0
 10
53.6632860819
 20
73.6989642857
 30
0.0
  0
SPLINE
  5
2B1
100
AcDbEntity
  8
0
100
AcDbSpline
 62
7
  6
BYLAYER
 70
0
 71
3
 72
21
 73
17
 74
0
 42
0.0000001
 43
0.0000001
 44
0.0000000001
 40
0.0
 40
0.0
 40
0.0
 40
0.0
 40
0.0017606207
 40
0.0055980212
 40
0.0117390752
 40
0.0202119641
 40
0.0441332039
 40
0.077244414
 40
0.1192155168
 40
0.1696267546
 40
0.2280452675
 40
0.2939001747
 40
0.4452010943
 40
0.6178161756
 40
0.8053542032
 40
1.0
 40
1.0
 40
1.0
 40
1.0
 10
58.3726824785
 20
71.2489642857
 30
0.0
 10
58.3720947524
 20
71.2489642857
 30
0.0
 10
58.3708727731
 20
71.2469880591
 30
0.0
 10
58.369919038
 20
71.2435008861
 30
0.0
 10
58.3686213874
 20
71.2373114117
 30
0.0
 10
58.3668321703
 20
71.2246628978
 30
0.0
 10
58.3646895634
 20
71.2028263199
 30
0.0
 10
58.3623791591
 20
71.169889181
 30
0.0
 10
58.3601190608
 20
71.1280443821
 30
0.0
 10
58.357961603
 20
71.0777544148
 30
0.0
 10
58.3559328658
 20
71.0194749484
 30
0.0
 10
58.3533083649
 20
70.9275210017
 30
0.0
 10
58.3506010119
 20
70.7974346292
 30
0.0
 10
58.3482671488
 20
70.6267173688
 30
0.0
 10
58.3468309688
 20
70.4415203512
 30
0.0
 10
58.3465055301
 20
70.3139404661
 30
0.0
 10
58.3465055301
 20
70.2489642857
 30
0.0
  0
SPLINE
  5
2B2
100
AcDbEntity
  8
0
100
AcDbSpline
 62
7
  6
BYLAYER
 70
0
 71
3
 72
18
 73
14
 74
0
 42
0.0000001
 43
0.0000001
 44
0.0000000001
 40
0.0
 40
0.0
 40
0.0
 40
0.0
 40
0.1924092877
 40
0.3787101662
 40
0.5505204015
 40
0.7016399766
 40
0.8265413315
 40
0.8776048137
 40
0.9202757517
 40
0.9540295587
 40
0.978650957
 40
0.994007694
 40
1.0
 40
1.0
 40
1.0
 40
1.0
 10
38.3208122745
 20
19.6564630961
 30
0.0
 10
38.3208947761
 20
19.6759873047
 30
0.0
 10
38.3210815495
 20
19.7144158361
 30
0.0
 10
38.3213455357
 20
19.7702780311
 30
0.0
 10
38.321504326
 20
19.8219518756
 30
0.0
 10
38.3215887827
 20
19.8673921893
 30
0.0
 10
38.3216679104
 20
19.9005884714
 30
0.0
 10
38.3216425176
 20
19.9227644702
 30
0.0
 10
38.3216314759
 20
19.9357222514
 30
0.0
 10
38.32143633
 20
19.9459192386
 30
0.0
 10
38.3215120809
 20
19.9535306245
 30
0.0
 10
38.3209190752
 20
19.9579500107
 30
0.0
 10
38.3212078395
 20
19.9603867589
 30
0.0
 10
38.3208172433
 20
19.9608527735
 30
0.0
  0
SPLINE
  5
2B3
100
AcDbEntity
  8
0
100
AcDbSpline
 62
7
  6
BYLAYER
 70
0
 71
3
 72
9
 73
5
 74
0
 42
0.0000001
 43
0.0000001
 44
0.0000000001
 40
0.0
 40
0.0
 40
0.0
 40
0.0
 40
0.5613581154
 40
1.0
 40
1.0
 40
1.0
 40
1.0
 10
58.7589295125
 20
23.4989642857
 30
0.0
 10
58.7589295125
 20
23.3476821808
 30
0.0
 10
58.7572370553
 20
23.078195293
 30
0.0
 10
58.7524328405
 20
22.8087155004
 30
0.0
 10
58.7481421715
 20
22.6905824598
 30
0.0
  0
SPLINE
  5
2B4
100
AcDbEntity
  8
0
100
AcDbSpline
 62
7
  6
BYLAYER
 70
0
 71
3
 72
16
 73
12
 74
0
 42
0.0000001
 43
0.0000001
 44
0.0000000001
 40
0.0
 40
0.0
 40
0.0
 40
0.0
 40
0.224757209
 40
0.4228572153
 40
0.5933131595
 40
0.735146393
 40
0.8473959235
 40
0.9291464796
 40
0.9796472275
 40
0.9932226059
 40
1.0
 40
1.0
 40
1.0
 40
1.0
 10
58.7481421715
 20
22.6905824598
 30
0.0
 10
58.7476174548
 20
22.676135673
 30
0.0
 10
58.7465539471
 20
22.6489576075
 30
0.0
 10
58.7447835346
 20
22.6108388887
 30
0.0
 10
58.7429453814
 20
22.5780548501
 30
0.0
 10
58.7410737244
 20
22.5508312069
 30
0.0
 10
58.7391482188
 20
22.5292630734
 30
0.0
 10
58.7373224336
 20
22.5137600565
 30
0.0
 10
58.7355320368
 20
22.5043215039
 30
0.0
 10
58.7341767185
 20
22.5001838667
 30
0.0
 10
58.7331884841
 20
22.4989642857
 30
0.0
 10
58.7327525642
 20
22.4989642857
 30
0.0
  0
SPLINE
  5
2B5
100
AcDbEntity
  8
0
100
AcDbSpline
 62
7
  6
BYLAYER
 70
0
 71
3
 72
17
 73
13
 74
0
 42
0.0000001
 43
0.0000001
 44
0.0000000001
 40
0.0
 40
0.0
 40
0.0
 40
0.0
 40
0.0063830918
 40
0.0198809432
 40
0.0412891911
 40
0.0706495004
 40
0.1528731792
 40
0.265629442
 40
0.4078405464
 40
0.578392433
 40
0.7761570774
 40
1.0
 40
1.0
 40
1.0
 40
1.0
 10
58.7327525642
 20
71.4989642857
 30
0.0
 10
58.7332709336
 20
71.4989642857
 30
0.0
 10
58.7343847147
 20
71.4973232785
 30
0.0
 10
58.735255487
 20
71.4943224497
 30
0.0
 10
58.7364284934
 20
71.4891105334
 30
0.0
 10
58.7380459601
 20
71.4784972455
 30
0.0
 10
58.7399884809
 20
71.4603270243
 30
0.0
 10
58.7421080805
 20
71.4330480015
 30
0.0
 10
58.7441979098
 20
71.398544748
 30
0.0
 10
58.7462140324
 20
71.3571364849
 30
0.0
 10
58.7481370853
 20
71.3090842909
 30
0.0
 10
58.749273835
 20
71.2748645498
 30
0.0
 10
58.7498297104
 20
71.2566948209
 30
0.0
  0
SPLINE
  5
2B6
100
AcDbEntity
  8
0
100
AcDbSpline
 62
7
  6
BYLAYER
 70
0
 71
3
 72
9
 73
5
 74
0
 42
0.0000001
 43
0.0000001
 44
0.0000000001
 40
0.0
 40
0.0
 40
0.0
 40
0.0
 40
0.4499598395
 40
1.0
 40
1.0
 40
1.0
 40
1.0
 10
58.7498297104
 20
71.2566948209
 30
0.0
 10
58.7533053495
 20
71.143087656
 30
0.0
 10
58.7574915459
 20
70.8905037674
 30
0.0
 10
58.7589295125
 20
70.6379049963
 30
0.0
 10
58.7589295125
 20
70.4989642857
 30
0.0
  0
SPLINE
  5
2B7
100
AcDbEntity
  8
0
100
AcDbSpline
 62
7
  6
BYLAYER
 70
0
 71
3
 72
28
 73
24
 74
0
 42
0.0000001
 43
0.0000001
 44
0.0000000001
 40
0.0
 40
0.0
 40
0.0
 40
0.0
 40
0.1918497343
 40
0.3765808199
 40
0.4641232722
 40
0.5473440234
 40
0.6254694252
 40
0.6977735161
 40
0.763578728
 40
0.8222758744
 40
0.8733168543
 40
0.8958134293
 40
0.9162234773
 40
0.9345037528
 40
0.9506114584
 40
0.9645075516
 40
0.9761578733
 40
0.9855296969
 40
0.9926065755
 40
0.995290341
 40
0.9974100307
 40
0.9989737174
 40
1.0
 40
1.0
 40
1.0
 40
1.0
 10
38.3207557178
 20
20.1452049585
 30
0.0
 10
37.1047677241
 20
20.1664520713
 30
0.0
 10
34.7178418146
 20
20.204284296
 30
0.0
 10
31.7758907788
 20
20.2407303268
 30
0.0
 10
29.5224408438
 20
20.2620068958
 30
0.0
 10
27.9447271993
 20
20.2735271729
 30
0.0
 10
26.4635881683
 20
20.2808117689
 30
0.0
 10
25.0928347073
 20
20.2838032362
 30
0.0
 10
23.845237416
 20
20.282488825
 30
0.0
 10
22.7324441926
 20
20.2769023459
 30
0.0
 10
21.8942186637
 20
20.2684748395
 30
0.0
 10
21.298735961
 20
20.259265893
 30
0.0
 10
20.9109337774
 20
20.2516287936
 30
0.0
 10
20.5636636558
 20
20.2430016466
 30
0.0
 10
20.2577280291
 20
20.2334164028
 30
0.0
 10
19.9938814433
 20
20.2229036048
 30
0.0
 10
19.7728069405
 20
20.2115489224
 30
0.0
 10
19.5951005896
 20
20.1993646199
 30
0.0
 10
19.4743031823
 20
20.187945877
 30
0.0
 10
19.3996909108
 20
20.1777601124
 30
0.0
 10
19.3598896521
 20
20.1707369605
 30
0.0
 10
19.3309544169
 20
20.1636032313
 30
0.0
 10
19.3153516662
 20
20.1578807848
 30
0.0
 10
19.3098242154
 20
20.1544496273
 30
0.0
  0
SPLINE
  5
2B8
100
AcDbEntity
  8
0
100
AcDbSpline
 62
7
  6
BYLAYER
 70
0
 71
3
 72
29
 73
25
 74
0
 42
0.0000001
 43
0.0000001
 44
0.0000000001
 40
0.0
 40
0.0
 40
0.0
 40
0.0
 40
0.1919045991
 40
0.3766646417
 40
0.4642140552
 40
0.5474377715
 40
0.6255626729
 40
0.697863541
 40
0.7636634025
 40
0.8223529471
 40
0.8733856585
 40
0.8958791066
 40
0.9162860081
 40
0.9345614459
 40
0.9506609942
 40
0.9645473561
 40
0.9761925872
 40
0.985570198
 40
0.9894018397
 40
0.9926606048
 40
0.9953464542
 40
0.9974605556
 40
0.9990070712
 40
1.0
 40
1.0
 40
1.0
 40
1.0
 10
38.3206749689
 20
21.1452042494
 30
0.0
 10
39.5998142741
 20
21.1655318327
 30
0.0
 10
42.1105397165
 20
21.2011611994
 30
0.0
 10
45.2049580304
 20
21.2358911469
 30
0.0
 10
47.574977552
 20
21.2560662552
 30
0.0
 10
49.2341808445
 20
21.2670119153
 30
0.0
 10
50.7917531502
 20
21.2739351251
 30
0.0
 10
52.2331850168
 20
21.276784094
 30
0.0
 10
53.5450571799
 20
21.2755494538
 30
0.0
 10
54.7151375802
 20
21.2702601864
 30
0.0
 10
55.5965008378
 20
21.2622719797
 30
0.0
 10
56.2226307375
 20
21.2535467719
 30
0.0
 10
56.6303861207
 20
21.2463099092
 30
0.0
 10
56.9954908366
 20
21.2381323586
 30
0.0
 10
57.317090598
 20
21.229033004
 30
0.0
 10
57.5944430394
 20
21.2190578396
 30
0.0
 10
57.8269117873
 20
21.2082541693
 30
0.0
 10
57.9923044594
 20
21.1981142133
 30
0.0
 10
58.1017277008
 20
21.1892427861
 30
0.0
 10
58.1665978654
 20
21.1828695121
 30
0.0
 10
58.2199090494
 20
21.1763229099
 30
0.0
 10
58.2617535273
 20
21.1696933261
 30
0.0
 10
58.2919552936
 20
21.1629212932
 30
0.0
 10
58.3082189845
 20
21.1575053946
 30
0.0
 10
58.3139213887
 20
21.154144387
 30
0.0
  0
SPLINE
  5
2B9
100
AcDbEntity
  8
0
100
AcDbSpline
 62
7
  6
BYLAYER
 70
0
 71
3
 72
29
 73
25
 74
0
 42
0.0000001
 43
0.0000001
 44
0.0000000001
 40
0.0
 40
0.0
 40
0.0
 40
0.0
 40
0.0009929292
 40
0.0025394441
 40
0.0046535432
 40
0.0073393889
 40
0.0105981486
 40
0.0144297834
 40
0.0238073756
 40
0.0354525825
 40
0.0493389146
 40
0.0654384278
 40
0.0837138264
 40
0.1041206848
 40
0.1266140863
 40
0.177646699
 40
0.2363361418
 40
0.3021359073
 40
0.3744366935
 40
0.4525615367
 40
0.5357852283
 40
0.6233346599
 40
0.8080949154
 40
1.0
 40
1.0
 40
1.0
 40
1.0
 10
18.3276283949
 20
21.1541452077
 30
0.0
 10
18.3333307592
 20
21.1575061585
 30
0.0
 10
18.3495942924
 20
21.1629219675
 30
0.0
 10
18.3797957506
 20
21.1696938908
 30
0.0
 10
18.4216397698
 20
21.1763233664
 30
0.0
 10
18.4749503497
 20
21.1828698609
 30
0.0
 10
18.5398197616
 20
21.1892430289
 30
0.0
 10
18.6492417074
 20
21.1981143065
 30
0.0
 10
18.8146323982
 20
21.2082540882
 30
0.0
 10
19.0470983414
 20
21.2190575693
 30
0.0
 10
19.324447418
 20
21.2290325561
 30
0.0
 10
19.6460432715
 20
21.2381317469
 30
0.0
 10
20.0111435556
 20
21.2463091463
 30
0.0
 10
20.418894003
 20
21.2535458717
 30
0.0
 10
21.0450163866
 20
21.2622709096
 30
0.0
 10
21.9263691844
 20
21.2702589481
 30
0.0
 10
23.0964359088
 20
21.2755480847
 30
0.0
 10
24.4082930906
 20
21.276782658
 30
0.0
 10
25.8497089703
 20
21.2739336882
 30
0.0
 10
27.4072646036
 20
21.2670105436
 30
0.0
 10
29.0664508736
 20
21.2560650085
 30
0.0
 10
31.4364480734
 20
21.2358901667
 30
0.0
 10
34.5308402221
 20
21.201160581
 30
0.0
 10
37.0415452215
 20
21.1655319181
 30
0.0
 10
38.3206749689
 20
21.1452042494
 30
0.0
  0
SPLINE
  5
2BA
100
AcDbEntity
  8
0
100
AcDbSpline
 62
7
  6
BYLAYER
 70
0
 71
3
 72
9
 73
5
 74
0
 42
0.0000001
 43
0.0000001
 44
0.0000000001
 40
0.0
 40
0.0
 40
0.0
 40
0.0
 40
0.2519049082
 40
1.0
 40
1.0
 40
1.0
 40
1.0
 10
38.3207747066
 20
72.8238848231
 30
0.0
 10
37.8440811682
 20
72.8158332388
 30
0.0
 10
35.9517820854
 20
72.7805645162
 30
0.0
 10
34.0596342953
 20
72.7377537271
 30
0.0
 10
32.644017968
 20
72.71129955
 30
0.0
  0
SPLINE
  5
2BB
100
AcDbEntity
  8
0
100
AcDbSpline
 62
7
  6
BYLAYER
 70
0
 71
3
 72
9
 73
5
 74
0
 42
0.0000001
 43
0.0000001
 44
0.0000000001
 40
0.0
 40
0.0
 40
0.0
 40
0.0
 40
0.245199426
 40
1.0
 40
1.0
 40
1.0
 40
1.0
 10
43.997531517
 20
72.7112993217
 30
0.0
 10
43.5335421563
 20
72.7199706693
 30
0.0
 10
41.6412982504
 20
72.7579025717
 30
0.0
 10
39.7491252171
 20
72.7997590579
 30
0.0
 10
38.3207750723
 20
72.8238845733
 30
0.0
  0
SPLINE
  5
2BC
100
AcDbEntity
  8
0
100
AcDbSpline
 62
7
  6
BYLAYER
 70
0
 71
3
 72
28
 73
24
 74
0
 42
0.0000001
 43
0.0000001
 44
0.0000000001
 40
0.0
 40
0.0
 40
0.0
 40
0.0
 40
0.1947807447
 40
0.3820600398
 40
0.4706230499
 40
0.5546715674
 40
0.633382623
 40
0.7060117587
 40
0.7718551473
 40
0.8302937768
 40
0.8807556429
 40
0.9028474423
 40
0.922773062
 40
0.940480907
 40
0.9559338126
 40
0.969098861
 40
0.9799438919
 40
0.9884417618
 40
0.994584709
 40
0.9967759772
 40
0.9983867158
 40
0.9994348884
 40
1.0
 40
1.0
 40
1.0
 40
1.0
 10
38.308532063
 20
19.6571931743
 30
0.0
 10
37.7900812087
 20
19.6665043804
 30
0.0
 10
36.7731095882
 20
19.6827300728
 30
0.0
 10
35.5203466738
 20
19.6990512963
 30
0.0
 10
34.5623103957
 20
19.7084259013
 30
0.0
 10
33.8932715767
 20
19.7134413478
 30
0.0
 10
33.2666399148
 20
19.7165703476
 30
0.0
 10
32.6884662146
 20
19.7177840472
 30
0.0
 10
32.1642594344
 20
19.7170595947
 30
0.0
 10
31.6990719366
 20
19.714427054
 30
0.0
 10
31.3503702298
 20
19.7105391858
 30
0.0
 10
31.1042126008
 20
19.7063153267
 30
0.0
 10
30.9452525829
 20
19.7028325227
 30
0.0
 10
30.8039831339
 20
19.6989022222
 30
0.0
 10
30.6807311443
 20
19.6945461271
 30
0.0
 10
30.5757847153
 20
19.6897911571
 30
0.0
 10
30.4893790961
 20
19.6846748436
 30
0.0
 10
30.4217737853
 20
19.679246689
 30
0.0
 10
30.3771786409
 20
19.6741071834
 30
0.0
 10
30.3511631441
 20
19.6695605278
 30
0.0
 10
30.3385080826
 20
19.6663038359
 30
0.0
 10
30.3306786372
 20
19.6635088211
 30
0.0
 10
30.3268959171
 20
19.6603460159
 30
0.0
 10
30.3267023868
 20
19.6588541072
 30
0.0
  0
SPLINE
  5
2BD
100
AcDbEntity
  8
0
100
AcDbSpline
 62
7
  6
BYLAYER
 70
0
 71
3
 72
21
 73
17
 74
0
 42
0.0000001
 43
0.0000001
 44
0.0000000001
 40
0.0
 40
0.0
 40
0.0
 40
0.0
 40
0.0036639447
 40
0.0090908669
 40
0.0163329304
 40
0.0254085333
 40
0.0490824668
 40
0.0801260683
 40
0.1185161842
 40
0.1641877814
 40
0.2170637532
 40
0.2770650912
 40
0.4180762368
 40
0.5863429625
 40
0.7808200816
 40
1.0
 40
1.0
 40
1.0
 40
1.0
 10
18.3276283949
 20
72.7747964171
 30
0.0
 10
18.3321764067
 20
72.7720488384
 30
0.0
 10
18.344639159
 20
72.7673502952
 30
0.0
 10
18.3675559285
 20
72.7614711647
 30
0.0
 10
18.398587102
 20
72.7556657803
 30
0.0
 10
18.4559709239
 20
72.7472692182
 30
0.0
 10
18.5480306206
 20
72.7377359641
 30
0.0
 10
18.6826612166
 20
72.7273966509
 30
0.0
 10
18.8493096395
 20
72.7175768802
 30
0.0
 10
19.0476843052
 20
72.7082878031
 30
0.0
 10
19.2774535219
 20
72.6995913
 30
0.0
 10
19.6454740152
 20
72.6882102501
 30
0.0
 10
20.1808843812
 20
72.6761982654
 30
0.0
 10
20.9113588641
 20
72.665041342
 30
0.0
 10
21.7552387647
 20
72.656677683
 30
0.0
 10
22.3551238937
 20
72.6531472021
 30
0.0
 10
22.6729801985
 20
72.6517589808
 30
0.0
  0
SPLINE
  5
2BE
100
AcDbEntity
  8
0
100
AcDbSpline
 62
7
  6
BYLAYER
 70
0
 71
3
 72
16
 73
12
 74
0
 42
0.0000001
 43
0.0000001
 44
0.0000000001
 40
0.0
 40
0.0
 40
0.0
 40
0.0
 40
0.1658758287
 40
0.3355618808
 40
0.5003042457
 40
0.6502287349
 40
0.7766348398
 40
0.8756044929
 40
0.9145751227
 40
0.947448265
 40
1.0
 40
1.0
 40
1.0
 40
1.0
 10
32.3616218914
 20
72.6992681119
 30
0.0
 10
32.3609667345
 20
72.7592644735
 30
0.0
 10
32.3629221707
 20
72.8806916561
 30
0.0
 10
32.3758445673
 20
73.0613142685
 30
0.0
 10
32.4000399249
 20
73.2349597692
 30
0.0
 10
32.4340309193
 20
73.3911137932
 30
0.0
 10
32.4773807433
 20
73.5199985191
 30
0.0
 10
32.5208190026
 20
73.6060063679
 30
0.0
 10
32.5595735733
 20
73.6545301497
 30
0.0
 10
32.5931528631
 20
73.684512153
 30
0.0
 10
32.6232053817
 20
73.6975758826
 30
0.0
 10
32.6421633507
 20
73.6989651223
 30
0.0
  0
SPLINE
  5
2BF
100
AcDbEntity
  8
0
100
AcDbSpline
 62
7
  6
BYLAYER
 70
0
 71
3
 72
10
 73
6
 74
0
 42
0.0000001
 43
0.0000001
 44
0.0000000001
 40
0.0
 40
0.0
 40
0.0
 40
0.0
 40
0.2087195762
 40
0.448598075
 40
1.0
 40
1.0
 40
1.0
 40
1.0
 10
22.6729801985
 20
72.6517589808
 30
0.0
 10
23.3470555687
 20
72.6488489365
 30
0.0
 10
24.7958572432
 20
72.6473005939
 30
0.0
 10
28.025449358
 20
72.6579310888
 30
0.0
 10
30.5809010277
 20
72.679725469
 30
0.0
 10
32.3616038512
 20
72.6992680464
 30
0.0
  0
SPLINE
  5
2C0
100
AcDbEntity
  8
0
100
AcDbSpline
 62
7
  6
BYLAYER
 70
0
 71
3
 72
14
 73
10
 74
0
 42
0.0000001
 43
0.0000001
 44
0.0000000001
 40
0.0
 40
0.0
 40
0.0
 40
0.0
 40
0.1631676518
 40
0.2791789037
 40
0.3544801705
 40
0.411750131
 40
0.4911710602
 40
0.6126342744
 40
1.0
 40
1.0
 40
1.0
 40
1.0
 10
30.0441580878
 20
19.9498878275
 30
0.0
 10
30.0420904452
 20
19.9505883851
 30
0.0
 10
30.038555351
 20
19.9519152179
 30
0.0
 10
30.0344611153
 20
19.9541514494
 30
0.0
 10
30.0318095047
 20
19.9565829711
 30
0.0
 10
30.0320747955
 20
19.9597594639
 30
0.0
 10
30.0349977271
 20
19.9619851765
 30
0.0
 10
30.0420164972
 20
19.9653399885
 30
0.0
 10
30.0487579838
 20
19.9669481392
 30
0.0
 10
30.0538171884
 20
19.9680730462
 30
0.0
  0
SPLINE
  5
2C1
100
AcDbEntity
  8
0
100
AcDbSpline
 62
7
  6
BYLAYER
 70
0
 71
3
 72
21
 73
17
 74
0
 42
0.0000001
 43
0.0000001
 44
0.0000000001
 40
0.0
 40
0.0
 40
0.0
 40
0.0
 40
0.0045606873
 40
0.0112751687
 40
0.0201437873
 40
0.0311556608
 40
0.059501189
 40
0.0960745142
 40
0.1405615769
 40
0.1925728663
 40
0.2516583737
 40
0.3172951908
 40
0.4658926231
 40
0.6331771046
 40
0.8133167705
 40
1.0
 40
1.0
 40
1.0
 40
1.0
 10
30.0538171884
 20
19.9680730462
 30
0.0
 10
30.0660879447
 20
19.9708014314
 30
0.0
 10
30.0969016405
 20
19.9752387513
 30
0.0
 10
30.1521403363
 20
19.980720261
 30
0.0
 10
30.2252754268
 20
19.9858869013
 30
0.0
 10
30.3580079249
 20
19.9929957668
 30
0.0
 10
30.5671810834
 20
20.0003170302
 30
0.0
 10
30.8686546305
 20
20.0071817892
 30
0.0
 10
31.2354010509
 20
20.0124365229
 30
0.0
 10
31.6642162877
 20
20.0160364069
 30
0.0
 10
32.1513373476
 20
20.0179062488
 30
0.0
 10
32.9046778696
 20
20.0180589869
 30
0.0
 10
33.9562364918
 20
20.013412439
 30
0.0
 10
35.3233491863
 20
20.0013599476
 30
0.0
 10
36.7953737735
 20
19.982935573
 30
0.0
 10
37.8063064893
 20
19.9668929829
 30
0.0
 10
38.3207751601
 20
19.9579242549
 30
0.0
  0
SPLINE
  5
2C2
100
AcDbEntity
  8
0
100
AcDbSpline
 62
7
  6
BYLAYER
 70
0
 71
3
 72
20
 73
16
 74
0
 42
0.0000001
 43
0.0000001
 44
0.0000000001
 40
0.0
 40
0.0
 40
0.0
 40
0.0
 40
0.2066809483
 40
0.3952029174
 40
0.5625022217
 40
0.7058669383
 40
0.7678153383
 40
0.8229428695
 40
0.8710166487
 40
0.9118359544
 40
0.9452550171
 40
0.9711370231
 40
0.9893834843
 40
0.9956404823
 40
1.0
 40
1.0
 40
1.0
 40
1.0
 10
42.2505715548
 20
20.0092502264
 30
0.0
 10
42.5501701926
 20
20.0116660451
 30
0.0
 10
43.1230515429
 20
20.0155005759
 30
0.0
 10
43.9384620159
 20
20.0182487272
 30
0.0
 10
44.6620928473
 20
20.0177320114
 30
0.0
 10
45.2022331162
 20
20.0145200481
 30
0.0
 10
45.5797471622
 20
20.0100386816
 30
0.0
 10
45.8191187578
 20
20.0060570026
 30
0.0
 10
46.0278427184
 20
20.0013238445
 30
0.0
 10
46.205063527
 20
19.9958505636
 30
0.0
 10
46.3500844448
 20
19.9897493855
 30
0.0
 10
46.4622828162
 20
19.9829752188
 30
0.0
 10
46.5350984779
 20
19.9765926928
 30
0.0
 10
46.5764904946
 20
19.9705282339
 30
0.0
 10
46.5915945143
 20
19.9673671638
 30
0.0
 10
46.5976359032
 20
19.9655126027
 30
0.0
  0
SPLINE
  5
2C3
100
AcDbEntity
  8
0
100
AcDbSpline
 62
7
  6
BYLAYER
 70
0
 71
3
 72
13
 73
9
 74
0
 42
0.0000001
 43
0.0000001
 44
0.0000000001
 40
0.0
 40
0.0
 40
0.0
 40
0.0
 40
0.1855653579
 40
0.3247484926
 40
0.421958503
 40
0.4904319474
 40
0.6608251069
 40
1.0
 40
1.0
 40
1.0
 40
1.0
 10
46.5976359032
 20
19.9655126027
 30
0.0
 10
46.5994284981
 20
19.9649623192
 30
0.0
 10
46.602549636
 20
19.9639119323
 30
0.0
 10
46.6063793701
 20
19.9620412146
 30
0.0
 10
46.6089337165
 20
19.9602204069
 30
0.0
 10
46.6102926259
 20
19.956721436
 30
0.0
 10
46.6046299487
 20
19.9522458732
 30
0.0
 10
46.6001683526
 20
19.9508082774
 30
0.0
 10
46.5969161073
 20
19.9497266425
 30
0.0
  0
SPLINE
  5
2C4
100
AcDbEntity
  8
0
100
AcDbSpline
 62
7
  6
BYLAYER
 70
0
 71
3
 72
28
 73
24
 74
0
 42
0.0000001
 43
0.0000001
 44
0.0000000001
 40
0.0
 40
0.0
 40
0.0
 40
0.0
 40
0.0004980444
 40
0.0014945275
 40
0.0030624514
 40
0.0052162914
 40
0.0112952702
 40
0.0197396355
 40
0.0305399164
 40
0.0436683405
 40
0.059092104
 40
0.0767777264
 40
0.0966870876
 40
0.118768575
 40
0.1692307505
 40
0.2276939573
 40
0.2935792347
 40
0.3662616354
 40
0.44503387
 40
0.5291476643
 40
0.6177769184
 40
0.8051777715
 40
1.0
 40
1.0
 40
1.0
 40
1.0
 10
46.3148662605
 20
19.6418016794
 30
0.0
 10
46.3147913992
 20
19.6431293689
 30
0.0
 10
46.310990339
 20
19.6459795405
 30
0.0
 10
46.3035681941
 20
19.6482850008
 30
0.0
 10
46.2910819135
 20
19.6511921493
 30
0.0
 10
46.2653292438
 20
19.6551786033
 30
0.0
 10
46.2209314371
 20
19.6597667217
 30
0.0
 10
46.1535278082
 20
19.664595523
 30
0.0
 10
46.0671911921
 20
19.6691689096
 30
0.0
 10
45.9622111193
 20
19.6734687285
 30
0.0
 10
45.838817408
 20
19.6775098161
 30
0.0
 10
45.6973063992
 20
19.6813111059
 30
0.0
 10
45.5380074594
 20
19.6848921906
 30
0.0
 10
45.2911976872
 20
19.689543919
 30
0.0
 10
44.9414371508
 20
19.6944891082
 30
0.0
 10
44.4747057265
 20
19.6989433996
 30
0.0
 10
43.9486317128
 20
19.7017993105
 30
0.0
 10
43.3683252324
 20
19.702775165
 30
0.0
 10
42.7393479351
 20
19.7020109555
 30
0.0
 10
42.0677958133
 20
19.6995959579
 30
0.0
 10
41.1062130904
 20
19.6939944535
 30
0.0
 10
39.8490654964
 20
19.6824579903
 30
0.0
 10
38.8286266666
 20
19.6667888054
 30
0.0
 10
38.308532063
 20
19.6571931743
 30
0.0
  0
SPLINE
  5
2C5
100
AcDbEntity
  8
0
100
AcDbSpline
 62
7
  6
BYLAYER
 70
0
 71
3
 72
13
 73
9
 74
0
 42
0.0000001
 43
0.0000001
 44
0.0000000001
 40
0.0
 40
0.0
 40
0.0
 40
0.0
 40
0.0620389938
 40
0.1476138541
 40
0.2544852015
 40
0.379876505
 40
0.673730797
 40
1.0
 40
1.0
 40
1.0
 40
1.0
 10
38.320532703
 20
73.7779635785
 30
0.0
 10
38.320547147
 20
73.7582333152
 30
0.0
 10
38.3213145839
 20
73.7112916545
 30
0.0
 10
38.3223464599
 20
73.6303644732
 30
0.0
 10
38.3224643918
 20
73.5292806606
 30
0.0
 10
38.3221172639
 20
73.3619606747
 30
0.0
 10
38.321861267
 20
73.1248641736
 30
0.0
 10
38.3207767156
 20
72.9276480096
 30
0.0
 10
38.320774918
 20
72.8238845759
 30
0.0
  0
SPLINE
  5
2C6
100
AcDbEntity
  8
0
100
AcDbSpline
 62
7
  6
BYLAYER
 70
0
 71
3
 72
14
 73
10
 74
0
 42
0.0000001
 43
0.0000001
 44
0.0000000001
 40
0.0
 40
0.0
 40
0.0
 40
0.0
 40
0.0597505961
 40
0.0968893661
 40
0.139753851
 40
0.2423958617
 40
0.3659160577
 40
0.6630985403
 40
1.0
 40
1.0
 40
1.0
 40
1.0
 10
32.83765002
 20
73.6989567847
 30
0.0
 10
32.8197101946
 20
73.6890005808
 30
0.0
 10
32.7959612937
 20
73.6638020163
 30
0.0
 10
32.7708604399
 20
73.6230737895
 30
0.0
 10
32.7431314228
 20
73.566650452
 30
0.0
 10
32.7121619829
 20
73.4793583783
 30
0.0
 10
32.6705000594
 20
73.3042956552
 30
0.0
 10
32.6414723245
 20
73.0449799854
 30
0.0
 10
32.6388076827
 20
72.8268686948
 30
0.0
 10
32.6440176827
 20
72.7112995447
 30
0.0
  0
SPLINE
  5
2C7
100
AcDbEntity
  8
0
100
AcDbSpline
 62
7
  6
BYLAYER
 70
0
 71
3
 72
14
 73
10
 74
0
 42
0.0000001
 43
0.0000001
 44
0.0000000001
 40
0.0
 40
0.0
 40
0.0
 40
0.0
 40
0.061835586
 40
0.143432061
 40
0.245904627
 40
0.3687777638
 40
0.5095043508
 40
0.6645338508
 40
1.0
 40
1.0
 40
1.0
 40
1.0
 10
43.8032411339
 20
73.6989662883
 30
0.0
 10
43.8218742067
 20
73.6886193255
 30
0.0
 10
43.8583686571
 20
73.653162289
 30
0.0
 10
43.9007447249
 20
73.5792499389
 30
0.0
 10
43.9361982475
 20
73.4791150577
 30
0.0
 10
43.9648180467
 20
73.356084005
 30
0.0
 10
43.9859116948
 20
73.2131974197
 30
0.0
 10
44.0033930896
 20
72.9962292069
 30
0.0
 10
44.0027342098
 20
72.8267966185
 30
0.0
 10
43.9975322852
 20
72.7112869769
 30
0.0
  0
SPLINE
  5
2C8
100
AcDbEntity
  8
0
100
AcDbSpline
 62
7
  6
BYLAYER
 70
0
 71
3
 72
10
 73
6
 74
0
 42
0.0000001
 43
0.0000001
 44
0.0000000001
 40
0.0
 40
0.0
 40
0.0
 40
0.0
 40
0.55143265
 40
0.7913054474
 40
1.0
 40
1.0
 40
1.0
 40
1.0
 10
44.279801547
 20
72.6992701679
 30
0.0
 10
46.0611180861
 20
72.6797215271
 30
0.0
 10
48.6173889062
 20
72.6579212483
 30
0.0
 10
51.8479141101
 20
72.6472984517
 30
0.0
 10
53.2970350979
 20
72.6488554496
 30
0.0
 10
53.9712243472
 20
72.6517721525
 30
0.0
  0
SPLINE
  5
2C9
100
AcDbEntity
  8
0
100
AcDbSpline
 62
7
  6
BYLAYER
 70
0
 71
3
 72
16
 73
12
 74
0
 42
0.0000001
 43
0.0000001
 44
0.0000000001
 40
0.0
 40
0.0
 40
0.0
 40
0.0
 40
0.1658759026
 40
0.3355619916
 40
0.50030436
 40
0.6502288512
 40
0.7766349013
 40
0.8756045235
 40
0.914575152
 40
0.9474482708
 40
1.0
 40
1.0
 40
1.0
 40
1.0
 10
44.2799284555
 20
72.6992687302
 30
0.0
 10
44.2805835937
 20
72.759265093
 30
0.0
 10
44.2786281191
 20
72.8806922628
 30
0.0
 10
44.2657056747
 20
73.0613148358
 30
0.0
 10
44.2415102496
 20
73.2349602669
 30
0.0
 10
44.2075192238
 20
73.3911141944
 30
0.0
 10
44.1641693689
 20
73.5199988208
 30
0.0
 10
44.1207310644
 20
73.6060065619
 30
0.0
 10
44.0819765127
 20
73.6545302973
 30
0.0
 10
44.048397205
 20
73.6845122461
 30
0.0
 10
44.0183446877
 20
73.6975758901
 30
0.0
 10
43.9993867287
 20
73.698965126
 30
0.0
  0
SPLINE
  5
2CA
100
AcDbEntity
  8
0
100
AcDbSpline
 62
7
  6
BYLAYER
 70
0
 71
3
 72
21
 73
17
 74
0
 42
0.0000001
 43
0.0000001
 44
0.0000000001
 40
0.0
 40
0.0
 40
0.0
 40
0.0
 40
0.2191816615
 40
0.4136585675
 40
0.5819240566
 40
0.7229336278
 40
0.782934257
 40
0.8358096536
 40
0.8814808745
 40
0.9198708794
 40
0.9509146847
 40
0.974589164
 40
0.9836651807
 40
0.9909077602
 40
0.9963353095
 40
1.0
 40
1.0
 40
1.0
 40
1.0
 10
53.9712243472
 20
72.6517721525
 30
0.0
 10
54.2888892097
 20
72.6531625196
 30
0.0
 10
54.8884104741
 20
72.6566964859
 30
0.0
 10
55.7317757835
 20
72.6650634449
 30
0.0
 10
56.4618000243
 20
72.6762218066
 30
0.0
 10
56.9968784279
 20
72.6882334647
 30
0.0
 10
57.3646700405
 20
72.6996131132
 30
0.0
 10
57.5942964997
 20
72.7083081577
 30
0.0
 10
57.7925484014
 20
72.7175953269
 30
0.0
 10
57.9590945096
 20
72.7274127783
 30
0.0
 10
58.0936436144
 20
72.737749345
 30
0.0
 10
58.1856485166
 20
72.7472798698
 30
0.0
 10
58.242999129
 20
72.7556738209
 30
0.0
 10
58.2740133159
 20
72.7614774522
 30
0.0
 10
58.2969185135
 20
72.7673547684
 30
0.0
 10
58.3093752298
 20
72.7720518153
 30
0.0
 10
58.3139213887
 20
72.7747982811
 30
0.0
  0
SPLINE
  5
2CB
100
AcDbEntity
  8
0
100
AcDbSpline
 62
7
  6
BYLAYER
 70
0
 71
3
 72
28
 73
24
 74
0
 42
0.0000001
 43
0.0000001
 44
0.0000000001
 40
0.0
 40
0.0
 40
0.0
 40
0.0
 40
0.0010262818
 40
0.0025899678
 40
0.0047096569
 40
0.0073934218
 40
0.0144702998
 40
0.0238421235
 40
0.0354924457
 40
0.0493885395
 40
0.0654962457
 40
0.0837765216
 40
0.1041865698
 40
0.126683145
 40
0.1777241254
 40
0.2364212721
 40
0.3022264841
 40
0.3745305749
 40
0.4526559767
 40
0.5358767278
 40
0.6234191799
 40
0.8081502653
 40
1.0
 40
1.0
 40
1.0
 40
1.0
 10
57.3317256737
 20
20.1544496296
 30
0.0
 10
57.3261982295
 20
20.1578807879
 30
0.0
 10
57.3105954889
 20
20.1636032346
 30
0.0
 10
57.2816602688
 20
20.1707369636
 30
0.0
 10
57.241859023
 20
20.1777601154
 30
0.0
 10
57.1672467646
 20
20.1879458803
 30
0.0
 10
57.0464493669
 20
20.199364623
 30
0.0
 10
56.868743021
 20
20.2115489248
 30
0.0
 10
56.6476685162
 20
20.2229036067
 30
0.0
 10
56.3838219264
 20
20.233416404
 30
0.0
 10
56.0778862974
 20
20.2430016475
 30
0.0
 10
55.7306161771
 20
20.2516287942
 30
0.0
 10
55.3428139978
 20
20.2592658934
 30
0.0
 10
54.7473313044
 20
20.2684748396
 30
0.0
 10
53.9091057906
 20
20.2769023456
 30
0.0
 10
52.7963125898
 20
20.2824888246
 30
0.0
 10
51.5487153272
 20
20.2838032358
 30
0.0
 10
50.1779619001
 20
20.2808117688
 30
0.0
 10
48.6968229074
 20
20.2735271731
 30
0.0
 10
47.1191093046
 20
20.2620068967
 30
0.0
 10
44.8656594289
 20
20.2407303288
 30
0.0
 10
41.9237084669
 20
20.2042842997
 30
0.0
 10
39.5367826164
 20
20.1664520768
 30
0.0
 10
38.3207946511
 20
20.145204965
 30
0.0
  0
SPLINE
  5
2CC
100
AcDbEntity
  8
0
100
AcDbSpline
 62
7
  6
BYLAYER
 70
0
 71
3
 72
16
 73
12
 74
0
 42
0.0000001
 43
0.0000001
 44
0.0000000001
 40
0.0
 40
0.0
 40
0.0
 40
0.0
 40
0.0062657115
 40
0.0193546629
 40
0.0687763035
 40
0.1495949884
 40
0.2615395817
 40
0.4038268704
 40
0.5752086475
 40
0.7743982045
 40
1.0
 40
1.0
 40
1.0
 40
1.0
 10
58.5327525642
 20
22.4989642857
 30
0.0
 10
58.5332613604
 20
22.4989642857
 30
0.0
 10
58.5343770948
 20
22.5005201686
 30
0.0
 10
58.5358913084
 20
22.5055737663
 30
0.0
 10
58.537929931
 20
22.5173730054
 30
0.0
 10
58.5399783006
 20
22.5367530841
 30
0.0
 10
58.5421356777
 20
22.5639559901
 30
0.0
 10
58.5442067317
 20
22.5984260972
 30
0.0
 10
58.5462236123
 20
22.6400343688
 30
0.0
 10
58.5481403163
 20
22.6884044252
 30
0.0
 10
58.5492752628
 20
22.7228813641
 30
0.0
 10
58.5498315469
 20
22.7411925176
 30
0.0
  0
SPLINE
  5
2CD
100
AcDbEntity
  8
0
100
AcDbSpline
 62
7
  6
BYLAYER
 70
0
 71
3
 72
16
 73
12
 74
0
 42
0.0000001
 43
0.0000001
 44
0.0000000001
 40
0.0
 40
0.0
 40
0.0
 40
0.0
 40
0.2268837267
 40
0.4264984208
 40
0.5977159916
 40
0.7394174914
 40
0.8506295237
 40
0.9309155963
 40
0.9801277368
 40
0.9933215252
 40
1.0
 40
1.0
 40
1.0
 40
1.0
 10
58.5481486532
 20
71.3076906063
 30
0.0
 10
58.5476248658
 20
71.3222503175
 30
0.0
 10
58.5465640154
 20
71.34961775
 30
0.0
 10
58.5447969527
 20
71.3879570997
 30
0.0
 10
58.5429615707
 20
71.4208247532
 30
0.0
 10
58.5410915374
 20
71.4479789824
 30
0.0
 10
58.5391626317
 20
71.4693369561
 30
0.0
 10
58.5373275021
 20
71.4845800538
 30
0.0
 10
58.5355360912
 20
71.4937751857
 30
0.0
 10
58.5341681826
 20
71.4978083192
 30
0.0
 10
58.5331814163
 20
71.4989642857
 30
0.0
 10
58.5327525642
 20
71.4989642857
 30
0.0
  0
SPLINE
  5
2CE
100
AcDbEntity
  8
0
100
AcDbSpline
 62
7
  6
BYLAYER
 70
0
 71
3
 72
16
 73
12
 74
0
 42
0.0000001
 43
0.0000001
 44
0.0000000001
 40
0.0
 40
0.0
 40
0.0
 40
0.0
 40
0.3788328504
 40
0.5502278666
 40
0.7008967369
 40
0.8253693661
 40
0.9189037978
 40
0.9528975738
 40
0.9778621054
 40
0.9936175678
 40
1.0
 40
1.0
 40
1.0
 40
1.0
 10
38.3207749036
 20
21.1452047911
 30
0.0
 10
38.3209148896
 20
21.0191984044
 30
0.0
 10
38.3224418502
 20
20.836187161
 30
0.0
 10
38.3234777457
 20
20.6030590374
 30
0.0
 10
38.3239332277
 20
20.4545336906
 30
0.0
 10
38.3241104752
 20
20.3319058529
 30
0.0
 10
38.3240726992
 20
20.2480854819
 30
0.0
 10
38.3233149889
 20
20.1973657936
 30
0.0
 10
38.3222506039
 20
20.1725343078
 30
0.0
 10
38.3215320234
 20
20.1568870141
 30
0.0
 10
38.3207707378
 20
20.1495498273
 30
0.0
 10
38.3207556268
 20
20.147426972
 30
0.0
  0
ENDSEC
  0
SECTION
  2
OBJECTS
  0
DICTIONARY
  5
C
100
AcDbDictionary
280
0
281
1
  3
ACAD_GROUP
350
D
  3
ACAD_MLINESTYLE
350
17
  3
ACAD_LAYOUT
350
1A
  3
ACAD_PLOTSETTINGS
350
19
  3
ACAD_PLOTSTYLENAME
350
E
  0
DICTIONARY
  5
D
102
{ACAD_REACTORS
330
C
102
}
100
AcDbDictionary
280
0
281
1
  0
ACDBDICTIONARYWDFLT
  5
E
102
{ACAD_REACTORS
330
C
102
}
100
AcDbDictionary
281
1
  3
Normal
350
F
100
AcDbDictionaryWithDefault
340
F
  0
DICTIONARY
  5
17
102
{ACAD_REACTORS
330
C
102
}
100
AcDbDictionary
280
0
281
1
  3
Standard
350
18
  0
DICTIONARY
  5
19
102
{ACAD_REACTORS
330
C
102
}
100
AcDbDictionary
281
1
  0
DICTIONARY
  5
1A
102
{ACAD_REACTORS
330
C
102
}
100
AcDbDictionary
281
1
  3
Model
350
2CF
  3
Layout1
350
2D0
  0
ACDBPLACEHOLDER
  5
F
102
{ACAD_REACTORS
330
E
102
}
  0
MLINESTYLE
  5
18
102
{ACAD_REACTORS
330
17
102
}
100
AcDbMlineStyle
  2
STANDARD
 70
0
  3

 62
256
 51
90.0
 52
90.0
 71
2
 49
0.5
 62
256
  6
BYLAYER
 49
-0.5
 62
256
  6
BYLAYER
  0
LAYOUT
  5
2CF
102
{ACAD_REACTORS
330
1A
102
}
100
AcDbPlotSettings
  1

  2
none_device
  4

  6

 40
0.0
 41
0.0
 42
0.0
 43
0.0
 44
210.0
 45
297.0
 46
0.0
 47
0.0
 48
0.0
 49
0.0
140
0.0
141
0.0
142
1.0
143
1.0
 70
1024
 72
1
 73
0
 74
0
  7

 75
0
147
1.0
148
0.0
149
0.0
100
AcDbLayout
  1
Model
 70
0
 71
0
 10
0.0
 20
0.0
 11
210.0
 21
297.0
 12
0.0
 22
0.0
 32
0.0
 14
0.0
 24
0.0
 34
0.0
 15
0.0
 25
0.0
 35
0.0
146
0.0
 13
0.0
 23
0.0
 33
0.0
 16
1.0
 26
0.0
 36
0.0
 17
0.0
 27
1.0
 37
0.0
 76
0
330
210
345
0
346
0
  0
LAYOUT
  5
2D0
102
{ACAD_REACTORS
330
1A
102
}
100
AcDbPlotSettings
  1

  2
none_device
  4

  6

 40
0.0
 41
0.0
 42
0.0
 43
0.0
 44
210.0
 45
297.0
 46
0.0
 47
0.0
 48
0.0
 49
0.0
140
0.0
141
0.0
142
1.0
143
1.0
 70
0
 72
1
 73
0
 74
0
  7

 75
0
147
1.0
148
0.0
149
0.0
100
AcDbLayout
  1
Layout1
 70
0
 71
1
 10
0.0
 20
0.0
 11
210.0
 21
297.0
 12
0.0
 22
0.0
 32
0.0
 14
0.0
 24
0.0
 34
0.0
 15
0.0
 25
0.0
 35
0.0
146
0.0
 13
0.0
 23
0.0
 33
0.0
 16
1.0
 26
0.0
 36
0.0
 17
0.0
 27
1.0
 37
0.0
 76
0
330
211
345
0
346
0
  0
ENDSEC
  0
EOF
