999
DXF file: C:\Users\sesa63760\Dev\_Creo\CAD\MCADUE0002387_3D-CAD\drw0001_7.dxf
999
Pro/ENGINEER 2019471 by Parametric Technology Corporation
  0
SECTION
  2
HEADER
  9
$ACADVER
  1
AC1024
  9
$DWGCODEPAGE
  3
ANSI_1252
  9
$EXTMAX
 10
758.7530224512
 20
1073.0935603238
 30
0.0
  9
$EXTMIN
 10
0.0
 20
0.0
 30
0.0
  9
$LIMMIN
 10
0.0
 20
0.0
  9
$LIMMAX
 10
758.7530224512
 20
1073.0935603238
  9
$VIEWCTR
 10
379.3765112256
 20
536.5467801619
  9
$VIEWSIZE
 40
1073.0935603238
  9
$CLAYER
  8
0
  9
$LTSCALE
 40
69.9498024507
  9
$CELTYPE
  6
BYLAYER
  9
$DIMSCALE
 40
1.0
  9
$DIMASZ
 40
9.0327740768
  9
$DIMEXO
 40
1.0
  9
$DIMDLI
 40
48.3289544205
  9
$DIMEXE
 40
1.0
  9
$DIMCEN
 40
11.4463313101
  9
$DIMLFAC
 40
1.0
  9
$DIMBLK
  1
_FILLED
  9
$DIMALT
 70
0
  9
$DIMALTF
 40
0.0393700787
  9
$DIMTXT
 40
12.6458837075
  9
$DIMTOL
 70
1
  9
$DIMLIM
 70
0
  9
$DIMTFAC
 40
1.0
  9
$DIMTP
 40
0.01
  9
$DIMTM
 40
0.01
  9
$DIMGAP
 40
0.625
  9
$DIMDSEP
 70
46
  9
$AUNITS
 70
0
  9
$PDMODE
 70
3
  9
$PDSIZE
 40
0.3125
  9
$HANDSEED
  5
361
  9
$TILEMODE
 70
1
  9
$MEASUREMENT
 70
1
  9
$INSUNITS
 70
4
  0
ENDSEC
  0
SECTION
  2
CLASSES
  0
CLASS
  1
ACDBDICTIONARYWDFLT
  2
AcDbDictionaryWithDefault
  3
AutoCAD 2000
 90
0
 91
1
280
0
281
0
  0
CLASS
  1
ACDBPLACEHOLDER
  2
AcDbPlaceHolder
  3
AutoCAD 2000
 90
0
 91
1
280
0
281
0
  0
CLASS
  1
LAYOUT
  2
AcDbLayout
  3
AutoCAD 2000
 90
0
 91
0
280
0
281
0
  0
ENDSEC
  0
SECTION
  2
TABLES
  0
TABLE
  2
VPORT
  5
8
100
AcDbSymbolTable
 70
2
  0
VPORT
  5
1F4
100
AcDbSymbolTableRecord
100
AcDbViewportTableRecord
  2
*ACTIVE
 70
0
 10
0.0
 20
0.0
 11
1.0
 21
1.0
 12
379.3765112256
 22
536.5467801619
 13
0.0
 23
0.0
 14
1.0
 24
1.0
 15
0.0
 25
0.0
 16
0.0
 26
0.0
 36
1.0
 17
0.0
 27
0.0
 37
0.0
 40
1073.0935603238
 41
0.7070707071
 42
50.0
 43
0.0
 44
0.0
 50
0.0
 51
0.0
 71
0
 72
100
 73
1
 74
1
 75
0
 76
0
 77
0
 78
0
  0
ENDTAB
  0
TABLE
  2
LTYPE
  5
5
100
AcDbSymbolTable
 70
6
  0
LTYPE
  5
14
100
AcDbSymbolTableRecord
100
AcDbLinetypeTableRecord
  2
BYBLOCK
 70
0
  3

 72
65
 73
0
 40
0.0
  0
LTYPE
  5
15
100
AcDbSymbolTableRecord
100
AcDbLinetypeTableRecord
  2
BYLAYER
 70
0
  3

 72
65
 73
0
 40
0.0
  0
LTYPE
  5
16
100
AcDbSymbolTableRecord
100
AcDbLinetypeTableRecord
  2
CONTINUOUS
 70
64
  3
Solid line
 72
65
 73
0
 40
0.0
  0
LTYPE
  5
1F5
100
AcDbSymbolTableRecord
100
AcDbLinetypeTableRecord
  2
CENTER
 70
64
  3
____ _ ____ _ ____ _ ____ _ ____ _ ____ _ ____
 72
65
 73
4
 40
0.6
 49
0.375
 74
0
 49
-0.075
 74
0
 49
0.075
 74
0
 49
-0.075
 74
0
  0
LTYPE
  5
1F6
100
AcDbSymbolTableRecord
100
AcDbLinetypeTableRecord
  2
HIDDEN
 70
64
  3
- - - - - - - - - - - - - - - - - - - -
 72
65
 73
2
 40
0.2
 49
0.1
 74
0
 49
-0.1
 74
0
  0
LTYPE
  5
1F7
100
AcDbSymbolTableRecord
100
AcDbLinetypeTableRecord
  2
PHANTOM
 70
64
  3
_____ _ _ _____ _ _ _____ _ _ _____
 72
65
 73
6
 40
0.8
 49
0.45
 74
0
 49
-0.05
 74
0
 49
0.1
 74
0
 49
-0.05
 74
0
 49
0.1
 74
0
 49
-0.05
 74
0
  0
LTYPE
  5
1F8
100
AcDbSymbolTableRecord
100
AcDbLinetypeTableRecord
  2
DOT
 70
64
  3
. . . . . . . . . . . . . . . . . . . .
 72
65
 73
2
 40
0.2
 49
0.1
 74
0
 49
-0.1
 74
0
  0
LTYPE
  5
1F9
100
AcDbSymbolTableRecord
100
AcDbLinetypeTableRecord
  2
DASHED
 70
64
  3
- - - - - - - - - - - - - - - - - - - -
 72
65
 73
2
 40
0.2
 49
0.1
 74
0
 49
-0.1
 74
0
  0
ENDTAB
  0
TABLE
  2
LAYER
  5
2
100
AcDbSymbolTable
 70
36
  0
LAYER
  5
10
100
AcDbSymbolTableRecord
100
AcDbLayerTableRecord
  2
0
 70
0
 62
7
  6
CONTINUOUS
370
-3
390
F
  0
LAYER
  5
1FA
100
AcDbSymbolTableRecord
100
AcDbLayerTableRecord
  2
DEFAULT_1
 70
0
 62
7
  6
CENTER
370
-3
390
F
  0
LAYER
  5
1FB
100
AcDbSymbolTableRecord
100
AcDbLayerTableRecord
  2
DEFAULT_2
 70
0
 62
8
  6
HIDDEN
370
-3
390
F
  0
LAYER
  5
1FC
100
AcDbSymbolTableRecord
100
AcDbLayerTableRecord
  2
DEFAULT_3
 70
0
 62
7
  6
PHANTOM
370
-3
390
F
  0
LAYER
  5
1FD
100
AcDbSymbolTableRecord
100
AcDbLayerTableRecord
  2
00_COMPONENTS
 70
0
 62
7
  6
CONTINUOUS
370
-3
390
F
  0
LAYER
  5
1FE
100
AcDbSymbolTableRecord
100
AcDbLayerTableRecord
  2
01_1_DEFAULT_DATUMS
 70
0
 62
7
  6
CONTINUOUS
370
-3
390
F
  0
LAYER
  5
1FF
100
AcDbSymbolTableRecord
100
AcDbLayerTableRecord
  2
01_PLANES
 70
0
 62
7
  6
CONTINUOUS
370
-3
390
F
  0
LAYER
  5
200
100
AcDbSymbolTableRecord
100
AcDbLayerTableRecord
  2
02_COORD_SYS
 70
0
 62
7
  6
CONTINUOUS
370
-3
390
F
  0
LAYER
  5
201
100
AcDbSymbolTableRecord
100
AcDbLayerTableRecord
  2
03_AXES
 70
0
 62
7
  6
CONTINUOUS
370
-3
390
F
  0
LAYER
  5
202
100
AcDbSymbolTableRecord
100
AcDbLayerTableRecord
  2
04_POINTS
 70
0
 62
7
  6
CONTINUOUS
370
-3
390
F
  0
LAYER
  5
203
100
AcDbSymbolTableRecord
100
AcDbLayerTableRecord
  2
05_CURVES
 70
0
 62
7
  6
CONTINUOUS
370
-3
390
F
  0
LAYER
  5
204
100
AcDbSymbolTableRecord
100
AcDbLayerTableRecord
  2
06_SURFS
 70
0
 62
7
  6
CONTINUOUS
370
-3
390
F
  0
LAYER
  5
205
100
AcDbSymbolTableRecord
100
AcDbLayerTableRecord
  2
07_COSMETICS
 70
0
 62
7
  6
CONTINUOUS
370
-3
390
F
  0
LAYER
  5
206
100
AcDbSymbolTableRecord
100
AcDbLayerTableRecord
  2
10_NOTES
 70
0
 62
7
  6
CONTINUOUS
370
-3
390
F
  0
LAYER
  5
207
100
AcDbSymbolTableRecord
100
AcDbLayerTableRecord
  2
11_NOTES_PUB
 70
0
 62
7
  6
CONTINUOUS
370
-3
390
F
  0
LAYER
  5
208
100
AcDbSymbolTableRecord
100
AcDbLayerTableRecord
  2
13_REF_GTOL
 70
0
 62
7
  6
CONTINUOUS
370
-3
390
F
  0
LAYER
  5
209
100
AcDbSymbolTableRecord
100
AcDbLayerTableRecord
  2
16_MISC
 70
0
 62
7
  6
CONTINUOUS
370
-3
390
F
  0
LAYER
  5
20A
100
AcDbSymbolTableRecord
100
AcDbLayerTableRecord
  2
17_NO_PRINT
 70
0
 62
7
  6
CONTINUOUS
370
-3
390
F
  0
LAYER
  5
20B
100
AcDbSymbolTableRecord
100
AcDbLayerTableRecord
  2
18_DATUM_CAMS_JOINTS
 70
0
 62
7
  6
CONTINUOUS
370
-3
390
F
  0
LAYER
  5
20C
100
AcDbSymbolTableRecord
100
AcDbLayerTableRecord
  2
19_DATUM_FUNCTIONAL
 70
0
 62
7
  6
CONTINUOUS
370
-3
390
F
  0
LAYER
  5
20D
100
AcDbSymbolTableRecord
100
AcDbLayerTableRecord
  2
20_DATUM_KINEMATIC_SCHEME
 70
0
 62
7
  6
CONTINUOUS
370
-3
390
F
  0
ENDTAB
  0
TABLE
  2
STYLE
  5
3
100
AcDbSymbolTable
 70
1
  0
STYLE
  5
11
100
AcDbSymbolTableRecord
100
AcDbTextStyleTableRecord
  2
STANDARD
 70
0
 40
0.0
 41
0.8
 50
0.0
 71
0
 42
0.2
  3
txt
  4

  0
STYLE
  5
20E
100
AcDbSymbolTableRecord
100
AcDbTextStyleTableRecord
  2
TEXTSTYLE_1
 70
0
 40
0.0
 41
0.8
 50
0.0
 71
0
 42
0.2
  3
gdt
  4

  0
ENDTAB
  0
TABLE
  2
VIEW
  5
6
100
AcDbSymbolTable
 70
0
  0
ENDTAB
  0
TABLE
  2
UCS
  5
7
100
AcDbSymbolTable
 70
0
  0
ENDTAB
  0
TABLE
  2
APPID
  5
9
100
AcDbSymbolTable
 70
1
  0
APPID
  5
20F
100
AcDbSymbolTableRecord
100
AcDbRegAppTableRecord
  2
ACAD
 70
0
  0
ENDTAB
  0
TABLE
  2
BLOCK_RECORD
  5
1
100
AcDbSymbolTable
 70
0
  0
BLOCK_RECORD
  5
210
100
AcDbSymbolTableRecord
100
AcDbBlockTableRecord
  2
*Model_Space
  0
BLOCK_RECORD
  5
211
100
AcDbSymbolTableRecord
100
AcDbBlockTableRecord
  2
*Paper_Space
  0
BLOCK_RECORD
  5
212
100
AcDbSymbolTableRecord
100
AcDbBlockTableRecord
  2
_FILLED
  0
ENDTAB
  0
TABLE
  2
DIMSTYLE
  5
A
100
AcDbSymbolTable
 70
1
100
AcDbDimStyleTable
 71
0
  0
DIMSTYLE
105
213
100
AcDbSymbolTableRecord
100
AcDbDimStyleTableRecord
  2
STANDARD
 70
0
  3

  4

 40
1.0
 41
9.0327740768
 42
1.0
 43
0.38
 44
1.0
 45
0.0
 46
0.0
 47
0.01
 48
0.01
140
12.6458837075
141
0.09
142
0.0
143
25.4
144
1.0
145
0.0
146
1.0
147
0.625
 71
1
 72
0
 73
0
 74
0
 75
0
 76
0
 77
1
 78
8
 79
2
170
0
171
1
172
0
173
0
174
0
175
0
176
0
177
0
178
0
270
2
179
2
271
2
272
2
273
2
274
2
275
0
280
0
281
0
282
0
283
1
284
8
285
0
286
0
287
3
288
0
340
11
278
46
341
212
342
212
343
212
344
212
  0
ENDTAB
  0
ENDSEC
  0
SECTION
  2
BLOCKS
  0
BLOCK
  5
20
100
AcDbEntity
  8
0
100
AcDbBlockBegin
  2
*Model_Space
 70
0
 10
0.0
 20
0.0
 30
0.0
  3
*Model_Space
  1

  0
ENDBLK
  5
21
100
AcDbEntity
  8
0
100
AcDbBlockEnd
  0
BLOCK
  5
1C
100
AcDbEntity
  8
0
100
AcDbBlockBegin
  2
*Paper_Space
 70
0
 10
0.0
 20
0.0
 30
0.0
  3
*Paper_Space
  1

  0
ENDBLK
  5
1D
100
AcDbEntity
  8
0
100
AcDbBlockEnd
  0
BLOCK
  5
214
100
AcDbEntity
  8
0
100
AcDbBlockBegin
  2
_FILLED
 70
64
 10
0.0
 20
0.0
  3
_FILLED
  1

  0
SOLID
  5
215
100
AcDbEntity
  8
0
  6
BYBLOCK
 62
0
100
AcDbTrace
 10
0.0
 20
0.0
 11
-1.0
 21
0.25
 12
-1.0
 22
-0.25
 13
-1.0
 23
-0.25
  0
ENDBLK
  5
216
100
AcDbEntity
  8
0
  6
BYBLOCK
 62
0
100
AcDbBlockEnd
  0
ENDSEC
  0
SECTION
  2
ENTITIES
  0
LINE
  5
217
100
AcDbEntity
  8
0
100
AcDbLine
 62
7
  6
CONTINUOUS
 10
83.1451429428
 20
310.3626717995
 11
91.0910393094
 21
304.7988952658
  0
LINE
  5
218
100
AcDbEntity
  8
0
100
AcDbLine
 62
7
  6
CONTINUOUS
 10
84.0055075973
 20
311.591399866
 11
90.196598425
 21
307.2563513986
  0
LINE
  5
219
100
AcDbEntity
  8
0
100
AcDbLine
 62
7
  6
CONTINUOUS
 10
83.3658722518
 20
312.8201279323
 11
84.0055075973
 21
311.591399866
  0
LINE
  5
21A
100
AcDbEntity
  8
0
100
AcDbLine
 62
7
  6
CONTINUOUS
 10
144.2296423012
 20
298.6233200122
 11
144.2644078751
 21
298.6112589902
  0
LINE
  5
21B
100
AcDbEntity
  8
0
100
AcDbLine
 62
7
  6
CONTINUOUS
 10
144.2894638684
 20
298.6023144694
 11
144.3068029141
 21
298.5962267341
  0
LINE
  5
21C
100
AcDbEntity
  8
0
100
AcDbLine
 62
7
  6
CONTINUOUS
 10
144.2644052314
 20
298.6112582328
 11
144.3066298017
 21
298.5962010922
  0
LINE
  5
21D
100
AcDbEntity
  8
0
100
AcDbLine
 62
7
  6
CONTINUOUS
 10
80.5652689078
 20
613.7704535198
 11
80.5652689078
 21
333.7666480099
  0
LINE
  5
21E
100
AcDbEntity
  8
0
100
AcDbLine
 62
7
  6
CONTINUOUS
 10
80.8146655638
 20
624.9807501311
 11
80.8146655638
 21
777.5807501311
  0
LINE
  5
21F
100
AcDbEntity
  8
0
100
AcDbLine
 62
7
  6
CONTINUOUS
 10
81.8658722518
 20
322.6563513986
 11
81.8658722518
 21
312.8201279324
  0
LINE
  5
220
100
AcDbEntity
  8
0
100
AcDbLine
 62
7
  6
CONTINUOUS
 10
82.0652689078
 20
333.76664801
 11
82.0652689078
 21
613.7704535198
  0
LINE
  5
221
100
AcDbEntity
  8
0
100
AcDbLine
 62
7
  6
CONTINUOUS
 10
83.3658722518
 20
322.6563513986
 11
83.3658722518
 21
312.8201279323
  0
LINE
  5
222
100
AcDbEntity
  8
0
100
AcDbLine
 62
7
  6
CONTINUOUS
 10
84.0652689078
 20
330.76664801
 11
84.0652689078
 21
334.1704535198
  0
LINE
  5
223
100
AcDbEntity
  8
0
100
AcDbLine
 62
7
  6
CONTINUOUS
 10
99.063241323
 20
613.7704535198
 11
100.3517259225
 21
620.3991321404
  0
LINE
  5
224
100
AcDbEntity
  8
0
100
AcDbLine
 62
7
  6
CONTINUOUS
 10
100.0448685065
 20
613.7704535198
 11
101.3333531059
 21
620.3991321402
  0
LINE
  5
225
100
AcDbEntity
  8
0
100
AcDbLine
 62
7
  6
CONTINUOUS
 10
144.2376740011
 20
298.5972843169
 11
144.2508382363
 21
298.5938886921
  0
LINE
  5
226
100
AcDbEntity
  8
0
100
AcDbLine
 62
7
  6
CONTINUOUS
 10
139.3049894512
 20
298.5760767319
 11
139.3186973802
 21
298.5722279846
  0
LINE
  5
227
100
AcDbEntity
  8
0
100
AcDbLine
 62
7
  6
CONTINUOUS
 10
139.1191966721
 20
298.6329791325
 11
139.3049671825
 21
298.5760838485
  0
LINE
  5
228
100
AcDbEntity
  8
0
100
AcDbLine
 62
7
  6
CONTINUOUS
 10
144.2321717151
 20
298.5989662312
 11
144.2349808307
 21
298.5980973309
  0
LINE
  5
229
100
AcDbEntity
  8
0
100
AcDbLine
 62
7
  6
CONTINUOUS
 10
144.3061773006
 20
298.5961367823
 11
144.3210200412
 21
298.5912766117
  0
LINE
  5
22A
100
AcDbEntity
  8
0
100
AcDbLine
 62
7
  6
CONTINUOUS
 10
144.2288741013
 20
298.6231772134
 11
144.2644052314
 21
298.6112582328
  0
LINE
  5
22B
100
AcDbEntity
  8
0
100
AcDbLine
 62
7
  6
CONTINUOUS
 10
144.3066298017
 20
298.5962010922
 11
144.3210301959
 21
298.59127769
  0
LINE
  5
22C
100
AcDbEntity
  8
0
100
AcDbLine
 62
7
  6
CONTINUOUS
 10
115.94058866
 20
302.4167534118
 11
115.8763484827
 21
304.2563513986
  0
LINE
  5
22D
100
AcDbEntity
  8
0
100
AcDbLine
 62
7
  6
CONTINUOUS
 10
660.2959107348
 20
328.8605179224
 11
660.9128281326
 21
328.9804345169
  0
LINE
  5
22E
100
AcDbEntity
  8
0
100
AcDbLine
 62
7
  6
CONTINUOUS
 10
119.4108876397
 20
298.5912544862
 11
119.4440276197
 21
298.5892692467
  0
LINE
  5
22F
100
AcDbEntity
  8
0
100
AcDbLine
 62
7
  6
CONTINUOUS
 10
134.2991798748
 20
298.5890032693
 11
134.2382125621
 21
298.5970963125
  0
LINE
  5
230
100
AcDbEntity
  8
0
100
AcDbLine
 62
7
  6
CONTINUOUS
 10
144.2508382363
 20
298.5938886921
 11
144.2828369236
 21
298.589482073
  0
LINE
  5
231
100
AcDbEntity
  8
0
100
AcDbLine
 62
7
  6
CONTINUOUS
 10
100.2177096829
 20
328.9804345169
 11
100.8346270809
 21
328.8605179224
  0
LINE
  5
232
100
AcDbEntity
  8
0
100
AcDbLine
 62
7
  6
CONTINUOUS
 10
100.8579365056
 20
328.9804345169
 11
100.0093624982
 21
324.2563513986
  0
LINE
  5
233
100
AcDbEntity
  8
0
100
AcDbLine
 62
7
  6
CONTINUOUS
 10
99.299440946
 20
324.2563513986
 11
100.2177096829
 21
328.9804345169
  0
LINE
  5
234
100
AcDbEntity
  8
0
100
AcDbLine
 62
7
  6
CONTINUOUS
 10
147.7911558438
 20
302.4167534118
 11
146.4337828807
 21
302.4167534118
  0
LINE
  5
235
100
AcDbEntity
  8
0
100
AcDbLine
 62
7
  6
CONTINUOUS
 10
117.297961623
 20
302.4167534118
 11
115.94058866
 21
302.4167534118
  0
LINE
  5
236
100
AcDbEntity
  8
0
100
AcDbLine
 62
7
  6
CONTINUOUS
 10
120.3245796597
 20
302.9752898225
 11
143.4071591224
 21
302.9752898225
  0
LINE
  5
237
100
AcDbEntity
  8
0
100
AcDbLine
 62
7
  6
CONTINUOUS
 10
143.4868035143
 20
303.7177371929
 11
120.2449409895
 21
303.7177371929
  0
LINE
  5
238
100
AcDbEntity
  8
0
100
AcDbLine
 62
7
  6
CONTINUOUS
 10
92.8117686184
 20
304.2563513986
 11
667.9199758852
 21
304.2563513986
  0
LINE
  5
239
100
AcDbEntity
  8
0
100
AcDbLine
 62
7
  6
CONTINUOUS
 10
670.5351460786
 20
307.2563513986
 11
90.196598425
 21
307.2563513986
  0
LINE
  5
23A
100
AcDbEntity
  8
0
100
AcDbLine
 62
7
  6
CONTINUOUS
 10
124.3613633301
 20
298.5666355289
 11
124.3703233537
 21
298.5666342334
  0
LINE
  5
23B
100
AcDbEntity
  8
0
100
AcDbLine
 62
7
  6
CONTINUOUS
 10
124.3547947931
 20
298.5668917636
 11
124.3704838556
 21
298.5666378741
  0
LWPOLYLINE
  5
23C
100
AcDbEntity
  8
0
100
AcDbPolyline
 62
7
  6
CONTINUOUS
 90
3
 70
0
 10
144.2828369236
 20
298.589482073
 10
144.2978325539
 20
298.5891615054
 10
144.3210200372
 20
298.5912766092
  0
LINE
  5
23D
100
AcDbEntity
  8
0
100
AcDbLine
 62
7
  6
CONTINUOUS
 10
124.3535286057
 20
298.566965974
 11
124.3613633301
 21
298.5666355289
  0
LINE
  5
23E
100
AcDbEntity
  8
0
100
AcDbLine
 62
7
  6
CONTINUOUS
 10
101.0375794146
 20
621.3517793367
 11
101.3333531059
 21
620.3991321402
  0
LINE
  5
23F
100
AcDbEntity
  8
0
100
AcDbLine
 62
7
  6
CONTINUOUS
 10
147.7911558438
 20
302.4167534118
 11
147.855396021
 21
304.2563513986
  0
LINE
  5
240
100
AcDbEntity
  8
0
100
AcDbLine
 62
7
  6
CONTINUOUS
 10
100.8579365056
 20
328.9804345169
 11
100.924885502
 21
329.2666480322
  0
LINE
  5
241
100
AcDbEntity
  8
0
100
AcDbLine
 62
7
  6
CONTINUOUS
 10
81.8658722518
 20
322.6563513986
 11
678.8658722518
 21
322.6563513986
  0
LINE
  5
242
100
AcDbEntity
  8
0
100
AcDbLine
 62
7
  6
CONTINUOUS
 10
84.3583489239
 20
324.2563513986
 11
676.3733955798
 21
324.2563513986
  0
LINE
  5
243
100
AcDbEntity
  8
0
100
AcDbLine
 62
7
  6
CONTINUOUS
 10
100.8579365056
 20
328.9804345169
 11
660.2726013101
 21
328.9804345169
  0
LINE
  5
244
100
AcDbEntity
  8
0
100
AcDbLine
 62
7
  6
CONTINUOUS
 10
83.5652689078
 20
330.76664801
 11
84.0552689078
 21
330.76664801
  0
LINE
  5
245
100
AcDbEntity
  8
0
100
AcDbLine
 62
7
  6
CONTINUOUS
 10
84.0652689078
 20
330.76664801
 11
677.0652689078
 21
330.76664801
  0
LINE
  5
246
100
AcDbEntity
  8
0
100
AcDbLine
 62
7
  6
CONTINUOUS
 10
677.0752689078
 20
330.76664801
 11
677.5652689078
 21
330.76664801
  0
LINE
  5
247
100
AcDbEntity
  8
0
100
AcDbLine
 62
7
  6
CONTINUOUS
 10
83.5652689078
 20
332.26664801
 11
84.0552689078
 21
332.26664801
  0
LINE
  5
248
100
AcDbEntity
  8
0
100
AcDbLine
 62
7
  6
CONTINUOUS
 10
677.0752689078
 20
332.26664801
 11
677.5652689078
 21
332.26664801
  0
LINE
  5
249
100
AcDbEntity
  8
0
100
AcDbLine
 62
7
  6
CONTINUOUS
 10
677.0652689078
 20
333.76664801
 11
84.0652689078
 21
333.76664801
  0
LINE
  5
24A
100
AcDbEntity
  8
0
100
AcDbLine
 62
7
  6
CONTINUOUS
 10
80.5652689078
 20
334.1704535198
 11
84.0652689078
 21
334.1704535198
  0
LINE
  5
24B
100
AcDbEntity
  8
0
100
AcDbLine
 62
7
  6
CONTINUOUS
 10
677.0652689078
 20
334.1704535198
 11
680.5652689078
 21
334.1704535198
  0
LINE
  5
24C
100
AcDbEntity
  8
0
100
AcDbLine
 62
7
  6
CONTINUOUS
 10
119.4440276197
 20
298.5892692467
 11
119.4940964062
 21
298.5972919459
  0
LINE
  5
24D
100
AcDbEntity
  8
0
100
AcDbLine
 62
7
  6
CONTINUOUS
 10
100.775555255
 20
621.4918994309
 11
100.3052202732
 21
621.3517793366
  0
LINE
  5
24E
100
AcDbEntity
  8
0
100
AcDbLine
 62
7
  6
CONTINUOUS
 10
119.9661662137
 20
298.758078196
 11
119.9844008879
 21
298.7626848755
  0
LINE
  5
24F
100
AcDbEntity
  8
0
100
AcDbLine
 62
7
  6
CONTINUOUS
 10
253.0646655638
 20
741.0307501311
 11
253.0646655638
 21
704.5307501311
  0
LINE
  5
250
100
AcDbEntity
  8
0
100
AcDbLine
 62
7
  6
CONTINUOUS
 10
253.5646655638
 20
741.0307501311
 11
253.5646655638
 21
704.5307501311
  0
LINE
  5
251
100
AcDbEntity
  8
0
100
AcDbLine
 62
7
  6
CONTINUOUS
 10
254.3864663014
 20
740.0307501308
 11
254.3864663014
 21
705.5307501315
  0
LINE
  5
252
100
AcDbEntity
  8
0
100
AcDbLine
 62
7
  6
CONTINUOUS
 10
256.3560818074
 20
705.5307501311
 11
256.3560818074
 21
740.0307501311
  0
LINE
  5
253
100
AcDbEntity
  8
0
100
AcDbLine
 62
7
  6
CONTINUOUS
 10
256.447938384
 20
740.0307501311
 11
256.447938384
 21
705.5307501311
  0
LINE
  5
254
100
AcDbEntity
  8
0
100
AcDbLine
 62
7
  6
CONTINUOUS
 10
257.4327461371
 20
705.5307501311
 11
257.4327461371
 21
740.0307501311
  0
LINE
  5
255
100
AcDbEntity
  8
0
100
AcDbLine
 62
7
  6
CONTINUOUS
 10
270.8146655638
 20
740.2807501311
 11
270.8146655638
 21
705.2807501311
  0
LINE
  5
256
100
AcDbEntity
  8
0
100
AcDbLine
 62
7
  6
CONTINUOUS
 10
280.0646655638
 20
677.5307501311
 11
280.0646655638
 21
678.0307501311
  0
LINE
  5
257
100
AcDbEntity
  8
0
100
AcDbLine
 62
7
  6
CONTINUOUS
 10
280.0646655638
 20
767.5307501311
 11
280.0646655638
 21
768.0307501311
  0
LINE
  5
258
100
AcDbEntity
  8
0
100
AcDbLine
 62
7
  6
CONTINUOUS
 10
281.0646655638
 20
678.8525508687
 11
281.0646655638
 21
681.8988307044
  0
LINE
  5
259
100
AcDbEntity
  8
0
100
AcDbLine
 62
7
  6
CONTINUOUS
 10
281.0646655638
 20
763.6626695578
 11
281.0646655638
 21
766.7089493935
  0
LINE
  5
25A
100
AcDbEntity
  8
0
100
AcDbLine
 62
7
  6
CONTINUOUS
 10
87.5814282313
 20
307.2563513988
 11
88.4417928858
 21
308.4850794653
  0
LINE
  5
25B
100
AcDbEntity
  8
0
100
AcDbLine
 62
7
  6
CONTINUOUS
 10
91.4952816145
 20
305.3762131079
 11
91.0910393094
 21
304.7988952658
  0
LINE
  5
25C
100
AcDbEntity
  8
0
100
AcDbLine
 62
7
  6
CONTINUOUS
 10
100.7490852888
 20
621.5807500068
 11
101.0375794146
 21
621.3517793367
  0
LINE
  5
25D
100
AcDbEntity
  8
0
100
AcDbLine
 62
7
  6
CONTINUOUS
 10
660.5403127204
 20
330.0524175727
 11
661.0052207747
 21
329.8544125463
  0
LINE
  5
25E
100
AcDbEntity
  8
0
100
AcDbLine
 62
7
  6
CONTINUOUS
 10
660.1108021651
 20
621.1609703413
 11
661.0924293485
 21
621.3517793366
  0
LINE
  5
25F
100
AcDbEntity
  8
0
100
AcDbLine
 62
7
  6
CONTINUOUS
 10
100.3517259226
 20
620.3991321408
 11
101.333353106
 21
620.2083231455
  0
LINE
  5
260
100
AcDbEntity
  8
0
100
AcDbLine
 62
7
  6
CONTINUOUS
 10
80.5652689078
 20
613.7704535198
 11
680.5652689078
 21
613.7704535198
  0
LINE
  5
261
100
AcDbEntity
  8
0
100
AcDbLine
 62
7
  6
CONTINUOUS
 10
480.5646655638
 20
766.7089493935
 11
480.5646655638
 21
763.6626695578
  0
LINE
  5
262
100
AcDbEntity
  8
0
100
AcDbLine
 62
7
  6
CONTINUOUS
 10
480.5646655638
 20
681.8988307044
 11
480.5646655638
 21
678.8525508687
  0
LINE
  5
263
100
AcDbEntity
  8
0
100
AcDbLine
 62
7
  6
CONTINUOUS
 10
481.5646655638
 20
768.0307501311
 11
481.5646655638
 21
767.5307501311
  0
LINE
  5
264
100
AcDbEntity
  8
0
100
AcDbLine
 62
7
  6
CONTINUOUS
 10
481.5646655638
 20
678.0307501311
 11
481.5646655638
 21
677.5307501311
  0
LINE
  5
265
100
AcDbEntity
  8
0
100
AcDbLine
 62
7
  6
CONTINUOUS
 10
100.5902247963
 20
330.0524174454
 11
100.1253170409
 21
329.8544125463
  0
LINE
  5
266
100
AcDbEntity
  8
0
100
AcDbLine
 62
7
  6
CONTINUOUS
 10
101.0375794146
 20
621.3517793367
 11
660.1108021651
 21
621.3517793367
  0
LINE
  5
267
100
AcDbEntity
  8
0
100
AcDbLine
 62
7
  6
CONTINUOUS
 10
83.0146655638
 20
622.7807501311
 11
678.6146655638
 21
622.7807501311
  0
LINE
  5
268
100
AcDbEntity
  8
0
100
AcDbLine
 62
7
  6
CONTINUOUS
 10
680.8146655638
 20
624.9807501311
 11
80.8146655638
 21
624.9807501311
  0
LINE
  5
269
100
AcDbEntity
  8
0
100
AcDbLine
 62
7
  6
CONTINUOUS
 10
669.2364628892
 20
305.3762131079
 11
669.6407051942
 21
304.7988952657
  0
LINE
  5
26A
100
AcDbEntity
  8
0
100
AcDbLine
 62
7
  6
CONTINUOUS
 10
490.8146655638
 20
705.2807501311
 11
490.8146655638
 21
740.2807501311
  0
LINE
  5
26B
100
AcDbEntity
  8
0
100
AcDbLine
 62
7
  6
CONTINUOUS
 10
504.1965849905
 20
740.0307501311
 11
504.1965849905
 21
705.5307501311
  0
LINE
  5
26C
100
AcDbEntity
  8
0
100
AcDbLine
 62
7
  6
CONTINUOUS
 10
505.1813927435
 20
705.5307501311
 11
505.1813927435
 21
740.0307501311
  0
LINE
  5
26D
100
AcDbEntity
  8
0
100
AcDbLine
 62
7
  6
CONTINUOUS
 10
505.2732493201
 20
740.0307501311
 11
505.2732493201
 21
705.5307501311
  0
LINE
  5
26E
100
AcDbEntity
  8
0
100
AcDbLine
 62
7
  6
CONTINUOUS
 10
507.2428648262
 20
705.5307501315
 11
507.2428648262
 21
740.0307501308
  0
LINE
  5
26F
100
AcDbEntity
  8
0
100
AcDbLine
 62
7
  6
CONTINUOUS
 10
508.0646655638
 20
704.5307501311
 11
508.0646655638
 21
741.0307501311
  0
LINE
  5
270
100
AcDbEntity
  8
0
100
AcDbLine
 62
7
  6
CONTINUOUS
 10
508.5646655638
 20
704.5307501311
 11
508.5646655638
 21
741.0307501311
  0
LINE
  5
271
100
AcDbEntity
  8
0
100
AcDbLine
 62
7
  6
CONTINUOUS
 10
672.2899516178
 20
308.4850794652
 11
673.1503162723
 21
307.2563513988
  0
LINE
  5
272
100
AcDbEntity
  8
0
100
AcDbLine
 62
7
  6
CONTINUOUS
 10
660.1108021651
 20
621.3517793367
 11
660.3459855138
 21
621.5807500602
  0
LWPOLYLINE
  5
273
100
AcDbEntity
  8
0
100
AcDbPolyline
 62
7
  6
CONTINUOUS
 90
3
 70
0
 10
119.4133488697
 20
298.5921508171
 10
119.4959314279
 20
298.6208080022
 10
119.5404562653
 20
298.6357633273
  0
LINE
  5
274
100
AcDbEntity
  8
0
100
AcDbLine
 62
7
  6
CONTINUOUS
 10
119.4621204425
 20
298.6090325926
 11
119.5404567975
 21
298.6357632164
  0
LINE
  5
275
100
AcDbEntity
  8
0
100
AcDbLine
 62
7
  6
CONTINUOUS
 10
119.4108811641
 20
298.5912554982
 11
119.4135018028
 21
298.5921298032
  0
LINE
  5
276
100
AcDbEntity
  8
0
100
AcDbLine
 62
7
  6
CONTINUOUS
 10
119.5404567975
 20
298.6357632164
 11
119.5442434834
 21
298.6370118061
  0
LINE
  5
277
100
AcDbEntity
  8
0
100
AcDbLine
 62
7
  6
CONTINUOUS
 10
119.5404562653
 20
298.6357633273
 11
119.5447027465
 21
298.6371388074
  0
LINE
  5
278
100
AcDbEntity
  8
0
100
AcDbLine
 62
7
  6
CONTINUOUS
 10
129.5327266116
 20
298.6091359773
 11
129.4267550525
 21
298.5760767319
  0
LINE
  5
279
100
AcDbEntity
  8
0
100
AcDbLine
 62
7
  6
CONTINUOUS
 10
119.4996775323
 20
298.5989986081
 11
119.4967677435
 21
298.5980985908
  0
LINE
  5
27A
100
AcDbEntity
  8
0
100
AcDbLine
 62
7
  6
CONTINUOUS
 10
280.0646655638
 20
677.5307501311
 11
481.5646655638
 21
677.5307501311
  0
LINE
  5
27B
100
AcDbEntity
  8
0
100
AcDbLine
 62
7
  6
CONTINUOUS
 10
280.0646655638
 20
678.0307501311
 11
481.5646655638
 21
678.0307501311
  0
LINE
  5
27C
100
AcDbEntity
  8
0
100
AcDbLine
 62
7
  6
CONTINUOUS
 10
281.0646655641
 20
678.8525508687
 11
480.5646655634
 21
678.8525508687
  0
LINE
  5
27D
100
AcDbEntity
  8
0
100
AcDbLine
 62
7
  6
CONTINUOUS
 10
480.5646655638
 20
680.8221663748
 11
281.0646655638
 21
680.8221663748
  0
LINE
  5
27E
100
AcDbEntity
  8
0
100
AcDbLine
 62
7
  6
CONTINUOUS
 10
281.0646655638
 20
680.9140229514
 11
480.5646655638
 21
680.9140229514
  0
LINE
  5
27F
100
AcDbEntity
  8
0
100
AcDbLine
 62
7
  6
CONTINUOUS
 10
480.5646655638
 20
681.8988307044
 11
281.0646655638
 21
681.8988307044
  0
LINE
  5
280
100
AcDbEntity
  8
0
100
AcDbLine
 62
7
  6
CONTINUOUS
 10
280.8146655638
 20
695.2807501311
 11
480.8146655638
 21
695.2807501311
  0
LINE
  5
281
100
AcDbEntity
  8
0
100
AcDbLine
 62
7
  6
CONTINUOUS
 10
508.5646655638
 20
704.5307501311
 11
508.0646655638
 21
704.5307501311
  0
LINE
  5
282
100
AcDbEntity
  8
0
100
AcDbLine
 62
7
  6
CONTINUOUS
 10
253.5646655638
 20
704.5307501311
 11
253.0646655638
 21
704.5307501311
  0
LINE
  5
283
100
AcDbEntity
  8
0
100
AcDbLine
 62
7
  6
CONTINUOUS
 10
507.2428648262
 20
705.5307501311
 11
504.1965849905
 21
705.5307501311
  0
LINE
  5
284
100
AcDbEntity
  8
0
100
AcDbLine
 62
7
  6
CONTINUOUS
 10
257.4327461371
 20
705.5307501311
 11
254.3864663014
 21
705.5307501311
  0
LINE
  5
285
100
AcDbEntity
  8
0
100
AcDbLine
 62
7
  6
CONTINUOUS
 10
254.3864663014
 20
740.0307501311
 11
257.4327461371
 21
740.0307501311
  0
LINE
  5
286
100
AcDbEntity
  8
0
100
AcDbLine
 62
7
  6
CONTINUOUS
 10
504.1965849905
 20
740.0307501311
 11
507.2428648262
 21
740.0307501311
  0
LINE
  5
287
100
AcDbEntity
  8
0
100
AcDbLine
 62
7
  6
CONTINUOUS
 10
253.0646655638
 20
741.0307501311
 11
253.5646655638
 21
741.0307501311
  0
LINE
  5
288
100
AcDbEntity
  8
0
100
AcDbLine
 62
7
  6
CONTINUOUS
 10
508.0646655638
 20
741.0307501311
 11
508.5646655638
 21
741.0307501311
  0
LINE
  5
289
100
AcDbEntity
  8
0
100
AcDbLine
 62
7
  6
CONTINUOUS
 10
480.8146655638
 20
750.2807501311
 11
280.8146655638
 21
750.2807501311
  0
LINE
  5
28A
100
AcDbEntity
  8
0
100
AcDbLine
 62
7
  6
CONTINUOUS
 10
281.0646655638
 20
763.6626695578
 11
480.5646655638
 21
763.6626695578
  0
LINE
  5
28B
100
AcDbEntity
  8
0
100
AcDbLine
 62
7
  6
CONTINUOUS
 10
480.5646655638
 20
764.6474773108
 11
281.0646655638
 21
764.6474773108
  0
LINE
  5
28C
100
AcDbEntity
  8
0
100
AcDbLine
 62
7
  6
CONTINUOUS
 10
281.0646655638
 20
764.7393338875
 11
480.5646655638
 21
764.7393338875
  0
LINE
  5
28D
100
AcDbEntity
  8
0
100
AcDbLine
 62
7
  6
CONTINUOUS
 10
480.5646655638
 20
766.7089493935
 11
281.0646655638
 21
766.7089493935
  0
LINE
  5
28E
100
AcDbEntity
  8
0
100
AcDbLine
 62
7
  6
CONTINUOUS
 10
481.5646655638
 20
767.5307501311
 11
280.0646655638
 21
767.5307501311
  0
LINE
  5
28F
100
AcDbEntity
  8
0
100
AcDbLine
 62
7
  6
CONTINUOUS
 10
481.5646655638
 20
768.0307501311
 11
280.0646655638
 21
768.0307501311
  0
LINE
  5
290
100
AcDbEntity
  8
0
100
AcDbLine
 62
7
  6
CONTINUOUS
 10
660.2056523136
 20
329.2666480322
 11
660.27260131
 21
328.9804345169
  0
LINE
  5
291
100
AcDbEntity
  8
0
100
AcDbLine
 62
7
  6
CONTINUOUS
 10
80.8146655638
 20
777.5807501311
 11
680.8146655638
 21
777.5807501311
  0
LINE
  5
292
100
AcDbEntity
  8
0
100
AcDbLine
 62
7
  6
CONTINUOUS
 10
678.6146655638
 20
779.7807501311
 11
83.0146655638
 21
779.7807501311
  0
LINE
  5
293
100
AcDbEntity
  8
0
100
AcDbLine
 62
7
  6
CONTINUOUS
 10
660.9128281326
 20
328.9804345169
 11
661.8310968696
 21
324.2563513986
  0
LINE
  5
294
100
AcDbEntity
  8
0
100
AcDbLine
 62
7
  6
CONTINUOUS
 10
661.1211753175
 20
324.2563513986
 11
660.2726013101
 21
328.9804345169
  0
LINE
  5
295
100
AcDbEntity
  8
0
100
AcDbLine
 62
7
  6
CONTINUOUS
 10
677.0652689078
 20
334.1704535198
 11
677.0652689078
 21
330.76664801
  0
LINE
  5
296
100
AcDbEntity
  8
0
100
AcDbLine
 62
7
  6
CONTINUOUS
 10
677.3658722518
 20
322.6563513986
 11
677.3658722518
 21
312.8201279236
  0
LINE
  5
297
100
AcDbEntity
  8
0
100
AcDbLine
 62
7
  6
CONTINUOUS
 10
678.8658722518
 20
322.6563513986
 11
678.8658722518
 21
312.8201279324
  0
LINE
  5
298
100
AcDbEntity
  8
0
100
AcDbLine
 62
7
  6
CONTINUOUS
 10
679.0652689078
 20
333.76664801
 11
679.0652689078
 21
613.7704535198
  0
LINE
  5
299
100
AcDbEntity
  8
0
100
AcDbLine
 62
7
  6
CONTINUOUS
 10
680.5652689078
 20
333.7666480099
 11
680.5652689078
 21
613.7704535198
  0
LINE
  5
29A
100
AcDbEntity
  8
0
100
AcDbLine
 62
7
  6
CONTINUOUS
 10
680.8146655638
 20
624.9807501311
 11
680.8146655638
 21
777.5807501311
  0
LINE
  5
29B
100
AcDbEntity
  8
0
100
AcDbLine
 62
7
  6
CONTINUOUS
 10
661.5844626211
 20
613.7704535198
 11
660.1108021651
 21
621.3517793367
  0
LINE
  5
29C
100
AcDbEntity
  8
0
100
AcDbLine
 62
7
  6
CONTINUOUS
 10
661.0924293485
 20
621.3517793367
 11
662.5660898044
 21
613.7704535198
  0
LINE
  5
29D
100
AcDbEntity
  8
0
100
AcDbLine
 62
7
  6
CONTINUOUS
 10
676.7262369135
 20
311.5913998709
 11
677.3658722518
 21
312.8201279236
  0
LINE
  5
29E
100
AcDbEntity
  8
0
100
AcDbLine
 62
7
  6
CONTINUOUS
 10
670.5351460786
 20
307.2563513986
 11
676.7262369135
 21
311.5913998709
  0
LINE
  5
29F
100
AcDbEntity
  8
0
100
AcDbLine
 62
7
  6
CONTINUOUS
 10
669.6407051943
 20
304.7988952658
 11
677.5866015608
 21
310.3626717995
  0
ARC
  5
2A0
100
AcDbEntity
  8
0
100
AcDbCircle
 62
7
  6
CONTINUOUS
 10
121.9360083039
 20
290.0613552337
 40
8.9117943723
100
AcDbArc
 50
96.7373364861
 51
97.0550919268
  0
ARC
  5
2A1
100
AcDbEntity
  8
0
100
AcDbCircle
 62
7
  6
CONTINUOUS
 10
121.8658722519
 20
290.9438513986
 40
8.0125
100
AcDbArc
 50
72.2770875914
 51
107.1980818903
  0
ARC
  5
2A2
100
AcDbEntity
  8
0
100
AcDbCircle
 62
7
  6
CONTINUOUS
 10
97.2339500068
 20
310.0605695612
 40
7.415493791
100
AcDbArc
 50
218.2972807853
 51
220.5354493335
  0
ARC
  5
2A3
100
AcDbEntity
  8
0
100
AcDbCircle
 62
7
  6
CONTINUOUS
 10
121.624654123
 20
292.1242428862
 40
6.8380403249
100
AcDbArc
 50
104.0402317358
 51
104.885145586
  0
ARC
  5
2A4
100
AcDbEntity
  8
0
100
AcDbCircle
 62
7
  6
CONTINUOUS
 10
121.4577581036
 20
292.7419838428
 40
6.1982330437
100
AcDbArc
 50
104.8621568157
 51
106.3589157267
  0
ARC
  5
2A5
100
AcDbEntity
  8
0
100
AcDbCircle
 62
7
  6
CONTINUOUS
 10
121.3179957899
 20
293.2492608658
 40
5.6722180352
100
AcDbArc
 50
107.6669793616
 51
108.2225494127
  0
ARC
  5
2A6
100
AcDbEntity
  8
0
100
AcDbCircle
 62
7
  6
CONTINUOUS
 10
121.2024126165
 20
293.6088357381
 40
5.2945557408
100
AcDbArc
 50
106.3496496484
 51
107.6566640637
  0
ARC
  5
2A7
100
AcDbEntity
  8
0
100
AcDbCircle
 62
7
  6
CONTINUOUS
 10
119.938151968
 20
302.5563513986
 40
4.0
100
AcDbArc
 50
182.0
 51
262.4253570511
  0
ARC
  5
2A8
100
AcDbEntity
  8
0
100
AcDbCircle
 62
7
  6
CONTINUOUS
 10
94.6306804933
 20
307.6787303569
 40
3.8850003566
100
AcDbArc
 50
225.4659854216
 51
227.8397320077
  0
ARC
  5
2A9
100
AcDbEntity
  8
0
100
AcDbCircle
 62
7
  6
CONTINUOUS
 10
92.8117686184
 20
307.2563513986
 40
3.0
100
AcDbArc
 50
235.0000000001
 51
270.0
  0
ARC
  5
2AA
100
AcDbEntity
  8
0
100
AcDbCircle
 62
7
  6
CONTINUOUS
 10
124.5969843976
 20
299.391282273
 40
0.8573786444
100
AcDbArc
 50
253.8074745947
 51
254.059444149
  0
ARC
  5
2AB
100
AcDbEntity
  8
0
100
AcDbCircle
 62
7
  6
CONTINUOUS
 10
119.439904644
 20
298.7921523776
 40
0.2021909555
100
AcDbArc
 50
283.6516444858
 51
287.2075998715
  0
ARC
  5
2AC
100
AcDbEntity
  8
0
100
AcDbCircle
 62
7
  6
CONTINUOUS
 10
124.3658722519
 20
298.7665846965
 40
0.2
100
AcDbArc
 50
271.2752520484
 51
287.7229124086
  0
ARC
  5
2AD
100
AcDbEntity
  8
0
100
AcDbCircle
 62
7
  6
CONTINUOUS
 10
124.3658722519
 20
298.7665846965
 40
0.2
100
AcDbArc
 50
252.2770875914
 51
266.4615570231
  0
ARC
  5
2AE
100
AcDbEntity
  8
0
100
AcDbCircle
 62
7
  6
CONTINUOUS
 10
119.4408620918
 20
298.7884212879
 40
0.1983393054
100
AcDbArc
 50
274.3601888777
 51
283.63726016
  0
ARC
  5
2AF
100
AcDbEntity
  8
0
100
AcDbCircle
 62
7
  6
CONTINUOUS
 10
124.3671375388
 20
298.7631594921
 40
0.1963690549
100
AcDbArc
 50
270.9299493126
 51
277.3332223913
  0
ARC
  5
2B0
100
AcDbEntity
  8
0
100
AcDbCircle
 62
7
  6
CONTINUOUS
 10
124.3671141427
 20
298.7623539188
 40
0.1955639709
100
AcDbArc
 50
268.3164788668
 51
270.9406334469
  0
ARC
  5
2B1
100
AcDbEntity
  8
0
100
AcDbCircle
 62
7
  6
CONTINUOUS
 10
124.3642022136
 20
298.7619032653
 40
0.1950494847
100
AcDbArc
 50
252.3112641111
 51
269.1676308519
  0
ARC
  5
2B2
100
AcDbEntity
  8
0
100
AcDbCircle
 62
7
  6
CONTINUOUS
 10
120.6971170566
 20
324.9139302426
 40
20.2439577931
100
AcDbArc
 50
165.8744636148
 51
166.6996326724
  0
ARC
  5
2B3
100
AcDbEntity
  8
0
100
AcDbCircle
 62
7
  6
CONTINUOUS
 10
94.5268816349
 20
320.486541231
 40
11.4239888441
100
AcDbArc
 50
55.0865503692
 51
55.4903688389
  0
ARC
  5
2B4
100
AcDbEntity
  8
0
100
AcDbCircle
 62
7
  6
CONTINUOUS
 10
97.7178348321
 20
325.498832009
 40
5.4795991861
100
AcDbArc
 50
60.8394828556
 51
61.941152715
  0
ARC
  5
2B5
100
AcDbEntity
  8
0
100
AcDbCircle
 62
7
  6
CONTINUOUS
 10
83.5652689078
 20
333.76664801
 40
3.0
100
AcDbArc
 50
180.0000000003
 51
270.0000000002
  0
ARC
  5
2B6
100
AcDbEntity
  8
0
100
AcDbCircle
 62
7
  6
CONTINUOUS
 10
84.8658722518
 20
312.8201279324
 40
3.0
100
AcDbArc
 50
179.9999999999
 51
235.0
  0
ARC
  5
2B7
100
AcDbEntity
  8
0
100
AcDbCircle
 62
7
  6
CONTINUOUS
 10
83.4658722518
 20
322.6563513986
 40
1.6
100
AcDbArc
 50
69.0014777087
 51
180.0
  0
ARC
  5
2B8
100
AcDbEntity
  8
0
100
AcDbCircle
 62
7
  6
CONTINUOUS
 10
83.5652689078
 20
333.76664801
 40
1.5
100
AcDbArc
 50
180.0000000004
 51
270.0000000008
  0
ARC
  5
2B9
100
AcDbEntity
  8
0
100
AcDbCircle
 62
7
  6
CONTINUOUS
 10
98.7452689078
 20
329.26664801
 40
1.5
100
AcDbArc
 50
349.0
 51
90.0
  0
ARC
  5
2BA
100
AcDbEntity
  8
0
100
AcDbCircle
 62
7
  6
CONTINUOUS
 10
84.8658722518
 20
312.8201279324
 40
1.5
100
AcDbArc
 50
180.0
 51
235.000000002
  0
ARC
  5
2BB
100
AcDbEntity
  8
0
100
AcDbCircle
 62
7
  6
CONTINUOUS
 10
136.8658722519
 20
290.9438513986
 40
8.0125
100
AcDbArc
 50
73.6666019928
 51
107.7229124086
  0
ARC
  5
2BC
100
AcDbEntity
  8
0
100
AcDbCircle
 62
7
  6
CONTINUOUS
 10
141.8658722519
 20
290.9438513986
 40
8.0125
100
AcDbArc
 50
72.8018880148
 51
107.7229124086
  0
ARC
  5
2BD
100
AcDbEntity
  8
0
100
AcDbCircle
 62
7
  6
CONTINUOUS
 10
131.8658722519
 20
290.9438513986
 40
8.0125
100
AcDbArc
 50
72.2770875914
 51
106.9291066191
  0
ARC
  5
2BE
100
AcDbEntity
  8
0
100
AcDbCircle
 62
7
  6
CONTINUOUS
 10
126.8658722519
 20
290.9438513986
 40
8.0125
100
AcDbArc
 50
72.2770875914
 51
107.7229124086
  0
ARC
  5
2BF
100
AcDbEntity
  8
0
100
AcDbCircle
 62
7
  6
CONTINUOUS
 10
142.069165189
 20
292.5267805977
 40
6.4315355653
100
AcDbArc
 50
82.6655245944
 51
83.1087092405
  0
ARC
  5
2C0
100
AcDbEntity
  8
0
100
AcDbCircle
 62
7
  6
CONTINUOUS
 10
143.7935925357
 20
302.5563513986
 40
4.0
100
AcDbArc
 50
277.5770540361
 51
358.0
  0
ARC
  5
2C1
100
AcDbEntity
  8
0
100
AcDbCircle
 62
7
  6
CONTINUOUS
 10
125.2575831627
 20
296.0505252029
 40
2.67114206
100
AcDbArc
 50
108.9141647923
 51
109.3451413335
  0
ARC
  5
2C2
100
AcDbEntity
  8
0
100
AcDbCircle
 62
7
  6
CONTINUOUS
 10
125.0439429593
 20
296.6598434812
 40
2.0254557512
100
AcDbArc
 50
109.3525908554
 51
109.5922203415
  0
ARC
  5
2C3
100
AcDbEntity
  8
0
100
AcDbCircle
 62
7
  6
CONTINUOUS
 10
124.9417369428
 20
296.9472829463
 40
1.720386079
100
AcDbArc
 50
109.5954394267
 51
109.710221512
  0
ARC
  5
2C4
100
AcDbEntity
  8
0
100
AcDbCircle
 62
7
  6
CONTINUOUS
 10
139.81853043
 20
300.1177540242
 40
1.6131140219
100
AcDbArc
 50
252.6498785239
 51
252.9478079548
  0
ARC
  5
2C5
100
AcDbEntity
  8
0
100
AcDbCircle
 62
7
  6
CONTINUOUS
 10
134.216416675
 20
298.1349945266
 40
0.4574733937
100
AcDbArc
 50
70.7401216724
 51
71.0134719602
  0
ARC
  5
2C6
100
AcDbEntity
  8
0
100
AcDbCircle
 62
7
  6
CONTINUOUS
 10
139.3658722519
 20
298.7665846965
 40
0.2
100
AcDbArc
 50
256.356831213
 51
287.7229124087
  0
ARC
  5
2C7
100
AcDbEntity
  8
0
100
AcDbCircle
 62
7
  6
CONTINUOUS
 10
134.3658722519
 20
298.7665846965
 40
0.2
100
AcDbArc
 50
252.2770875915
 51
287.7229124086
  0
ARC
  5
2C8
100
AcDbEntity
  8
0
100
AcDbCircle
 62
7
  6
CONTINUOUS
 10
129.3658722519
 20
298.7665846965
 40
0.2
100
AcDbArc
 50
252.2770875914
 51
287.7229124086
  0
ARC
  5
2C9
100
AcDbEntity
  8
0
100
AcDbCircle
 62
7
  6
CONTINUOUS
 10
134.3644530986
 20
298.7629303618
 40
0.1960872378
100
AcDbArc
 50
252.3473293747
 51
270.9076446758
  0
ARC
  5
2CA
100
AcDbEntity
  8
0
100
AcDbCircle
 62
7
  6
CONTINUOUS
 10
129.3673164296
 20
298.762819652
 40
0.1959741517
100
AcDbArc
 50
269.156224906
 51
287.6557831995
  0
ARC
  5
2CB
100
AcDbEntity
  8
0
100
AcDbCircle
 62
7
  6
CONTINUOUS
 10
129.3642671317
 20
298.7622332433
 40
0.1953665533
100
AcDbArc
 50
252.3370253467
 51
270.0479604365
  0
ARC
  5
2CC
100
AcDbEntity
  8
0
100
AcDbCircle
 62
7
  6
CONTINUOUS
 10
134.3674822737
 20
298.7622100534
 40
0.1953429694
100
AcDbArc
 50
270.0231576934
 51
287.6636912501
  0
ARC
  5
2CD
100
AcDbEntity
  8
0
100
AcDbCircle
 62
7
  6
CONTINUOUS
 10
139.363660024
 20
298.7577852744
 40
0.1909270607
100
AcDbArc
 50
256.3696665243
 51
266.8873691422
  0
ARC
  5
2CE
100
AcDbEntity
  8
0
100
AcDbCircle
 62
7
  6
CONTINUOUS
 10
129.379843585
 20
298.5381349111
 40
0.0326049203
100
AcDbArc
 50
115.7595680211
 51
118.2109957579
  0
ARC
  5
2CF
100
AcDbEntity
  8
0
100
AcDbCircle
 62
7
  6
CONTINUOUS
 10
165.9677290789
 20
314.2050048617
 40
66.7639468432
100
AcDbArc
 50
166.6937032276
 51
166.9621042963
  0
ARC
  5
2D0
100
AcDbEntity
  8
0
100
AcDbCircle
 62
7
  6
CONTINUOUS
 10
56.0664820246
 20
565.6826400037
 40
71.5620976585
100
AcDbArc
 50
51.3626263537
 51
51.5315578747
  0
ARC
  5
2D1
100
AcDbEntity
  8
0
100
AcDbCircle
 62
7
  6
CONTINUOUS
 10
132.7536863211
 20
643.2114597023
 40
38.6281700104
100
AcDbArc
 50
214.4174433807
 51
214.8087948281
  0
ARC
  5
2D2
100
AcDbEntity
  8
0
100
AcDbCircle
 62
7
  6
CONTINUOUS
 10
280.0646655638
 20
704.5307501311
 40
27.0
100
AcDbArc
 50
180.0
 51
270.0
  0
ARC
  5
2D3
100
AcDbEntity
  8
0
100
AcDbCircle
 62
7
  6
CONTINUOUS
 10
280.0646655638
 20
741.0307501311
 40
27.0
100
AcDbArc
 50
90.0
 51
180.0
  0
ARC
  5
2D4
100
AcDbEntity
  8
0
100
AcDbCircle
 62
7
  6
CONTINUOUS
 10
281.0646655638
 20
740.0307501311
 40
26.6781992624
100
AcDbArc
 50
90.0
 51
180.0000000008
  0
ARC
  5
2D5
100
AcDbEntity
  8
0
100
AcDbCircle
 62
7
  6
CONTINUOUS
 10
281.0646655638
 20
705.5307501311
 40
26.6781992624
100
AcDbArc
 50
179.9999999992
 51
270.0000000008
  0
ARC
  5
2D6
100
AcDbEntity
  8
0
100
AcDbCircle
 62
7
  6
CONTINUOUS
 10
280.0646655638
 20
704.5307501311
 40
26.5
100
AcDbArc
 50
180.0
 51
270.0
  0
ARC
  5
2D7
100
AcDbEntity
  8
0
100
AcDbCircle
 62
7
  6
CONTINUOUS
 10
280.0646655638
 20
741.0307501311
 40
26.5
100
AcDbArc
 50
90.0
 51
180.0
  0
ARC
  5
2D8
100
AcDbEntity
  8
0
100
AcDbCircle
 62
7
  6
CONTINUOUS
 10
281.0646655638
 20
740.0307501311
 40
24.7085837563
100
AcDbArc
 50
90.0
 51
180.0
  0
ARC
  5
2D9
100
AcDbEntity
  8
0
100
AcDbCircle
 62
7
  6
CONTINUOUS
 10
281.0646655638
 20
705.5307501311
 40
24.7085837563
100
AcDbArc
 50
180.0
 51
270.0
  0
ARC
  5
2DA
100
AcDbEntity
  8
0
100
AcDbCircle
 62
7
  6
CONTINUOUS
 10
281.0646655638
 20
705.5307501311
 40
24.6167271797
100
AcDbArc
 50
180.0
 51
270.0
  0
ARC
  5
2DB
100
AcDbEntity
  8
0
100
AcDbCircle
 62
7
  6
CONTINUOUS
 10
281.0646655638
 20
740.0307501311
 40
24.6167271797
100
AcDbArc
 50
90.0
 51
180.0
  0
ARC
  5
2DC
100
AcDbEntity
  8
0
100
AcDbCircle
 62
7
  6
CONTINUOUS
 10
281.0646655638
 20
705.5307501311
 40
23.6319194267
100
AcDbArc
 50
180.0
 51
270.0
  0
ARC
  5
2DD
100
AcDbEntity
  8
0
100
AcDbCircle
 62
7
  6
CONTINUOUS
 10
281.0646655638
 20
740.0307501311
 40
23.6319194267
100
AcDbArc
 50
90.0
 51
180.0
  0
ARC
  5
2DE
100
AcDbEntity
  8
0
100
AcDbCircle
 62
7
  6
CONTINUOUS
 10
280.8146655638
 20
740.2807501311
 40
10.0
100
AcDbArc
 50
90.0
 51
180.0
  0
ARC
  5
2DF
100
AcDbEntity
  8
0
100
AcDbCircle
 62
7
  6
CONTINUOUS
 10
280.8146655638
 20
705.2807501311
 40
10.0
100
AcDbArc
 50
180.0
 51
270.0
  0
ARC
  5
2E0
100
AcDbEntity
  8
0
100
AcDbCircle
 62
7
  6
CONTINUOUS
 10
83.0146655638
 20
624.9807501311
 40
2.2
100
AcDbArc
 50
180.0
 51
270.0
  0
ARC
  5
2E1
100
AcDbEntity
  8
0
100
AcDbCircle
 62
7
  6
CONTINUOUS
 10
83.0146655638
 20
777.5807501311
 40
2.2
100
AcDbArc
 50
90.0
 51
180.0
  0
ARC
  5
2E2
100
AcDbEntity
  8
0
100
AcDbCircle
 62
7
  6
CONTINUOUS
 10
98.3884715556
 20
620.7807501311
 40
2.0
100
AcDbArc
 50
349.0
 51
65.5296095612
  0
CIRCLE
  5
2E3
100
AcDbEntity
  8
0
100
AcDbCircle
 62
7
  6
CONTINUOUS
 10
310.8146655638
 20
689.2807501311
 40
1.95
  0
CIRCLE
  5
2E4
100
AcDbEntity
  8
0
100
AcDbCircle
 62
7
  6
CONTINUOUS
 10
310.8146655638
 20
756.2807501311
 40
1.95
  0
ARC
  5
2E5
100
AcDbEntity
  8
0
100
AcDbCircle
 62
7
  6
CONTINUOUS
 10
595.1628088464
 20
314.2050048873
 40
66.7639467305
100
AcDbArc
 50
13.0378957035
 51
13.3062967726
  0
ARC
  5
2E6
100
AcDbEntity
  8
0
100
AcDbCircle
 62
7
  6
CONTINUOUS
 10
640.4334207493
 20
324.9139302402
 40
20.2439578032
100
AcDbArc
 50
13.3003673279
 51
14.1255363852
  0
ARC
  5
2E7
100
AcDbEntity
  8
0
100
AcDbCircle
 62
7
  6
CONTINUOUS
 10
666.6036561695
 20
320.4865412471
 40
11.4239888245
100
AcDbArc
 50
124.5096311607
 51
124.9134496311
  0
ARC
  5
2E8
100
AcDbEntity
  8
0
100
AcDbCircle
 62
7
  6
CONTINUOUS
 10
662.3262457876
 20
310.992909263
 40
8.9127436558
100
AcDbArc
 50
321.6664115502
 51
322.5374435277
  0
ARC
  5
2E9
100
AcDbEntity
  8
0
100
AcDbCircle
 62
7
  6
CONTINUOUS
 10
666.1010592291
 20
307.6787349754
 40
3.8850069893
100
AcDbArc
 50
312.1602745442
 51
314.5340169815
  0
ARC
  5
2EA
100
AcDbEntity
  8
0
100
AcDbCircle
 62
7
  6
CONTINUOUS
 10
677.5652689078
 20
333.76664801
 40
3.0
100
AcDbArc
 50
270.0000000002
 51
359.9999999994
  0
ARC
  5
2EB
100
AcDbEntity
  8
0
100
AcDbCircle
 62
7
  6
CONTINUOUS
 10
675.8658722518
 20
312.8201279324
 40
3.0
100
AcDbArc
 50
304.9999999991
 51
359.9999999999
  0
ARC
  5
2EC
100
AcDbEntity
  8
0
100
AcDbCircle
 62
7
  6
CONTINUOUS
 10
667.9199758852
 20
307.2563513986
 40
3.0
100
AcDbArc
 50
270.0
 51
305.0
  0
ARC
  5
2ED
100
AcDbEntity
  8
0
100
AcDbCircle
 62
7
  6
CONTINUOUS
 10
677.2658722518
 20
322.6563513986
 40
1.6
100
AcDbArc
 50
0.0
 51
111.1248730383
  0
ARC
  5
2EE
100
AcDbEntity
  8
0
100
AcDbCircle
 62
7
  6
CONTINUOUS
 10
677.5652689078
 20
333.76664801
 40
1.5
100
AcDbArc
 50
269.9999999998
 51
359.9999999989
  0
ARC
  5
2EF
100
AcDbEntity
  8
0
100
AcDbCircle
 62
7
  6
CONTINUOUS
 10
662.3852689078
 20
329.26664801
 40
1.5
100
AcDbArc
 50
90.0
 51
191.0
  0
ARC
  5
2F0
100
AcDbEntity
  8
0
100
AcDbCircle
 62
7
  6
CONTINUOUS
 10
675.8658722518
 20
312.8201279324
 40
1.5
100
AcDbArc
 50
304.9999999962
 51
360.0
  0
ARC
  5
2F1
100
AcDbEntity
  8
0
100
AcDbCircle
 62
7
  6
CONTINUOUS
 10
481.5646655638
 20
704.5307501311
 40
27.0
100
AcDbArc
 50
270.0
 51
360.0
  0
ARC
  5
2F2
100
AcDbEntity
  8
0
100
AcDbCircle
 62
7
  6
CONTINUOUS
 10
481.5646655638
 20
741.0307501311
 40
27.0
100
AcDbArc
 50
0.0
 51
90.0
  0
ARC
  5
2F3
100
AcDbEntity
  8
0
100
AcDbCircle
 62
7
  6
CONTINUOUS
 10
480.5646655638
 20
705.5307501311
 40
26.6781992624
100
AcDbArc
 50
269.9999999992
 51
360.0
  0
ARC
  5
2F4
100
AcDbEntity
  8
0
100
AcDbCircle
 62
7
  6
CONTINUOUS
 10
480.5646655638
 20
740.0307501311
 40
26.6781992624
100
AcDbArc
 50
0.0
 51
90.0
  0
ARC
  5
2F5
100
AcDbEntity
  8
0
100
AcDbCircle
 62
7
  6
CONTINUOUS
 10
481.5646655638
 20
741.0307501311
 40
26.5
100
AcDbArc
 50
0.0
 51
90.0
  0
ARC
  5
2F6
100
AcDbEntity
  8
0
100
AcDbCircle
 62
7
  6
CONTINUOUS
 10
481.5646655638
 20
704.5307501311
 40
26.5
100
AcDbArc
 50
270.0
 51
360.0
  0
ARC
  5
2F7
100
AcDbEntity
  8
0
100
AcDbCircle
 62
7
  6
CONTINUOUS
 10
480.5646655638
 20
705.5307501311
 40
24.7085837563
100
AcDbArc
 50
270.0
 51
360.0
  0
ARC
  5
2F8
100
AcDbEntity
  8
0
100
AcDbCircle
 62
7
  6
CONTINUOUS
 10
480.5646655638
 20
740.0307501311
 40
24.7085837563
100
AcDbArc
 50
0.0
 51
90.0
  0
ARC
  5
2F9
100
AcDbEntity
  8
0
100
AcDbCircle
 62
7
  6
CONTINUOUS
 10
480.5646655638
 20
740.0307501311
 40
24.6167271797
100
AcDbArc
 50
0.0
 51
90.0
  0
ARC
  5
2FA
100
AcDbEntity
  8
0
100
AcDbCircle
 62
7
  6
CONTINUOUS
 10
480.5646655638
 20
705.5307501311
 40
24.6167271797
100
AcDbArc
 50
270.0
 51
360.0
  0
ARC
  5
2FB
100
AcDbEntity
  8
0
100
AcDbCircle
 62
7
  6
CONTINUOUS
 10
480.5646655638
 20
740.0307501311
 40
23.6319194267
100
AcDbArc
 50
0.0
 51
90.0
  0
ARC
  5
2FC
100
AcDbEntity
  8
0
100
AcDbCircle
 62
7
  6
CONTINUOUS
 10
480.5646655638
 20
705.5307501311
 40
23.6319194267
100
AcDbArc
 50
270.0
 51
360.0
  0
ARC
  5
2FD
100
AcDbEntity
  8
0
100
AcDbCircle
 62
7
  6
CONTINUOUS
 10
480.8146655638
 20
740.2807501311
 40
10.0
100
AcDbArc
 50
0.0
 51
90.0
  0
ARC
  5
2FE
100
AcDbEntity
  8
0
100
AcDbCircle
 62
7
  6
CONTINUOUS
 10
480.8146655638
 20
705.2807501311
 40
10.0
100
AcDbArc
 50
270.0
 51
360.0
  0
ARC
  5
2FF
100
AcDbEntity
  8
0
100
AcDbCircle
 62
7
  6
CONTINUOUS
 10
678.6146655638
 20
777.5807501311
 40
2.2
100
AcDbArc
 50
0.0
 51
90.0
  0
ARC
  5
300
100
AcDbEntity
  8
0
100
AcDbCircle
 62
7
  6
CONTINUOUS
 10
678.6146655638
 20
624.9807501311
 40
2.2
100
AcDbArc
 50
270.0
 51
360.0
  0
CIRCLE
  5
301
100
AcDbEntity
  8
0
100
AcDbCircle
 62
7
  6
CONTINUOUS
 10
450.8146655638
 20
689.2807501311
 40
1.95
  0
CIRCLE
  5
302
100
AcDbEntity
  8
0
100
AcDbCircle
 62
7
  6
CONTINUOUS
 10
450.8146655638
 20
756.2807501311
 40
1.95
  0
ARC
  5
303
100
AcDbEntity
  8
0
100
AcDbCircle
 62
7
  6
CONTINUOUS
 10
662.2703819687
 20
621.5807501311
 40
1.2
100
AcDbArc
 50
90.0
 51
191.0
  0
SPLINE
  5
304
100
AcDbEntity
  8
0
100
AcDbSpline
 62
7
  6
CONTINUOUS
 70
0
 71
3
 72
8
 73
4
 74
0
 42
0.0000001
 43
0.0000001
 44
0.0000000001
 40
0.0
 40
0.0
 40
0.0
 40
0.0
 40
1.0
 40
1.0
 40
1.0
 40
1.0
 10
119.4133488697
 20
298.5921508172
 30
0.0
 10
119.4274240414
 20
298.5902262193
 30
0.0
 10
119.4417757093
 20
298.5895804616
 30
0.0
 10
119.4559410799
 20
298.5906560125
 30
0.0
  0
LINE
  5
305
100
AcDbEntity
  8
0
100
AcDbLine
 62
7
  6
CONTINUOUS
 10
139.3726358457
 20
298.5676224898
 11
139.400451225
 21
298.5756940295
  0
SPLINE
  5
306
100
AcDbEntity
  8
0
100
AcDbSpline
 62
7
  6
CONTINUOUS
 70
0
 71
3
 72
12
 73
8
 74
0
 42
0.0000001
 43
0.0000001
 44
0.0000000001
 40
0.0
 40
0.0
 40
0.0
 40
0.0
 40
0.058814903
 40
0.1638549037
 40
0.463287611
 40
0.758016863
 40
1.0
 40
1.0
 40
1.0
 40
1.0
 10
139.400451225
 20
298.5756940295
 30
0.0
 10
139.465783449
 20
298.5954405954
 30
0.0
 10
139.64717494
 20
298.6525452099
 30
0.0
 10
140.167047038
 20
298.7901824381
 30
0.0
 10
140.9675230021
 20
298.936252593
 30
0.0
 10
141.9391585529
 20
298.9848569393
 30
0.0
 10
142.562081566
 20
298.9455530223
 30
0.0
 10
142.8408589873
 20
298.9118521251
 30
0.0
  0
LINE
  5
307
100
AcDbEntity
  8
0
100
AcDbLine
 62
7
  6
CONTINUOUS
 10
134.3673158339
 20
298.5668641247
 11
134.3971636201
 21
298.5759007667
  0
SPLINE
  5
308
100
AcDbEntity
  8
0
100
AcDbSpline
 62
7
  6
CONTINUOUS
 70
0
 71
3
 72
13
 73
9
 74
0
 42
0.0000001
 43
0.0000001
 44
0.0000000001
 40
0.0
 40
0.0
 40
0.0
 40
0.0
 40
0.0715946941
 40
0.2001116726
 40
0.5317972748
 40
0.8194773113
 40
0.9248548502
 40
1.0
 40
1.0
 40
1.0
 40
1.0
 10
134.3971636201
 20
298.5759007667
 30
0.0
 10
134.5079467792
 20
298.6105696235
 30
0.0
 10
134.818284258
 20
298.7055618199
 30
0.0
 10
135.6589111186
 20
298.9008668973
 30
0.0
 10
136.8747957549
 20
299.0150245443
 30
0.0
 10
138.0511268282
 20
298.9029692907
 30
0.0
 10
138.792785054
 20
298.7395027573
 30
0.0
 10
139.0751131686
 20
298.661621857
 30
0.0
 10
139.1913543685
 20
298.6251194969
 30
0.0
  0
SPLINE
  5
309
100
AcDbEntity
  8
0
100
AcDbSpline
 62
7
  6
CONTINUOUS
 70
0
 71
3
 72
9
 73
5
 74
0
 42
0.0000001
 43
0.0000001
 44
0.0000000001
 40
0.0
 40
0.0
 40
0.0
 40
0.0
 40
0.2952568419
 40
1.0
 40
1.0
 40
1.0
 40
1.0
 10
139.1913543685
 20
298.6251194969
 30
0.0
 10
139.2057703262
 20
298.6205925608
 30
0.0
 10
139.2545360712
 20
298.6050711227
 30
0.0
 10
139.3030577358
 20
298.588787754
 30
0.0
 10
139.3374837452
 20
298.5780362141
 30
0.0
  0
SPLINE
  5
30A
100
AcDbEntity
  8
0
100
AcDbSpline
 62
7
  6
CONTINUOUS
 70
0
 71
3
 72
8
 73
4
 74
0
 42
0.0000001
 43
0.0000001
 44
0.0000000001
 40
0.0
 40
0.0
 40
0.0
 40
0.0
 40
1.0
 40
1.0
 40
1.0
 40
1.0
 10
139.3454965134
 20
298.5755556707
 30
0.0
 10
139.3545074829
 20
298.5727928102
 30
0.0
 10
139.3635456252
 20
298.5701122407
 30
0.0
 10
139.3726358457
 20
298.5676224898
 30
0.0
  0
LINE
  5
30B
100
AcDbEntity
  8
0
100
AcDbLine
 62
7
  6
CONTINUOUS
 10
134.2991798575
 20
298.5890048384
 11
134.3503819299
 21
298.5725093068
  0
LINE
  5
30C
100
AcDbEntity
  8
0
100
AcDbLine
 62
7
  6
CONTINUOUS
 10
134.3503819299
 20
298.5725093068
 11
134.3652537339
 21
298.5675791262
  0
LINE
  5
30D
100
AcDbEntity
  8
0
100
AcDbLine
 62
7
  6
CONTINUOUS
 10
134.2991798575
 20
298.5890048384
 11
134.2635647614
 21
298.5999696446
  0
SPLINE
  5
30E
100
AcDbEntity
  8
0
100
AcDbSpline
 62
7
  6
CONTINUOUS
 70
0
 71
3
 72
11
 73
7
 74
0
 42
0.0000001
 43
0.0000001
 44
0.0000000001
 40
0.0
 40
0.0
 40
0.0
 40
0.0
 40
0.0724505255
 40
0.1811504833
 40
0.4726558955
 40
1.0
 40
1.0
 40
1.0
 40
1.0
 10
134.2635647614
 20
298.5999696446
 30
0.0
 10
134.1556693722
 20
298.6332432634
 30
0.0
 10
133.8847988566
 20
298.7130845037
 30
0.0
 10
133.166610243
 20
298.8792385539
 30
0.0
 10
131.7250634396
 20
299.0443966998
 30
0.0
 10
130.4329589769
 20
298.8800620597
 30
0.0
 10
129.6432735542
 20
298.6524562583
 30
0.0
  0
SPLINE
  5
30F
100
AcDbEntity
  8
0
100
AcDbSpline
 62
7
  6
CONTINUOUS
 70
0
 71
3
 72
9
 73
5
 74
0
 42
0.0000001
 43
0.0000001
 44
0.0000000001
 40
0.0
 40
0.0
 40
0.0
 40
0.0
 40
0.2752916922
 40
1.0
 40
1.0
 40
1.0
 40
1.0
 10
129.6432735542
 20
298.6524562583
 30
0.0
 10
129.630218861
 20
298.6486935906
 30
0.0
 10
129.5828214564
 20
298.6349415649
 30
0.0
 10
129.5355874753
 20
298.6206358135
 30
0.0
 10
129.5013449674
 20
298.6103096638
 30
0.0
  0
SPLINE
  5
310
100
AcDbEntity
  8
0
100
AcDbSpline
 62
7
  6
CONTINUOUS
 70
0
 71
3
 72
9
 73
5
 74
0
 42
0.0000001
 43
0.0000001
 44
0.0000000001
 40
0.0
 40
0.0
 40
0.0
 40
0.0
 40
0.2905871718
 40
1.0
 40
1.0
 40
1.0
 40
1.0
 10
129.5013449674
 20
298.6103096638
 30
0.0
 10
129.4926868429
 20
298.607698725
 30
0.0
 10
129.4628259228
 20
298.5989225137
 30
0.0
 10
129.433469648
 20
298.5885339691
 30
0.0
 10
129.4123486386
 20
298.5821065828
 30
0.0
  0
SPLINE
  5
311
100
AcDbEntity
  8
0
100
AcDbSpline
 62
7
  6
CONTINUOUS
 70
0
 71
3
 72
9
 73
5
 74
0
 42
0.0000001
 43
0.0000001
 44
0.0000000001
 40
0.0
 40
0.0
 40
0.0
 40
0.0
 40
0.3049918136
 40
1.0
 40
1.0
 40
1.0
 40
1.0
 10
129.4123486386
 20
298.5821065828
 30
0.0
 10
129.4075914435
 20
298.580658909
 30
0.0
 10
129.3919749398
 20
298.576082672
 30
0.0
 10
129.3758730465
 20
298.5724366458
 30
0.0
 10
129.3656736281
 20
298.5674997396
 30
0.0
  0
SPLINE
  5
312
100
AcDbEntity
  8
0
100
AcDbSpline
 62
7
  6
CONTINUOUS
 70
0
 71
3
 72
14
 73
10
 74
0
 42
0.0000001
 43
0.0000001
 44
0.0000000001
 40
0.0
 40
0.0
 40
0.0
 40
0.0
 40
0.3896267059
 40
0.5477488513
 40
0.6805754484
 40
0.789037611
 40
0.8752767967
 40
0.9432531721
 40
1.0
 40
1.0
 40
1.0
 40
1.0
 10
145.6215877145
 20
304.2546477916
 30
0.0
 10
145.6553860744
 20
303.9827325277
 30
0.0
 10
145.7214064396
 20
303.601701218
 30
0.0
 10
145.857095236
 20
303.1422385567
 30
0.0
 10
145.9610505253
 20
302.8807680418
 30
0.0
 10
146.0712760305
 20
302.677665605
 30
0.0
 10
146.1860621774
 20
302.5314252647
 30
0.0
 10
146.3056350292
 20
302.4395924573
 30
0.0
 10
146.3938744627
 20
302.4167531547
 30
0.0
 10
146.4337820708
 20
302.4167527761
 30
0.0
  0
SPLINE
  5
313
100
AcDbEntity
  8
0
100
AcDbSpline
 62
7
  6
CONTINUOUS
 70
0
 71
3
 72
8
 73
4
 74
0
 42
0.0000001
 43
0.0000001
 44
0.0000000001
 40
0.0
 40
0.0
 40
0.0
 40
0.0
 40
1.0
 40
1.0
 40
1.0
 40
1.0
 10
139.3532928871
 20
298.5671398837
 30
0.0
 10
139.3594882231
 20
298.5668030291
 30
0.0
 10
139.3657093656
 20
298.5668209168
 30
0.0
 10
139.371906343
 20
298.56712609
 30
0.0
  0
SPLINE
  5
314
100
AcDbEntity
  8
0
100
AcDbSpline
 62
7
  6
CONTINUOUS
 70
0
 71
3
 72
8
 73
4
 74
0
 42
0.0000001
 43
0.0000001
 44
0.0000000001
 40
0.0
 40
0.0
 40
0.0
 40
0.0
 40
1.0
 40
1.0
 40
1.0
 40
1.0
 10
139.4267550525
 20
298.5760767319
 30
0.0
 10
139.4091094971
 20
298.5704375407
 30
0.0
 10
139.3904300802
 20
298.5669330595
 30
0.0
 10
139.371906343
 20
298.56712609
 30
0.0
  0
SPLINE
  5
315
100
AcDbEntity
  8
0
100
AcDbSpline
 62
7
  6
CONTINUOUS
 70
0
 71
3
 72
8
 73
4
 74
0
 42
0.0000001
 43
0.0000001
 44
0.0000000001
 40
0.0
 40
0.0
 40
0.0
 40
0.0
 40
1.0
 40
1.0
 40
1.0
 40
1.0
 10
142.8902212053
 20
298.9056865475
 30
0.0
 10
142.8723597508
 20
298.898512116
 30
0.0
 10
142.8521289049
 20
298.8954423248
 30
0.0
 10
142.8330213589
 20
298.8977673433
 30
0.0
  0
SPLINE
  5
316
100
AcDbEntity
  8
0
100
AcDbSpline
 62
7
  6
CONTINUOUS
 70
0
 71
3
 72
8
 73
4
 74
0
 42
0.0000001
 43
0.0000001
 44
0.0000000001
 40
0.0
 40
0.0
 40
0.0
 40
0.0
 40
1.0
 40
1.0
 40
1.0
 40
1.0
 10
143.6406414576
 20
298.7573241045
 30
0.0
 10
143.675348529
 20
298.7493460858
 30
0.0
 10
143.7135746977
 20
298.7513757009
 30
0.0
 10
143.7473435138
 20
298.7626848409
 30
0.0
  0
SPLINE
  5
317
100
AcDbEntity
  8
0
100
AcDbSpline
 62
7
  6
CONTINUOUS
 70
0
 71
3
 72
11
 73
7
 74
0
 42
0.0000001
 43
0.0000001
 44
0.0000000001
 40
0.0
 40
0.0
 40
0.0
 40
0.0
 40
0.2457866417
 40
0.5023296065
 40
0.7576788837
 40
1.0
 40
1.0
 40
1.0
 40
1.0
 10
143.7472590676
 20
298.7629410351
 30
0.0
 10
144.1199372469
 20
298.8897479021
 30
0.0
 10
144.8471025513
 20
299.2666409907
 30
0.0
 10
145.7161558833
 20
300.1411571949
 30
0.0
 10
146.2776051201
 20
301.2315328321
 30
0.0
 10
146.4204505251
 20
302.0288719606
 30
0.0
 10
146.4337820936
 20
302.4167534397
 30
0.0
  0
SPLINE
  5
318
100
AcDbEntity
  8
0
100
AcDbSpline
 62
7
  6
CONTINUOUS
 70
0
 71
3
 72
9
 73
5
 74
0
 42
0.0000001
 43
0.0000001
 44
0.0000000001
 40
0.0
 40
0.0
 40
0.0
 40
0.0
 40
0.3712812466
 40
1.0
 40
1.0
 40
1.0
 40
1.0
 10
142.8902210632
 20
298.9056865642
 30
0.0
 10
142.9890171735
 20
298.8943315606
 30
0.0
 10
143.2546962499
 20
298.8603405559
 30
0.0
 10
143.5188978655
 20
298.8142578763
 30
0.0
 10
143.6831997109
 20
298.7773312791
 30
0.0
  0
SPLINE
  5
319
100
AcDbEntity
  8
0
100
AcDbSpline
 62
7
  6
CONTINUOUS
 70
0
 71
3
 72
9
 73
5
 74
0
 42
0.0000001
 43
0.0000001
 44
0.0000000001
 40
0.0
 40
0.0
 40
0.0
 40
0.0
 40
0.2969313259
 40
1.0
 40
1.0
 40
1.0
 40
1.0
 10
143.6831997109
 20
298.7773312791
 30
0.0
 10
143.6895607401
 20
298.7759016472
 30
0.0
 10
143.7109786867
 20
298.7710685605
 30
0.0
 10
143.7323788153
 20
298.7661423675
 30
0.0
 10
143.7474974315
 20
298.763022149
 30
0.0
  0
SPLINE
  5
31A
100
AcDbEntity
  8
0
100
AcDbSpline
 62
7
  6
CONTINUOUS
 70
0
 71
3
 72
12
 73
8
 74
0
 42
0.0000001
 43
0.0000001
 44
0.0000000001
 40
0.0
 40
0.0
 40
0.0
 40
0.0
 40
0.340034094
 40
0.6247120375
 40
0.7433799034
 40
0.8454888964
 40
1.0
 40
1.0
 40
1.0
 40
1.0
 10
143.4071451382
 20
302.9752898225
 30
0.0
 10
143.3862545598
 20
302.5090732213
 30
0.0
 10
143.3422057004
 20
301.6527595692
 30
0.0
 10
143.2567084085
 20
300.6357075338
 30
0.0
 10
143.1647975731
 20
299.9477938408
 30
0.0
 10
143.074049613
 20
299.4409826035
 30
0.0
 10
142.9751853248
 20
299.0999893071
 30
0.0
 10
142.8902241374
 20
298.9056920982
 30
0.0
  0
SPLINE
  5
31B
100
AcDbEntity
  8
0
100
AcDbSpline
 62
7
  6
CONTINUOUS
 70
0
 71
3
 72
10
 73
6
 74
0
 42
0.0000001
 43
0.0000001
 44
0.0000000001
 40
0.0
 40
0.0
 40
0.0
 40
0.0
 40
0.5053939882
 40
0.7529959654
 40
1.0
 40
1.0
 40
1.0
 40
1.0
 10
144.9940067113
 20
304.2407255038
 30
0.0
 10
144.8509481206
 20
303.9137286108
 30
0.0
 10
144.5347899144
 20
303.4532496562
 30
0.0
 10
143.9260350839
 20
303.078808518
 30
0.0
 10
143.5808742555
 20
302.9904619304
 30
0.0
 10
143.4070960577
 20
302.9752802966
 30
0.0
  0
SPLINE
  5
31C
100
AcDbEntity
  8
0
100
AcDbSpline
 62
7
  6
CONTINUOUS
 70
0
 71
3
 72
8
 73
4
 74
0
 42
0.0000001
 43
0.0000001
 44
0.0000000001
 40
0.0
 40
0.0
 40
0.0
 40
0.0
 40
1.0
 40
1.0
 40
1.0
 40
1.0
 10
119.4621204403
 20
298.6090325918
 30
0.0
 10
119.4917052085
 20
298.6042302346
 30
0.0
 10
119.5231458587
 20
298.6062799477
 30
0.0
 10
119.5518429456
 20
298.6149285515
 30
0.0
  0
SPLINE
  5
31D
100
AcDbEntity
  8
0
100
AcDbSpline
 62
7
  6
CONTINUOUS
 70
0
 71
3
 72
9
 73
5
 74
0
 42
0.0000001
 43
0.0000001
 44
0.0000000001
 40
0.0
 40
0.0
 40
0.0
 40
0.0
 40
0.3172376574
 40
1.0
 40
1.0
 40
1.0
 40
1.0
 10
143.7475139341
 20
298.7627419584
 30
0.0
 10
143.7874687763
 20
298.7528521648
 30
0.0
 10
143.9131462763
 20
298.7206049396
 30
0.0
 10
144.0379046548
 20
298.684758706
 30
0.0
 10
144.1223840773
 20
298.6580984442
 30
0.0
  0
SPLINE
  5
31E
100
AcDbEntity
  8
0
100
AcDbSpline
 62
7
  6
CONTINUOUS
 70
0
 71
3
 72
9
 73
5
 74
0
 42
0.0000001
 43
0.0000001
 44
0.0000000001
 40
0.0
 40
0.0
 40
0.0
 40
0.0
 40
0.2974586755
 40
1.0
 40
1.0
 40
1.0
 40
1.0
 10
144.1223840773
 20
298.6580984442
 30
0.0
 10
144.1329924023
 20
298.6547506382
 30
0.0
 10
144.1686102243
 20
298.6433537053
 30
0.0
 10
144.2041509265
 20
298.6317092293
 30
0.0
 10
144.2290083493
 20
298.6232019616
 30
0.0
  0
SPLINE
  5
31F
100
AcDbEntity
  8
0
100
AcDbSpline
 62
7
  6
CONTINUOUS
 70
0
 71
3
 72
8
 73
4
 74
0
 42
0.0000001
 43
0.0000001
 44
0.0000000001
 40
0.0
 40
0.0
 40
0.0
 40
0.0
 40
1.0
 40
1.0
 40
1.0
 40
1.0
 10
119.5965081008
 20
298.6539711356
 30
0.0
 10
119.6283477611
 20
298.6467758402
 30
0.0
 10
119.6629748315
 20
298.6476754952
 30
0.0
 10
119.6944032162
 20
298.6564955219
 30
0.0
  0
SPLINE
  5
320
100
AcDbEntity
  8
0
100
AcDbSpline
 62
7
  6
CONTINUOUS
 70
0
 71
3
 72
8
 73
4
 74
0
 42
0.0000001
 43
0.0000001
 44
0.0000000001
 40
0.0
 40
0.0
 40
0.0
 40
0.0
 40
1.0
 40
1.0
 40
1.0
 40
1.0
 10
119.86806421
 20
298.732822871
 30
0.0
 10
119.9016121926
 20
298.722508663
 30
0.0
 10
119.9392031705
 20
298.7213456048
 30
0.0
 10
119.9733089761
 20
298.7296307755
 30
0.0
  0
SPLINE
  5
321
100
AcDbEntity
  8
0
100
AcDbSpline
 62
7
  6
CONTINUOUS
 70
0
 71
3
 72
8
 73
4
 74
0
 42
0.0000001
 43
0.0000001
 44
0.0000000001
 40
0.0
 40
0.0
 40
0.0
 40
0.0
 40
1.0
 40
1.0
 40
1.0
 40
1.0
 10
120.0910991351
 20
298.7573232152
 30
0.0
 10
120.0563922096
 20
298.749345867
 30
0.0
 10
120.0181664138
 20
298.7513762516
 30
0.0
 10
119.9843980514
 20
298.7626858255
 30
0.0
  0
SPLINE
  5
322
100
AcDbEntity
  8
0
100
AcDbSpline
 62
7
  6
CONTINUOUS
 70
0
 71
3
 72
8
 73
4
 74
0
 42
0.0000001
 43
0.0000001
 44
0.0000000001
 40
0.0
 40
0.0
 40
0.0
 40
0.0
 40
1.0
 40
1.0
 40
1.0
 40
1.0
 10
120.8987232717
 20
298.8977673587
 30
0.0
 10
120.8795853884
 20
298.8954386456
 30
0.0
 10
120.8593275504
 20
298.8985096701
 30
0.0
 10
120.8414291401
 20
298.9056740537
 30
0.0
  0
SPLINE
  5
323
100
AcDbEntity
  8
0
100
AcDbSpline
 62
7
  6
CONTINUOUS
 70
0
 71
3
 72
8
 73
4
 74
0
 42
0.0000001
 43
0.0000001
 44
0.0000000001
 40
0.0
 40
0.0
 40
0.0
 40
0.0
 40
1.0
 40
1.0
 40
1.0
 40
1.0
 10
144.2296422401
 20
298.6233200331
 30
0.0
 10
144.1989020489
 20
298.6175504456
 30
0.0
 10
144.1659201865
 20
298.619173141
 30
0.0
 10
144.135930959
 20
298.6280553551
 30
0.0
  0
SPLINE
  5
324
100
AcDbEntity
  8
0
100
AcDbSpline
 62
7
  6
CONTINUOUS
 70
0
 71
3
 72
8
 73
4
 74
0
 42
0.0000001
 43
0.0000001
 44
0.0000000001
 40
0.0
 40
0.0
 40
0.0
 40
0.0
 40
1.0
 40
1.0
 40
1.0
 40
1.0
 10
144.306177307
 20
298.5961367802
 30
0.0
 10
144.2774005045
 20
298.5920410265
 30
0.0
 10
144.2470282767
 20
298.5944132801
 30
0.0
 10
144.2192434909
 20
298.6029505653
 30
0.0
  0
SPLINE
  5
325
100
AcDbEntity
  8
0
100
AcDbSpline
 62
7
  6
CONTINUOUS
 70
0
 71
3
 72
12
 73
8
 74
0
 42
0.0000001
 43
0.0000001
 44
0.0000000001
 40
0.0
 40
0.0
 40
0.0
 40
0.0
 40
0.1544988544
 40
0.2566092533
 40
0.3752788125
 40
0.6599607291
 40
1.0
 40
1.0
 40
1.0
 40
1.0
 10
120.8414291439
 20
298.9056740541
 30
0.0
 10
120.7564739285
 20
299.099954897
 30
0.0
 10
120.6577436763
 20
299.4409730799
 30
0.0
 10
120.5669466541
 20
299.9477561957
 30
0.0
 10
120.4750381867
 20
300.6356807316
 30
0.0
 10
120.3895414552
 20
301.6527432103
 30
0.0
 10
120.3454878848
 20
302.5090673874
 30
0.0
 10
120.3245971052
 20
302.9752898225
 30
0.0
  0
SPLINE
  5
326
100
AcDbEntity
  8
0
100
AcDbSpline
 62
7
  6
CONTINUOUS
 70
0
 71
3
 72
9
 73
5
 74
0
 42
0.0000001
 43
0.0000001
 44
0.0000000001
 40
0.0
 40
0.0
 40
0.0
 40
0.0
 40
0.204455294
 40
1.0
 40
1.0
 40
1.0
 40
1.0
 10
119.9842470095
 20
298.7630221171
 30
0.0
 10
119.9886375527
 20
298.7639300625
 30
0.0
 10
120.0100737452
 20
298.7685543874
 30
0.0
 10
120.0314370102
 20
298.7735047295
 30
0.0
 10
120.0484556621
 20
298.7773391514
 30
0.0
  0
SPLINE
  5
327
100
AcDbEntity
  8
0
100
AcDbSpline
 62
7
  6
CONTINUOUS
 70
0
 71
3
 72
9
 73
5
 74
0
 42
0.0000001
 43
0.0000001
 44
0.0000000001
 40
0.0
 40
0.0
 40
0.0
 40
0.0
 40
0.1430565867
 40
1.0
 40
1.0
 40
1.0
 40
1.0
 10
120.0484556621
 20
298.7773391514
 30
0.0
 10
120.0858319635
 20
298.7857602949
 30
0.0
 10
120.3478381033
 20
298.8413572407
 30
0.0
 10
120.6134563127
 20
298.8791949055
 30
0.0
 10
120.8414291559
 20
298.905674054
 30
0.0
  0
SPLINE
  5
328
100
AcDbEntity
  8
0
100
AcDbSpline
 62
7
  6
CONTINUOUS
 70
0
 71
3
 72
11
 73
7
 74
0
 42
0.0000001
 43
0.0000001
 44
0.0000000001
 40
0.0
 40
0.0
 40
0.0
 40
0.0
 40
0.2423216427
 40
0.4976711177
 40
0.7542138887
 40
1.0
 40
1.0
 40
1.0
 40
1.0
 10
117.2979624103
 20
302.4167534398
 30
0.0
 10
117.3112940075
 20
302.0288711241
 30
0.0
 10
117.454139911
 20
301.2315308505
 30
0.0
 10
118.0155902276
 20
300.1411547835
 30
0.0
 10
118.8846436963
 20
299.2666399616
 30
0.0
 10
119.6118079699
 20
298.8897476746
 30
0.0
 10
119.9844853183
 20
298.762941022
 30
0.0
  0
SPLINE
  5
329
100
AcDbEntity
  8
0
100
AcDbSpline
 62
7
  6
CONTINUOUS
 70
0
 71
3
 72
9
 73
5
 74
0
 42
0.0000001
 43
0.0000001
 44
0.0000000001
 40
0.0
 40
0.0
 40
0.0
 40
0.0
 40
0.2523733585
 40
1.0
 40
1.0
 40
1.0
 40
1.0
 10
143.4867950364
 20
303.7177371932
 30
0.0
 10
143.4857724028
 20
303.6548790697
 30
0.0
 10
143.4762961124
 20
303.4059545958
 30
0.0
 10
143.4448701562
 20
303.1576618927
 30
0.0
 10
143.4071379687
 20
302.9752898241
 30
0.0
  0
SPLINE
  5
32A
100
AcDbEntity
  8
0
100
AcDbSpline
 62
7
  6
CONTINUOUS
 70
0
 71
3
 72
9
 73
5
 74
0
 42
0.0000001
 43
0.0000001
 44
0.0000000001
 40
0.0
 40
0.0
 40
0.0
 40
0.0
 40
0.2460173699
 40
1.0
 40
1.0
 40
1.0
 40
1.0
 10
120.3245827048
 20
302.9752898226
 30
0.0
 10
120.3121690913
 20
303.035304905
 30
0.0
 10
120.2681441712
 20
303.2805572933
 30
0.0
 10
120.2479896787
 20
303.5299371404
 30
0.0
 10
120.2449380469
 20
303.7177371929
 30
0.0
  0
SPLINE
  5
32B
100
AcDbEntity
  8
0
100
AcDbSpline
 62
7
  6
CONTINUOUS
 70
0
 71
3
 72
10
 73
6
 74
0
 42
0.0000001
 43
0.0000001
 44
0.0000000001
 40
0.0
 40
0.0
 40
0.0
 40
0.0
 40
0.5132558721
 40
0.7590171213
 40
1.0
 40
1.0
 40
1.0
 40
1.0
 10
119.499702932
 20
304.2400695522
 30
0.0
 10
119.5718841431
 20
304.0934344174
 30
0.0
 10
119.7228801339
 20
303.886958174
 30
0.0
 10
120.0123059995
 20
303.7423162222
 30
0.0
 10
120.1682064085
 20
303.7183589689
 30
0.0
 10
120.2449409895
 20
303.7177371929
 30
0.0
  0
SPLINE
  5
32C
100
AcDbEntity
  8
0
100
AcDbSpline
 62
7
  6
CONTINUOUS
 70
0
 71
3
 72
10
 73
6
 74
0
 42
0.0000001
 43
0.0000001
 44
0.0000000001
 40
0.0
 40
0.0
 40
0.0
 40
0.0
 40
0.2409408322
 40
0.4866846837
 40
1.0
 40
1.0
 40
1.0
 40
1.0
 10
143.4868035143
 20
303.7177371929
 30
0.0
 10
143.5635108825
 20
303.7180763927
 30
0.0
 10
143.7194406743
 20
303.7419308388
 30
0.0
 10
144.0087224135
 20
303.8867494825
 30
0.0
 10
144.1594995612
 20
304.0932460841
 30
0.0
 10
144.2318332923
 20
304.2397901054
 30
0.0
  0
SPLINE
  5
32D
100
AcDbEntity
  8
0
100
AcDbSpline
 62
7
  6
CONTINUOUS
 70
0
 71
3
 72
14
 73
10
 74
0
 42
0.0000001
 43
0.0000001
 44
0.0000000001
 40
0.0
 40
0.0
 40
0.0
 40
0.0
 40
0.0567469218
 40
0.1247233243
 40
0.2109625231
 40
0.3194246841
 40
0.4522512594
 40
0.6103733694
 40
1.0
 40
1.0
 40
1.0
 40
1.0
 10
117.2979624329
 20
302.4167527811
 30
0.0
 10
117.3378700249
 20
302.4167531697
 30
0.0
 10
117.4261093703
 20
302.439592392
 30
0.0
 10
117.5456820797
 20
302.5314250422
 30
0.0
 10
117.6604680785
 20
302.6776650389
 30
0.0
 10
117.7706934816
 20
302.8807669836
 30
0.0
 10
117.8746486741
 20
303.1422368693
 30
0.0
 10
118.0103374083
 20
303.6016984229
 30
0.0
 10
118.0763578209
 20
303.9827288368
 30
0.0
 10
118.1101562543
 20
304.2546434697
 30
0.0
  0
LINE
  5
32E
100
AcDbEntity
  8
0
100
AcDbLine
 62
7
  6
CONTINUOUS
 10
124.3578907926
 20
298.5679157762
 11
124.331417961
 21
298.5758993373
  0
SPLINE
  5
32F
100
AcDbEntity
  8
0
100
AcDbSpline
 62
7
  6
CONTINUOUS
 70
0
 71
3
 72
11
 73
7
 74
0
 42
0.0000001
 43
0.0000001
 44
0.0000000001
 40
0.0
 40
0.0
 40
0.0
 40
0.0
 40
0.0591102823
 40
0.164818771
 40
0.4642454108
 40
1.0
 40
1.0
 40
1.0
 40
1.0
 10
124.331417961
 20
298.5758993373
 30
0.0
 10
124.2659336605
 20
298.5961394766
 30
0.0
 10
124.0833662001
 20
298.6527157708
 30
0.0
 10
123.5625968799
 20
298.7898037631
 30
0.0
 10
122.4874148496
 20
298.9870152658
 30
0.0
 10
121.5074368392
 20
298.9844807549
 30
0.0
 10
120.8904952442
 20
298.9116084152
 30
0.0
  0
SPLINE
  5
330
100
AcDbEntity
  8
0
100
AcDbSpline
 62
7
  6
CONTINUOUS
 70
0
 71
3
 72
10
 73
6
 74
0
 42
0.0000001
 43
0.0000001
 44
0.0000000001
 40
0.0
 40
0.0
 40
0.0
 40
0.0
 40
0.247085994
 40
0.4945973111
 40
1.0
 40
1.0
 40
1.0
 40
1.0
 10
120.3246461804
 20
302.9752806549
 30
0.0
 10
120.1512676969
 20
302.990206675
 30
0.0
 10
119.8073451908
 20
303.0791380425
 30
0.0
 10
119.1988139424
 20
303.4499115374
 30
0.0
 10
118.8835462208
 20
303.909522971
 30
0.0
 10
118.7404024642
 20
304.2354212825
 30
0.0
  0
LINE
  5
331
100
AcDbEntity
  8
0
100
AcDbLine
 62
7
  6
CONTINUOUS
 10
129.3644305907
 20
298.5668667825
 11
129.3360367803
 21
298.5762009868
  0
SPLINE
  5
332
100
AcDbEntity
  8
0
100
AcDbSpline
 62
7
  6
CONTINUOUS
 70
0
 71
3
 72
12
 73
8
 74
0
 42
0.0000001
 43
0.0000001
 44
0.0000000001
 40
0.0
 40
0.0
 40
0.0
 40
0.0
 40
0.2202477588
 40
0.4841513093
 40
0.7245897719
 40
0.9016562291
 40
1.0
 40
1.0
 40
1.0
 40
1.0
 10
129.3360367803
 20
298.5762009868
 30
0.0
 10
128.9849512872
 20
298.688843668
 30
0.0
 10
128.1956430988
 20
298.8849000697
 30
0.0
 10
126.9826467916
 20
298.9995378622
 30
0.0
 10
125.8395584268
 20
298.9274933681
 30
0.0
 10
124.9911049026
 20
298.758183911
 30
0.0
 10
124.5474643279
 20
298.6308382653
 30
0.0
 10
124.3917289871
 20
298.577439616
 30
0.0
  0
SPLINE
  5
333
100
AcDbEntity
  8
0
100
AcDbSpline
 62
7
  6
CONTINUOUS
 70
0
 71
3
 72
8
 73
4
 74
0
 42
0.0000001
 43
0.0000001
 44
0.0000000001
 40
0.0
 40
0.0
 40
0.0
 40
0.0
 40
1.0
 40
1.0
 40
1.0
 40
1.0
 10
677.365785942
 20
322.6563513986
 30
0.0
 10
677.295178983
 20
322.8351004577
 30
0.0
 10
677.2247205684
 20
323.0139373494
 30
0.0
 10
677.150527271
 20
323.191227855
 30
0.0
  0
SPLINE
  5
334
100
AcDbEntity
  8
0
100
AcDbSpline
 62
7
  6
CONTINUOUS
 70
0
 71
3
 72
8
 73
4
 74
0
 42
0.0000001
 43
0.0000001
 44
0.0000000001
 40
0.0
 40
0.0
 40
0.0
 40
0.0
 40
1.0
 40
1.0
 40
1.0
 40
1.0
 10
677.150527271
 20
323.191227855
 30
0.0
 10
677.1003137601
 20
323.3112168439
 30
0.0
 10
677.0484185837
 20
323.4305740475
 30
0.0
 10
676.9925277033
 20
323.5480260104
 30
0.0
  0
SPLINE
  5
335
100
AcDbEntity
  8
0
100
AcDbSpline
 62
7
  6
CONTINUOUS
 70
0
 71
3
 72
9
 73
5
 74
0
 42
0.0000001
 43
0.0000001
 44
0.0000000001
 40
0.0
 40
0.0
 40
0.0
 40
0.0
 40
0.2838835202
 40
1.0
 40
1.0
 40
1.0
 40
1.0
 10
676.9925277033
 20
323.5480260104
 30
0.0
 10
676.9691314182
 20
323.5971921639
 30
0.0
 10
676.8840269082
 20
323.7688379762
 30
0.0
 10
676.7878605514
 20
323.9367875479
 30
0.0
 10
676.7023876782
 20
324.0443042527
 30
0.0
  0
SPLINE
  5
336
100
AcDbEntity
  8
0
100
AcDbSpline
 62
7
  6
CONTINUOUS
 70
0
 71
3
 72
8
 73
4
 74
0
 42
0.0000001
 43
0.0000001
 44
0.0000000001
 40
0.0
 40
0.0
 40
0.0
 40
0.0
 40
1.0
 40
1.0
 40
1.0
 40
1.0
 10
676.7023876782
 20
324.0443042527
 30
0.0
 10
676.6707028151
 20
324.0841607819
 30
0.0
 10
676.6363311721
 20
324.1222860424
 30
0.0
 10
676.5980904481
 20
324.1559033071
 30
0.0
  0
SPLINE
  5
337
100
AcDbEntity
  8
0
100
AcDbSpline
 62
7
  6
CONTINUOUS
 70
0
 71
3
 72
8
 73
4
 74
0
 42
0.0000001
 43
0.0000001
 44
0.0000000001
 40
0.0
 40
0.0
 40
0.0
 40
0.0
 40
1.0
 40
1.0
 40
1.0
 40
1.0
 10
676.5980904481
 20
324.1559033071
 30
0.0
 10
676.5364643482
 20
324.2100785605
 30
0.0
 10
676.4554106333
 20
324.2563163052
 30
0.0
 10
676.3733574
 20
324.2563506341
 30
0.0
  0
SPLINE
  5
338
100
AcDbEntity
  8
0
100
AcDbSpline
 62
7
  6
CONTINUOUS
 70
0
 71
3
 72
8
 73
4
 74
0
 42
0.0000001
 43
0.0000001
 44
0.0000000001
 40
0.0
 40
0.0
 40
0.0
 40
0.0
 40
1.0
 40
1.0
 40
1.0
 40
1.0
 10
83.3659606756
 20
322.6563513986
 30
0.0
 10
83.436357299
 20
322.8345679707
 30
0.0
 10
83.5065501017
 20
323.012893701
 30
0.0
 10
83.5804704592
 20
323.1896777838
 30
0.0
  0
SPLINE
  5
339
100
AcDbEntity
  8
0
100
AcDbSpline
 62
7
  6
CONTINUOUS
 70
0
 71
3
 72
8
 73
4
 74
0
 42
0.0000001
 43
0.0000001
 44
0.0000000001
 40
0.0
 40
0.0
 40
0.0
 40
0.0
 40
1.0
 40
1.0
 40
1.0
 40
1.0
 10
83.5804704592
 20
323.1896777838
 30
0.0
 10
83.6303825198
 20
323.3090448723
 30
0.0
 10
83.6819743312
 20
323.4277806269
 30
0.0
 10
83.73752307
 20
323.5446311862
 30
0.0
  0
SPLINE
  5
33A
100
AcDbEntity
  8
0
100
AcDbSpline
 62
7
  6
CONTINUOUS
 70
0
 71
3
 72
9
 73
5
 74
0
 42
0.0000001
 43
0.0000001
 44
0.0000000001
 40
0.0
 40
0.0
 40
0.0
 40
0.0
 40
0.2831721887
 40
1.0
 40
1.0
 40
1.0
 40
1.0
 10
83.73752307
 20
323.5446311862
 30
0.0
 10
83.7606812459
 20
323.593345988
 30
0.0
 10
83.8450967072
 20
323.7638802334
 30
0.0
 10
83.940351931
 20
323.9307045503
 30
0.0
 10
84.0246471555
 20
324.0381206538
 30
0.0
  0
SPLINE
  5
33B
100
AcDbEntity
  8
0
100
AcDbSpline
 62
7
  6
CONTINUOUS
 70
0
 71
3
 72
8
 73
4
 74
0
 42
0.0000001
 43
0.0000001
 44
0.0000000001
 40
0.0
 40
0.0
 40
0.0
 40
0.0
 40
1.0
 40
1.0
 40
1.0
 40
1.0
 10
84.0246471555
 20
324.0381206538
 30
0.0
 10
84.0552616087
 20
324.0771321789
 30
0.0
 10
84.0883446116
 20
324.114542906
 30
0.0
 10
84.1249805027
 20
324.1479637876
 30
0.0
  0
SPLINE
  5
33C
100
AcDbEntity
  8
0
100
AcDbSpline
 62
7
  6
CONTINUOUS
 70
0
 71
3
 72
8
 73
4
 74
0
 42
0.0000001
 43
0.0000001
 44
0.0000000001
 40
0.0
 40
0.0
 40
0.0
 40
0.0
 40
1.0
 40
1.0
 40
1.0
 40
1.0
 10
84.1249805027
 20
324.1479637876
 30
0.0
 10
84.1883448371
 20
324.2057675384
 30
0.0
 10
84.2725765788
 20
324.2563042675
 30
0.0
 10
84.3583455148
 20
324.2563500571
 30
0.0
  0
SPLINE
  5
33D
100
AcDbEntity
  8
0
100
AcDbSpline
 62
7
  6
CONTINUOUS
 70
0
 71
3
 72
8
 73
4
 74
0
 42
0.0000001
 43
0.0000001
 44
0.0000000001
 40
0.0
 40
0.0
 40
0.0
 40
0.0
 40
1.0
 40
1.0
 40
1.0
 40
1.0
 10
668.8257412954
 20
304.9093691735
 30
0.0
 10
669.002133261
 20
305.0827045585
 30
0.0
 10
669.1640987944
 20
305.2709138628
 30
0.0
 10
669.3175169145
 20
305.4648781935
 30
0.0
  0
SPLINE
  5
33E
100
AcDbEntity
  8
0
100
AcDbSpline
 62
7
  6
CONTINUOUS
 70
0
 71
3
 72
8
 73
4
 74
0
 42
0.0000001
 43
0.0000001
 44
0.0000000001
 40
0.0
 40
0.0
 40
0.0
 40
0.0
 40
1.0
 40
1.0
 40
1.0
 40
1.0
 10
669.4007450152
 20
305.5717968168
 30
0.0
 10
669.5849597126
 20
305.8121169877
 30
0.0
 10
669.758116161
 20
306.060935535
 30
0.0
 10
669.9263314966
 20
306.3127140889
 30
0.0
  0
SPLINE
  5
33F
100
AcDbEntity
  8
0
100
AcDbSpline
 62
7
  6
CONTINUOUS
 70
0
 71
3
 72
8
 73
4
 74
0
 42
0.0000001
 43
0.0000001
 44
0.0000000001
 40
0.0
 40
0.0
 40
0.0
 40
0.0
 40
1.0
 40
1.0
 40
1.0
 40
1.0
 10
669.9263314966
 20
306.3127140889
 30
0.0
 10
670.1342829633
 20
306.6239682285
 30
0.0
 10
670.3346583596
 20
306.9402380859
 30
0.0
 10
670.5351460786
 20
307.2563513986
 30
0.0
  0
SPLINE
  5
340
100
AcDbEntity
  8
0
100
AcDbSpline
 62
7
  6
CONTINUOUS
 70
0
 71
3
 72
8
 73
4
 74
0
 42
0.0000001
 43
0.0000001
 44
0.0000000001
 40
0.0
 40
0.0
 40
0.0
 40
0.0
 40
1.0
 40
1.0
 40
1.0
 40
1.0
 10
90.196598425
 20
307.2563513986
 30
0.0
 10
90.3970861864
 20
306.9402381128
 30
0.0
 10
90.5974615499
 20
306.6239682349
 30
0.0
 10
90.8054130071
 20
306.3127140889
 30
0.0
  0
SPLINE
  5
341
100
AcDbEntity
  8
0
100
AcDbSpline
 62
7
  6
CONTINUOUS
 70
0
 71
3
 72
8
 73
4
 74
0
 42
0.0000001
 43
0.0000001
 44
0.0000000001
 40
0.0
 40
0.0
 40
0.0
 40
0.0
 40
1.0
 40
1.0
 40
1.0
 40
1.0
 10
90.8054130071
 20
306.3127140889
 30
0.0
 10
90.9986969982
 20
306.0234136703
 30
0.0
 10
91.1983865531
 20
305.7377629322
 30
0.0
 10
91.4142275892
 20
305.4648781936
 30
0.0
  0
SPLINE
  5
342
100
AcDbEntity
  8
0
100
AcDbSpline
 62
7
  6
CONTINUOUS
 70
0
 71
3
 72
8
 73
4
 74
0
 42
0.0000001
 43
0.0000001
 44
0.0000000001
 40
0.0
 40
0.0
 40
0.0
 40
0.0
 40
1.0
 40
1.0
 40
1.0
 40
1.0
 10
91.5981450514
 20
305.2411037537
 30
0.0
 10
91.6962818292
 20
305.1265286804
 30
0.0
 10
91.7984019493
 20
305.0151058538
 30
0.0
 10
91.9060031949
 20
304.9093691689
 30
0.0
  0
SPLINE
  5
343
100
AcDbEntity
  8
0
100
AcDbSpline
 62
7
  6
CONTINUOUS
 70
0
 71
3
 72
9
 73
5
 74
0
 42
0.0000001
 43
0.0000001
 44
0.0000000001
 40
0.0
 40
0.0
 40
0.0
 40
0.0
 40
0.2915617539
 40
1.0
 40
1.0
 40
1.0
 40
1.0
 10
92.0230421713
 20
304.7988952658
 30
0.0
 10
92.064783315
 20
304.7432669521
 30
0.0
 10
92.2136750396
 20
304.5582702538
 30
0.0
 10
92.3958983141
 20
304.3901572683
 30
0.0
 10
92.5488598027
 20
304.3183296006
 30
0.0
  0
SPLINE
  5
344
100
AcDbEntity
  8
0
100
AcDbSpline
 62
7
  6
CONTINUOUS
 70
0
 71
3
 72
8
 73
4
 74
0
 42
0.0000001
 43
0.0000001
 44
0.0000000001
 40
0.0
 40
0.0
 40
0.0
 40
0.0
 40
1.0
 40
1.0
 40
1.0
 40
1.0
 10
92.5488598027
 20
304.3183296006
 30
0.0
 10
92.6303599267
 20
304.280058766
 30
0.0
 10
92.7217301434
 20
304.2563513986
 30
0.0
 10
92.8117686184
 20
304.2563513986
 30
0.0
  0
SPLINE
  5
345
100
AcDbEntity
  8
0
100
AcDbSpline
 62
7
  6
CONTINUOUS
 70
0
 71
3
 72
9
 73
5
 74
0
 42
0.0000001
 43
0.0000001
 44
0.0000000001
 40
0.0
 40
0.0
 40
0.0
 40
0.0
 40
0.2043650438
 40
1.0
 40
1.0
 40
1.0
 40
1.0
 10
667.9199758852
 20
304.2563513986
 30
0.0
 10
667.9867168241
 20
304.2563513986
 30
0.0
 10
668.3150418994
 20
304.3207692652
 30
0.0
 10
668.5527530435
 20
304.5910620667
 30
0.0
 10
668.7087023323
 20
304.7988952658
 30
0.0
  0
SPLINE
  5
346
100
AcDbEntity
  8
0
100
AcDbSpline
 62
7
  6
CONTINUOUS
 70
0
 71
3
 72
9
 73
5
 74
0
 42
0.0000001
 43
0.0000001
 44
0.0000000001
 40
0.0
 40
0.0
 40
0.0
 40
0.0
 40
0.2289141296
 40
1.0
 40
1.0
 40
1.0
 40
1.0
 10
83.0146655638
 20
779.7807501311
 30
0.0
 10
82.9524441986
 20
779.7807501311
 30
0.0
 10
82.6800724187
 20
779.7506516904
 30
0.0
 10
82.4326153224
 20
779.6064378314
 30
0.0
 10
82.2686042819
 20
779.4759458043
 30
0.0
  0
SPLINE
  5
347
100
AcDbEntity
  8
0
100
AcDbSpline
 62
7
  6
CONTINUOUS
 70
0
 71
3
 72
9
 73
5
 74
0
 42
0.0000001
 43
0.0000001
 44
0.0000000001
 40
0.0
 40
0.0
 40
0.0
 40
0.0
 40
0.2235402935
 40
1.0
 40
1.0
 40
1.0
 40
1.0
 10
82.2686042819
 20
779.4759458043
 30
0.0
 10
82.205909776
 20
779.4260642041
 30
0.0
 10
81.9382156653
 20
779.1868284939
 30
0.0
 10
81.7126941161
 20
778.9048910036
 30
0.0
 10
81.5479035764
 20
778.680644708
 30
0.0
  0
SPLINE
  5
348
100
AcDbEntity
  8
0
100
AcDbSpline
 62
7
  6
CONTINUOUS
 70
0
 71
3
 72
8
 73
4
 74
0
 42
0.0000001
 43
0.0000001
 44
0.0000000001
 40
0.0
 40
0.0
 40
0.0
 40
0.0
 40
1.0
 40
1.0
 40
1.0
 40
1.0
 10
81.5479035764
 20
778.680644708
 30
0.0
 10
81.3990351532
 20
778.4780651636
 30
0.0
 10
81.258778475
 20
778.26917428
 30
0.0
 10
81.1214186613
 20
778.0586212919
 30
0.0
  0
SPLINE
  5
349
100
AcDbEntity
  8
0
100
AcDbSpline
 62
7
  6
CONTINUOUS
 70
0
 71
3
 72
8
 73
4
 74
0
 42
0.0000001
 43
0.0000001
 44
0.0000000001
 40
0.0
 40
0.0
 40
0.0
 40
0.0
 40
1.0
 40
1.0
 40
1.0
 40
1.0
 10
81.1214186613
 20
778.0586212919
 30
0.0
 10
81.0179959959
 20
777.9000891081
 30
0.0
 10
80.9163169932
 20
777.7404238231
 30
0.0
 10
80.8146655638
 20
777.5807501311
 30
0.0
  0
SPLINE
  5
34A
100
AcDbEntity
  8
0
100
AcDbSpline
 62
7
  6
CONTINUOUS
 70
0
 71
3
 72
8
 73
4
 74
0
 42
0.0000001
 43
0.0000001
 44
0.0000000001
 40
0.0
 40
0.0
 40
0.0
 40
0.0
 40
1.0
 40
1.0
 40
1.0
 40
1.0
 10
680.8146655638
 20
777.5807501311
 30
0.0
 10
680.7130138644
 20
777.7404242471
 30
0.0
 10
680.6113345881
 20
777.9000899539
 30
0.0
 10
680.5079116348
 20
778.05862255
 30
0.0
  0
SPLINE
  5
34B
100
AcDbEntity
  8
0
100
AcDbSpline
 62
7
  6
CONTINUOUS
 70
0
 71
3
 72
9
 73
5
 74
0
 42
0.0000001
 43
0.0000001
 44
0.0000000001
 40
0.0
 40
0.0
 40
0.0
 40
0.0
 40
0.2819166906
 40
1.0
 40
1.0
 40
1.0
 40
1.0
 10
680.5079116348
 20
778.05862255
 30
0.0
 10
680.4141423929
 20
778.2023573874
 30
0.0
 10
680.0760505914
 20
778.7061652285
 30
0.0
 10
679.7027850217
 20
779.2037995951
 30
0.0
 10
679.3607103569
 20
779.4759589526
 30
0.0
  0
SPLINE
  5
34C
100
AcDbEntity
  8
0
100
AcDbSpline
 62
7
  6
CONTINUOUS
 70
0
 71
3
 72
8
 73
4
 74
0
 42
0.0000001
 43
0.0000001
 44
0.0000000001
 40
0.0
 40
0.0
 40
0.0
 40
0.0
 40
1.0
 40
1.0
 40
1.0
 40
1.0
 10
679.3607103569
 20
779.4759589526
 30
0.0
 10
679.2393123149
 20
779.572544922
 30
0.0
 10
679.1051128273
 20
779.6575041643
 30
0.0
 10
678.9603293479
 20
779.7132184191
 30
0.0
  0
SPLINE
  5
34D
100
AcDbEntity
  8
0
100
AcDbSpline
 62
7
  6
CONTINUOUS
 70
0
 71
3
 72
8
 73
4
 74
0
 42
0.0000001
 43
0.0000001
 44
0.0000000001
 40
0.0
 40
0.0
 40
0.0
 40
0.0
 40
1.0
 40
1.0
 40
1.0
 40
1.0
 10
678.9603293479
 20
779.7132184191
 30
0.0
 10
678.8507621294
 20
779.7553810744
 30
0.0
 10
678.7320651586
 20
779.7807501311
 30
0.0
 10
678.6146655638
 20
779.7807501311
 30
0.0
  0
SPLINE
  5
34E
100
AcDbEntity
  8
0
100
AcDbSpline
 62
7
  6
CONTINUOUS
 70
0
 71
3
 72
8
 73
4
 74
0
 42
0.0000001
 43
0.0000001
 44
0.0000000001
 40
0.0
 40
0.0
 40
0.0
 40
0.0
 40
1.0
 40
1.0
 40
1.0
 40
1.0
 10
660.3459853219
 20
621.5807491611
 30
0.0
 10
660.5054668185
 20
621.7369688401
 30
0.0
 10
660.6648892831
 20
621.893425172
 30
0.0
 10
660.8305296825
 20
622.0430987967
 30
0.0
  0
SPLINE
  5
34F
100
AcDbEntity
  8
0
100
AcDbSpline
 62
7
  6
CONTINUOUS
 70
0
 71
3
 72
9
 73
5
 74
0
 42
0.0000001
 43
0.0000001
 44
0.0000000001
 40
0.0
 40
0.0
 40
0.0
 40
0.0
 40
0.2659161869
 40
1.0
 40
1.0
 40
1.0
 40
1.0
 10
660.8305296825
 20
622.0430987967
 30
0.0
 10
660.8896511562
 20
622.0965213029
 30
0.0
 10
661.1149115178
 20
622.2937025933
 30
0.0
 10
661.3572311065
 20
622.4748270222
 30
0.0
 10
661.5506740032
 20
622.5795496108
 30
0.0
  0
SPLINE
  5
350
100
AcDbEntity
  8
0
100
AcDbSpline
 62
7
  6
CONTINUOUS
 70
0
 71
3
 72
9
 73
5
 74
0
 42
0.0000001
 43
0.0000001
 44
0.0000000001
 40
0.0
 40
0.0
 40
0.0
 40
0.0
 40
0.2289141296
 40
1.0
 40
1.0
 40
1.0
 40
1.0
 10
678.6146655638
 20
622.7807501311
 30
0.0
 10
678.6768869289
 20
622.7807501311
 30
0.0
 10
678.9492587088
 20
622.8108485719
 30
0.0
 10
679.1967158051
 20
622.9550624308
 30
0.0
 10
679.3607268457
 20
623.085554458
 30
0.0
  0
SPLINE
  5
351
100
AcDbEntity
  8
0
100
AcDbSpline
 62
7
  6
CONTINUOUS
 70
0
 71
3
 72
9
 73
5
 74
0
 42
0.0000001
 43
0.0000001
 44
0.0000000001
 40
0.0
 40
0.0
 40
0.0
 40
0.0
 40
0.2235402935
 40
1.0
 40
1.0
 40
1.0
 40
1.0
 10
679.3607268457
 20
623.085554458
 30
0.0
 10
679.4234213515
 20
623.1354360582
 30
0.0
 10
679.6911154622
 20
623.3746717683
 30
0.0
 10
679.9166370114
 20
623.6566092586
 30
0.0
 10
680.0814275511
 20
623.8808555543
 30
0.0
  0
SPLINE
  5
352
100
AcDbEntity
  8
0
100
AcDbSpline
 62
7
  6
CONTINUOUS
 70
0
 71
3
 72
8
 73
4
 74
0
 42
0.0000001
 43
0.0000001
 44
0.0000000001
 40
0.0
 40
0.0
 40
0.0
 40
0.0
 40
1.0
 40
1.0
 40
1.0
 40
1.0
 10
680.0814275511
 20
623.8808555543
 30
0.0
 10
680.2302959743
 20
624.0834350986
 30
0.0
 10
680.3705526525
 20
624.2923259823
 30
0.0
 10
680.5079124662
 20
624.5028789704
 30
0.0
  0
SPLINE
  5
353
100
AcDbEntity
  8
0
100
AcDbSpline
 62
7
  6
CONTINUOUS
 70
0
 71
3
 72
8
 73
4
 74
0
 42
0.0000001
 43
0.0000001
 44
0.0000000001
 40
0.0
 40
0.0
 40
0.0
 40
0.0
 40
1.0
 40
1.0
 40
1.0
 40
1.0
 10
680.5079124662
 20
624.5028789704
 30
0.0
 10
680.6113351316
 20
624.6614111542
 30
0.0
 10
680.7130141343
 20
624.8210764392
 30
0.0
 10
680.8146655638
 20
624.9807501311
 30
0.0
  0
SPLINE
  5
354
100
AcDbEntity
  8
0
100
AcDbSpline
 62
7
  6
CONTINUOUS
 70
0
 71
3
 72
8
 73
4
 74
0
 42
0.0000001
 43
0.0000001
 44
0.0000000001
 40
0.0
 40
0.0
 40
0.0
 40
0.0
 40
1.0
 40
1.0
 40
1.0
 40
1.0
 10
80.8146655638
 20
624.9807501311
 30
0.0
 10
80.9163172631
 20
624.8210760151
 30
0.0
 10
81.0179965394
 20
624.6614103083
 30
0.0
 10
81.1214194927
 20
624.5028777122
 30
0.0
  0
SPLINE
  5
355
100
AcDbEntity
  8
0
100
AcDbSpline
 62
7
  6
CONTINUOUS
 70
0
 71
3
 72
9
 73
5
 74
0
 42
0.0000001
 43
0.0000001
 44
0.0000000001
 40
0.0
 40
0.0
 40
0.0
 40
0.0
 40
0.2824964764
 40
1.0
 40
1.0
 40
1.0
 40
1.0
 10
81.1214194927
 20
624.5028777122
 30
0.0
 10
81.2162081218
 20
624.3575803002
 30
0.0
 10
81.5573352306
 20
623.8495302758
 30
0.0
 10
81.9344838018
 20
623.3470553839
 30
0.0
 10
82.2814275511
 20
623.0754333806
 30
0.0
  0
SPLINE
  5
356
100
AcDbEntity
  8
0
100
AcDbSpline
 62
7
  6
CONTINUOUS
 70
0
 71
3
 72
8
 73
4
 74
0
 42
0.0000001
 43
0.0000001
 44
0.0000000001
 40
0.0
 40
0.0
 40
0.0
 40
0.0
 40
1.0
 40
1.0
 40
1.0
 40
1.0
 10
82.2814275511
 20
623.0754333806
 30
0.0
 10
82.3993357172
 20
622.9831231651
 30
0.0
 10
82.5292472636
 20
622.9020608982
 30
0.0
 10
82.6690017796
 20
622.8482818431
 30
0.0
  0
SPLINE
  5
357
100
AcDbEntity
  8
0
100
AcDbSpline
 62
7
  6
CONTINUOUS
 70
0
 71
3
 72
8
 73
4
 74
0
 42
0.0000001
 43
0.0000001
 44
0.0000000001
 40
0.0
 40
0.0
 40
0.0
 40
0.0
 40
1.0
 40
1.0
 40
1.0
 40
1.0
 10
82.6690017796
 20
622.8482818431
 30
0.0
 10
82.7785689981
 20
622.8061191879
 30
0.0
 10
82.8972659689
 20
622.7807501311
 30
0.0
 10
83.0146655638
 20
622.7807501311
 30
0.0
  0
SPLINE
  5
358
100
AcDbEntity
  8
0
100
AcDbSpline
 62
7
  6
CONTINUOUS
 70
0
 71
3
 72
8
 73
4
 74
0
 42
0.0000001
 43
0.0000001
 44
0.0000000001
 40
0.0
 40
0.0
 40
0.0
 40
0.0
 40
1.0
 40
1.0
 40
1.0
 40
1.0
 10
99.2715075087
 20
622.579467152
 30
0.0
 10
99.5865280963
 20
622.4403534977
 30
0.0
 10
99.8772627084
 20
622.2474387825
 30
0.0
 10
100.1545434617
 20
622.0432184032
 30
0.0
  0
SPLINE
  5
359
100
AcDbEntity
  8
0
100
AcDbSpline
 62
7
  6
CONTINUOUS
 70
0
 71
3
 72
8
 73
4
 74
0
 42
0.0000001
 43
0.0000001
 44
0.0000000001
 40
0.0
 40
0.0
 40
0.0
 40
0.0
 40
1.0
 40
1.0
 40
1.0
 40
1.0
 10
100.1545434617
 20
622.0432184032
 30
0.0
 10
100.3000823284
 20
621.9360273984
 30
0.0
 10
100.4425063136
 20
621.8246237313
 30
0.0
 10
100.5840815172
 20
621.7122496464
 30
0.0
  0
SPLINE
  5
35A
100
AcDbEntity
  8
0
100
AcDbSpline
 62
7
  6
CONTINUOUS
 70
0
 71
3
 72
9
 73
5
 74
0
 42
0.0000001
 43
0.0000001
 44
0.0000000001
 40
0.0
 40
0.0
 40
0.0
 40
0.0
 40
0.2396456247
 40
1.0
 40
1.0
 40
1.0
 40
1.0
 10
98.7552689078
 20
330.76664801
 30
0.0
 10
98.8838493775
 20
330.76664801
 30
0.0
 10
99.4209213967
 20
330.726430605
 30
0.0
 10
99.93527768
 20
330.5262321797
 30
0.0
 10
100.2953186796
 20
330.3343861919
 30
0.0
  0
SPLINE
  5
35B
100
AcDbEntity
  8
0
100
AcDbSpline
 62
7
  6
CONTINUOUS
 70
0
 71
3
 72
8
 73
4
 74
0
 42
0.0000001
 43
0.0000001
 44
0.0000000001
 40
0.0
 40
0.0
 40
0.0
 40
0.0
 40
1.0
 40
1.0
 40
1.0
 40
1.0
 10
100.3878134143
 20
330.2839361469
 30
0.0
 10
100.5979078746
 20
330.166747336
 30
0.0
 10
100.8008407135
 20
330.0365447037
 30
0.0
 10
100.999082662
 20
329.9002618013
 30
0.0
  0
SPLINE
  5
35C
100
AcDbEntity
  8
0
100
AcDbSpline
 62
7
  6
CONTINUOUS
 70
0
 71
3
 72
8
 73
4
 74
0
 42
0.0000001
 43
0.0000001
 44
0.0000000001
 40
0.0
 40
0.0
 40
0.0
 40
0.0
 40
1.0
 40
1.0
 40
1.0
 40
1.0
 10
660.1314551536
 20
329.9002618013
 30
0.0
 10
660.3585904512
 20
330.0564076514
 30
0.0
 10
660.5919667552
 20
330.2047704167
 30
0.0
 10
660.835219136
 20
330.3343861919
 30
0.0
  0
SPLINE
  5
35D
100
AcDbEntity
  8
0
100
AcDbSpline
 62
7
  6
CONTINUOUS
 70
0
 71
3
 72
8
 73
4
 74
0
 42
0.0000001
 43
0.0000001
 44
0.0000000001
 40
0.0
 40
0.0
 40
0.0
 40
0.0
 40
1.0
 40
1.0
 40
1.0
 40
1.0
 10
660.835219136
 20
330.3343861919
 30
0.0
 10
661.0805373512
 20
330.4651027363
 30
0.0
 10
661.3381780362
 20
330.5774837583
 30
0.0
 10
661.6053186796
 20
330.6543194163
 30
0.0
  0
SPLINE
  5
35E
100
AcDbEntity
  8
0
100
AcDbSpline
 62
7
  6
CONTINUOUS
 70
0
 71
3
 72
8
 73
4
 74
0
 42
0.0000001
 43
0.0000001
 44
0.0000000001
 40
0.0
 40
0.0
 40
0.0
 40
0.0
 40
1.0
 40
1.0
 40
1.0
 40
1.0
 10
661.6053186796
 20
330.6543194163
 30
0.0
 10
661.8545802117
 20
330.7260126397
 30
0.0
 10
662.1159019291
 20
330.76664801
 30
0.0
 10
662.3752689078
 20
330.76664801
 30
0.0
  0
ENDSEC
  0
SECTION
  2
OBJECTS
  0
DICTIONARY
  5
C
100
AcDbDictionary
280
0
281
1
  3
ACAD_GROUP
350
D
  3
ACAD_MLINESTYLE
350
17
  3
ACAD_LAYOUT
350
1A
  3
ACAD_PLOTSETTINGS
350
19
  3
ACAD_PLOTSTYLENAME
350
E
  0
DICTIONARY
  5
D
102
{ACAD_REACTORS
330
C
102
}
100
AcDbDictionary
280
0
281
1
  0
ACDBDICTIONARYWDFLT
  5
E
102
{ACAD_REACTORS
330
C
102
}
100
AcDbDictionary
281
1
  3
Normal
350
F
100
AcDbDictionaryWithDefault
340
F
  0
DICTIONARY
  5
17
102
{ACAD_REACTORS
330
C
102
}
100
AcDbDictionary
280
0
281
1
  3
Standard
350
18
  0
DICTIONARY
  5
19
102
{ACAD_REACTORS
330
C
102
}
100
AcDbDictionary
281
1
  0
DICTIONARY
  5
1A
102
{ACAD_REACTORS
330
C
102
}
100
AcDbDictionary
281
1
  3
Model
350
35F
  3
Layout1
350
360
  0
ACDBPLACEHOLDER
  5
F
102
{ACAD_REACTORS
330
E
102
}
  0
MLINESTYLE
  5
18
102
{ACAD_REACTORS
330
17
102
}
100
AcDbMlineStyle
  2
STANDARD
 70
0
  3

 62
256
 51
90.0
 52
90.0
 71
2
 49
0.5
 62
256
  6
BYLAYER
 49
-0.5
 62
256
  6
BYLAYER
  0
LAYOUT
  5
35F
102
{ACAD_REACTORS
330
1A
102
}
100
AcDbPlotSettings
  1

  2
none_device
  4

  6

 40
0.0
 41
0.0
 42
0.0
 43
0.0
 44
210.0
 45
297.0
 46
0.0
 47
0.0
 48
0.0
 49
0.0
140
0.0
141
0.0
142
1.0
143
1.0
 70
1024
 72
1
 73
0
 74
0
  7

 75
0
147
1.0
148
0.0
149
0.0
100
AcDbLayout
  1
Model
 70
0
 71
0
 10
0.0
 20
0.0
 11
210.0
 21
297.0
 12
0.0
 22
0.0
 32
0.0
 14
0.0
 24
0.0
 34
0.0
 15
0.0
 25
0.0
 35
0.0
146
0.0
 13
0.0
 23
0.0
 33
0.0
 16
1.0
 26
0.0
 36
0.0
 17
0.0
 27
1.0
 37
0.0
 76
0
330
210
345
0
346
0
  0
LAYOUT
  5
360
102
{ACAD_REACTORS
330
1A
102
}
100
AcDbPlotSettings
  1

  2
none_device
  4

  6

 40
0.0
 41
0.0
 42
0.0
 43
0.0
 44
210.0
 45
297.0
 46
0.0
 47
0.0
 48
0.0
 49
0.0
140
0.0
141
0.0
142
1.0
143
1.0
 70
0
 72
1
 73
0
 74
0
  7

 75
0
147
1.0
148
0.0
149
0.0
100
AcDbLayout
  1
Layout1
 70
0
 71
1
 10
0.0
 20
0.0
 11
210.0
 21
297.0
 12
0.0
 22
0.0
 32
0.0
 14
0.0
 24
0.0
 34
0.0
 15
0.0
 25
0.0
 35
0.0
146
0.0
 13
0.0
 23
0.0
 33
0.0
 16
1.0
 26
0.0
 36
0.0
 17
0.0
 27
1.0
 37
0.0
 76
0
330
211
345
0
346
0
  0
ENDSEC
  0
EOF
