999
DXF file: C:\Users\sesa63760\Dev\_Creo\CAD\MCADUE0002276_3D-CAD\drw0001_7.dxf
999
Pro/ENGINEER 2019471 by Parametric Technology Corporation
  0
SECTION
  2
HEADER
  9
$ACADVER
  1
AC1024
  9
$DWGCODEPAGE
  3
ANSI_1252
  9
$EXTMAX
 10
136.5187984882
 20
193.0765864333
 30
0.0
  9
$EXTMIN
 10
0.0
 20
0.0
 30
0.0
  9
$LIMMIN
 10
0.0
 20
0.0
  9
$LIMMAX
 10
136.5187984882
 20
193.0765864333
  9
$VIEWCTR
 10
68.2593992441
 20
96.5382932166
  9
$VIEWSIZE
 40
193.0765864333
  9
$CLAYER
  8
0
  9
$LTSCALE
 40
12.5857330416
  9
$CELTYPE
  6
BYLAYER
  9
$DIMSCALE
 40
1.0
  9
$DIMASZ
 40
1.6252237915
  9
$DIMEXO
 40
1.0
  9
$DIMDLI
 40
8.6955973742
  9
$DIMEXE
 40
1.0
  9
$DIMCEN
 40
2.0594835886
  9
$DIMLFAC
 40
1.0
  9
$DIMBLK
  1
_FILLED
  9
$DIMALT
 70
0
  9
$DIMALTF
 40
0.0393700787
  9
$DIMTXT
 40
2.2753133081
  9
$DIMTOL
 70
1
  9
$DIMLIM
 70
0
  9
$DIMTFAC
 40
1.0
  9
$DIMTP
 40
0.01
  9
$DIMTM
 40
0.01
  9
$DIMGAP
 40
0.625
  9
$DIMDSEP
 70
46
  9
$AUNITS
 70
0
  9
$PDMODE
 70
3
  9
$PDSIZE
 40
0.3125
  9
$HANDSEED
  5
2E1
  9
$TILEMODE
 70
1
  9
$MEASUREMENT
 70
1
  9
$INSUNITS
 70
4
  0
ENDSEC
  0
SECTION
  2
CLASSES
  0
CLASS
  1
ACDBDICTIONARYWDFLT
  2
AcDbDictionaryWithDefault
  3
AutoCAD 2000
 90
0
 91
1
280
0
281
0
  0
CLASS
  1
ACDBPLACEHOLDER
  2
AcDbPlaceHolder
  3
AutoCAD 2000
 90
0
 91
1
280
0
281
0
  0
CLASS
  1
LAYOUT
  2
AcDbLayout
  3
AutoCAD 2000
 90
0
 91
0
280
0
281
0
  0
ENDSEC
  0
SECTION
  2
TABLES
  0
TABLE
  2
VPORT
  5
8
100
AcDbSymbolTable
 70
2
  0
VPORT
  5
1F4
100
AcDbSymbolTableRecord
100
AcDbViewportTableRecord
  2
*ACTIVE
 70
0
 10
0.0
 20
0.0
 11
1.0
 21
1.0
 12
68.2593992441
 22
96.5382932166
 13
0.0
 23
0.0
 14
1.0
 24
1.0
 15
0.0
 25
0.0
 16
0.0
 26
0.0
 36
1.0
 17
0.0
 27
0.0
 37
0.0
 40
193.0765864333
 41
0.7070707071
 42
50.0
 43
0.0
 44
0.0
 50
0.0
 51
0.0
 71
0
 72
100
 73
1
 74
1
 75
0
 76
0
 77
0
 78
0
  0
ENDTAB
  0
TABLE
  2
LTYPE
  5
5
100
AcDbSymbolTable
 70
6
  0
LTYPE
  5
14
100
AcDbSymbolTableRecord
100
AcDbLinetypeTableRecord
  2
BYBLOCK
 70
0
  3

 72
65
 73
0
 40
0.0
  0
LTYPE
  5
15
100
AcDbSymbolTableRecord
100
AcDbLinetypeTableRecord
  2
BYLAYER
 70
0
  3

 72
65
 73
0
 40
0.0
  0
LTYPE
  5
16
100
AcDbSymbolTableRecord
100
AcDbLinetypeTableRecord
  2
CONTINUOUS
 70
64
  3
Solid line
 72
65
 73
0
 40
0.0
  0
LTYPE
  5
1F5
100
AcDbSymbolTableRecord
100
AcDbLinetypeTableRecord
  2
CENTER
 70
64
  3
____ _ ____ _ ____ _ ____ _ ____ _ ____ _ ____
 72
65
 73
4
 40
0.6
 49
0.375
 74
0
 49
-0.075
 74
0
 49
0.075
 74
0
 49
-0.075
 74
0
  0
LTYPE
  5
1F6
100
AcDbSymbolTableRecord
100
AcDbLinetypeTableRecord
  2
HIDDEN
 70
64
  3
- - - - - - - - - - - - - - - - - - - -
 72
65
 73
2
 40
0.2
 49
0.1
 74
0
 49
-0.1
 74
0
  0
LTYPE
  5
1F7
100
AcDbSymbolTableRecord
100
AcDbLinetypeTableRecord
  2
PHANTOM
 70
64
  3
_____ _ _ _____ _ _ _____ _ _ _____
 72
65
 73
6
 40
0.8
 49
0.45
 74
0
 49
-0.05
 74
0
 49
0.1
 74
0
 49
-0.05
 74
0
 49
0.1
 74
0
 49
-0.05
 74
0
  0
LTYPE
  5
1F8
100
AcDbSymbolTableRecord
100
AcDbLinetypeTableRecord
  2
DOT
 70
64
  3
. . . . . . . . . . . . . . . . . . . .
 72
65
 73
2
 40
0.2
 49
0.1
 74
0
 49
-0.1
 74
0
  0
LTYPE
  5
1F9
100
AcDbSymbolTableRecord
100
AcDbLinetypeTableRecord
  2
DASHED
 70
64
  3
- - - - - - - - - - - - - - - - - - - -
 72
65
 73
2
 40
0.2
 49
0.1
 74
0
 49
-0.1
 74
0
  0
ENDTAB
  0
TABLE
  2
LAYER
  5
2
100
AcDbSymbolTable
 70
36
  0
LAYER
  5
10
100
AcDbSymbolTableRecord
100
AcDbLayerTableRecord
  2
0
 70
0
 62
7
  6
CONTINUOUS
370
-3
390
F
  0
LAYER
  5
1FA
100
AcDbSymbolTableRecord
100
AcDbLayerTableRecord
  2
DEFAULT_1
 70
0
 62
7
  6
CENTER
370
-3
390
F
  0
LAYER
  5
1FB
100
AcDbSymbolTableRecord
100
AcDbLayerTableRecord
  2
DEFAULT_2
 70
0
 62
8
  6
HIDDEN
370
-3
390
F
  0
LAYER
  5
1FC
100
AcDbSymbolTableRecord
100
AcDbLayerTableRecord
  2
DEFAULT_3
 70
0
 62
7
  6
PHANTOM
370
-3
390
F
  0
LAYER
  5
1FD
100
AcDbSymbolTableRecord
100
AcDbLayerTableRecord
  2
00_COMPONENTS
 70
0
 62
7
  6
CONTINUOUS
370
-3
390
F
  0
LAYER
  5
1FE
100
AcDbSymbolTableRecord
100
AcDbLayerTableRecord
  2
01_1_DEFAULT_DATUMS
 70
0
 62
7
  6
CONTINUOUS
370
-3
390
F
  0
LAYER
  5
1FF
100
AcDbSymbolTableRecord
100
AcDbLayerTableRecord
  2
01_PLANES
 70
0
 62
7
  6
CONTINUOUS
370
-3
390
F
  0
LAYER
  5
200
100
AcDbSymbolTableRecord
100
AcDbLayerTableRecord
  2
02_COORD_SYS
 70
0
 62
7
  6
CONTINUOUS
370
-3
390
F
  0
LAYER
  5
201
100
AcDbSymbolTableRecord
100
AcDbLayerTableRecord
  2
03_AXES
 70
0
 62
7
  6
CONTINUOUS
370
-3
390
F
  0
LAYER
  5
202
100
AcDbSymbolTableRecord
100
AcDbLayerTableRecord
  2
04_POINTS
 70
0
 62
7
  6
CONTINUOUS
370
-3
390
F
  0
LAYER
  5
203
100
AcDbSymbolTableRecord
100
AcDbLayerTableRecord
  2
05_CURVES
 70
0
 62
7
  6
CONTINUOUS
370
-3
390
F
  0
LAYER
  5
204
100
AcDbSymbolTableRecord
100
AcDbLayerTableRecord
  2
06_SURFS
 70
0
 62
7
  6
CONTINUOUS
370
-3
390
F
  0
LAYER
  5
205
100
AcDbSymbolTableRecord
100
AcDbLayerTableRecord
  2
07_COSMETICS
 70
0
 62
7
  6
CONTINUOUS
370
-3
390
F
  0
LAYER
  5
206
100
AcDbSymbolTableRecord
100
AcDbLayerTableRecord
  2
10_NOTES
 70
0
 62
7
  6
CONTINUOUS
370
-3
390
F
  0
LAYER
  5
207
100
AcDbSymbolTableRecord
100
AcDbLayerTableRecord
  2
11_NOTES_PUB
 70
0
 62
7
  6
CONTINUOUS
370
-3
390
F
  0
LAYER
  5
208
100
AcDbSymbolTableRecord
100
AcDbLayerTableRecord
  2
13_REF_GTOL
 70
0
 62
7
  6
CONTINUOUS
370
-3
390
F
  0
LAYER
  5
209
100
AcDbSymbolTableRecord
100
AcDbLayerTableRecord
  2
16_MISC
 70
0
 62
7
  6
CONTINUOUS
370
-3
390
F
  0
LAYER
  5
20A
100
AcDbSymbolTableRecord
100
AcDbLayerTableRecord
  2
17_NO_PRINT
 70
0
 62
7
  6
CONTINUOUS
370
-3
390
F
  0
LAYER
  5
20B
100
AcDbSymbolTableRecord
100
AcDbLayerTableRecord
  2
18_DATUM_CAMS_JOINTS
 70
0
 62
7
  6
CONTINUOUS
370
-3
390
F
  0
LAYER
  5
20C
100
AcDbSymbolTableRecord
100
AcDbLayerTableRecord
  2
19_DATUM_FUNCTIONAL
 70
0
 62
7
  6
CONTINUOUS
370
-3
390
F
  0
LAYER
  5
20D
100
AcDbSymbolTableRecord
100
AcDbLayerTableRecord
  2
20_DATUM_KINEMATIC_SCHEME
 70
0
 62
7
  6
CONTINUOUS
370
-3
390
F
  0
LAYER
  5
20E
100
AcDbSymbolTableRecord
100
AcDbLayerTableRecord
  2
PART
 70
0
 62
7
  6
CONTINUOUS
370
-3
390
F
  0
ENDTAB
  0
TABLE
  2
STYLE
  5
3
100
AcDbSymbolTable
 70
1
  0
STYLE
  5
11
100
AcDbSymbolTableRecord
100
AcDbTextStyleTableRecord
  2
STANDARD
 70
0
 40
0.0
 41
0.8
 50
0.0
 71
0
 42
0.2
  3
txt
  4

  0
STYLE
  5
20F
100
AcDbSymbolTableRecord
100
AcDbTextStyleTableRecord
  2
TEXTSTYLE_1
 70
0
 40
0.0
 41
0.8
 50
0.0
 71
0
 42
0.2
  3
gdt
  4

  0
ENDTAB
  0
TABLE
  2
VIEW
  5
6
100
AcDbSymbolTable
 70
0
  0
ENDTAB
  0
TABLE
  2
UCS
  5
7
100
AcDbSymbolTable
 70
0
  0
ENDTAB
  0
TABLE
  2
APPID
  5
9
100
AcDbSymbolTable
 70
1
  0
APPID
  5
210
100
AcDbSymbolTableRecord
100
AcDbRegAppTableRecord
  2
ACAD
 70
0
  0
ENDTAB
  0
TABLE
  2
BLOCK_RECORD
  5
1
100
AcDbSymbolTable
 70
0
  0
BLOCK_RECORD
  5
211
100
AcDbSymbolTableRecord
100
AcDbBlockTableRecord
  2
*Model_Space
  0
BLOCK_RECORD
  5
212
100
AcDbSymbolTableRecord
100
AcDbBlockTableRecord
  2
*Paper_Space
  0
BLOCK_RECORD
  5
213
100
AcDbSymbolTableRecord
100
AcDbBlockTableRecord
  2
_FILLED
  0
ENDTAB
  0
TABLE
  2
DIMSTYLE
  5
A
100
AcDbSymbolTable
 70
1
100
AcDbDimStyleTable
 71
0
  0
DIMSTYLE
105
214
100
AcDbSymbolTableRecord
100
AcDbDimStyleTableRecord
  2
STANDARD
 70
0
  3

  4

 40
1.0
 41
1.6252237915
 42
1.0
 43
0.38
 44
1.0
 45
0.0
 46
0.0
 47
0.01
 48
0.01
140
2.2753133081
141
0.09
142
0.0
143
25.4
144
1.0
145
0.0
146
1.0
147
0.625
 71
1
 72
0
 73
0
 74
0
 75
0
 76
0
 77
1
 78
8
 79
2
170
0
171
1
172
0
173
0
174
0
175
0
176
0
177
0
178
0
270
2
179
2
271
2
272
2
273
2
274
2
275
0
280
0
281
0
282
0
283
1
284
8
285
0
286
0
287
3
288
0
340
11
278
46
341
213
342
213
343
213
344
213
  0
ENDTAB
  0
ENDSEC
  0
SECTION
  2
BLOCKS
  0
BLOCK
  5
20
100
AcDbEntity
  8
0
100
AcDbBlockBegin
  2
*Model_Space
 70
0
 10
0.0
 20
0.0
 30
0.0
  3
*Model_Space
  1

  0
ENDBLK
  5
21
100
AcDbEntity
  8
0
100
AcDbBlockEnd
  0
BLOCK
  5
1C
100
AcDbEntity
  8
0
100
AcDbBlockBegin
  2
*Paper_Space
 70
0
 10
0.0
 20
0.0
 30
0.0
  3
*Paper_Space
  1

  0
ENDBLK
  5
1D
100
AcDbEntity
  8
0
100
AcDbBlockEnd
  0
BLOCK
  5
215
100
AcDbEntity
  8
0
100
AcDbBlockBegin
  2
_FILLED
 70
64
 10
0.0
 20
0.0
  3
_FILLED
  1

  0
SOLID
  5
216
100
AcDbEntity
  8
0
  6
BYBLOCK
 62
0
100
AcDbTrace
 10
0.0
 20
0.0
 11
-1.0
 21
0.25
 12
-1.0
 22
-0.25
 13
-1.0
 23
-0.25
  0
ENDBLK
  5
217
100
AcDbEntity
  8
0
  6
BYBLOCK
 62
0
100
AcDbBlockEnd
  0
ENDSEC
  0
SECTION
  2
ENTITIES
  0
LINE
  5
218
100
AcDbEntity
  8
PART
100
AcDbLine
 62
7
  6
CONTINUOUS
 10
14.4957230953
 20
62.010940919
 11
14.4957230953
 21
132.010940919
  0
LINE
  5
219
100
AcDbEntity
  8
PART
100
AcDbLine
 62
7
  6
CONTINUOUS
 10
14.9957230953
 20
65.010940919
 11
14.9957230953
 21
76.010940919
  0
LINE
  5
21A
100
AcDbEntity
  8
PART
100
AcDbLine
 62
7
  6
CONTINUOUS
 10
14.9957230953
 20
118.010940919
 11
14.9957230953
 21
129.010940919
  0
LINE
  5
21B
100
AcDbEntity
  8
PART
100
AcDbLine
 62
7
  6
CONTINUOUS
 10
15.2457230953
 20
51.2609409206
 11
15.2457230953
 21
142.7609409183
  0
LINE
  5
21C
100
AcDbEntity
  8
PART
100
AcDbLine
 62
7
  6
CONTINUOUS
 10
17.2457230953
 20
142.7609364731
 11
17.2457230953
 21
51.2609453649
  0
LINE
  5
21D
100
AcDbEntity
  8
PART
100
AcDbLine
 62
7
  6
CONTINUOUS
 10
33.4957230953
 20
43.010940919
 11
103.4957230953
 21
43.010940919
  0
LINE
  5
21E
100
AcDbEntity
  8
PART
100
AcDbLine
 62
7
  6
CONTINUOUS
 10
36.4957230953
 20
43.510940919
 11
47.4957230953
 21
43.510940919
  0
LINE
  5
21F
100
AcDbEntity
  8
PART
100
AcDbLine
 62
7
  6
CONTINUOUS
 10
89.4957230953
 20
43.510940919
 11
100.4957230953
 21
43.510940919
  0
LINE
  5
220
100
AcDbEntity
  8
PART
100
AcDbLine
 62
7
  6
CONTINUOUS
 10
114.2457230927
 20
43.760940919
 11
22.7457230966
 21
43.760940919
  0
LINE
  5
221
100
AcDbEntity
  8
PART
100
AcDbLine
 62
7
  6
CONTINUOUS
 10
22.7457275412
 20
45.760940919
 11
114.2457186494
 21
45.760940919
  0
LINE
  5
222
100
AcDbEntity
  8
PART
100
AcDbLine
 62
7
  6
CONTINUOUS
 10
18.4957230953
 20
58.0110597168
 11
18.4957230953
 21
136.0108221094
  0
LINE
  5
223
100
AcDbEntity
  8
PART
100
AcDbLine
 62
7
  6
CONTINUOUS
 10
19.4957230953
 20
58.0109409233
 11
19.4957230953
 21
136.0109409148
  0
LINE
  5
224
100
AcDbEntity
  8
PART
100
AcDbLine
 62
7
  6
CONTINUOUS
 10
20.9957230953
 20
136.0109351417
 11
20.9957230953
 21
58.0109466964
  0
LINE
  5
225
100
AcDbEntity
  8
PART
100
AcDbLine
 62
7
  6
CONTINUOUS
 10
21.0157230953
 20
46.1632494904
 11
21.0157230953
 21
53.8586323477
  0
LINE
  5
226
100
AcDbEntity
  8
PART
100
AcDbLine
 62
7
  6
CONTINUOUS
 10
21.0157230953
 20
140.1632494904
 11
21.0157230953
 21
147.8586323477
  0
LINE
  5
227
100
AcDbEntity
  8
PART
100
AcDbLine
 62
7
  6
CONTINUOUS
 10
21.4957231065
 20
139.0109252325
 11
21.4957230953
 21
136.5109425095
  0
LINE
  5
228
100
AcDbEntity
  8
PART
100
AcDbLine
 62
7
  6
CONTINUOUS
 10
21.4957230953
 20
57.5109420781
 11
21.4957230952
 21
55.0109370386
  0
LINE
  5
229
100
AcDbEntity
  8
PART
100
AcDbLine
 62
7
  6
CONTINUOUS
 10
21.9757230953
 20
46.1632494904
 11
21.9757230953
 21
53.8586323477
  0
LINE
  5
22A
100
AcDbEntity
  8
PART
100
AcDbLine
 62
7
  6
CONTINUOUS
 10
21.9757230953
 20
140.1632494904
 11
21.9757230953
 21
147.8586323477
  0
LINE
  5
22B
100
AcDbEntity
  8
PART
100
AcDbLine
 62
7
  6
CONTINUOUS
 10
22.7457230724
 20
150.260940919
 11
22.7457230724
 21
148.260940919
  0
LINE
  5
22C
100
AcDbEntity
  8
PART
100
AcDbLine
 62
7
  6
CONTINUOUS
 10
22.7457230953
 20
45.760940919
 11
22.7457230953
 21
43.760940919
  0
LINE
  5
22D
100
AcDbEntity
  8
PART
100
AcDbLine
 62
7
  6
CONTINUOUS
 10
29.4838519708
 20
47.6469533781
 11
107.5075928634
 21
47.6469549397
  0
LINE
  5
22E
100
AcDbEntity
  8
PART
100
AcDbLine
 62
7
  6
CONTINUOUS
 10
29.4838530422
 20
48.2897693292
 11
107.5075918616
 21
48.2897662829
  0
LINE
  5
22F
100
AcDbEntity
  8
PART
100
AcDbLine
 62
7
  6
CONTINUOUS
 10
15.2457230953
 20
51.2609408912
 11
17.2457230953
 21
51.2609408912
  0
LINE
  5
230
100
AcDbEntity
  8
PART
100
AcDbLine
 62
7
  6
CONTINUOUS
 10
119.7457230953
 20
51.260940919
 11
121.7457230953
 21
51.260940919
  0
LINE
  5
231
100
AcDbEntity
  8
PART
100
AcDbLine
 62
7
  6
CONTINUOUS
 10
27.3779812298
 20
55.1115399128
 11
27.3783340376
 21
54.1473596152
  0
LINE
  5
232
100
AcDbEntity
  8
PART
100
AcDbLine
 62
7
  6
CONTINUOUS
 10
27.3780693117
 20
138.9103417399
 11
27.3780693117
 21
139.8745222229
  0
LINE
  5
233
100
AcDbEntity
  8
PART
100
AcDbLine
 62
7
  6
CONTINUOUS
 10
27.3786742418
 20
54.1474330718
 11
109.6128374769
 21
54.1474543957
  0
LINE
  5
234
100
AcDbEntity
  8
PART
100
AcDbLine
 62
7
  6
CONTINUOUS
 10
27.3780673391
 20
55.1115407371
 11
109.6133697791
 21
55.1115390885
  0
LINE
  5
235
100
AcDbEntity
  8
PART
100
AcDbLine
 62
7
  6
CONTINUOUS
 10
29.4838538774
 20
146.374928638
 11
29.4838538774
 21
145.7321235437
  0
LINE
  5
236
100
AcDbEntity
  8
PART
100
AcDbLine
 62
7
  6
CONTINUOUS
 10
29.4838754531
 20
47.6469541588
 11
29.4838754531
 21
48.2897582945
  0
LINE
  5
237
100
AcDbEntity
  8
PART
100
AcDbLine
 62
7
  6
CONTINUOUS
 10
18.4957230953
 20
58.010940919
 11
20.9957230953
 21
58.010940919
  0
LINE
  5
238
100
AcDbEntity
  8
PART
100
AcDbLine
 62
7
  6
CONTINUOUS
 10
115.9957230953
 20
58.010941041
 11
118.4957230953
 21
58.010940919
  0
LINE
  5
239
100
AcDbEntity
  8
PART
100
AcDbLine
 62
7
  6
CONTINUOUS
 10
36.4957230953
 20
43.010940919
 11
36.4957230953
 21
43.510940919
  0
LINE
  5
23A
100
AcDbEntity
  8
PART
100
AcDbLine
 62
7
  6
CONTINUOUS
 10
36.4957230953
 20
150.510940919
 11
36.4957230953
 21
151.010940919
  0
LINE
  5
23B
100
AcDbEntity
  8
PART
100
AcDbLine
 62
7
  6
CONTINUOUS
 10
36.5957230953
 20
151.010940919
 11
36.5957230953
 21
150.510940919
  0
LINE
  5
23C
100
AcDbEntity
  8
PART
100
AcDbLine
 62
7
  6
CONTINUOUS
 10
36.5957230953
 20
43.510940919
 11
36.5957230953
 21
43.010940919
  0
LINE
  5
23D
100
AcDbEntity
  8
PART
100
AcDbLine
 62
7
  6
CONTINUOUS
 10
110.7074318064
 20
142.5714174842
 11
109.7497690882
 21
142.2835114563
  0
LINE
  5
23E
100
AcDbEntity
  8
PART
100
AcDbLine
 62
7
  6
CONTINUOUS
 10
122.4957230953
 20
65.010940919
 11
121.9957230953
 21
65.010940919
  0
LINE
  5
23F
100
AcDbEntity
  8
PART
100
AcDbLine
 62
7
  6
CONTINUOUS
 10
14.9957230953
 20
65.010940919
 11
14.4957230953
 21
65.010940919
  0
LINE
  5
240
100
AcDbEntity
  8
PART
100
AcDbLine
 62
7
  6
CONTINUOUS
 10
14.4957230953
 20
65.110940919
 11
14.9957230953
 21
65.110940919
  0
LINE
  5
241
100
AcDbEntity
  8
PART
100
AcDbLine
 62
7
  6
CONTINUOUS
 10
121.9957230953
 20
65.110940919
 11
122.4957230953
 21
65.110940919
  0
LINE
  5
242
100
AcDbEntity
  8
PART
100
AcDbLine
 62
7
  6
CONTINUOUS
 10
110.7074270397
 20
51.4504445583
 11
109.7497803621
 21
51.7384078817
  0
LINE
  5
243
100
AcDbEntity
  8
PART
100
AcDbLine
 62
7
  6
CONTINUOUS
 10
47.3957230953
 20
43.010940919
 11
47.3957230953
 21
43.510940919
  0
LINE
  5
244
100
AcDbEntity
  8
PART
100
AcDbLine
 62
7
  6
CONTINUOUS
 10
47.3957230953
 20
150.510940919
 11
47.3957230953
 21
151.010940919
  0
LINE
  5
245
100
AcDbEntity
  8
PART
100
AcDbLine
 62
7
  6
CONTINUOUS
 10
47.4957230953
 20
151.010940919
 11
47.4957230953
 21
150.510940919
  0
LINE
  5
246
100
AcDbEntity
  8
PART
100
AcDbLine
 62
7
  6
CONTINUOUS
 10
47.4957230953
 20
43.510940919
 11
47.4957230953
 21
43.010940919
  0
LINE
  5
247
100
AcDbEntity
  8
PART
100
AcDbLine
 62
7
  6
CONTINUOUS
 10
122.4957230953
 20
75.910940919
 11
121.9957230953
 21
75.910940919
  0
LINE
  5
248
100
AcDbEntity
  8
PART
100
AcDbLine
 62
7
  6
CONTINUOUS
 10
14.9957230953
 20
75.910940919
 11
14.4957230953
 21
75.910940919
  0
LINE
  5
249
100
AcDbEntity
  8
PART
100
AcDbLine
 62
7
  6
CONTINUOUS
 10
14.4957230953
 20
76.010940919
 11
14.9957230953
 21
76.010940919
  0
LINE
  5
24A
100
AcDbEntity
  8
PART
100
AcDbLine
 62
7
  6
CONTINUOUS
 10
121.9957230953
 20
76.010940919
 11
122.4957230953
 21
76.010940919
  0
LINE
  5
24B
100
AcDbEntity
  8
PART
100
AcDbLine
 62
7
  6
CONTINUOUS
 10
26.5828015715
 20
55.5219852355
 11
25.5653867126
 21
54.4197772782
  0
LINE
  5
24C
100
AcDbEntity
  8
PART
100
AcDbLine
 62
7
  6
CONTINUOUS
 10
26.5828004217
 20
138.4998956081
 11
25.5653687136
 21
139.6020879456
  0
LINE
  5
24D
100
AcDbEntity
  8
PART
100
AcDbLine
 62
7
  6
CONTINUOUS
 10
110.4086303678
 20
138.49990766
 11
111.426057386
 21
139.6021064909
  0
LINE
  5
24E
100
AcDbEntity
  8
PART
100
AcDbLine
 62
7
  6
CONTINUOUS
 10
110.4086461778
 20
55.5219864471
 11
111.4260776871
 21
54.4197940865
  0
LINE
  5
24F
100
AcDbEntity
  8
PART
100
AcDbLine
 62
7
  6
CONTINUOUS
 10
89.4957230953
 20
43.010940919
 11
89.4957230953
 21
43.510940919
  0
LINE
  5
250
100
AcDbEntity
  8
PART
100
AcDbLine
 62
7
  6
CONTINUOUS
 10
89.4957230953
 20
150.510940919
 11
89.4957230953
 21
151.010940919
  0
LINE
  5
251
100
AcDbEntity
  8
PART
100
AcDbLine
 62
7
  6
CONTINUOUS
 10
122.4957230953
 20
118.010940919
 11
121.9957230953
 21
118.010940919
  0
LINE
  5
252
100
AcDbEntity
  8
PART
100
AcDbLine
 62
7
  6
CONTINUOUS
 10
14.9957230953
 20
118.010940919
 11
14.4957230953
 21
118.010940919
  0
LINE
  5
253
100
AcDbEntity
  8
PART
100
AcDbLine
 62
7
  6
CONTINUOUS
 10
89.5957230953
 20
151.010940919
 11
89.5957230953
 21
150.510940919
  0
LINE
  5
254
100
AcDbEntity
  8
PART
100
AcDbLine
 62
7
  6
CONTINUOUS
 10
89.5957230953
 20
43.510940919
 11
89.5957230953
 21
43.010940919
  0
LINE
  5
255
100
AcDbEntity
  8
PART
100
AcDbLine
 62
7
  6
CONTINUOUS
 10
14.4957230953
 20
118.110940919
 11
14.9957230953
 21
118.110940919
  0
LINE
  5
256
100
AcDbEntity
  8
PART
100
AcDbLine
 62
7
  6
CONTINUOUS
 10
121.9957230953
 20
118.110940919
 11
122.4957230953
 21
118.110940919
  0
LINE
  5
257
100
AcDbEntity
  8
PART
100
AcDbLine
 62
7
  6
CONTINUOUS
 10
100.3957230953
 20
43.010940919
 11
100.3957230953
 21
43.510940919
  0
LINE
  5
258
100
AcDbEntity
  8
PART
100
AcDbLine
 62
7
  6
CONTINUOUS
 10
100.3957230953
 20
150.510940919
 11
100.3957230953
 21
151.010940919
  0
LINE
  5
259
100
AcDbEntity
  8
PART
100
AcDbLine
 62
7
  6
CONTINUOUS
 10
100.4957230953
 20
151.010940919
 11
100.4957230953
 21
150.510940919
  0
LINE
  5
25A
100
AcDbEntity
  8
PART
100
AcDbLine
 62
7
  6
CONTINUOUS
 10
100.4957230953
 20
43.510940919
 11
100.4957230953
 21
43.010940919
  0
LINE
  5
25B
100
AcDbEntity
  8
PART
100
AcDbLine
 62
7
  6
CONTINUOUS
 10
26.2840145184
 20
51.4504639106
 11
27.2416772624
 21
51.7383698495
  0
LINE
  5
25C
100
AcDbEntity
  8
PART
100
AcDbLine
 62
7
  6
CONTINUOUS
 10
122.4957230953
 20
128.910940919
 11
121.9957230953
 21
128.910940919
  0
LINE
  5
25D
100
AcDbEntity
  8
PART
100
AcDbLine
 62
7
  6
CONTINUOUS
 10
14.9957230953
 20
128.910940919
 11
14.4957230953
 21
128.910940919
  0
LINE
  5
25E
100
AcDbEntity
  8
PART
100
AcDbLine
 62
7
  6
CONTINUOUS
 10
14.4957230953
 20
129.010940919
 11
14.9957230953
 21
129.010940919
  0
LINE
  5
25F
100
AcDbEntity
  8
PART
100
AcDbLine
 62
7
  6
CONTINUOUS
 10
121.9957230953
 20
129.010940919
 11
122.4957230953
 21
129.010940919
  0
LINE
  5
260
100
AcDbEntity
  8
PART
100
AcDbLine
 62
7
  6
CONTINUOUS
 10
26.2840190527
 20
142.5714369564
 11
27.2416656271
 21
142.2834732867
  0
LINE
  5
261
100
AcDbEntity
  8
PART
100
AcDbLine
 62
7
  6
CONTINUOUS
 10
107.5075705963
 20
146.374928638
 11
107.5075705963
 21
145.7321235437
  0
LINE
  5
262
100
AcDbEntity
  8
PART
100
AcDbLine
 62
7
  6
CONTINUOUS
 10
107.5075925509
 20
47.6469541588
 11
107.5075925509
 21
48.2897582945
  0
LINE
  5
263
100
AcDbEntity
  8
PART
100
AcDbLine
 62
7
  6
CONTINUOUS
 10
109.6133761397
 20
55.1115399128
 11
109.6133761397
 21
54.1473596152
  0
LINE
  5
264
100
AcDbEntity
  8
PART
100
AcDbLine
 62
7
  6
CONTINUOUS
 10
109.6133904813
 20
138.9103417399
 11
109.613497801
 21
139.8745222229
  0
LINE
  5
265
100
AcDbEntity
  8
PART
100
AcDbLine
 62
7
  6
CONTINUOUS
 10
118.4957230953
 20
136.010940919
 11
115.9957230953
 21
136.010940919
  0
LINE
  5
266
100
AcDbEntity
  8
PART
100
AcDbLine
 62
7
  6
CONTINUOUS
 10
20.9957230953
 20
136.0109407971
 11
18.4957230953
 21
136.0109409191
  0
LINE
  5
267
100
AcDbEntity
  8
PART
100
AcDbLine
 62
7
  6
CONTINUOUS
 10
114.2457231181
 20
43.760940919
 11
114.2457231181
 21
45.760940919
  0
LINE
  5
268
100
AcDbEntity
  8
PART
100
AcDbLine
 62
7
  6
CONTINUOUS
 10
114.2457230953
 20
148.260940919
 11
114.2457230953
 21
150.260940919
  0
LINE
  5
269
100
AcDbEntity
  8
PART
100
AcDbLine
 62
7
  6
CONTINUOUS
 10
109.6133788982
 20
138.9103410393
 11
27.3780752562
 21
138.9103424405
  0
LINE
  5
26A
100
AcDbEntity
  8
PART
100
AcDbLine
 62
7
  6
CONTINUOUS
 10
109.6134977395
 20
139.8745507173
 11
27.3786110478
 21
139.8744283655
  0
LINE
  5
26B
100
AcDbEntity
  8
PART
100
AcDbLine
 62
7
  6
CONTINUOUS
 10
121.7457230953
 20
142.7609409468
 11
119.7457230953
 21
142.7609409468
  0
LINE
  5
26C
100
AcDbEntity
  8
PART
100
AcDbLine
 62
7
  6
CONTINUOUS
 10
17.2457230953
 20
142.760940919
 11
15.2457230953
 21
142.760940919
  0
LINE
  5
26D
100
AcDbEntity
  8
PART
100
AcDbLine
 62
7
  6
CONTINUOUS
 10
115.0157230953
 20
46.1632494904
 11
115.0157230953
 21
53.8586323477
  0
LINE
  5
26E
100
AcDbEntity
  8
PART
100
AcDbLine
 62
7
  6
CONTINUOUS
 10
115.0157230953
 20
140.1632494904
 11
115.0157230953
 21
147.8586323477
  0
LINE
  5
26F
100
AcDbEntity
  8
PART
100
AcDbLine
 62
7
  6
CONTINUOUS
 10
115.4957230841
 20
55.0109566056
 11
115.4957230953
 21
57.5109392108
  0
LINE
  5
270
100
AcDbEntity
  8
PART
100
AcDbLine
 62
7
  6
CONTINUOUS
 10
115.9757230953
 20
46.1632494904
 11
115.9757230953
 21
53.8586323477
  0
LINE
  5
271
100
AcDbEntity
  8
PART
100
AcDbLine
 62
7
  6
CONTINUOUS
 10
115.9757230953
 20
140.1632494904
 11
115.9757230953
 21
147.8586323477
  0
LINE
  5
272
100
AcDbEntity
  8
PART
100
AcDbLine
 62
7
  6
CONTINUOUS
 10
115.9957230953
 20
58.0109466964
 11
115.9957230953
 21
136.010940919
  0
LINE
  5
273
100
AcDbEntity
  8
PART
100
AcDbLine
 62
7
  6
CONTINUOUS
 10
117.4957230953
 20
136.0109409194
 11
117.4957230953
 21
58.0109409233
  0
LINE
  5
274
100
AcDbEntity
  8
PART
100
AcDbLine
 62
7
  6
CONTINUOUS
 10
118.4957230953
 20
136.0108221212
 11
118.4957230953
 21
58.0110597287
  0
LINE
  5
275
100
AcDbEntity
  8
PART
100
AcDbLine
 62
7
  6
CONTINUOUS
 10
119.7457230953
 20
51.2609453649
 11
119.7457230953
 21
142.7609364732
  0
LINE
  5
276
100
AcDbEntity
  8
PART
100
AcDbLine
 62
7
  6
CONTINUOUS
 10
115.4949371876
 20
136.5109403014
 11
115.495670864
 21
137.2109409738
  0
LINE
  5
277
100
AcDbEntity
  8
PART
100
AcDbLine
 62
7
  6
CONTINUOUS
 10
115.495670864
 20
137.2109409738
 11
115.4957230954
 21
139.0109448004
  0
LINE
  5
278
100
AcDbEntity
  8
PART
100
AcDbLine
 62
7
  6
CONTINUOUS
 10
107.5075930029
 20
145.7321130476
 11
29.4838545622
 21
145.7321162478
  0
LINE
  5
279
100
AcDbEntity
  8
PART
100
AcDbLine
 62
7
  6
CONTINUOUS
 10
107.5075940924
 20
146.3749295838
 11
29.4838535686
 21
146.3749276921
  0
LINE
  5
27A
100
AcDbEntity
  8
PART
100
AcDbLine
 62
7
  6
CONTINUOUS
 10
114.2457186494
 20
148.260940919
 11
22.7457275412
 21
148.260940919
  0
LINE
  5
27B
100
AcDbEntity
  8
PART
100
AcDbLine
 62
7
  6
CONTINUOUS
 10
121.7457230953
 20
142.7609409175
 11
121.7457230953
 21
51.2609409198
  0
LINE
  5
27C
100
AcDbEntity
  8
PART
100
AcDbLine
 62
7
  6
CONTINUOUS
 10
121.9957230953
 20
65.010940919
 11
121.9957230953
 21
76.010940919
  0
LINE
  5
27D
100
AcDbEntity
  8
PART
100
AcDbLine
 62
7
  6
CONTINUOUS
 10
121.9957230953
 20
118.010940919
 11
121.9957230953
 21
129.010940919
  0
LINE
  5
27E
100
AcDbEntity
  8
PART
100
AcDbLine
 62
7
  6
CONTINUOUS
 10
122.4957230953
 20
62.010940919
 11
122.4957230953
 21
132.010940919
  0
LINE
  5
27F
100
AcDbEntity
  8
PART
100
AcDbLine
 62
7
  6
CONTINUOUS
 10
22.7457230978
 20
150.260940919
 11
114.245723094
 21
150.260940919
  0
LINE
  5
280
100
AcDbEntity
  8
PART
100
AcDbLine
 62
7
  6
CONTINUOUS
 10
36.4957230953
 20
150.510940919
 11
47.4957230953
 21
150.510940919
  0
LINE
  5
281
100
AcDbEntity
  8
PART
100
AcDbLine
 62
7
  6
CONTINUOUS
 10
89.4957230953
 20
150.510940919
 11
100.4957230953
 21
150.510940919
  0
LINE
  5
282
100
AcDbEntity
  8
PART
100
AcDbLine
 62
7
  6
CONTINUOUS
 10
33.4957230953
 20
151.010940919
 11
103.4957230953
 21
151.010940919
  0
ARC
  5
283
100
AcDbEntity
  8
PART
100
AcDbCircle
 62
7
  6
CONTINUOUS
 10
22.7457230953
 20
51.260940919
 40
7.5
100
AcDbArc
 50
180.0
 51
270.0000000049
  0
ARC
  5
284
100
AcDbEntity
  8
PART
100
AcDbCircle
 62
7
  6
CONTINUOUS
 10
21.4957230953
 20
50.010940919
 40
7.4999984587
100
AcDbArc
 50
47.2907996724
 51
89.9998075126
  0
ARC
  5
285
100
AcDbEntity
  8
PART
100
AcDbCircle
 62
7
  6
CONTINUOUS
 10
21.4957230953
 20
50.010940919
 40
6.0
100
AcDbArc
 50
16.7321846709
 51
89.9999999802
  0
ARC
  5
286
100
AcDbEntity
  8
PART
100
AcDbCircle
 62
7
  6
CONTINUOUS
 10
22.7457230953
 20
51.260940919
 40
5.4999994966
100
AcDbArc
 50
249.3577042381
 51
270.0000463146
  0
ARC
  5
287
100
AcDbEntity
  8
PART
100
AcDbCircle
 62
7
  6
CONTINUOUS
 10
22.7457230953
 20
51.260940919
 40
5.4999994966
100
AcDbArc
 50
179.9999536854
 51
198.5545561812
  0
ARC
  5
288
100
AcDbEntity
  8
PART
100
AcDbCircle
 62
7
  6
CONTINUOUS
 10
21.4957230953
 20
50.010940919
 40
4.9999961196
100
AcDbArc
 50
16.732455792
 51
90.0
  0
CIRCLE
  5
289
100
AcDbEntity
  8
PART
100
AcDbCircle
 62
7
  6
CONTINUOUS
 10
21.4957230953
 20
50.010940919
 40
4.0
  0
ARC
  5
28A
100
AcDbEntity
  8
PART
100
AcDbCircle
 62
7
  6
CONTINUOUS
 10
21.4957230953
 20
50.010940919
 40
3.8775158711
100
AcDbArc
 50
82.8890804139
 51
97.1109195861
  0
ARC
  5
28B
100
AcDbEntity
  8
PART
100
AcDbCircle
 62
7
  6
CONTINUOUS
 10
21.4957230953
 20
50.010940919
 40
3.8775158711
100
AcDbArc
 50
262.8890804139
 51
277.1109195861
  0
ARC
  5
28C
100
AcDbEntity
  8
PART
100
AcDbCircle
 62
7
  6
CONTINUOUS
 10
21.4957230953
 20
50.010940919
 40
3.8698907316
100
AcDbArc
 50
97.1250033711
 51
262.8749966289
  0
ARC
  5
28D
100
AcDbEntity
  8
PART
100
AcDbCircle
 62
7
  6
CONTINUOUS
 10
21.4957230953
 20
50.010940919
 40
3.8698907316
100
AcDbArc
 50
277.1250033711
 51
82.8749966289
  0
ARC
  5
28E
100
AcDbEntity
  8
PART
100
AcDbCircle
 62
7
  6
CONTINUOUS
 10
21.4957230953
 20
58.010940919
 40
2.9999843162
100
AcDbArc
 50
179.9977311292
 51
270.0
  0
ARC
  5
28F
100
AcDbEntity
  8
PART
100
AcDbCircle
 62
7
  6
CONTINUOUS
 10
21.4957230953
 20
50.010940919
 40
2.8736960335
100
AcDbArc
 50
99.6153141349
 51
260.3846858651
  0
ARC
  5
290
100
AcDbEntity
  8
PART
100
AcDbCircle
 62
7
  6
CONTINUOUS
 10
21.4957230953
 20
50.010940919
 40
2.8736960335
100
AcDbArc
 50
279.6153141349
 51
80.3846858651
  0
ARC
  5
291
100
AcDbEntity
  8
PART
100
AcDbCircle
 62
7
  6
CONTINUOUS
 10
21.4957230953
 20
58.010940919
 40
2.0
100
AcDbArc
 50
180.0
 51
270.0000000595
  0
ARC
  5
292
100
AcDbEntity
  8
PART
100
AcDbCircle
 62
7
  6
CONTINUOUS
 10
15.9957230953
 20
62.010940919
 40
1.5
100
AcDbArc
 50
180.0
 51
244.4566292856
  0
ARC
  5
293
100
AcDbEntity
  8
PART
100
AcDbCircle
 62
7
  6
CONTINUOUS
 10
33.4957230953
 20
44.510940919
 40
1.5
100
AcDbArc
 50
205.5426200154
 51
270.0
  0
ARC
  5
294
100
AcDbEntity
  8
PART
100
AcDbCircle
 62
7
  6
CONTINUOUS
 10
21.4957230953
 20
58.010940919
 40
0.499998841
100
AcDbArc
 50
179.9993379658
 51
270.0028872864
  0
ARC
  5
295
100
AcDbEntity
  8
PART
100
AcDbCircle
 62
7
  6
CONTINUOUS
 10
22.7457230953
 20
142.760940919
 40
7.5
100
AcDbArc
 50
89.9999999902
 51
180.0
  0
ARC
  5
296
100
AcDbEntity
  8
PART
100
AcDbCircle
 62
7
  6
CONTINUOUS
 10
21.4957230953
 20
144.010940919
 40
7.4999984096
100
AcDbArc
 50
270.0001959918
 51
312.7091516217
  0
ARC
  5
297
100
AcDbEntity
  8
PART
100
AcDbCircle
 62
7
  6
CONTINUOUS
 10
21.4957230953
 20
144.010940919
 40
6.0
100
AcDbArc
 50
270.0
 51
343.2675090298
  0
ARC
  5
298
100
AcDbEntity
  8
PART
100
AcDbCircle
 62
7
  6
CONTINUOUS
 10
22.7457230953
 20
142.760940919
 40
5.4999994966
100
AcDbArc
 50
161.4454438188
 51
180.0000463147
  0
ARC
  5
299
100
AcDbEntity
  8
PART
100
AcDbCircle
 62
7
  6
CONTINUOUS
 10
22.7457230953
 20
142.760940919
 40
5.4999994966
100
AcDbArc
 50
89.9999536853
 51
110.6387101745
  0
ARC
  5
29A
100
AcDbEntity
  8
PART
100
AcDbCircle
 62
7
  6
CONTINUOUS
 10
21.4957230953
 20
144.010940919
 40
4.9999949834
100
AcDbArc
 50
270.0
 51
343.267511615
  0
CIRCLE
  5
29B
100
AcDbEntity
  8
PART
100
AcDbCircle
 62
7
  6
CONTINUOUS
 10
21.4957230953
 20
144.010940919
 40
4.0
  0
ARC
  5
29C
100
AcDbEntity
  8
PART
100
AcDbCircle
 62
7
  6
CONTINUOUS
 10
21.4957230953
 20
144.010940919
 40
3.8775158711
100
AcDbArc
 50
82.8890804139
 51
97.1109195861
  0
ARC
  5
29D
100
AcDbEntity
  8
PART
100
AcDbCircle
 62
7
  6
CONTINUOUS
 10
21.4957230953
 20
144.010940919
 40
3.8775158711
100
AcDbArc
 50
262.8890804139
 51
277.1109195861
  0
ARC
  5
29E
100
AcDbEntity
  8
PART
100
AcDbCircle
 62
7
  6
CONTINUOUS
 10
21.4957230953
 20
144.010940919
 40
3.8698907316
100
AcDbArc
 50
97.1250033711
 51
262.8749966289
  0
ARC
  5
29F
100
AcDbEntity
  8
PART
100
AcDbCircle
 62
7
  6
CONTINUOUS
 10
21.4957230953
 20
144.010940919
 40
3.8698907316
100
AcDbArc
 50
277.1250033711
 51
82.8749966289
  0
ARC
  5
2A0
100
AcDbEntity
  8
PART
100
AcDbCircle
 62
7
  6
CONTINUOUS
 10
21.4957230953
 20
136.010940919
 40
2.9999843135
100
AcDbArc
 50
90.0
 51
180.0022690968
  0
ARC
  5
2A1
100
AcDbEntity
  8
PART
100
AcDbCircle
 62
7
  6
CONTINUOUS
 10
21.4957230953
 20
144.010940919
 40
2.8736960335
100
AcDbArc
 50
99.6153141349
 51
260.3846858651
  0
ARC
  5
2A2
100
AcDbEntity
  8
PART
100
AcDbCircle
 62
7
  6
CONTINUOUS
 10
21.4957230953
 20
144.010940919
 40
2.8736960335
100
AcDbArc
 50
279.6153141349
 51
80.3846858651
  0
ARC
  5
2A3
100
AcDbEntity
  8
PART
100
AcDbCircle
 62
7
  6
CONTINUOUS
 10
21.4957230953
 20
136.010940919
 40
2.0
100
AcDbArc
 50
89.9999999414
 51
180.0
  0
ARC
  5
2A4
100
AcDbEntity
  8
PART
100
AcDbCircle
 62
7
  6
CONTINUOUS
 10
15.9957230953
 20
132.010940919
 40
1.5
100
AcDbArc
 50
115.5426200154
 51
180.0
  0
ARC
  5
2A5
100
AcDbEntity
  8
PART
100
AcDbCircle
 62
7
  6
CONTINUOUS
 10
33.4957230953
 20
149.510940919
 40
1.5
100
AcDbArc
 50
90.0
 51
154.4566292856
  0
ARC
  5
2A6
100
AcDbEntity
  8
PART
100
AcDbCircle
 62
7
  6
CONTINUOUS
 10
21.4957230953
 20
136.010940919
 40
0.499998841
100
AcDbArc
 50
89.9970601483
 51
180.0006620339
  0
ARC
  5
2A7
100
AcDbEntity
  8
PART
100
AcDbCircle
 62
7
  6
CONTINUOUS
 10
114.2457230953
 20
51.260940919
 40
7.5
100
AcDbArc
 50
269.9999999902
 51
360.0
  0
ARC
  5
2A8
100
AcDbEntity
  8
PART
100
AcDbCircle
 62
7
  6
CONTINUOUS
 10
115.4957230953
 20
50.010940919
 40
7.4999982918
100
AcDbArc
 50
90.0002043891
 51
132.7091482477
  0
ARC
  5
2A9
100
AcDbEntity
  8
PART
100
AcDbCircle
 62
7
  6
CONTINUOUS
 10
115.4957230953
 20
50.010940919
 40
6.0
100
AcDbArc
 50
90.00000002
 51
163.2675133537
  0
ARC
  5
2AA
100
AcDbEntity
  8
PART
100
AcDbCircle
 62
7
  6
CONTINUOUS
 10
114.2457230953
 20
51.260940919
 40
5.4999994966
100
AcDbArc
 50
341.4454438188
 51
0.0000463147
  0
ARC
  5
2AB
100
AcDbEntity
  8
PART
100
AcDbCircle
 62
7
  6
CONTINUOUS
 10
114.2457230953
 20
51.260940919
 40
5.4999994966
100
AcDbArc
 50
269.9999536853
 51
290.6387101745
  0
ARC
  5
2AC
100
AcDbEntity
  8
PART
100
AcDbCircle
 62
7
  6
CONTINUOUS
 10
115.4957230953
 20
50.010940919
 40
4.9999949844
100
AcDbArc
 50
90.0
 51
163.2675159439
  0
CIRCLE
  5
2AD
100
AcDbEntity
  8
PART
100
AcDbCircle
 62
7
  6
CONTINUOUS
 10
115.4957230953
 20
50.010940919
 40
4.0
  0
ARC
  5
2AE
100
AcDbEntity
  8
PART
100
AcDbCircle
 62
7
  6
CONTINUOUS
 10
115.4957230953
 20
50.010940919
 40
3.8775158711
100
AcDbArc
 50
82.8890804139
 51
97.1109195861
  0
ARC
  5
2AF
100
AcDbEntity
  8
PART
100
AcDbCircle
 62
7
  6
CONTINUOUS
 10
115.4957230953
 20
50.010940919
 40
3.8775158711
100
AcDbArc
 50
262.8890804139
 51
277.1109195861
  0
ARC
  5
2B0
100
AcDbEntity
  8
PART
100
AcDbCircle
 62
7
  6
CONTINUOUS
 10
115.4957230953
 20
50.010940919
 40
3.8698907316
100
AcDbArc
 50
97.1250033711
 51
262.8749966289
  0
ARC
  5
2B1
100
AcDbEntity
  8
PART
100
AcDbCircle
 62
7
  6
CONTINUOUS
 10
115.4957230953
 20
50.010940919
 40
3.8698907316
100
AcDbArc
 50
277.1250033711
 51
82.8749966289
  0
ARC
  5
2B2
100
AcDbEntity
  8
PART
100
AcDbCircle
 62
7
  6
CONTINUOUS
 10
115.4957230953
 20
58.010940919
 40
2.9999843135
100
AcDbArc
 50
270.0
 51
0.0022690969
  0
ARC
  5
2B3
100
AcDbEntity
  8
PART
100
AcDbCircle
 62
7
  6
CONTINUOUS
 10
115.4957230953
 20
50.010940919
 40
2.8736960335
100
AcDbArc
 50
99.6153141349
 51
260.3846858651
  0
ARC
  5
2B4
100
AcDbEntity
  8
PART
100
AcDbCircle
 62
7
  6
CONTINUOUS
 10
115.4957230953
 20
50.010940919
 40
2.8736960335
100
AcDbArc
 50
279.6153141349
 51
80.3846858651
  0
ARC
  5
2B5
100
AcDbEntity
  8
PART
100
AcDbCircle
 62
7
  6
CONTINUOUS
 10
115.4957230953
 20
58.010940919
 40
2.0
100
AcDbArc
 50
269.9999999396
 51
359.9999999999
  0
ARC
  5
2B6
100
AcDbEntity
  8
PART
100
AcDbCircle
 62
7
  6
CONTINUOUS
 10
103.4957230953
 20
44.510940919
 40
1.5
100
AcDbArc
 50
270.0
 51
334.4566292856
  0
ARC
  5
2B7
100
AcDbEntity
  8
PART
100
AcDbCircle
 62
7
  6
CONTINUOUS
 10
120.9957230953
 20
62.010940919
 40
1.5
100
AcDbArc
 50
295.5426200154
 51
360.0
  0
ARC
  5
2B8
100
AcDbEntity
  8
PART
100
AcDbCircle
 62
7
  6
CONTINUOUS
 10
115.4957230953
 20
58.010940919
 40
0.4999988409
100
AcDbArc
 50
269.9969341875
 51
0.0006620369
  0
ARC
  5
2B9
100
AcDbEntity
  8
PART
100
AcDbCircle
 62
7
  6
CONTINUOUS
 10
115.4945768955
 20
145.2962405572
 40
7.9988696988
100
AcDbArc
 50
176.8763044345
 51
222.6725535318
  0
ARC
  5
2BA
100
AcDbEntity
  8
PART
100
AcDbCircle
 62
7
  6
CONTINUOUS
 10
114.2457230953
 20
142.760940919
 40
7.5
100
AcDbArc
 50
0.0
 51
90.0000000049
  0
ARC
  5
2BB
100
AcDbEntity
  8
PART
100
AcDbCircle
 62
7
  6
CONTINUOUS
 10
115.4957230953
 20
144.010940919
 40
7.5
100
AcDbArc
 50
227.2907972873
 51
269.9939484681
  0
ARC
  5
2BC
100
AcDbEntity
  8
PART
100
AcDbCircle
 62
7
  6
CONTINUOUS
 10
115.4957230953
 20
144.010940919
 40
6.0
100
AcDbArc
 50
196.7321846149
 51
270.0
  0
ARC
  5
2BD
100
AcDbEntity
  8
PART
100
AcDbCircle
 62
7
  6
CONTINUOUS
 10
114.2457230953
 20
142.760940919
 40
5.4999994966
100
AcDbArc
 50
69.3577042381
 51
90.0000463146
  0
ARC
  5
2BE
100
AcDbEntity
  8
PART
100
AcDbCircle
 62
7
  6
CONTINUOUS
 10
114.2457230953
 20
142.760940919
 40
5.4999994966
100
AcDbArc
 50
359.9999536854
 51
18.5545561812
  0
ARC
  5
2BF
100
AcDbEntity
  8
PART
100
AcDbCircle
 62
7
  6
CONTINUOUS
 10
115.4957230953
 20
144.010940919
 40
4.9999961187
100
AcDbArc
 50
196.7324595965
 51
270.0
  0
CIRCLE
  5
2C0
100
AcDbEntity
  8
PART
100
AcDbCircle
 62
7
  6
CONTINUOUS
 10
115.4957230953
 20
144.010940919
 40
4.0
  0
ARC
  5
2C1
100
AcDbEntity
  8
PART
100
AcDbCircle
 62
7
  6
CONTINUOUS
 10
115.4957230953
 20
144.010940919
 40
3.8775158711
100
AcDbArc
 50
82.8890804139
 51
97.1109195861
  0
ARC
  5
2C2
100
AcDbEntity
  8
PART
100
AcDbCircle
 62
7
  6
CONTINUOUS
 10
115.4957230953
 20
144.010940919
 40
3.8775158711
100
AcDbArc
 50
262.8890804139
 51
277.1109195861
  0
ARC
  5
2C3
100
AcDbEntity
  8
PART
100
AcDbCircle
 62
7
  6
CONTINUOUS
 10
115.4957230953
 20
144.010940919
 40
3.8698907316
100
AcDbArc
 50
97.1250033711
 51
262.8749966289
  0
ARC
  5
2C4
100
AcDbEntity
  8
PART
100
AcDbCircle
 62
7
  6
CONTINUOUS
 10
115.4957230953
 20
144.010940919
 40
3.8698907316
100
AcDbArc
 50
277.1250033711
 51
82.8749966289
  0
ARC
  5
2C5
100
AcDbEntity
  8
PART
100
AcDbCircle
 62
7
  6
CONTINUOUS
 10
115.4957230953
 20
136.010940919
 40
2.9999843162
100
AcDbArc
 50
359.9977311291
 51
90.0
  0
ARC
  5
2C6
100
AcDbEntity
  8
PART
100
AcDbCircle
 62
7
  6
CONTINUOUS
 10
115.4957230953
 20
144.010940919
 40
2.8736960335
100
AcDbArc
 50
99.6153141349
 51
260.3846858651
  0
ARC
  5
2C7
100
AcDbEntity
  8
PART
100
AcDbCircle
 62
7
  6
CONTINUOUS
 10
115.4957230953
 20
144.010940919
 40
2.8736960335
100
AcDbArc
 50
279.6153141349
 51
80.3846858651
  0
ARC
  5
2C8
100
AcDbEntity
  8
PART
100
AcDbCircle
 62
7
  6
CONTINUOUS
 10
115.4957230953
 20
136.010940919
 40
2.0
100
AcDbArc
 50
0.0
 51
89.9999999899
  0
ARC
  5
2C9
100
AcDbEntity
  8
PART
100
AcDbCircle
 62
7
  6
CONTINUOUS
 10
103.4957230953
 20
149.510940919
 40
1.5
100
AcDbArc
 50
25.5426200154
 51
90.0
  0
ARC
  5
2CA
100
AcDbEntity
  8
PART
100
AcDbCircle
 62
7
  6
CONTINUOUS
 10
120.9957230953
 20
132.010940919
 40
1.5
100
AcDbArc
 50
0.0
 51
64.4566292856
  0
ARC
  5
2CB
100
AcDbEntity
  8
PART
100
AcDbCircle
 62
7
  6
CONTINUOUS
 10
115.4957230953
 20
136.010940919
 40
0.5
100
AcDbArc
 50
0.0000000015
 51
90.0907727823
  0
SPLINE
  5
2CC
100
AcDbEntity
  8
PART
100
AcDbSpline
 62
7
  6
CONTINUOUS
 70
0
 71
3
 72
10
 73
6
 74
0
 42
0.0000001
 43
0.0000001
 44
0.0000000001
 40
0.0
 40
0.0
 40
0.0
 40
0.0
 40
0.2137494572
 40
0.457877825
 40
1.0
 40
1.0
 40
1.0
 40
1.0
 10
109.6133788932
 20
138.9103222751
 30
0.0
 10
109.6782635235
 20
138.9103048631
 30
0.0
 10
109.8170623923
 20
138.8827388879
 30
0.0
 10
110.0952499747
 20
138.7587228068
 30
0.0
 10
110.2877084294
 20
138.6115079596
 30
0.0
 10
110.4086322406
 20
138.4998896905
 30
0.0
  0
SPLINE
  5
2CD
100
AcDbEntity
  8
PART
100
AcDbSpline
 62
7
  6
CONTINUOUS
 70
0
 71
3
 72
11
 73
7
 74
0
 42
0.0000001
 43
0.0000001
 44
0.0000000001
 40
0.0
 40
0.0
 40
0.0
 40
0.0
 40
0.2619106071
 40
0.5132330052
 40
0.7579586816
 40
1.0
 40
1.0
 40
1.0
 40
1.0
 10
27.3786110478
 20
139.8744283655
 30
0.0
 10
27.7562892916
 20
140.2841159367
 30
0.0
 10
28.4132840398
 20
141.1680423463
 30
0.0
 10
29.097889903
 20
142.6395444407
 30
0.0
 10
29.46735316
 20
144.17575064
 30
0.0
 10
29.5119010847
 20
145.2179406727
 30
0.0
 10
29.4838545622
 20
145.7321162478
 30
0.0
  0
SPLINE
  5
2CE
100
AcDbEntity
  8
PART
100
AcDbSpline
 62
7
  6
CONTINUOUS
 70
0
 71
3
 72
11
 73
7
 74
0
 42
0.0000001
 43
0.0000001
 44
0.0000000001
 40
0.0
 40
0.0
 40
0.0
 40
0.0
 40
0.2747110476
 40
0.5320003038
 40
0.7719623939
 40
1.0
 40
1.0
 40
1.0
 40
1.0
 10
27.3786110214
 20
139.8744254817
 30
0.0
 10
27.2132013058
 20
139.9342705004
 30
0.0
 10
26.8776519311
 20
140.013055327
 30
0.0
 10
26.3781435163
 20
140.0030141977
 30
0.0
 10
25.9270093477
 20
139.8699876881
 30
0.0
 10
25.6726701882
 20
139.7011291387
 30
0.0
 10
25.5653772819
 20
139.6020878914
 30
0.0
  0
SPLINE
  5
2CF
100
AcDbEntity
  8
PART
100
AcDbSpline
 62
7
  6
CONTINUOUS
 70
0
 71
3
 72
17
 73
13
 74
0
 42
0.0000001
 43
0.0000001
 44
0.0000000001
 40
0.0
 40
0.0
 40
0.0
 40
0.0
 40
0.135927249
 40
0.2705998469
 40
0.4034180497
 40
0.5333141881
 40
0.6592419511
 40
0.7793445375
 40
0.836833915
 40
0.8923923223
 40
0.9465269957
 40
1.0
 40
1.0
 40
1.0
 40
1.0
 10
27.241675078
 20
142.2835355581
 30
0.0
 10
27.2984284528
 20
142.472290467
 30
0.0
 10
27.4139705865
 20
142.8473057548
 30
0.0
 10
27.5990139361
 20
143.4023136415
 30
0.0
 10
27.7989709216
 20
143.9429187815
 30
0.0
 10
28.0257797251
 20
144.4594214563
 30
0.0
 10
28.2889388447
 20
144.9377273296
 30
0.0
 10
28.5594600714
 20
145.2895874831
 30
0.0
 10
28.8156635624
 20
145.5120342888
 30
0.0
 10
29.0241401733
 20
145.6387311825
 30
0.0
 10
29.2494472341
 20
145.7168232647
 30
0.0
 10
29.4063256297
 20
145.7333860584
 30
0.0
 10
29.4838540181
 20
145.7321054098
 30
0.0
  0
SPLINE
  5
2D0
100
AcDbEntity
  8
PART
100
AcDbSpline
 62
7
  6
CONTINUOUS
 70
0
 71
3
 72
14
 73
10
 74
0
 42
0.0000001
 43
0.0000001
 44
0.0000000001
 40
0.0
 40
0.0
 40
0.0
 40
0.0
 40
0.1246522164
 40
0.2494766791
 40
0.3744738382
 40
0.4995590691
 40
0.6246796063
 40
0.7498139351
 40
1.0
 40
1.0
 40
1.0
 40
1.0
 10
29.4838535686
 20
146.3749276921
 30
0.0
 10
29.2638336263
 20
146.3750928918
 30
0.0
 10
28.8200884322
 20
146.296489231
 30
0.0
 10
28.2320222768
 20
145.9762224781
 30
0.0
 10
27.7422064744
 20
145.5241724019
 30
0.0
 10
27.3396338998
 20
144.9954812778
 30
0.0
 10
27.0054485614
 20
144.4220426698
 30
0.0
 10
26.6307777442
 20
143.6212920154
 30
0.0
 10
26.4111664396
 20
142.9943189137
 30
0.0
 10
26.284023614
 20
142.5714219246
 30
0.0
  0
SPLINE
  5
2D1
100
AcDbEntity
  8
PART
100
AcDbSpline
 62
7
  6
CONTINUOUS
 70
0
 71
3
 72
11
 73
7
 74
0
 42
0.0000001
 43
0.0000001
 44
0.0000000001
 40
0.0
 40
0.0
 40
0.0
 40
0.0
 40
0.2280422296
 40
0.4680029801
 40
0.7252939315
 40
1.0
 40
1.0
 40
1.0
 40
1.0
 10
25.5653736432
 20
54.4198054838
 30
0.0
 10
25.6726736109
 20
54.3207587791
 30
0.0
 10
25.9270225635
 20
54.1518879572
 30
0.0
 10
26.3781766333
 20
54.018857401
 30
0.0
 10
26.8777018991
 20
54.0087777076
 30
0.0
 10
27.2132630717
 20
54.0875783461
 30
0.0
 10
27.3786742161
 20
54.1474310404
 30
0.0
  0
SPLINE
  5
2D2
100
AcDbEntity
  8
PART
100
AcDbSpline
 62
7
  6
CONTINUOUS
 70
0
 71
3
 72
17
 73
13
 74
0
 42
0.0000001
 43
0.0000001
 44
0.0000000001
 40
0.0
 40
0.0
 40
0.0
 40
0.0
 40
0.0534744819
 40
0.1076106233
 40
0.1631702159
 40
0.2206603888
 40
0.3407634056
 40
0.4666910065
 40
0.596587069
 40
0.7294037962
 40
0.8640732015
 40
1.0
 40
1.0
 40
1.0
 40
1.0
 10
29.483852291
 20
48.2897873522
 30
0.0
 10
29.4063219741
 20
48.2885053039
 30
0.0
 10
29.2494393092
 20
48.3050677151
 30
0.0
 10
29.024127522
 20
48.3831629684
 30
0.0
 10
28.8156478629
 20
48.5098633117
 30
0.0
 10
28.5594429895
 20
48.7323124508
 30
0.0
 10
28.2889208978
 20
49.0841729137
 30
0.0
 10
28.0257707533
 20
49.5624825267
 30
0.0
 10
27.7989597644
 20
50.0789796185
 30
0.0
 10
27.5990014808
 20
50.6195756429
 30
0.0
 10
27.4139702433
 20
51.1745782999
 30
0.0
 10
27.2984358582
 20
51.5495893804
 30
0.0
 10
27.241682986
 20
51.7383432507
 30
0.0
  0
SPLINE
  5
2D3
100
AcDbEntity
  8
PART
100
AcDbSpline
 62
7
  6
CONTINUOUS
 70
0
 71
3
 72
14
 73
10
 74
0
 42
0.0000001
 43
0.0000001
 44
0.0000000001
 40
0.0
 40
0.0
 40
0.0
 40
0.0
 40
0.1246520802
 40
0.2494764493
 40
0.3744735595
 40
0.4995588531
 40
0.6246794425
 40
0.7498138052
 40
1.0
 40
1.0
 40
1.0
 40
1.0
 10
29.4838519708
 20
47.6469533781
 30
0.0
 10
29.2638322317
 20
47.6467810418
 30
0.0
 10
28.8200872688
 20
47.7253956944
 30
0.0
 10
28.2320218654
 20
48.0456556168
 30
0.0
 10
27.7421939609
 20
48.4976957549
 30
0.0
 10
27.3396412111
 20
49.0264023063
 30
0.0
 10
27.0054409431
 20
49.5998313871
 30
0.0
 10
26.6307665872
 20
50.4005822398
 30
0.0
 10
26.4111683753
 20
51.0275602077
 30
0.0
 10
26.2840263301
 20
51.45045776
 30
0.0
  0
SPLINE
  5
2D4
100
AcDbEntity
  8
PART
100
AcDbSpline
 62
7
  6
CONTINUOUS
 70
0
 71
3
 72
11
 73
7
 74
0
 42
0.0000001
 43
0.0000001
 44
0.0000000001
 40
0.0
 40
0.0
 40
0.0
 40
0.0
 40
0.2619105828
 40
0.5132330115
 40
0.757958664
 40
1.0
 40
1.0
 40
1.0
 40
1.0
 10
109.6128374769
 20
54.1474543957
 30
0.0
 10
109.2351576573
 20
53.7377681917
 30
0.0
 10
108.5781660133
 20
52.8538390109
 30
0.0
 10
107.8935553064
 20
51.3823393183
 30
0.0
 10
107.5240925221
 20
49.8461321339
 30
0.0
 10
107.4795454286
 20
48.8039420064
 30
0.0
 10
107.5075918616
 20
48.2897662829
 30
0.0
  0
SPLINE
  5
2D5
100
AcDbEntity
  8
PART
100
AcDbSpline
 62
7
  6
CONTINUOUS
 70
0
 71
3
 72
11
 73
7
 74
0
 42
0.0000001
 43
0.0000001
 44
0.0000000001
 40
0.0
 40
0.0
 40
0.0
 40
0.0
 40
0.2420567354
 40
0.4868030058
 40
0.7381089719
 40
1.0
 40
1.0
 40
1.0
 40
1.0
 10
29.4838530422
 20
48.2897693292
 30
0.0
 10
29.5119004117
 20
48.8039760492
 30
0.0
 10
29.4680303494
 20
49.8463197357
 30
0.0
 10
29.0973362229
 20
51.3822751411
 30
0.0
 10
28.4135046417
 20
52.8540282813
 30
0.0
 10
27.7562871172
 20
53.7377443302
 30
0.0
 10
27.3786742418
 20
54.1474330718
 30
0.0
  0
SPLINE
  5
2D6
100
AcDbEntity
  8
PART
100
AcDbSpline
 62
7
  6
CONTINUOUS
 70
0
 71
3
 72
11
 73
7
 74
0
 42
0.0000001
 43
0.0000001
 44
0.0000000001
 40
0.0
 40
0.0
 40
0.0
 40
0.0
 40
0.2747112781
 40
0.5320003122
 40
0.7719622821
 40
1.0
 40
1.0
 40
1.0
 40
1.0
 10
109.6128375033
 20
54.1474575834
 30
0.0
 10
109.7782471647
 20
54.0876126702
 30
0.0
 10
110.1137965035
 20
54.0088302765
 30
0.0
 10
110.6133039967
 20
54.0188684214
 30
0.0
 10
111.0644377606
 20
54.151894447
 30
0.0
 10
111.3187765334
 20
54.3207527826
 30
0.0
 10
111.4260693563
 20
54.4197939388
 30
0.0
  0
SPLINE
  5
2D7
100
AcDbEntity
  8
PART
100
AcDbSpline
 62
7
  6
CONTINUOUS
 70
0
 71
3
 72
17
 73
13
 74
0
 42
0.0000001
 43
0.0000001
 44
0.0000000001
 40
0.0
 40
0.0
 40
0.0
 40
0.0
 40
0.1359274926
 40
0.270599918
 40
0.4034180706
 40
0.5333142668
 40
0.6592420075
 40
0.7793444977
 40
0.8368338734
 40
0.8923922988
 40
0.9465269884
 40
1.0
 40
1.0
 40
1.0
 40
1.0
 10
109.7497700518
 20
51.7383462402
 30
0.0
 10
109.693016701
 20
51.5495910585
 30
0.0
 10
109.5774755623
 20
51.1745755697
 30
0.0
 10
109.3924337081
 20
50.6195674492
 30
0.0
 10
109.1924761408
 20
50.0789630521
 30
0.0
 10
108.9656663926
 20
49.5624611653
 30
0.0
 10
108.7025077399
 20
49.0841554331
 30
0.0
 10
108.4319860888
 20
48.732296077
 30
0.0
 10
108.1757826457
 20
48.5098496843
 30
0.0
 10
107.9673061012
 20
48.3831528427
 30
0.0
 10
107.7419991337
 20
48.3050606859
 30
0.0
 10
107.5851207852
 20
48.2884978321
 30
0.0
 10
107.507592425
 20
48.2897784677
 30
0.0
  0
SPLINE
  5
2D8
100
AcDbEntity
  8
PART
100
AcDbSpline
 62
7
  6
CONTINUOUS
 70
0
 71
3
 72
14
 73
10
 74
0
 42
0.0000001
 43
0.0000001
 44
0.0000000001
 40
0.0
 40
0.0
 40
0.0
 40
0.0
 40
0.124652229
 40
0.2494766919
 40
0.3744738494
 40
0.4995590769
 40
0.6246796144
 40
0.7498139373
 40
1.0
 40
1.0
 40
1.0
 40
1.0
 10
107.5075928634
 20
47.6469549397
 30
0.0
 10
107.7276127797
 20
47.646789809
 30
0.0
 10
108.1713576957
 20
47.7253943507
 30
0.0
 10
108.7594240436
 20
48.0456601627
 30
0.0
 10
109.2492401392
 20
48.4977098103
 30
0.0
 10
109.6518126859
 20
49.0264007664
 30
0.0
 10
109.9859980137
 20
49.5998391647
 30
0.0
 10
110.3606698001
 20
50.4005891666
 30
0.0
 10
110.5802796214
 20
51.0275626744
 30
0.0
 10
110.7074222242
 20
51.4504596249
 30
0.0
  0
SPLINE
  5
2D9
100
AcDbEntity
  8
PART
100
AcDbSpline
 62
7
  6
CONTINUOUS
 70
0
 71
3
 72
11
 73
7
 74
0
 42
0.0000001
 43
0.0000001
 44
0.0000000001
 40
0.0
 40
0.0
 40
0.0
 40
0.0
 40
0.2282685206
 40
0.4678957779
 40
0.725088961
 40
1.0
 40
1.0
 40
1.0
 40
1.0
 10
111.4262563942
 20
139.6019065701
 30
0.0
 10
111.3188888752
 20
139.7009870517
 30
0.0
 10
111.0648459565
 20
139.8700161272
 30
0.0
 10
110.6137731791
 20
140.002082754
 30
0.0
 10
110.1146159196
 20
140.0120481684
 30
0.0
 10
109.779410255
 20
139.9331337286
 30
0.0
 10
109.6134977355
 20
139.8745526006
 30
0.0
  0
SPLINE
  5
2DA
100
AcDbEntity
  8
PART
100
AcDbSpline
 62
7
  6
CONTINUOUS
 70
0
 71
3
 72
17
 73
13
 74
0
 42
0.0000001
 43
0.0000001
 44
0.0000000001
 40
0.0
 40
0.0
 40
0.0
 40
0.0
 40
0.0534744656
 40
0.1076105758
 40
0.1631701271
 40
0.2206602668
 40
0.3407633066
 40
0.4666909655
 40
0.5965869529
 40
0.7294036497
 40
0.8640732
 40
1.0
 40
1.0
 40
1.0
 40
1.0
 10
107.5075937389
 20
145.7320964985
 30
0.0
 10
107.5851240418
 20
145.7333785483
 30
0.0
 10
107.7420066545
 20
145.7168162413
 30
0.0
 10
107.9673184329
 20
145.6387212677
 30
0.0
 10
108.1757980967
 20
145.5120211558
 30
0.0
 10
108.4320029795
 20
145.2895720467
 30
0.0
 10
108.7025247028
 20
144.9377111322
 30
0.0
 10
108.9656748891
 20
144.4594014751
 30
0.0
 10
109.1924853327
 20
143.9429041203
 30
0.0
 10
109.3924431106
 20
143.4023077843
 30
0.0
 10
109.577474731
 20
142.8473050075
 30
0.0
 10
109.6930096948
 20
142.4722938324
 30
0.0
 10
109.7497628042
 20
142.2835400054
 30
0.0
  0
SPLINE
  5
2DB
100
AcDbEntity
  8
PART
100
AcDbSpline
 62
7
  6
CONTINUOUS
 70
0
 71
3
 72
14
 73
10
 74
0
 42
0.0000001
 43
0.0000001
 44
0.0000000001
 40
0.0
 40
0.0
 40
0.0
 40
0.0
 40
0.1246520614
 40
0.2494764287
 40
0.3744735413
 40
0.4995588389
 40
0.6246794301
 40
0.7498137969
 40
1.0
 40
1.0
 40
1.0
 40
1.0
 10
107.5075940924
 20
146.3749295838
 30
0.0
 10
107.7276138666
 20
146.3751019506
 30
0.0
 10
108.1713592023
 20
146.2964887078
 30
0.0
 10
108.7594245109
 20
145.9762277557
 30
0.0
 10
109.2492520885
 20
145.5241870716
 30
0.0
 10
109.651804656
 20
144.9954801071
 30
0.0
 10
109.9860050134
 20
144.4220508056
 30
0.0
 10
110.3606784003
 20
143.6212991715
 30
0.0
 10
110.5802774601
 20
142.9943213357
 30
0.0
 10
110.7074199636
 20
142.5714237624
 30
0.0
  0
SPLINE
  5
2DC
100
AcDbEntity
  8
PART
100
AcDbSpline
 62
7
  6
CONTINUOUS
 70
0
 71
3
 72
10
 73
6
 74
0
 42
0.0000001
 43
0.0000001
 44
0.0000000001
 40
0.0
 40
0.0
 40
0.0
 40
0.0
 40
0.5420912884
 40
0.7862542788
 40
1.0
 40
1.0
 40
1.0
 40
1.0
 10
26.5828044653
 20
138.4998901059
 30
0.0
 10
26.7037195135
 20
138.6115085321
 30
0.0
 10
26.8962031659
 20
138.7586965189
 30
0.0
 10
27.1743738491
 20
138.8827517316
 30
0.0
 10
27.3131905564
 20
138.9103281452
 30
0.0
 10
27.3780752547
 20
138.91032324
 30
0.0
  0
SPLINE
  5
2DD
100
AcDbEntity
  8
PART
100
AcDbSpline
 62
7
  6
CONTINUOUS
 70
0
 71
3
 72
10
 73
6
 74
0
 42
0.0000001
 43
0.0000001
 44
0.0000000001
 40
0.0
 40
0.0
 40
0.0
 40
0.0
 40
0.213732261
 40
0.4578873011
 40
1.0
 40
1.0
 40
1.0
 40
1.0
 10
27.3780673362
 20
55.1115612778
 30
0.0
 10
27.313187723
 20
55.1115524167
 30
0.0
 10
27.1743778952
 20
55.1391226888
 30
0.0
 10
26.8962130319
 20
55.2631802665
 30
0.0
 10
26.7037314705
 20
55.4103710121
 30
0.0
 10
26.5828132503
 20
55.5219918496
 30
0.0
  0
SPLINE
  5
2DE
100
AcDbEntity
  8
PART
100
AcDbSpline
 62
7
  6
CONTINUOUS
 70
0
 71
3
 72
10
 73
6
 74
0
 42
0.0000001
 43
0.0000001
 44
0.0000000001
 40
0.0
 40
0.0
 40
0.0
 40
0.0
 40
0.5420898903
 40
0.7862535617
 40
1.0
 40
1.0
 40
1.0
 40
1.0
 10
110.4086422597
 20
55.5219918045
 30
0.0
 10
110.2877272903
 20
55.4103734782
 30
0.0
 10
110.0952432408
 20
55.2631856429
 30
0.0
 10
109.8170720845
 20
55.1391302531
 30
0.0
 10
109.6782548142
 20
55.1115532806
 30
0.0
 10
109.6133697805
 20
55.1115579808
 30
0.0
  0
ENDSEC
  0
SECTION
  2
OBJECTS
  0
DICTIONARY
  5
C
100
AcDbDictionary
280
0
281
1
  3
ACAD_GROUP
350
D
  3
ACAD_MLINESTYLE
350
17
  3
ACAD_LAYOUT
350
1A
  3
ACAD_PLOTSETTINGS
350
19
  3
ACAD_PLOTSTYLENAME
350
E
  0
DICTIONARY
  5
D
102
{ACAD_REACTORS
330
C
102
}
100
AcDbDictionary
280
0
281
1
  0
ACDBDICTIONARYWDFLT
  5
E
102
{ACAD_REACTORS
330
C
102
}
100
AcDbDictionary
281
1
  3
Normal
350
F
100
AcDbDictionaryWithDefault
340
F
  0
DICTIONARY
  5
17
102
{ACAD_REACTORS
330
C
102
}
100
AcDbDictionary
280
0
281
1
  3
Standard
350
18
  0
DICTIONARY
  5
19
102
{ACAD_REACTORS
330
C
102
}
100
AcDbDictionary
281
1
  0
DICTIONARY
  5
1A
102
{ACAD_REACTORS
330
C
102
}
100
AcDbDictionary
281
1
  3
Model
350
2DF
  3
Layout1
350
2E0
  0
ACDBPLACEHOLDER
  5
F
102
{ACAD_REACTORS
330
E
102
}
  0
MLINESTYLE
  5
18
102
{ACAD_REACTORS
330
17
102
}
100
AcDbMlineStyle
  2
STANDARD
 70
0
  3

 62
256
 51
90.0
 52
90.0
 71
2
 49
0.5
 62
256
  6
BYLAYER
 49
-0.5
 62
256
  6
BYLAYER
  0
LAYOUT
  5
2DF
102
{ACAD_REACTORS
330
1A
102
}
100
AcDbPlotSettings
  1

  2
none_device
  4

  6

 40
0.0
 41
0.0
 42
0.0
 43
0.0
 44
210.0
 45
297.0
 46
0.0
 47
0.0
 48
0.0
 49
0.0
140
0.0
141
0.0
142
1.0
143
1.0
 70
1024
 72
1
 73
0
 74
0
  7

 75
0
147
1.0
148
0.0
149
0.0
100
AcDbLayout
  1
Model
 70
0
 71
0
 10
0.0
 20
0.0
 11
210.0
 21
297.0
 12
0.0
 22
0.0
 32
0.0
 14
0.0
 24
0.0
 34
0.0
 15
0.0
 25
0.0
 35
0.0
146
0.0
 13
0.0
 23
0.0
 33
0.0
 16
1.0
 26
0.0
 36
0.0
 17
0.0
 27
1.0
 37
0.0
 76
0
330
211
345
0
346
0
  0
LAYOUT
  5
2E0
102
{ACAD_REACTORS
330
1A
102
}
100
AcDbPlotSettings
  1

  2
none_device
  4

  6

 40
0.0
 41
0.0
 42
0.0
 43
0.0
 44
210.0
 45
297.0
 46
0.0
 47
0.0
 48
0.0
 49
0.0
140
0.0
141
0.0
142
1.0
143
1.0
 70
0
 72
1
 73
0
 74
0
  7

 75
0
147
1.0
148
0.0
149
0.0
100
AcDbLayout
  1
Layout1
 70
0
 71
1
 10
0.0
 20
0.0
 11
210.0
 21
297.0
 12
0.0
 22
0.0
 32
0.0
 14
0.0
 24
0.0
 34
0.0
 15
0.0
 25
0.0
 35
0.0
146
0.0
 13
0.0
 23
0.0
 33
0.0
 16
1.0
 26
0.0
 36
0.0
 17
0.0
 27
1.0
 37
0.0
 76
0
330
212
345
0
346
0
  0
ENDSEC
  0
EOF
