999
DXF file: C:\Users\sesa63760\Dev\_Creo\CAD\MCADUE0001327_3D-CAD\drw0001_6.dxf
999
Pro/ENGINEER 2019471 by Parametric Technology Corporation
  0
SECTION
  2
HEADER
  9
$ACADVER
  1
AC1024
  9
$DWGCODEPAGE
  3
ANSI_1252
  9
$EXTMAX
 10
509.4905802897
 20
720.5652492669
 30
0.0
  9
$EXTMIN
 10
0.0
 20
0.0
 30
0.0
  9
$LIMMIN
 10
0.0
 20
0.0
  9
$LIMMAX
 10
509.4905802897
 20
720.5652492669
  9
$VIEWCTR
 10
254.7452901449
 20
360.2826246334
  9
$VIEWSIZE
 40
720.5652492669
  9
$CLAYER
  8
0
  9
$LTSCALE
 40
46.9701792115
  9
$CELTYPE
  6
BYLAYER
  9
$DIMSCALE
 40
1.0
  9
$DIMASZ
 40
6.0653640511
  9
$DIMEXO
 40
1.0
  9
$DIMDLI
 40
32.4521238188
  9
$DIMEXE
 40
1.0
  9
$DIMCEN
 40
7.6860293255
  9
$DIMLFAC
 40
1.0
  9
$DIMBLK
  1
_FILLED
  9
$DIMALT
 70
0
  9
$DIMALTF
 40
0.0393700787
  9
$DIMTXT
 40
8.4915096715
  9
$DIMTOL
 70
1
  9
$DIMLIM
 70
0
  9
$DIMTFAC
 40
1.0
  9
$DIMTP
 40
0.01
  9
$DIMTM
 40
0.01
  9
$DIMGAP
 40
0.625
  9
$DIMDSEP
 70
46
  9
$AUNITS
 70
0
  9
$PDMODE
 70
3
  9
$PDSIZE
 40
0.3125
  9
$HANDSEED
  5
3FB
  9
$TILEMODE
 70
1
  9
$MEASUREMENT
 70
1
  9
$INSUNITS
 70
4
  0
ENDSEC
  0
SECTION
  2
CLASSES
  0
CLASS
  1
ACDBDICTIONARYWDFLT
  2
AcDbDictionaryWithDefault
  3
AutoCAD 2000
 90
0
 91
1
280
0
281
0
  0
CLASS
  1
ACDBPLACEHOLDER
  2
AcDbPlaceHolder
  3
AutoCAD 2000
 90
0
 91
1
280
0
281
0
  0
CLASS
  1
LAYOUT
  2
AcDbLayout
  3
AutoCAD 2000
 90
0
 91
0
280
0
281
0
  0
ENDSEC
  0
SECTION
  2
TABLES
  0
TABLE
  2
VPORT
  5
8
100
AcDbSymbolTable
 70
2
  0
VPORT
  5
1F4
100
AcDbSymbolTableRecord
100
AcDbViewportTableRecord
  2
*ACTIVE
 70
0
 10
0.0
 20
0.0
 11
1.0
 21
1.0
 12
254.7452901449
 22
360.2826246334
 13
0.0
 23
0.0
 14
1.0
 24
1.0
 15
0.0
 25
0.0
 16
0.0
 26
0.0
 36
1.0
 17
0.0
 27
0.0
 37
0.0
 40
720.5652492669
 41
0.7070707071
 42
50.0
 43
0.0
 44
0.0
 50
0.0
 51
0.0
 71
0
 72
100
 73
1
 74
1
 75
0
 76
0
 77
0
 78
0
  0
ENDTAB
  0
TABLE
  2
LTYPE
  5
5
100
AcDbSymbolTable
 70
6
  0
LTYPE
  5
14
100
AcDbSymbolTableRecord
100
AcDbLinetypeTableRecord
  2
BYBLOCK
 70
0
  3

 72
65
 73
0
 40
0.0
  0
LTYPE
  5
15
100
AcDbSymbolTableRecord
100
AcDbLinetypeTableRecord
  2
BYLAYER
 70
0
  3

 72
65
 73
0
 40
0.0
  0
LTYPE
  5
16
100
AcDbSymbolTableRecord
100
AcDbLinetypeTableRecord
  2
CONTINUOUS
 70
64
  3
Solid line
 72
65
 73
0
 40
0.0
  0
LTYPE
  5
1F5
100
AcDbSymbolTableRecord
100
AcDbLinetypeTableRecord
  2
CENTER
 70
64
  3
____ _ ____ _ ____ _ ____ _ ____ _ ____ _ ____
 72
65
 73
4
 40
0.6
 49
0.375
 74
0
 49
-0.075
 74
0
 49
0.075
 74
0
 49
-0.075
 74
0
  0
LTYPE
  5
1F6
100
AcDbSymbolTableRecord
100
AcDbLinetypeTableRecord
  2
HIDDEN
 70
64
  3
- - - - - - - - - - - - - - - - - - - -
 72
65
 73
2
 40
0.2
 49
0.1
 74
0
 49
-0.1
 74
0
  0
LTYPE
  5
1F7
100
AcDbSymbolTableRecord
100
AcDbLinetypeTableRecord
  2
PHANTOM
 70
64
  3
_____ _ _ _____ _ _ _____ _ _ _____
 72
65
 73
6
 40
0.8
 49
0.45
 74
0
 49
-0.05
 74
0
 49
0.1
 74
0
 49
-0.05
 74
0
 49
0.1
 74
0
 49
-0.05
 74
0
  0
LTYPE
  5
1F8
100
AcDbSymbolTableRecord
100
AcDbLinetypeTableRecord
  2
DOT
 70
64
  3
. . . . . . . . . . . . . . . . . . . .
 72
65
 73
2
 40
0.2
 49
0.1
 74
0
 49
-0.1
 74
0
  0
LTYPE
  5
1F9
100
AcDbSymbolTableRecord
100
AcDbLinetypeTableRecord
  2
DASHED
 70
64
  3
- - - - - - - - - - - - - - - - - - - -
 72
65
 73
2
 40
0.2
 49
0.1
 74
0
 49
-0.1
 74
0
  0
ENDTAB
  0
TABLE
  2
LAYER
  5
2
100
AcDbSymbolTable
 70
36
  0
LAYER
  5
10
100
AcDbSymbolTableRecord
100
AcDbLayerTableRecord
  2
0
 70
0
 62
7
  6
CONTINUOUS
370
-3
390
F
  0
LAYER
  5
1FA
100
AcDbSymbolTableRecord
100
AcDbLayerTableRecord
  2
DEFAULT_1
 70
0
 62
7
  6
CENTER
370
-3
390
F
  0
LAYER
  5
1FB
100
AcDbSymbolTableRecord
100
AcDbLayerTableRecord
  2
DEFAULT_2
 70
0
 62
8
  6
HIDDEN
370
-3
390
F
  0
LAYER
  5
1FC
100
AcDbSymbolTableRecord
100
AcDbLayerTableRecord
  2
DEFAULT_3
 70
0
 62
7
  6
PHANTOM
370
-3
390
F
  0
LAYER
  5
1FD
100
AcDbSymbolTableRecord
100
AcDbLayerTableRecord
  2
00_COMPONENTS
 70
0
 62
7
  6
CONTINUOUS
370
-3
390
F
  0
LAYER
  5
1FE
100
AcDbSymbolTableRecord
100
AcDbLayerTableRecord
  2
01_1_DEFAULT_DATUMS
 70
0
 62
7
  6
CONTINUOUS
370
-3
390
F
  0
LAYER
  5
1FF
100
AcDbSymbolTableRecord
100
AcDbLayerTableRecord
  2
01_PLANES
 70
0
 62
7
  6
CONTINUOUS
370
-3
390
F
  0
LAYER
  5
200
100
AcDbSymbolTableRecord
100
AcDbLayerTableRecord
  2
02_COORD_SYS
 70
0
 62
7
  6
CONTINUOUS
370
-3
390
F
  0
LAYER
  5
201
100
AcDbSymbolTableRecord
100
AcDbLayerTableRecord
  2
03_AXES
 70
0
 62
7
  6
CONTINUOUS
370
-3
390
F
  0
LAYER
  5
202
100
AcDbSymbolTableRecord
100
AcDbLayerTableRecord
  2
04_POINTS
 70
0
 62
7
  6
CONTINUOUS
370
-3
390
F
  0
LAYER
  5
203
100
AcDbSymbolTableRecord
100
AcDbLayerTableRecord
  2
05_CURVES
 70
0
 62
7
  6
CONTINUOUS
370
-3
390
F
  0
LAYER
  5
204
100
AcDbSymbolTableRecord
100
AcDbLayerTableRecord
  2
06_SURFS
 70
0
 62
7
  6
CONTINUOUS
370
-3
390
F
  0
LAYER
  5
205
100
AcDbSymbolTableRecord
100
AcDbLayerTableRecord
  2
07_COSMETICS
 70
0
 62
7
  6
CONTINUOUS
370
-3
390
F
  0
LAYER
  5
206
100
AcDbSymbolTableRecord
100
AcDbLayerTableRecord
  2
10_NOTES
 70
0
 62
7
  6
CONTINUOUS
370
-3
390
F
  0
LAYER
  5
207
100
AcDbSymbolTableRecord
100
AcDbLayerTableRecord
  2
11_NOTES_PUB
 70
0
 62
7
  6
CONTINUOUS
370
-3
390
F
  0
LAYER
  5
208
100
AcDbSymbolTableRecord
100
AcDbLayerTableRecord
  2
13_REF_GTOL
 70
0
 62
7
  6
CONTINUOUS
370
-3
390
F
  0
LAYER
  5
209
100
AcDbSymbolTableRecord
100
AcDbLayerTableRecord
  2
16_MISC
 70
0
 62
7
  6
CONTINUOUS
370
-3
390
F
  0
LAYER
  5
20A
100
AcDbSymbolTableRecord
100
AcDbLayerTableRecord
  2
17_NO_PRINT
 70
0
 62
7
  6
CONTINUOUS
370
-3
390
F
  0
LAYER
  5
20B
100
AcDbSymbolTableRecord
100
AcDbLayerTableRecord
  2
18_DATUM_CAMS_JOINTS
 70
0
 62
7
  6
CONTINUOUS
370
-3
390
F
  0
LAYER
  5
20C
100
AcDbSymbolTableRecord
100
AcDbLayerTableRecord
  2
19_DATUM_FUNCTIONAL
 70
0
 62
7
  6
CONTINUOUS
370
-3
390
F
  0
LAYER
  5
20D
100
AcDbSymbolTableRecord
100
AcDbLayerTableRecord
  2
20_DATUM_KINEMATIC_SCHEME
 70
0
 62
7
  6
CONTINUOUS
370
-3
390
F
  0
ENDTAB
  0
TABLE
  2
STYLE
  5
3
100
AcDbSymbolTable
 70
1
  0
STYLE
  5
11
100
AcDbSymbolTableRecord
100
AcDbTextStyleTableRecord
  2
STANDARD
 70
0
 40
0.0
 41
0.8
 50
0.0
 71
0
 42
0.2
  3
txt
  4

  0
STYLE
  5
20E
100
AcDbSymbolTableRecord
100
AcDbTextStyleTableRecord
  2
TEXTSTYLE_1
 70
0
 40
0.0
 41
0.8
 50
0.0
 71
0
 42
0.2
  3
gdt
  4

  0
ENDTAB
  0
TABLE
  2
VIEW
  5
6
100
AcDbSymbolTable
 70
0
  0
ENDTAB
  0
TABLE
  2
UCS
  5
7
100
AcDbSymbolTable
 70
0
  0
ENDTAB
  0
TABLE
  2
APPID
  5
9
100
AcDbSymbolTable
 70
1
  0
APPID
  5
20F
100
AcDbSymbolTableRecord
100
AcDbRegAppTableRecord
  2
ACAD
 70
0
  0
ENDTAB
  0
TABLE
  2
BLOCK_RECORD
  5
1
100
AcDbSymbolTable
 70
0
  0
BLOCK_RECORD
  5
210
100
AcDbSymbolTableRecord
100
AcDbBlockTableRecord
  2
*Model_Space
  0
BLOCK_RECORD
  5
211
100
AcDbSymbolTableRecord
100
AcDbBlockTableRecord
  2
*Paper_Space
  0
BLOCK_RECORD
  5
212
100
AcDbSymbolTableRecord
100
AcDbBlockTableRecord
  2
_FILLED
  0
ENDTAB
  0
TABLE
  2
DIMSTYLE
  5
A
100
AcDbSymbolTable
 70
1
100
AcDbDimStyleTable
 71
0
  0
DIMSTYLE
105
213
100
AcDbSymbolTableRecord
100
AcDbDimStyleTableRecord
  2
STANDARD
 70
0
  3

  4

 40
1.0
 41
6.0653640511
 42
1.0
 43
0.38
 44
1.0
 45
0.0
 46
0.0
 47
0.01
 48
0.01
140
8.4915096715
141
0.09
142
0.0
143
25.4
144
1.0
145
0.0
146
1.0
147
0.625
 71
1
 72
0
 73
0
 74
0
 75
0
 76
0
 77
1
 78
8
 79
2
170
0
171
1
172
0
173
0
174
0
175
0
176
0
177
0
178
0
270
2
179
2
271
2
272
2
273
2
274
2
275
0
280
0
281
0
282
0
283
1
284
8
285
0
286
0
287
3
288
0
340
11
278
46
341
212
342
212
343
212
344
212
  0
ENDTAB
  0
ENDSEC
  0
SECTION
  2
BLOCKS
  0
BLOCK
  5
20
100
AcDbEntity
  8
0
100
AcDbBlockBegin
  2
*Model_Space
 70
0
 10
0.0
 20
0.0
 30
0.0
  3
*Model_Space
  1

  0
ENDBLK
  5
21
100
AcDbEntity
  8
0
100
AcDbBlockEnd
  0
BLOCK
  5
1C
100
AcDbEntity
  8
0
100
AcDbBlockBegin
  2
*Paper_Space
 70
0
 10
0.0
 20
0.0
 30
0.0
  3
*Paper_Space
  1

  0
ENDBLK
  5
1D
100
AcDbEntity
  8
0
100
AcDbBlockEnd
  0
BLOCK
  5
214
100
AcDbEntity
  8
0
100
AcDbBlockBegin
  2
_FILLED
 70
64
 10
0.0
 20
0.0
  3
_FILLED
  1

  0
SOLID
  5
215
100
AcDbEntity
  8
0
  6
BYBLOCK
 62
0
100
AcDbTrace
 10
0.0
 20
0.0
 11
-1.0
 21
0.25
 12
-1.0
 22
-0.25
 13
-1.0
 23
-0.25
  0
ENDBLK
  5
216
100
AcDbEntity
  8
0
  6
BYBLOCK
 62
0
100
AcDbBlockEnd
  0
ENDSEC
  0
SECTION
  2
ENTITIES
  0
LINE
  5
217
100
AcDbEntity
  8
0
100
AcDbLine
 62
7
  6
CONTINUOUS
 10
136.2428045682
 20
643.3096699068
 11
136.2432488315
 21
643.3100452229
  0
LINE
  5
218
100
AcDbEntity
  8
0
100
AcDbLine
 62
7
  6
CONTINUOUS
 10
362.9001944063
 20
87.5326219217
 11
364.9002006804
 21
88.0326231798
  0
LINE
  5
219
100
AcDbEntity
  8
0
100
AcDbLine
 62
7
  6
CONTINUOUS
 10
161.9001940779
 20
59.5326246334
 11
177.9001940779
 21
59.5326246334
  0
LINE
  5
21A
100
AcDbEntity
  8
0
100
AcDbLine
 62
7
  6
CONTINUOUS
 10
164.7521414859
 20
61.0326246334
 11
158.1001940779
 21
61.0326246334
  0
LINE
  5
21B
100
AcDbEntity
  8
0
100
AcDbLine
 62
7
  6
CONTINUOUS
 10
175.0482466699
 20
61.0326246334
 11
379.5001940779
 21
61.0326246334
  0
LINE
  5
21C
100
AcDbEntity
  8
0
100
AcDbLine
 62
7
  6
CONTINUOUS
 10
164.7521414859
 20
61.0326246334
 11
175.0482466699
 21
61.0326246334
  0
LINE
  5
21D
100
AcDbEntity
  8
0
100
AcDbLine
 62
7
  6
CONTINUOUS
 10
175.0482466699
 20
62.0326246334
 11
164.7521414859
 21
62.0326246334
  0
LINE
  5
21E
100
AcDbEntity
  8
0
100
AcDbLine
 62
7
  6
CONTINUOUS
 10
379.5001940779
 20
62.2326246334
 11
158.1001940779
 21
62.2326246334
  0
LINE
  5
21F
100
AcDbEntity
  8
0
100
AcDbLine
 62
7
  6
CONTINUOUS
 10
162.9001940779
 20
63.0326246334
 11
176.9001940779
 21
63.0326246334
  0
LINE
  5
220
100
AcDbEntity
  8
0
100
AcDbLine
 62
7
  6
CONTINUOUS
 10
381.9001940779
 20
63.4326246334
 11
380.7001940779
 21
63.4326246334
  0
LINE
  5
221
100
AcDbEntity
  8
0
100
AcDbLine
 62
7
  6
CONTINUOUS
 10
162.9001940779
 20
64.0326246334
 11
176.9001940779
 21
64.0326246334
  0
LINE
  5
222
100
AcDbEntity
  8
0
100
AcDbLine
 62
7
  6
CONTINUOUS
 10
156.1001940779
 20
64.2326246334
 11
154.9001940856
 21
64.2326246334
  0
LINE
  5
223
100
AcDbEntity
  8
0
100
AcDbLine
 62
7
  6
CONTINUOUS
 10
163.8999084083
 20
65.0326246334
 11
175.8999716045
 21
65.0326246334
  0
LINE
  5
224
100
AcDbEntity
  8
0
100
AcDbLine
 62
7
  6
CONTINUOUS
 10
165.9001940779
 20
73.5326246334
 11
173.9001940779
 21
73.5326246334
  0
LINE
  5
225
100
AcDbEntity
  8
0
100
AcDbLine
 62
7
  6
CONTINUOUS
 10
383.4001940779
 20
75.0326246334
 11
381.9001940779
 21
75.0326246334
  0
LINE
  5
226
100
AcDbEntity
  8
0
100
AcDbLine
 62
7
  6
CONTINUOUS
 10
164.9001940779
 20
75.0326246334
 11
174.9001940779
 21
75.0326246334
  0
LINE
  5
227
100
AcDbEntity
  8
0
100
AcDbLine
 62
7
  6
CONTINUOUS
 10
381.9001940779
 20
77.8826246334
 11
380.7001940779
 21
77.8826246334
  0
LINE
  5
228
100
AcDbEntity
  8
0
100
AcDbLine
 62
7
  6
CONTINUOUS
 10
364.9002006804
 20
78.0326246334
 11
378.5001940779
 21
78.0326246334
  0
LINE
  5
229
100
AcDbEntity
  8
0
100
AcDbLine
 62
7
  6
CONTINUOUS
 10
380.1001940779
 20
78.0326246334
 11
381.9001940779
 21
78.0326246334
  0
LINE
  5
22A
100
AcDbEntity
  8
0
100
AcDbLine
 62
7
  6
CONTINUOUS
 10
156.1001940779
 20
78.6064306252
 11
154.9001940136
 21
78.6064306252
  0
LINE
  5
22B
100
AcDbEntity
  8
0
100
AcDbLine
 62
7
  6
CONTINUOUS
 10
136.5001940778
 20
78.6339795654
 11
136.2712232834
 21
78.6339795654
  0
LINE
  5
22C
100
AcDbEntity
  8
0
100
AcDbLine
 62
7
  6
CONTINUOUS
 10
383.4001940779
 20
78.7826246334
 11
380.4001940779
 21
78.7826246334
  0
LINE
  5
22D
100
AcDbEntity
  8
0
100
AcDbLine
 62
7
  6
CONTINUOUS
 10
380.4001940779
 20
80.5326246334
 11
365.4001940779
 21
80.5326246334
  0
LINE
  5
22E
100
AcDbEntity
  8
0
100
AcDbLine
 62
7
  6
CONTINUOUS
 10
143.7805139059
 20
80.0945716953
 11
136.219756877
 21
78.9294737808
  0
LINE
  5
22F
100
AcDbEntity
  8
0
100
AcDbLine
 62
7
  6
CONTINUOUS
 10
143.5977534487
 20
81.2805727977
 11
136.023960513
 21
80.1134660755
  0
LINE
  5
230
100
AcDbEntity
  8
0
100
AcDbLine
 62
7
  6
CONTINUOUS
 10
152.5185760871
 20
81.7476376123
 11
152.2896052927
 21
81.7476376123
  0
LINE
  5
231
100
AcDbEntity
  8
0
100
AcDbLine
 62
7
  6
CONTINUOUS
 10
143.5977534487
 20
81.8621082728
 11
143.7878445984
 21
81.8625863496
  0
LINE
  5
232
100
AcDbEntity
  8
0
100
AcDbLine
 62
7
  6
CONTINUOUS
 10
380.4001940779
 20
85.5326246334
 11
365.4001940779
 21
85.5326246334
  0
LINE
  5
233
100
AcDbEntity
  8
0
100
AcDbLine
 62
7
  6
CONTINUOUS
 10
383.4001940779
 20
87.2826246334
 11
380.4001940779
 21
87.2826246334
  0
LINE
  5
234
100
AcDbEntity
  8
0
100
AcDbLine
 62
7
  6
CONTINUOUS
 10
364.9002006804
 20
88.0326246334
 11
378.5001940779
 21
88.0326246334
  0
LINE
  5
235
100
AcDbEntity
  8
0
100
AcDbLine
 62
7
  6
CONTINUOUS
 10
380.1001940779
 20
88.0326246334
 11
381.9001940779
 21
88.0326246334
  0
LINE
  5
236
100
AcDbEntity
  8
0
100
AcDbLine
 62
7
  6
CONTINUOUS
 10
381.9001940779
 20
88.1826246334
 11
380.7001940779
 21
88.1826246334
  0
LINE
  5
237
100
AcDbEntity
  8
0
100
AcDbLine
 62
7
  6
CONTINUOUS
 10
383.4001940779
 20
91.0326246334
 11
381.9001940779
 21
91.0326246334
  0
LINE
  5
238
100
AcDbEntity
  8
0
100
AcDbLine
 62
7
  6
CONTINUOUS
 10
374.2001940779
 20
91.5326246334
 11
371.7001940779
 21
91.5326246334
  0
LINE
  5
239
100
AcDbEntity
  8
0
100
AcDbLine
 62
7
  6
CONTINUOUS
 10
371.7001940779
 20
92.0326246334
 11
369.8001940779
 21
92.0326246334
  0
LINE
  5
23A
100
AcDbEntity
  8
0
100
AcDbLine
 62
7
  6
CONTINUOUS
 10
371.7091042394
 20
92.5326246334
 11
370.7001940779
 21
92.5326246334
  0
LINE
  5
23B
100
AcDbEntity
  8
0
100
AcDbLine
 62
7
  6
CONTINUOUS
 10
353.0001940779
 20
92.9326246334
 11
369.8001940779
 21
92.9326246334
  0
LINE
  5
23C
100
AcDbEntity
  8
0
100
AcDbLine
 62
7
  6
CONTINUOUS
 10
364.0001940779
 20
93.6828823722
 11
353.0001940779
 21
93.6828823722
  0
LINE
  5
23D
100
AcDbEntity
  8
0
100
AcDbLine
 62
7
  6
CONTINUOUS
 10
380.7001940779
 20
94.0326246334
 11
374.6410115297
 21
94.0326246334
  0
LINE
  5
23E
100
AcDbEntity
  8
0
100
AcDbLine
 62
7
  6
CONTINUOUS
 10
370.7001940779
 20
94.2826246334
 11
355.0001940779
 21
94.2826246334
  0
LINE
  5
23F
100
AcDbEntity
  8
0
100
AcDbLine
 62
7
  6
CONTINUOUS
 10
364.0001940779
 20
95.7326246334
 11
353.0001940779
 21
95.7326246334
  0
LINE
  5
240
100
AcDbEntity
  8
0
100
AcDbLine
 62
7
  6
CONTINUOUS
 10
364.0001940779
 20
98.5326246334
 11
353.0001940779
 21
98.5326246334
  0
LINE
  5
241
100
AcDbEntity
  8
0
100
AcDbLine
 62
7
  6
CONTINUOUS
 10
364.0001940779
 20
101.3326246334
 11
353.0001940779
 21
101.3326246334
  0
LINE
  5
242
100
AcDbEntity
  8
0
100
AcDbLine
 62
7
  6
CONTINUOUS
 10
370.7001940779
 20
102.7826246334
 11
355.0001940779
 21
102.7826246334
  0
LINE
  5
243
100
AcDbEntity
  8
0
100
AcDbLine
 62
7
  6
CONTINUOUS
 10
152.5185760871
 20
80.569684992
 11
136.5001940779
 21
77.4560269452
  0
LINE
  5
244
100
AcDbEntity
  8
0
100
AcDbLine
 62
7
  6
CONTINUOUS
 10
152.5185760871
 20
81.7476376122
 11
136.5001940779
 21
78.6339795654
  0
LINE
  5
245
100
AcDbEntity
  8
0
100
AcDbLine
 62
7
  6
CONTINUOUS
 10
152.2896052927
 20
81.7476376123
 11
136.2712232834
 21
78.6339795654
  0
LINE
  5
246
100
AcDbEntity
  8
0
100
AcDbLine
 62
7
  6
CONTINUOUS
 10
143.5977534487
 20
81.8621082728
 11
136.023960513
 21
80.6442694354
  0
LINE
  5
247
100
AcDbEntity
  8
0
100
AcDbLine
 62
7
  6
CONTINUOUS
 10
143.7878445837
 20
81.8625863496
 11
136.2197517034
 21
80.6512968691
  0
LINE
  5
248
100
AcDbEntity
  8
0
100
AcDbLine
 62
7
  6
CONTINUOUS
 10
136.0421704919
 20
80.6515224739
 11
143.6118165142
 21
81.8625863496
  0
LINE
  5
249
100
AcDbEntity
  8
0
100
AcDbLine
 62
7
  6
CONTINUOUS
 10
380.7001940779
 20
103.0326246334
 11
374.6410115297
 21
103.0326246334
  0
LINE
  5
24A
100
AcDbEntity
  8
0
100
AcDbLine
 62
7
  6
CONTINUOUS
 10
364.0001940779
 20
103.3823668946
 11
353.0001940779
 21
103.3823668946
  0
LINE
  5
24B
100
AcDbEntity
  8
0
100
AcDbLine
 62
7
  6
CONTINUOUS
 10
369.8001940779
 20
104.1326246334
 11
353.0001940779
 21
104.1326246334
  0
LINE
  5
24C
100
AcDbEntity
  8
0
100
AcDbLine
 62
7
  6
CONTINUOUS
 10
371.7091042394
 20
104.5326246334
 11
370.7001940779
 21
104.5326246334
  0
LINE
  5
24D
100
AcDbEntity
  8
0
100
AcDbLine
 62
7
  6
CONTINUOUS
 10
371.7001940779
 20
105.0326246334
 11
369.8001940779
 21
105.0326246334
  0
LINE
  5
24E
100
AcDbEntity
  8
0
100
AcDbLine
 62
7
  6
CONTINUOUS
 10
374.2001940779
 20
105.5326246334
 11
371.7001940779
 21
105.5326246334
  0
LINE
  5
24F
100
AcDbEntity
  8
0
100
AcDbLine
 62
7
  6
CONTINUOUS
 10
155.6871665576
 20
127.1869240916
 11
161.7001940779
 21
127.0294674245
  0
LINE
  5
250
100
AcDbEntity
  8
0
100
AcDbLine
 62
7
  6
CONTINUOUS
 10
156.1001940779
 20
126.0359579668
 11
158.1382346579
 21
125.9000885948
  0
LINE
  5
251
100
AcDbEntity
  8
0
100
AcDbLine
 62
7
  6
CONTINUOUS
 10
161.7001940779
 20
133.5326246334
 11
158.6577856324
 21
134.131886903
  0
LINE
  5
252
100
AcDbEntity
  8
0
100
AcDbLine
 62
7
  6
CONTINUOUS
 10
362.9001944063
 20
78.5326273451
 11
364.9002006804
 21
78.032626087
  0
LINE
  5
253
100
AcDbEntity
  8
0
100
AcDbLine
 62
7
  6
CONTINUOUS
 10
154.6001940779
 20
587.9326246334
 11
153.4001940779
 21
586.7326246334
  0
LINE
  5
254
100
AcDbEntity
  8
0
100
AcDbLine
 62
7
  6
CONTINUOUS
 10
156.1001940779
 20
134.0292913001
 11
158.1382346579
 21
134.1651606721
  0
LINE
  5
255
100
AcDbEntity
  8
0
100
AcDbLine
 62
7
  6
CONTINUOUS
 10
155.6871665576
 20
132.8783251753
 11
161.7001940779
 21
133.0357818424
  0
LINE
  5
256
100
AcDbEntity
  8
0
100
AcDbLine
 62
7
  6
CONTINUOUS
 10
154.7001940779
 20
125.0326246334
 11
154.9001940779
 21
125.0326246334
  0
LINE
  5
257
100
AcDbEntity
  8
0
100
AcDbLine
 62
7
  6
CONTINUOUS
 10
154.9001940779
 20
126.2826246334
 11
156.1001940779
 21
126.2826246334
  0
LINE
  5
258
100
AcDbEntity
  8
0
100
AcDbLine
 62
7
  6
CONTINUOUS
 10
155.1001940779
 20
128.5326246334
 11
155.2002550323
 21
128.5326246334
  0
LINE
  5
259
100
AcDbEntity
  8
0
100
AcDbLine
 62
7
  6
CONTINUOUS
 10
155.1001940779
 20
131.5326246334
 11
155.2002550323
 21
131.5326246334
  0
LINE
  5
25A
100
AcDbEntity
  8
0
100
AcDbLine
 62
7
  6
CONTINUOUS
 10
154.9001940779
 20
133.7826246334
 11
156.1001940779
 21
133.7826246334
  0
LINE
  5
25B
100
AcDbEntity
  8
0
100
AcDbLine
 62
7
  6
CONTINUOUS
 10
154.7001940779
 20
135.0326246334
 11
154.9001940779
 21
135.0326246334
  0
LINE
  5
25C
100
AcDbEntity
  8
0
100
AcDbLine
 62
7
  6
CONTINUOUS
 10
161.7001940779
 20
126.5326246335
 11
158.657785635
 21
125.9333623644
  0
LINE
  5
25D
100
AcDbEntity
  8
0
100
AcDbLine
 62
7
  6
CONTINUOUS
 10
188.3001940779
 20
162.3828823722
 11
193.9001940779
 21
162.3828823722
  0
LINE
  5
25E
100
AcDbEntity
  8
0
100
AcDbLine
 62
7
  6
CONTINUOUS
 10
136.5001940779
 20
644.6092223215
 11
136.2712232834
 21
643.4312697014
  0
LINE
  5
25F
100
AcDbEntity
  8
0
100
AcDbLine
 62
7
  6
CONTINUOUS
 10
193.9001940779
 20
172.0823668946
 11
188.3001940779
 21
172.0823668946
  0
LINE
  5
260
100
AcDbEntity
  8
0
100
AcDbLine
 62
7
  6
CONTINUOUS
 10
136.2712232834
 20
78.6339795654
 11
136.5001940779
 21
77.4560269453
  0
LINE
  5
261
100
AcDbEntity
  8
0
100
AcDbLine
 62
7
  6
CONTINUOUS
 10
136.219756877
 20
643.1357754861
 11
136.0369964199
 21
641.9497743835
  0
LINE
  5
262
100
AcDbEntity
  8
0
100
AcDbLine
 62
7
  6
CONTINUOUS
 10
143.7805139059
 20
641.9706775716
 11
143.5977534487
 21
640.784676469
  0
LINE
  5
263
100
AcDbEntity
  8
0
100
AcDbLine
 62
7
  6
CONTINUOUS
 10
145.5468580107
 20
577.7469103477
 11
145.2472801573
 21
576.0326246334
  0
LINE
  5
264
100
AcDbEntity
  8
0
100
AcDbLine
 62
7
  6
CONTINUOUS
 10
152.5185760871
 20
641.4955642747
 11
152.2896052927
 21
640.3176116546
  0
LINE
  5
265
100
AcDbEntity
  8
0
100
AcDbLine
 62
7
  6
CONTINUOUS
 10
141.5325147757
 20
608.0326246334
 11
141.2329369223
 21
606.6040532048
  0
LINE
  5
266
100
AcDbEntity
  8
0
100
AcDbLine
 62
7
  6
CONTINUOUS
 10
188.3001940779
 20
559.6823668946
 11
185.5001940779
 21
554.8326246334
  0
LINE
  5
267
100
AcDbEntity
  8
0
100
AcDbLine
 62
7
  6
CONTINUOUS
 10
196.7001940779
 20
554.8326246334
 11
193.9001940779
 21
549.9828823722
  0
LINE
  5
268
100
AcDbEntity
  8
0
100
AcDbLine
 62
7
  6
CONTINUOUS
 10
188.3001940779
 20
162.3828823722
 11
185.5001940779
 21
167.2326246334
  0
LINE
  5
269
100
AcDbEntity
  8
0
100
AcDbLine
 62
7
  6
CONTINUOUS
 10
196.7001940779
 20
167.2326246334
 11
193.9001940779
 21
172.0823668946
  0
LINE
  5
26A
100
AcDbEntity
  8
0
100
AcDbLine
 62
7
  6
CONTINUOUS
 10
152.2896052927
 20
81.7476376122
 11
152.5185760994
 21
80.569684929
  0
LINE
  5
26B
100
AcDbEntity
  8
0
100
AcDbLine
 62
7
  6
CONTINUOUS
 10
136.219756877
 20
78.9294737808
 11
136.0369964198
 21
80.1154748833
  0
LINE
  5
26C
100
AcDbEntity
  8
0
100
AcDbLine
 62
7
  6
CONTINUOUS
 10
143.5977534487
 20
81.2805727978
 11
143.7805139059
 21
80.0945716952
  0
LINE
  5
26D
100
AcDbEntity
  8
0
100
AcDbLine
 62
7
  6
CONTINUOUS
 10
152.825905845
 20
582.1101089337
 11
152.8316280767
 21
574.7551390617
  0
LINE
  5
26E
100
AcDbEntity
  8
0
100
AcDbLine
 62
7
  6
CONTINUOUS
 10
153.1950402907
 20
602.0720486215
 11
153.1933846842
 21
609.2199239087
  0
LINE
  5
26F
100
AcDbEntity
  8
0
100
AcDbLine
 62
7
  6
CONTINUOUS
 10
134.8926019341
 20
79.7517219241
 11
134.8926019341
 21
642.3135273428
  0
LINE
  5
270
100
AcDbEntity
  8
0
100
AcDbLine
 62
7
  6
CONTINUOUS
 10
136.0304803236
 20
641.4179057653
 11
136.0304803236
 21
80.6473650368
  0
LINE
  5
271
100
AcDbEntity
  8
0
100
AcDbLine
 62
7
  6
CONTINUOUS
 10
136.0432054806
 20
80.6520120074
 11
136.0432054806
 21
641.4147945042
  0
LINE
  5
272
100
AcDbEntity
  8
0
100
AcDbLine
 62
7
  6
CONTINUOUS
 10
136.0926019341
 20
79.7564852741
 11
136.0926019341
 21
642.3087639928
  0
LINE
  5
273
100
AcDbEntity
  8
0
100
AcDbLine
 62
7
  6
CONTINUOUS
 10
136.219756877
 20
80.6504673043
 11
136.219756877
 21
641.4147819625
  0
LINE
  5
274
100
AcDbEntity
  8
0
100
AcDbLine
 62
7
  6
CONTINUOUS
 10
136.2712232834
 20
643.4312697014
 11
136.2712232834
 21
78.6339795654
  0
LINE
  5
275
100
AcDbEntity
  8
0
100
AcDbLine
 62
7
  6
CONTINUOUS
 10
136.5001940779
 20
643.4312322258
 11
136.5001940779
 21
78.6340167008
  0
LINE
  5
276
100
AcDbEntity
  8
0
100
AcDbLine
 62
7
  6
CONTINUOUS
 10
139.7898974665
 20
617.0326246334
 11
139.7898974665
 21
602.3326246334
  0
LINE
  5
277
100
AcDbEntity
  8
0
100
AcDbLine
 62
7
  6
CONTINUOUS
 10
139.7898974665
 20
581.7326246334
 11
139.7898974665
 21
567.0326246334
  0
LINE
  5
278
100
AcDbEntity
  8
0
100
AcDbLine
 62
7
  6
CONTINUOUS
 10
140.0760799941
 20
617.0326246334
 11
140.0760799941
 21
602.3326246334
  0
LINE
  5
279
100
AcDbEntity
  8
0
100
AcDbLine
 62
7
  6
CONTINUOUS
 10
140.0760799941
 20
581.7326246334
 11
140.0760799941
 21
567.0326246334
  0
LINE
  5
27A
100
AcDbEntity
  8
0
100
AcDbLine
 62
7
  6
CONTINUOUS
 10
141.2898974665
 20
617.0326246334
 11
141.2898974665
 21
602.3326246334
  0
LINE
  5
27B
100
AcDbEntity
  8
0
100
AcDbLine
 62
7
  6
CONTINUOUS
 10
141.2898974665
 20
581.7326246334
 11
141.2898974665
 21
567.0326246334
  0
LINE
  5
27C
100
AcDbEntity
  8
0
100
AcDbLine
 62
7
  6
CONTINUOUS
 10
141.4568372743
 20
567.0326246334
 11
141.4568372743
 21
581.7326246334
  0
LINE
  5
27D
100
AcDbEntity
  8
0
100
AcDbLine
 62
7
  6
CONTINUOUS
 10
141.4568372743
 20
602.3326246334
 11
141.4568372743
 21
617.0326246334
  0
LINE
  5
27E
100
AcDbEntity
  8
0
100
AcDbLine
 62
7
  6
CONTINUOUS
 10
142.3823454156
 20
567.0326246334
 11
142.3823454156
 21
583.3844068381
  0
LINE
  5
27F
100
AcDbEntity
  8
0
100
AcDbLine
 62
7
  6
CONTINUOUS
 10
142.3823454156
 20
600.6808424287
 11
142.3823454156
 21
617.0326246334
  0
LINE
  5
280
100
AcDbEntity
  8
0
100
AcDbLine
 62
7
  6
CONTINUOUS
 10
142.4007818159
 20
583.7326246335
 11
142.4007818159
 21
585.1044214031
  0
LINE
  5
281
100
AcDbEntity
  8
0
100
AcDbLine
 62
7
  6
CONTINUOUS
 10
142.4007818159
 20
598.9608278637
 11
142.4007818159
 21
600.3326246335
  0
LINE
  5
282
100
AcDbEntity
  8
0
100
AcDbLine
 62
7
  6
CONTINUOUS
 10
142.8523073281
 20
567.0326246334
 11
142.8523073281
 21
581.7326246334
  0
LINE
  5
283
100
AcDbEntity
  8
0
100
AcDbLine
 62
7
  6
CONTINUOUS
 10
142.8523073281
 20
602.3326246334
 11
142.8523073281
 21
617.0326246334
  0
LINE
  5
284
100
AcDbEntity
  8
0
100
AcDbLine
 62
7
  6
CONTINUOUS
 10
143.0763032191
 20
617.0326246334
 11
143.0763032191
 21
602.3326246334
  0
LINE
  5
285
100
AcDbEntity
  8
0
100
AcDbLine
 62
7
  6
CONTINUOUS
 10
143.0763032191
 20
581.7326246334
 11
143.0763032191
 21
567.0326246334
  0
LINE
  5
286
100
AcDbEntity
  8
0
100
AcDbLine
 62
7
  6
CONTINUOUS
 10
143.5977534487
 20
81.8621082728
 11
143.5977534487
 21
640.203140994
  0
LINE
  5
287
100
AcDbEntity
  8
0
100
AcDbLine
 62
7
  6
CONTINUOUS
 10
143.6118165141
 20
640.2026629172
 11
143.611816647
 21
81.8625863496
  0
LINE
  5
288
100
AcDbEntity
  8
0
100
AcDbLine
 62
7
  6
CONTINUOUS
 10
143.7631026958
 20
617.0326246334
 11
143.7631026958
 21
600.6808424213
  0
LINE
  5
289
100
AcDbEntity
  8
0
100
AcDbLine
 62
7
  6
CONTINUOUS
 10
143.7631026958
 20
583.3844058076
 11
143.7631026958
 21
567.0326246334
  0
LINE
  5
28A
100
AcDbEntity
  8
0
100
AcDbLine
 62
7
  6
CONTINUOUS
 10
143.7723208959
 20
600.3326193446
 11
143.7723208959
 21
598.9608278637
  0
LINE
  5
28B
100
AcDbEntity
  8
0
100
AcDbLine
 62
7
  6
CONTINUOUS
 10
143.7723208959
 20
585.1044214031
 11
143.7723208959
 21
583.7326184396
  0
LINE
  5
28C
100
AcDbEntity
  8
0
100
AcDbLine
 62
7
  6
CONTINUOUS
 10
143.7805139059
 20
640.203140994
 11
143.7805139059
 21
81.8621082728
  0
LINE
  5
28D
100
AcDbEntity
  8
0
100
AcDbLine
 62
7
  6
CONTINUOUS
 10
143.7878445984
 20
81.8625863496
 11
143.7878445837
 21
640.2026629172
  0
LINE
  5
28E
100
AcDbEntity
  8
0
100
AcDbLine
 62
7
  6
CONTINUOUS
 10
144.5714329898
 20
617.0326246334
 11
144.5714329898
 21
596.5903506024
  0
LINE
  5
28F
100
AcDbEntity
  8
0
100
AcDbLine
 62
7
  6
CONTINUOUS
 10
144.5714329898
 20
587.4748986645
 11
144.5714329898
 21
567.0326246334
  0
LINE
  5
290
100
AcDbEntity
  8
0
100
AcDbLine
 62
7
  6
CONTINUOUS
 10
144.8576464828
 20
567.0326246334
 11
144.8576464828
 21
587.4748986645
  0
LINE
  5
291
100
AcDbEntity
  8
0
100
AcDbLine
 62
7
  6
CONTINUOUS
 10
144.8576464829
 20
596.5903506024
 11
144.8576464829
 21
617.0326246334
  0
LINE
  5
292
100
AcDbEntity
  8
0
100
AcDbLine
 62
7
  6
CONTINUOUS
 10
145.4898974664
 20
617.0326246334
 11
145.4898974664
 21
602.3326246334
  0
LINE
  5
293
100
AcDbEntity
  8
0
100
AcDbLine
 62
7
  6
CONTINUOUS
 10
145.4898974664
 20
581.7326246334
 11
145.4898974664
 21
567.0326246334
  0
LINE
  5
294
100
AcDbEntity
  8
0
100
AcDbLine
 62
7
  6
CONTINUOUS
 10
146.9898974664
 20
617.0326246334
 11
146.9898974664
 21
602.3326246334
  0
LINE
  5
295
100
AcDbEntity
  8
0
100
AcDbLine
 62
7
  6
CONTINUOUS
 10
146.9898974664
 20
581.7326246334
 11
146.9898974664
 21
567.0326246334
  0
LINE
  5
296
100
AcDbEntity
  8
0
100
AcDbLine
 62
7
  6
CONTINUOUS
 10
151.9231715895
 20
567.0326246334
 11
151.9231715895
 21
617.0326246334
  0
LINE
  5
297
100
AcDbEntity
  8
0
100
AcDbLine
 62
7
  6
CONTINUOUS
 10
152.2093850825
 20
617.0326246334
 11
152.2093850825
 21
567.0326246334
  0
LINE
  5
298
100
AcDbEntity
  8
0
100
AcDbLine
 62
7
  6
CONTINUOUS
 10
152.2896052927
 20
640.3176116546
 11
152.2896052927
 21
81.7476376122
  0
LINE
  5
299
100
AcDbEntity
  8
0
100
AcDbLine
 62
7
  6
CONTINUOUS
 10
152.5185760871
 20
640.3176116546
 11
152.5185760871
 21
81.7476376122
  0
LINE
  5
29A
100
AcDbEntity
  8
0
100
AcDbLine
 62
7
  6
CONTINUOUS
 10
152.7001940779
 20
609.1568714227
 11
152.7001940779
 21
602.1285974699
  0
LINE
  5
29B
100
AcDbEntity
  8
0
100
AcDbLine
 62
7
  6
CONTINUOUS
 10
152.7001940779
 20
582.1100983166
 11
152.7001940779
 21
574.6343056038
  0
LINE
  5
29C
100
AcDbEntity
  8
0
100
AcDbLine
 62
7
  6
CONTINUOUS
 10
153.1950406885
 20
574.6915219745
 11
153.1950406885
 21
582.1737283458
  0
LINE
  5
29D
100
AcDbEntity
  8
0
100
AcDbLine
 62
7
  6
CONTINUOUS
 10
153.4001940779
 20
567.0326246334
 11
153.4001940779
 21
617.0326246334
  0
LINE
  5
29E
100
AcDbEntity
  8
0
100
AcDbLine
 62
7
  6
CONTINUOUS
 10
152.9903056267
 20
609.1366495753
 11
152.9876561821
 21
602.1285996915
  0
LINE
  5
29F
100
AcDbEntity
  8
0
100
AcDbLine
 62
7
  6
CONTINUOUS
 10
350.0001940779
 20
623.5326246334
 11
353.0001940779
 21
626.7826246334
  0
LINE
  5
2A0
100
AcDbEntity
  8
0
100
AcDbLine
 62
7
  6
CONTINUOUS
 10
350.0001940779
 20
98.5326246334
 11
353.0001940779
 21
95.2826246334
  0
LINE
  5
2A1
100
AcDbEntity
  8
0
100
AcDbLine
 62
7
  6
CONTINUOUS
 10
153.7001940779
 20
129.2826246333
 11
153.7001940779
 21
130.7826246335
  0
LINE
  5
2A2
100
AcDbEntity
  8
0
100
AcDbLine
 62
7
  6
CONTINUOUS
 10
153.7001940779
 20
591.2826246333
 11
153.7001940779
 21
592.7826246335
  0
LINE
  5
2A3
100
AcDbEntity
  8
0
100
AcDbLine
 62
7
  6
CONTINUOUS
 10
154.2001940779
 20
608.1826246334
 11
154.2001940779
 21
603.0826246334
  0
LINE
  5
2A4
100
AcDbEntity
  8
0
100
AcDbLine
 62
7
  6
CONTINUOUS
 10
154.2001940779
 20
580.9826246334
 11
154.2001940779
 21
575.8826246334
  0
LINE
  5
2A5
100
AcDbEntity
  8
0
100
AcDbLine
 62
7
  6
CONTINUOUS
 10
154.4001940779
 20
569.0326246334
 11
154.4001940779
 21
615.0326246334
  0
LINE
  5
2A6
100
AcDbEntity
  8
0
100
AcDbLine
 62
7
  6
CONTINUOUS
 10
154.6001940779
 20
596.1326246334
 11
154.6001940779
 21
587.9326246334
  0
LINE
  5
2A7
100
AcDbEntity
  8
0
100
AcDbLine
 62
7
  6
CONTINUOUS
 10
154.7001940779
 20
125.0326246334
 11
154.7001940779
 21
135.0326246334
  0
LINE
  5
2A8
100
AcDbEntity
  8
0
100
AcDbLine
 62
7
  6
CONTINUOUS
 10
154.7001940779
 20
587.0326246334
 11
154.7001940779
 21
597.0326246334
  0
LINE
  5
2A9
100
AcDbEntity
  8
0
100
AcDbLine
 62
7
  6
CONTINUOUS
 10
154.9001940779
 20
608.2826246334
 11
154.9001940779
 21
602.9826246334
  0
LINE
  5
2AA
100
AcDbEntity
  8
0
100
AcDbLine
 62
7
  6
CONTINUOUS
 10
154.9001940779
 20
575.7826246334
 11
154.9001940779
 21
581.0826246334
  0
LINE
  5
2AB
100
AcDbEntity
  8
0
100
AcDbLine
 62
7
  6
CONTINUOUS
 10
154.9001940779
 20
64.2326246334
 11
154.9001940779
 21
575.7826246334
  0
LINE
  5
2AC
100
AcDbEntity
  8
0
100
AcDbLine
 62
7
  6
CONTINUOUS
 10
154.9001940779
 20
608.2826246334
 11
154.9001940779
 21
657.8326246334
  0
LINE
  5
2AD
100
AcDbEntity
  8
0
100
AcDbLine
 62
7
  6
CONTINUOUS
 10
154.9001940779
 20
581.0826246334
 11
154.9001940779
 21
602.9826246334
  0
LINE
  5
2AE
100
AcDbEntity
  8
0
100
AcDbLine
 62
7
  6
CONTINUOUS
 10
154.9767778726
 20
615.0326246334
 11
154.9767778726
 21
569.0326246334
  0
LINE
  5
2AF
100
AcDbEntity
  8
0
100
AcDbLine
 62
7
  6
CONTINUOUS
 10
155.1001940779
 20
128.5326246334
 11
155.1001940779
 21
131.5326246334
  0
LINE
  5
2B0
100
AcDbEntity
  8
0
100
AcDbLine
 62
7
  6
CONTINUOUS
 10
155.1001940779
 20
590.5326246334
 11
155.1001940779
 21
593.5326246334
  0
LINE
  5
2B1
100
AcDbEntity
  8
0
100
AcDbLine
 62
7
  6
CONTINUOUS
 10
155.2002550323
 20
594.3765954489
 11
155.2002550323
 21
589.686752754
  0
LINE
  5
2B2
100
AcDbEntity
  8
0
100
AcDbLine
 62
7
  6
CONTINUOUS
 10
155.2002550323
 20
132.3765954489
 11
155.2002550323
 21
127.686752754
  0
LINE
  5
2B3
100
AcDbEntity
  8
0
100
AcDbLine
 62
7
  6
CONTINUOUS
 10
155.6871665581
 20
127.1869240915
 11
155.6871665576
 21
132.8783251753
  0
LINE
  5
2B4
100
AcDbEntity
  8
0
100
AcDbLine
 62
7
  6
CONTINUOUS
 10
155.6871665581
 20
589.1869240915
 11
155.6871665576
 21
594.8783251753
  0
LINE
  5
2B5
100
AcDbEntity
  8
0
100
AcDbLine
 62
7
  6
CONTINUOUS
 10
156.1001940779
 20
657.8326246334
 11
156.1001940779
 21
64.2326246334
  0
LINE
  5
2B6
100
AcDbEntity
  8
0
100
AcDbLine
 62
7
  6
CONTINUOUS
 10
158.1001940779
 20
661.0326246334
 11
158.1001940779
 21
61.0326246411
  0
LINE
  5
2B7
100
AcDbEntity
  8
0
100
AcDbLine
 62
7
  6
CONTINUOUS
 10
158.138234658
 20
125.9000885947
 11
158.1382346579
 21
134.1651606721
  0
LINE
  5
2B8
100
AcDbEntity
  8
0
100
AcDbLine
 62
7
  6
CONTINUOUS
 10
158.138234658
 20
587.9000885947
 11
158.1382346579
 21
596.1651606721
  0
LINE
  5
2B9
100
AcDbEntity
  8
0
100
AcDbLine
 62
7
  6
CONTINUOUS
 10
158.6577856324
 20
125.9333623638
 11
158.6577856324
 21
134.131886903
  0
LINE
  5
2BA
100
AcDbEntity
  8
0
100
AcDbLine
 62
7
  6
CONTINUOUS
 10
158.6577856324
 20
587.9333623638
 11
158.6577856324
 21
596.131886903
  0
LINE
  5
2BB
100
AcDbEntity
  8
0
100
AcDbLine
 62
7
  6
CONTINUOUS
 10
161.7001940779
 20
126.5326246335
 11
161.7001940779
 21
133.5326246334
  0
LINE
  5
2BC
100
AcDbEntity
  8
0
100
AcDbLine
 62
7
  6
CONTINUOUS
 10
161.7001940779
 20
588.5326246335
 11
161.7001940779
 21
595.5326246334
  0
LINE
  5
2BD
100
AcDbEntity
  8
0
100
AcDbLine
 62
7
  6
CONTINUOUS
 10
161.9001940779
 20
61.0326246334
 11
161.9001940779
 21
59.5326246334
  0
LINE
  5
2BE
100
AcDbEntity
  8
0
100
AcDbLine
 62
7
  6
CONTINUOUS
 10
162.9001940779
 20
64.0326246334
 11
162.9001940779
 21
63.0326246334
  0
LINE
  5
2BF
100
AcDbEntity
  8
0
100
AcDbLine
 62
7
  6
CONTINUOUS
 10
164.7501940779
 20
61.0326246334
 11
164.7501940779
 21
62.0326246334
  0
LINE
  5
2C0
100
AcDbEntity
  8
0
100
AcDbLine
 62
7
  6
CONTINUOUS
 10
164.9001940779
 20
75.0326246334
 11
164.9001940779
 21
65.0326246334
  0
LINE
  5
2C1
100
AcDbEntity
  8
0
100
AcDbLine
 62
7
  6
CONTINUOUS
 10
165.9001940779
 20
73.5326246334
 11
165.9001940779
 21
59.5326246334
  0
LINE
  5
2C2
100
AcDbEntity
  8
0
100
AcDbLine
 62
7
  6
CONTINUOUS
 10
173.9001940779
 20
73.5326246334
 11
173.9001940779
 21
59.5326246334
  0
LINE
  5
2C3
100
AcDbEntity
  8
0
100
AcDbLine
 62
7
  6
CONTINUOUS
 10
174.9001940779
 20
75.0326246334
 11
174.9001940779
 21
65.0326246334
  0
LINE
  5
2C4
100
AcDbEntity
  8
0
100
AcDbLine
 62
7
  6
CONTINUOUS
 10
175.0501940779
 20
61.0326246334
 11
175.0501940779
 21
62.0326246334
  0
LINE
  5
2C5
100
AcDbEntity
  8
0
100
AcDbLine
 62
7
  6
CONTINUOUS
 10
176.9001940779
 20
64.0326246334
 11
176.9001940779
 21
63.0326246334
  0
LINE
  5
2C6
100
AcDbEntity
  8
0
100
AcDbLine
 62
7
  6
CONTINUOUS
 10
177.9001940779
 20
61.0326246334
 11
177.9001940779
 21
59.5326246334
  0
LINE
  5
2C7
100
AcDbEntity
  8
0
100
AcDbLine
 62
7
  6
CONTINUOUS
 10
141.2329369224
 20
577.7469103477
 11
141.5325147757
 21
576.0326246334
  0
LINE
  5
2C8
100
AcDbEntity
  8
0
100
AcDbLine
 62
7
  6
CONTINUOUS
 10
145.5468580106
 20
606.6040532048
 11
145.2472801573
 21
608.0326246334
  0
LINE
  5
2C9
100
AcDbEntity
  8
0
100
AcDbLine
 62
7
  6
CONTINUOUS
 10
188.3001940779
 20
172.0823668946
 11
185.5001940779
 21
167.2326246334
  0
LINE
  5
2CA
100
AcDbEntity
  8
0
100
AcDbLine
 62
7
  6
CONTINUOUS
 10
196.7001940779
 20
167.2326246334
 11
193.9001940779
 21
162.3828823722
  0
LINE
  5
2CB
100
AcDbEntity
  8
0
100
AcDbLine
 62
7
  6
CONTINUOUS
 10
185.5001940779
 20
554.8326246334
 11
188.3001940779
 21
549.9828823722
  0
LINE
  5
2CC
100
AcDbEntity
  8
0
100
AcDbLine
 62
7
  6
CONTINUOUS
 10
193.9001940779
 20
559.6823668946
 11
196.7001940779
 21
554.8326246334
  0
LINE
  5
2CD
100
AcDbEntity
  8
0
100
AcDbLine
 62
7
  6
CONTINUOUS
 10
374.6410115297
 20
619.0326246334
 11
374.2001940779
 21
616.5326246334
  0
LINE
  5
2CE
100
AcDbEntity
  8
0
100
AcDbLine
 62
7
  6
CONTINUOUS
 10
374.6410115297
 20
103.0326246334
 11
374.2001940779
 21
105.5326246334
  0
LINE
  5
2CF
100
AcDbEntity
  8
0
100
AcDbLine
 62
7
  6
CONTINUOUS
 10
353.0001940779
 20
629.1326246334
 11
353.0001940779
 21
617.9326246334
  0
LINE
  5
2D0
100
AcDbEntity
  8
0
100
AcDbLine
 62
7
  6
CONTINUOUS
 10
353.0001940779
 20
104.1326246334
 11
353.0001940779
 21
92.9326246334
  0
LINE
  5
2D1
100
AcDbEntity
  8
0
100
AcDbLine
 62
7
  6
CONTINUOUS
 10
355.0001940779
 20
627.78250774
 11
355.0001940779
 21
619.2827415269
  0
LINE
  5
2D2
100
AcDbEntity
  8
0
100
AcDbLine
 62
7
  6
CONTINUOUS
 10
355.0001940779
 20
102.7826246334
 11
355.0001940779
 21
94.2826246334
  0
LINE
  5
2D3
100
AcDbEntity
  8
0
100
AcDbLine
 62
7
  6
CONTINUOUS
 10
362.9001940779
 20
643.5326218396
 11
362.9001940779
 21
634.5326274272
  0
LINE
  5
2D4
100
AcDbEntity
  8
0
100
AcDbLine
 62
7
  6
CONTINUOUS
 10
362.9001940779
 20
87.5326218396
 11
362.9001940779
 21
78.5326274272
  0
LINE
  5
2D5
100
AcDbEntity
  8
0
100
AcDbLine
 62
7
  6
CONTINUOUS
 10
364.0001940779
 20
629.1326246334
 11
364.0001940779
 21
617.9326246334
  0
LINE
  5
2D6
100
AcDbEntity
  8
0
100
AcDbLine
 62
7
  6
CONTINUOUS
 10
364.0001940779
 20
104.1326246334
 11
364.0001940779
 21
92.9326246334
  0
LINE
  5
2D7
100
AcDbEntity
  8
0
100
AcDbLine
 62
7
  6
CONTINUOUS
 10
364.9002064949
 20
644.0326246334
 11
364.9002064949
 21
634.0326246334
  0
LINE
  5
2D8
100
AcDbEntity
  8
0
100
AcDbLine
 62
7
  6
CONTINUOUS
 10
364.9002064949
 20
88.0326246334
 11
364.9002064949
 21
78.0326246334
  0
LINE
  5
2D9
100
AcDbEntity
  8
0
100
AcDbLine
 62
7
  6
CONTINUOUS
 10
365.4001940779
 20
641.5326246334
 11
365.4001940779
 21
636.5326246334
  0
LINE
  5
2DA
100
AcDbEntity
  8
0
100
AcDbLine
 62
7
  6
CONTINUOUS
 10
365.4001940779
 20
85.5326246334
 11
365.4001940779
 21
80.5326246334
  0
LINE
  5
2DB
100
AcDbEntity
  8
0
100
AcDbLine
 62
7
  6
CONTINUOUS
 10
369.8001940779
 20
630.0326246334
 11
369.8001940779
 21
617.0326246334
  0
LINE
  5
2DC
100
AcDbEntity
  8
0
100
AcDbLine
 62
7
  6
CONTINUOUS
 10
369.8001940779
 20
105.0326246334
 11
369.8001940779
 21
92.0326246334
  0
LINE
  5
2DD
100
AcDbEntity
  8
0
100
AcDbLine
 62
7
  6
CONTINUOUS
 10
152.7491032869
 20
582.2411490039
 11
153.0512848689
 21
581.9790683074
  0
LINE
  5
2DE
100
AcDbEntity
  8
0
100
AcDbLine
 62
7
  6
CONTINUOUS
 10
154.6001940779
 20
596.1326246334
 11
153.4001940779
 21
597.3326246334
  0
LINE
  5
2DF
100
AcDbEntity
  8
0
100
AcDbLine
 62
7
  6
CONTINUOUS
 10
370.7001940779
 20
629.5303558086
 11
370.7001940779
 21
617.5348934582
  0
LINE
  5
2E0
100
AcDbEntity
  8
0
100
AcDbLine
 62
7
  6
CONTINUOUS
 10
370.7001940779
 20
104.5326246334
 11
370.7001940779
 21
92.5326246334
  0
LINE
  5
2E1
100
AcDbEntity
  8
0
100
AcDbLine
 62
7
  6
CONTINUOUS
 10
371.7001940779
 20
630.5326246334
 11
371.7001940779
 21
616.5326246334
  0
LINE
  5
2E2
100
AcDbEntity
  8
0
100
AcDbLine
 62
7
  6
CONTINUOUS
 10
371.7001940779
 20
105.5326246334
 11
371.7001940779
 21
91.5326246334
  0
LINE
  5
2E3
100
AcDbEntity
  8
0
100
AcDbLine
 62
7
  6
CONTINUOUS
 10
371.7091042394
 20
92.5326246334
 11
371.7091042394
 21
104.5326246334
  0
LINE
  5
2E4
100
AcDbEntity
  8
0
100
AcDbLine
 62
7
  6
CONTINUOUS
 10
371.7091042394
 20
617.5326246334
 11
371.7091042394
 21
629.5326246334
  0
LINE
  5
2E5
100
AcDbEntity
  8
0
100
AcDbLine
 62
7
  6
CONTINUOUS
 10
374.2001940779
 20
630.5326246334
 11
374.2001940779
 21
616.5326246334
  0
LINE
  5
2E6
100
AcDbEntity
  8
0
100
AcDbLine
 62
7
  6
CONTINUOUS
 10
374.2001940779
 20
105.5326246334
 11
374.2001940779
 21
91.5326246334
  0
LINE
  5
2E7
100
AcDbEntity
  8
0
100
AcDbLine
 62
7
  6
CONTINUOUS
 10
374.6410115297
 20
628.0326246334
 11
374.6410115297
 21
619.0326246334
  0
LINE
  5
2E8
100
AcDbEntity
  8
0
100
AcDbLine
 62
7
  6
CONTINUOUS
 10
374.6410115297
 20
103.0326246334
 11
374.6410115297
 21
94.0326246334
  0
LINE
  5
2E9
100
AcDbEntity
  8
0
100
AcDbLine
 62
7
  6
CONTINUOUS
 10
378.5001940779
 20
645.5326246334
 11
378.5001940779
 21
632.5326246334
  0
LINE
  5
2EA
100
AcDbEntity
  8
0
100
AcDbLine
 62
7
  6
CONTINUOUS
 10
378.5001940779
 20
89.5326246334
 11
378.5001940779
 21
76.5326246334
  0
LINE
  5
2EB
100
AcDbEntity
  8
0
100
AcDbLine
 62
7
  6
CONTINUOUS
 10
379.5001940779
 20
661.0326246334
 11
379.5001940779
 21
61.0326246344
  0
LINE
  5
2EC
100
AcDbEntity
  8
0
100
AcDbLine
 62
7
  6
CONTINUOUS
 10
380.1001940779
 20
645.5326246334
 11
380.1001940779
 21
632.5326246334
  0
LINE
  5
2ED
100
AcDbEntity
  8
0
100
AcDbLine
 62
7
  6
CONTINUOUS
 10
380.1001940779
 20
89.5326246334
 11
380.1001940779
 21
76.5326246334
  0
LINE
  5
2EE
100
AcDbEntity
  8
0
100
AcDbLine
 62
7
  6
CONTINUOUS
 10
380.4001940779
 20
643.2826246334
 11
380.4001940779
 21
634.7826246334
  0
LINE
  5
2EF
100
AcDbEntity
  8
0
100
AcDbLine
 62
7
  6
CONTINUOUS
 10
380.4001940779
 20
87.2826246334
 11
380.4001940779
 21
78.7826246334
  0
LINE
  5
2F0
100
AcDbEntity
  8
0
100
AcDbLine
 62
7
  6
CONTINUOUS
 10
380.7001940779
 20
658.6326246334
 11
380.7001940779
 21
63.4326246334
  0
LINE
  5
2F1
100
AcDbEntity
  8
0
100
AcDbLine
 62
7
  6
CONTINUOUS
 10
381.9001940779
 20
658.6326246334
 11
381.9001940779
 21
63.4326246334
  0
LINE
  5
2F2
100
AcDbEntity
  8
0
100
AcDbLine
 62
7
  6
CONTINUOUS
 10
383.4001940779
 20
75.0326246334
 11
383.4001940779
 21
91.0326246334
  0
LINE
  5
2F3
100
AcDbEntity
  8
0
100
AcDbLine
 62
7
  6
CONTINUOUS
 10
383.4001940779
 20
631.0326246334
 11
383.4001940779
 21
647.0326246334
  0
LINE
  5
2F4
100
AcDbEntity
  8
0
100
AcDbLine
 62
7
  6
CONTINUOUS
 10
374.6410115297
 20
94.0326246334
 11
374.2001940779
 21
91.5326246334
  0
LINE
  5
2F5
100
AcDbEntity
  8
0
100
AcDbLine
 62
7
  6
CONTINUOUS
 10
374.6410115297
 20
628.0326246334
 11
374.2001940779
 21
630.5326246334
  0
LINE
  5
2F6
100
AcDbEntity
  8
0
100
AcDbLine
 62
7
  6
CONTINUOUS
 10
193.9001940779
 20
549.9828823722
 11
188.3001940779
 21
549.9828823722
  0
LINE
  5
2F7
100
AcDbEntity
  8
0
100
AcDbLine
 62
7
  6
CONTINUOUS
 10
153.4001940779
 20
574.4816815309
 11
152.7849559189
 21
574.5695726964
  0
LINE
  5
2F8
100
AcDbEntity
  8
0
100
AcDbLine
 62
7
  6
CONTINUOUS
 10
188.3001940779
 20
559.6823668946
 11
193.9001940779
 21
559.6823668946
  0
LINE
  5
2F9
100
AcDbEntity
  8
0
100
AcDbLine
 62
7
  6
CONTINUOUS
 10
154.9001940779
 20
567.0326246334
 11
139.7898974665
 21
567.0326246334
  0
LINE
  5
2FA
100
AcDbEntity
  8
0
100
AcDbLine
 62
7
  6
CONTINUOUS
 10
154.9644737015
 20
569.0326246334
 11
154.4001940779
 21
569.0326246334
  0
LINE
  5
2FB
100
AcDbEntity
  8
0
100
AcDbLine
 62
7
  6
CONTINUOUS
 10
146.3464317776
 20
573.0326246334
 11
140.4075961187
 21
573.0326246335
  0
LINE
  5
2FC
100
AcDbEntity
  8
0
100
AcDbLine
 62
7
  6
CONTINUOUS
 10
146.9140154609
 20
573.6876756591
 11
145.4456329633
 21
573.6876756591
  0
LINE
  5
2FD
100
AcDbEntity
  8
0
100
AcDbLine
 62
7
  6
CONTINUOUS
 10
152.7001955042
 20
574.7551390617
 11
152.8316280767
 21
574.7551390617
  0
LINE
  5
2FE
100
AcDbEntity
  8
0
100
AcDbLine
 62
7
  6
CONTINUOUS
 10
146.9140154609
 20
575.3775736077
 11
145.4456329633
 21
575.3775736077
  0
LINE
  5
2FF
100
AcDbEntity
  8
0
100
AcDbLine
 62
7
  6
CONTINUOUS
 10
146.3531343076
 20
576.0326246334
 11
140.4076898722
 21
576.0326246334
  0
LINE
  5
300
100
AcDbEntity
  8
0
100
AcDbLine
 62
7
  6
CONTINUOUS
 10
145.5468580106
 20
577.7469103477
 11
141.2329369224
 21
577.7469103477
  0
LINE
  5
301
100
AcDbEntity
  8
0
100
AcDbLine
 62
7
  6
CONTINUOUS
 10
154.2001940779
 20
575.8826246334
 11
154.9001940779
 21
575.7826246334
  0
LINE
  5
302
100
AcDbEntity
  8
0
100
AcDbLine
 62
7
  6
CONTINUOUS
 10
161.7001940779
 20
595.5326246334
 11
158.6577856324
 21
596.131886903
  0
LINE
  5
303
100
AcDbEntity
  8
0
100
AcDbLine
 62
7
  6
CONTINUOUS
 10
154.9001940779
 20
581.0826246334
 11
154.2001940779
 21
580.9826246334
  0
LINE
  5
304
100
AcDbEntity
  8
0
100
AcDbLine
 62
7
  6
CONTINUOUS
 10
153.4350653385
 20
582.3885493447
 11
152.8398133296
 21
582.3035133433
  0
LINE
  5
305
100
AcDbEntity
  8
0
100
AcDbLine
 62
7
  6
CONTINUOUS
 10
155.6871665576
 20
594.8783251753
 11
161.7001940779
 21
595.0357818424
  0
LINE
  5
306
100
AcDbEntity
  8
0
100
AcDbLine
 62
7
  6
CONTINUOUS
 10
139.7898974665
 20
581.7326246334
 11
146.9898974664
 21
581.7326246334
  0
LINE
  5
307
100
AcDbEntity
  8
0
100
AcDbLine
 62
7
  6
CONTINUOUS
 10
152.7020517621
 20
582.1101089337
 11
152.825905845
 21
582.1101089337
  0
LINE
  5
308
100
AcDbEntity
  8
0
100
AcDbLine
 62
7
  6
CONTINUOUS
 10
142.3823454156
 20
583.3844068381
 11
143.763102696
 21
583.3844068381
  0
LINE
  5
309
100
AcDbEntity
  8
0
100
AcDbLine
 62
7
  6
CONTINUOUS
 10
143.7723208959
 20
583.7326246334
 11
142.4007818159
 21
583.7326246334
  0
LINE
  5
30A
100
AcDbEntity
  8
0
100
AcDbLine
 62
7
  6
CONTINUOUS
 10
142.4007818159
 20
585.1044214031
 11
143.7723208959
 21
585.1044214031
  0
LINE
  5
30B
100
AcDbEntity
  8
0
100
AcDbLine
 62
7
  6
CONTINUOUS
 10
144.2382014288
 20
586.8364722107
 11
143.3325428817
 21
586.8364722107
  0
LINE
  5
30C
100
AcDbEntity
  8
0
100
AcDbLine
 62
7
  6
CONTINUOUS
 10
154.7001940779
 20
587.0326246334
 11
154.9001940779
 21
587.0326246334
  0
LINE
  5
30D
100
AcDbEntity
  8
0
100
AcDbLine
 62
7
  6
CONTINUOUS
 10
144.8576464829
 20
587.4748986645
 11
144.5714329898
 21
587.4748986645
  0
LINE
  5
30E
100
AcDbEntity
  8
0
100
AcDbLine
 62
7
  6
CONTINUOUS
 10
154.6001940779
 20
587.9326246334
 11
154.9001940779
 21
587.9326246334
  0
LINE
  5
30F
100
AcDbEntity
  8
0
100
AcDbLine
 62
7
  6
CONTINUOUS
 10
154.9001940779
 20
588.2826246334
 11
156.1001940779
 21
588.2826246334
  0
LINE
  5
310
100
AcDbEntity
  8
0
100
AcDbLine
 62
7
  6
CONTINUOUS
 10
155.1001940779
 20
590.5326246334
 11
155.2002550323
 21
590.5326246334
  0
LINE
  5
311
100
AcDbEntity
  8
0
100
AcDbLine
 62
7
  6
CONTINUOUS
 10
155.1001940779
 20
593.5326246334
 11
155.2002550323
 21
593.5326246334
  0
LINE
  5
312
100
AcDbEntity
  8
0
100
AcDbLine
 62
7
  6
CONTINUOUS
 10
154.9001940779
 20
595.7826246334
 11
156.1001940779
 21
595.7826246334
  0
LINE
  5
313
100
AcDbEntity
  8
0
100
AcDbLine
 62
7
  6
CONTINUOUS
 10
154.6001940779
 20
596.1326246334
 11
154.9001940779
 21
596.1326246334
  0
LINE
  5
314
100
AcDbEntity
  8
0
100
AcDbLine
 62
7
  6
CONTINUOUS
 10
144.5714329898
 20
596.5903506024
 11
144.8576464829
 21
596.5903506023
  0
LINE
  5
315
100
AcDbEntity
  8
0
100
AcDbLine
 62
7
  6
CONTINUOUS
 10
154.7001940779
 20
597.0326246334
 11
154.9001940779
 21
597.0326246334
  0
LINE
  5
316
100
AcDbEntity
  8
0
100
AcDbLine
 62
7
  6
CONTINUOUS
 10
144.2382014288
 20
597.2287770561
 11
143.3325428817
 21
597.2287770561
  0
LINE
  5
317
100
AcDbEntity
  8
0
100
AcDbLine
 62
7
  6
CONTINUOUS
 10
143.7723208959
 20
598.9608278637
 11
142.4007818159
 21
598.9608278637
  0
LINE
  5
318
100
AcDbEntity
  8
0
100
AcDbLine
 62
7
  6
CONTINUOUS
 10
142.4007818159
 20
600.3326246334
 11
143.7723208974
 21
600.3326246334
  0
LINE
  5
319
100
AcDbEntity
  8
0
100
AcDbLine
 62
7
  6
CONTINUOUS
 10
143.7631026958
 20
600.6808424287
 11
142.3823454156
 21
600.6808424287
  0
LINE
  5
31A
100
AcDbEntity
  8
0
100
AcDbLine
 62
7
  6
CONTINUOUS
 10
155.6871665576
 20
589.1869240916
 11
161.7001940779
 21
589.0294674245
  0
LINE
  5
31B
100
AcDbEntity
  8
0
100
AcDbLine
 62
7
  6
CONTINUOUS
 10
156.1001940779
 20
588.0359579668
 11
158.1382346579
 21
587.9000885948
  0
LINE
  5
31C
100
AcDbEntity
  8
0
100
AcDbLine
 62
7
  6
CONTINUOUS
 10
153.4001940779
 20
602.0700441985
 11
152.9877909649
 21
602.1084879005
  0
LINE
  5
31D
100
AcDbEntity
  8
0
100
AcDbLine
 62
7
  6
CONTINUOUS
 10
153.0436487398
 20
601.7326240393
 11
153.4394084253
 21
601.6760832546
  0
LINE
  5
31E
100
AcDbEntity
  8
0
100
AcDbLine
 62
7
  6
CONTINUOUS
 10
154.2001940779
 20
603.0826246334
 11
154.9001940779
 21
602.9826246334
  0
LINE
  5
31F
100
AcDbEntity
  8
0
100
AcDbLine
 62
7
  6
CONTINUOUS
 10
350.0001940779
 20
98.5326246334
 11
353.0001940779
 21
101.7826246334
  0
LINE
  5
320
100
AcDbEntity
  8
0
100
AcDbLine
 62
7
  6
CONTINUOUS
 10
362.9001944063
 20
643.5326219217
 11
364.9002006804
 21
644.0326231798
  0
LINE
  5
321
100
AcDbEntity
  8
0
100
AcDbLine
 62
7
  6
CONTINUOUS
 10
161.7001940779
 20
588.5326246335
 11
158.657785635
 21
587.9333623644
  0
LINE
  5
322
100
AcDbEntity
  8
0
100
AcDbLine
 62
7
  6
CONTINUOUS
 10
154.9001940779
 20
608.2826246334
 11
154.2001940779
 21
608.1826246334
  0
LINE
  5
323
100
AcDbEntity
  8
0
100
AcDbLine
 62
7
  6
CONTINUOUS
 10
153.4001940779
 20
609.1952050684
 11
152.9903056267
 21
609.1366495754
  0
LINE
  5
324
100
AcDbEntity
  8
0
100
AcDbLine
 62
7
  6
CONTINUOUS
 10
153.439547955
 20
609.5891859349
 11
153.0436486636
 21
609.5326252078
  0
LINE
  5
325
100
AcDbEntity
  8
0
100
AcDbLine
 62
7
  6
CONTINUOUS
 10
156.1001940779
 20
596.0292913001
 11
158.1382346579
 21
596.1651606721
  0
LINE
  5
326
100
AcDbEntity
  8
0
100
AcDbLine
 62
7
  6
CONTINUOUS
 10
152.700112269
 20
602.1285996915
 11
152.9876561821
 21
602.1285996915
  0
LINE
  5
327
100
AcDbEntity
  8
0
100
AcDbLine
 62
7
  6
CONTINUOUS
 10
139.7898974665
 20
602.3326246334
 11
146.9898974664
 21
602.3326246334
  0
LINE
  5
328
100
AcDbEntity
  8
0
100
AcDbLine
 62
7
  6
CONTINUOUS
 10
141.2329369223
 20
606.6040532048
 11
145.5468580106
 21
606.6040532048
  0
LINE
  5
329
100
AcDbEntity
  8
0
100
AcDbLine
 62
7
  6
CONTINUOUS
 10
140.4076898721
 20
608.0326246335
 11
146.334840348
 21
608.0326246334
  0
LINE
  5
32A
100
AcDbEntity
  8
0
100
AcDbLine
 62
7
  6
CONTINUOUS
 10
146.9140154609
 20
608.6876756591
 11
145.4456329633
 21
608.6876756591
  0
LINE
  5
32B
100
AcDbEntity
  8
0
100
AcDbLine
 62
7
  6
CONTINUOUS
 10
152.9903056267
 20
609.1366495753
 11
152.7001940779
 21
609.1366495753
  0
LINE
  5
32C
100
AcDbEntity
  8
0
100
AcDbLine
 62
7
  6
CONTINUOUS
 10
146.9140154609
 20
610.3775736077
 11
145.4456329633
 21
610.3775736077
  0
LINE
  5
32D
100
AcDbEntity
  8
0
100
AcDbLine
 62
7
  6
CONTINUOUS
 10
146.3464317776
 20
611.0326246334
 11
140.4075961187
 21
611.0326246334
  0
LINE
  5
32E
100
AcDbEntity
  8
0
100
AcDbLine
 62
7
  6
CONTINUOUS
 10
154.4001940779
 20
615.0326246334
 11
154.9644737015
 21
615.0326246334
  0
LINE
  5
32F
100
AcDbEntity
  8
0
100
AcDbLine
 62
7
  6
CONTINUOUS
 10
374.2001940779
 20
616.5326246334
 11
371.7001940779
 21
616.5326246334
  0
LINE
  5
330
100
AcDbEntity
  8
0
100
AcDbLine
 62
7
  6
CONTINUOUS
 10
371.7001940779
 20
617.0326246334
 11
369.8001940779
 21
617.0326246334
  0
LINE
  5
331
100
AcDbEntity
  8
0
100
AcDbLine
 62
7
  6
CONTINUOUS
 10
139.7898974665
 20
617.0326246334
 11
154.9001940779
 21
617.0326246334
  0
LINE
  5
332
100
AcDbEntity
  8
0
100
AcDbLine
 62
7
  6
CONTINUOUS
 10
371.7091042394
 20
617.5326246334
 11
370.7001940779
 21
617.5326246334
  0
LINE
  5
333
100
AcDbEntity
  8
0
100
AcDbLine
 62
7
  6
CONTINUOUS
 10
369.8001940779
 20
617.9326246334
 11
353.0001940779
 21
617.9326246334
  0
LINE
  5
334
100
AcDbEntity
  8
0
100
AcDbLine
 62
7
  6
CONTINUOUS
 10
364.0001940779
 20
618.6828823722
 11
353.0001940779
 21
618.6828823722
  0
LINE
  5
335
100
AcDbEntity
  8
0
100
AcDbLine
 62
7
  6
CONTINUOUS
 10
380.7001940779
 20
619.0326246334
 11
374.6410115297
 21
619.0326246334
  0
LINE
  5
336
100
AcDbEntity
  8
0
100
AcDbLine
 62
7
  6
CONTINUOUS
 10
370.7001940779
 20
619.2826246334
 11
355.0001940779
 21
619.2826246334
  0
LINE
  5
337
100
AcDbEntity
  8
0
100
AcDbLine
 62
7
  6
CONTINUOUS
 10
364.0001940779
 20
620.7326246334
 11
353.0001940779
 21
620.7326246334
  0
LINE
  5
338
100
AcDbEntity
  8
0
100
AcDbLine
 62
7
  6
CONTINUOUS
 10
143.5977534487
 20
640.7846764691
 11
136.0369964198
 21
641.9497743836
  0
LINE
  5
339
100
AcDbEntity
  8
0
100
AcDbLine
 62
7
  6
CONTINUOUS
 10
143.7805139059
 20
641.9706775716
 11
136.219756877
 21
643.135775486
  0
LINE
  5
33A
100
AcDbEntity
  8
0
100
AcDbLine
 62
7
  6
CONTINUOUS
 10
136.2204519965
 20
641.4131039899
 11
143.7878445837
 21
640.2026629172
  0
LINE
  5
33B
100
AcDbEntity
  8
0
100
AcDbLine
 62
7
  6
CONTINUOUS
 10
136.0369964198
 20
641.4147819625
 11
143.6118165142
 21
640.2026629172
  0
LINE
  5
33C
100
AcDbEntity
  8
0
100
AcDbLine
 62
7
  6
CONTINUOUS
 10
152.2896052927
 20
640.3176116546
 11
136.2712232834
 21
643.4312697014
  0
LINE
  5
33D
100
AcDbEntity
  8
0
100
AcDbLine
 62
7
  6
CONTINUOUS
 10
152.5185760871
 20
640.3176116546
 11
136.5001940779
 21
643.4312697014
  0
LINE
  5
33E
100
AcDbEntity
  8
0
100
AcDbLine
 62
7
  6
CONTINUOUS
 10
152.5185760871
 20
641.4955642748
 11
136.5001940779
 21
644.6092223216
  0
LINE
  5
33F
100
AcDbEntity
  8
0
100
AcDbLine
 62
7
  6
CONTINUOUS
 10
350.0001940779
 20
623.5326246334
 11
353.0001940779
 21
620.2826246334
  0
LINE
  5
340
100
AcDbEntity
  8
0
100
AcDbLine
 62
7
  6
CONTINUOUS
 10
364.0001940779
 20
623.5326246334
 11
353.0001940779
 21
623.5326246334
  0
LINE
  5
341
100
AcDbEntity
  8
0
100
AcDbLine
 62
7
  6
CONTINUOUS
 10
364.0001940779
 20
626.3326246334
 11
353.0001940779
 21
626.3326246334
  0
LINE
  5
342
100
AcDbEntity
  8
0
100
AcDbLine
 62
7
  6
CONTINUOUS
 10
370.7001940779
 20
627.7826246334
 11
355.0001940779
 21
627.7826246334
  0
LINE
  5
343
100
AcDbEntity
  8
0
100
AcDbLine
 62
7
  6
CONTINUOUS
 10
380.7001940779
 20
628.0326246334
 11
374.6410115297
 21
628.0326246334
  0
LINE
  5
344
100
AcDbEntity
  8
0
100
AcDbLine
 62
7
  6
CONTINUOUS
 10
364.0001940779
 20
628.3823668946
 11
353.0001940779
 21
628.3823668946
  0
LINE
  5
345
100
AcDbEntity
  8
0
100
AcDbLine
 62
7
  6
CONTINUOUS
 10
353.0001940779
 20
629.1326246334
 11
369.8001940779
 21
629.1326246334
  0
LINE
  5
346
100
AcDbEntity
  8
0
100
AcDbLine
 62
7
  6
CONTINUOUS
 10
371.7091042394
 20
629.5326246334
 11
370.7001940779
 21
629.5326246334
  0
LINE
  5
347
100
AcDbEntity
  8
0
100
AcDbLine
 62
7
  6
CONTINUOUS
 10
371.7001940779
 20
630.0326246334
 11
369.8001940779
 21
630.0326246334
  0
LINE
  5
348
100
AcDbEntity
  8
0
100
AcDbLine
 62
7
  6
CONTINUOUS
 10
374.2001940779
 20
630.5326246334
 11
371.7001940779
 21
630.5326246334
  0
LINE
  5
349
100
AcDbEntity
  8
0
100
AcDbLine
 62
7
  6
CONTINUOUS
 10
383.4001940779
 20
631.0326246334
 11
381.9001940779
 21
631.0326246334
  0
LINE
  5
34A
100
AcDbEntity
  8
0
100
AcDbLine
 62
7
  6
CONTINUOUS
 10
381.9001940779
 20
633.8826246334
 11
380.7001940779
 21
633.8826246334
  0
LINE
  5
34B
100
AcDbEntity
  8
0
100
AcDbLine
 62
7
  6
CONTINUOUS
 10
364.9002006804
 20
634.0326246334
 11
378.5001940779
 21
634.0326246334
  0
LINE
  5
34C
100
AcDbEntity
  8
0
100
AcDbLine
 62
7
  6
CONTINUOUS
 10
380.1001940779
 20
634.0326246334
 11
381.9001940779
 21
634.0326246334
  0
LINE
  5
34D
100
AcDbEntity
  8
0
100
AcDbLine
 62
7
  6
CONTINUOUS
 10
383.4001940779
 20
634.7826246334
 11
380.4001940779
 21
634.7826246334
  0
LINE
  5
34E
100
AcDbEntity
  8
0
100
AcDbLine
 62
7
  6
CONTINUOUS
 10
380.4001940779
 20
636.5326246334
 11
365.4001940779
 21
636.5326246334
  0
LINE
  5
34F
100
AcDbEntity
  8
0
100
AcDbLine
 62
7
  6
CONTINUOUS
 10
143.5977534487
 20
640.203140994
 11
143.7878445837
 21
640.2026629172
  0
LINE
  5
350
100
AcDbEntity
  8
0
100
AcDbLine
 62
7
  6
CONTINUOUS
 10
152.5185760871
 20
640.3176116546
 11
152.2896052927
 21
640.3176116546
  0
LINE
  5
351
100
AcDbEntity
  8
0
100
AcDbLine
 62
7
  6
CONTINUOUS
 10
136.219756877
 20
641.4147819626
 11
136.0369964199
 21
641.4147819626
  0
LINE
  5
352
100
AcDbEntity
  8
0
100
AcDbLine
 62
7
  6
CONTINUOUS
 10
380.4001940779
 20
641.5326246334
 11
365.4001940779
 21
641.5326246334
  0
LINE
  5
353
100
AcDbEntity
  8
0
100
AcDbLine
 62
7
  6
CONTINUOUS
 10
383.4001940779
 20
643.2826246334
 11
380.4001940779
 21
643.2826246334
  0
LINE
  5
354
100
AcDbEntity
  8
0
100
AcDbLine
 62
7
  6
CONTINUOUS
 10
136.5001940779
 20
643.4312697014
 11
136.2712232834
 21
643.4312697014
  0
LINE
  5
355
100
AcDbEntity
  8
0
100
AcDbLine
 62
7
  6
CONTINUOUS
 10
156.1001940779
 20
643.4588186416
 11
154.9001940136
 21
643.4588186416
  0
LINE
  5
356
100
AcDbEntity
  8
0
100
AcDbLine
 62
7
  6
CONTINUOUS
 10
364.9002006804
 20
644.0326246334
 11
378.5001940779
 21
644.0326246334
  0
LINE
  5
357
100
AcDbEntity
  8
0
100
AcDbLine
 62
7
  6
CONTINUOUS
 10
380.1001940779
 20
644.0326246334
 11
381.9001940779
 21
644.0326246334
  0
LINE
  5
358
100
AcDbEntity
  8
0
100
AcDbLine
 62
7
  6
CONTINUOUS
 10
381.9001940779
 20
644.1826246334
 11
380.7001940779
 21
644.1826246334
  0
LINE
  5
359
100
AcDbEntity
  8
0
100
AcDbLine
 62
7
  6
CONTINUOUS
 10
383.4001940779
 20
647.0326246334
 11
381.9001940779
 21
647.0326246334
  0
LINE
  5
35A
100
AcDbEntity
  8
0
100
AcDbLine
 62
7
  6
CONTINUOUS
 10
156.1001940779
 20
657.8326246334
 11
154.9001940855
 21
657.8326246334
  0
LINE
  5
35B
100
AcDbEntity
  8
0
100
AcDbLine
 62
7
  6
CONTINUOUS
 10
381.9001940779
 20
658.6326246334
 11
380.7001940779
 21
658.6326246334
  0
LINE
  5
35C
100
AcDbEntity
  8
0
100
AcDbLine
 62
7
  6
CONTINUOUS
 10
379.5001940779
 20
659.8326246334
 11
158.1001940779
 21
659.8326246334
  0
LINE
  5
35D
100
AcDbEntity
  8
0
100
AcDbLine
 62
7
  6
CONTINUOUS
 10
158.1001940779
 20
661.0326246334
 11
379.5001940779
 21
661.0326246334
  0
LINE
  5
35E
100
AcDbEntity
  8
0
100
AcDbLine
 62
7
  6
CONTINUOUS
 10
362.9001944063
 20
634.5326273451
 11
364.9002006804
 21
634.032626087
  0
ARC
  5
35F
100
AcDbEntity
  8
0
100
AcDbCircle
 62
7
  6
CONTINUOUS
 10
158.1001940779
 20
64.2326246334
 40
3.2
100
AcDbArc
 50
180.0
 51
270.0
  0
ARC
  5
360
100
AcDbEntity
  8
0
100
AcDbCircle
 62
7
  6
CONTINUOUS
 10
152.9001940779
 20
78.6064306252
 40
3.2
100
AcDbArc
 50
0.0
 51
101.0
  0
ARC
  5
361
100
AcDbEntity
  8
0
100
AcDbCircle
 62
7
  6
CONTINUOUS
 10
152.9001940779
 20
78.6064306252
 40
2.0
100
AcDbArc
 50
0.0
 51
101.0000000013
  0
ARC
  5
362
100
AcDbEntity
  8
0
100
AcDbCircle
 62
7
  6
CONTINUOUS
 10
158.1001940779
 20
64.2326246334
 40
2.0
100
AcDbArc
 50
180.0
 51
270.0
  0
ARC
  5
363
100
AcDbEntity
  8
0
100
AcDbCircle
 62
7
  6
CONTINUOUS
 10
136.2426019341
 20
78.7812236429
 40
1.35
100
AcDbArc
 50
99.0401830701
 51
281.0000000022
  0
ARC
  5
364
100
AcDbEntity
  8
0
100
AcDbCircle
 62
7
  6
CONTINUOUS
 10
136.2426019341
 20
78.7812236429
 40
0.15
100
AcDbArc
 50
98.7602605958
 51
280.9999999988
  0
ARC
  5
365
100
AcDbEntity
  8
0
100
AcDbCircle
 62
7
  6
CONTINUOUS
 10
158.271272679
 20
132.1695903564
 40
2.0
100
AcDbArc
 50
78.857110219
 51
93.8140748358
  0
ARC
  5
366
100
AcDbEntity
  8
0
100
AcDbCircle
 62
7
  6
CONTINUOUS
 10
158.271272679
 20
127.8956589104
 40
2.0
100
AcDbArc
 50
266.1859251661
 51
281.142889781
  0
ARC
  5
367
100
AcDbEntity
  8
0
100
AcDbCircle
 62
7
  6
CONTINUOUS
 10
155.7002550323
 20
132.3784965129
 40
0.5
100
AcDbArc
 50
91.5000000626
 51
180.0
  0
ARC
  5
368
100
AcDbEntity
  8
0
100
AcDbCircle
 62
7
  6
CONTINUOUS
 10
155.7002550323
 20
127.686752754
 40
0.5
100
AcDbArc
 50
180.0
 51
268.5000000058
  0
ARC
  5
369
100
AcDbEntity
  8
0
100
AcDbCircle
 62
7
  6
CONTINUOUS
 10
163.9001940779
 20
63.0326246334
 40
1.0
100
AcDbArc
 50
180.0
 51
233.1301023542
  0
ARC
  5
36A
100
AcDbEntity
  8
0
100
AcDbCircle
 62
7
  6
CONTINUOUS
 10
175.9001940779
 20
63.0326246334
 40
1.0
100
AcDbArc
 50
306.8698976458
 51
360.0
  0
ARC
  5
36B
100
AcDbEntity
  8
0
100
AcDbCircle
 62
7
  6
CONTINUOUS
 10
163.9001940778
 20
64.0326246334
 40
1.0
100
AcDbArc
 50
90.0
 51
180.0
  0
ARC
  5
36C
100
AcDbEntity
  8
0
100
AcDbCircle
 62
7
  6
CONTINUOUS
 10
175.9001940779
 20
64.0326246334
 40
1.0
100
AcDbArc
 50
0.0
 51
90.0
  0
ARC
  5
36D
100
AcDbEntity
  8
0
100
AcDbCircle
 62
7
  6
CONTINUOUS
 10
166.4189440779
 20
130.0326246334
 40
12.7408438324
100
AcDbArc
 50
156.8936731417
 51
176.6252870275
  0
ARC
  5
36E
100
AcDbEntity
  8
0
100
AcDbCircle
 62
7
  6
CONTINUOUS
 10
166.4189440779
 20
130.0326246334
 40
12.7408438324
100
AcDbArc
 50
183.3747129725
 51
203.1063268583
  0
CIRCLE
  5
36F
100
AcDbEntity
  8
0
100
AcDbCircle
 62
7
  6
CONTINUOUS
 10
191.1001940779
 20
167.2326246334
 40
7.0
  0
CIRCLE
  5
370
100
AcDbEntity
  8
0
100
AcDbCircle
 62
7
  6
CONTINUOUS
 10
191.1001940779
 20
167.2326246334
 40
6.5
  0
CIRCLE
  5
371
100
AcDbEntity
  8
0
100
AcDbCircle
 62
7
  6
CONTINUOUS
 10
191.1001940779
 20
167.2326246334
 40
6.0
  0
CIRCLE
  5
372
100
AcDbEntity
  8
0
100
AcDbCircle
 62
7
  6
CONTINUOUS
 10
191.1001940779
 20
167.2326246334
 40
5.6
  0
CIRCLE
  5
373
100
AcDbEntity
  8
0
100
AcDbCircle
 62
7
  6
CONTINUOUS
 10
191.1001940779
 20
167.2326246334
 40
4.25
  0
CIRCLE
  5
374
100
AcDbEntity
  8
0
100
AcDbCircle
 62
7
  6
CONTINUOUS
 10
191.1001940779
 20
167.2326246334
 40
4.0
  0
CIRCLE
  5
375
100
AcDbEntity
  8
0
100
AcDbCircle
 62
7
  6
CONTINUOUS
 10
191.1001940779
 20
167.2326246334
 40
3.25
  0
ARC
  5
376
100
AcDbEntity
  8
0
100
AcDbCircle
 62
7
  6
CONTINUOUS
 10
137.1046392021
 20
583.7349019413
 40
6.6677023838
100
AcDbArc
 50
356.986795619
 51
359.9804310204
  0
ARC
  5
377
100
AcDbEntity
  8
0
100
AcDbCircle
 62
7
  6
CONTINUOUS
 10
137.1611490219
 20
600.331731519
 40
6.6111700198
100
AcDbArc
 50
0.0076943482
 51
3.0269779471
  0
ARC
  5
378
100
AcDbEntity
  8
0
100
AcDbCircle
 62
7
  6
CONTINUOUS
 10
139.0535034658
 20
583.7352496479
 40
3.3472590472
100
AcDbArc
 50
353.9834945072
 51
359.9550670371
  0
ARC
  5
379
100
AcDbEntity
  8
0
100
AcDbCircle
 62
7
  6
CONTINUOUS
 10
139.0535929024
 20
600.3299028913
 40
3.3472040386
100
AcDbArc
 50
0.0465896355
 51
6.0182758508
  0
ARC
  5
37A
100
AcDbEntity
  8
0
100
AcDbCircle
 62
7
  6
CONTINUOUS
 10
158.271272679
 20
594.1695903564
 40
2.0
100
AcDbArc
 50
78.857110219
 51
93.8140748358
  0
ARC
  5
37B
100
AcDbEntity
  8
0
100
AcDbCircle
 62
7
  6
CONTINUOUS
 10
158.271272679
 20
589.8956589104
 40
2.0
100
AcDbArc
 50
266.1859251661
 51
281.142889781
  0
ARC
  5
37C
100
AcDbEntity
  8
0
100
AcDbCircle
 62
7
  6
CONTINUOUS
 10
155.7002550323
 20
594.3784965129
 40
0.5
100
AcDbArc
 50
91.5000000626
 51
180.0
  0
ARC
  5
37D
100
AcDbEntity
  8
0
100
AcDbCircle
 62
7
  6
CONTINUOUS
 10
155.7002550323
 20
589.686752754
 40
0.5
100
AcDbArc
 50
180.0
 51
268.5000000058
  0
ARC
  5
37E
100
AcDbEntity
  8
0
100
AcDbCircle
 62
7
  6
CONTINUOUS
 10
153.1001732753
 20
602.1286098803
 40
0.3999997154
100
AcDbArc
 50
179.5078376842
 51
261.8700458459
  0
ARC
  5
37F
100
AcDbEntity
  8
0
100
AcDbCircle
 62
7
  6
CONTINUOUS
 10
152.9001940779
 20
582.1101086556
 40
0.2
100
AcDbArc
 50
115.9542399868
 51
170.8294495523
  0
ARC
  5
380
100
AcDbEntity
  8
0
100
AcDbCircle
 62
7
  6
CONTINUOUS
 10
152.9001632864
 20
574.7551452235
 40
0.1999999663
100
AcDbArc
 50
179.9980441086
 51
261.8697400669
  0
ARC
  5
381
100
AcDbEntity
  8
0
100
AcDbCircle
 62
7
  6
CONTINUOUS
 10
152.9001665776
 20
582.1101037877
 40
0.1999999642
100
AcDbArc
 50
319.0650511755
 51
115.9542399868
  0
ARC
  5
382
100
AcDbEntity
  8
0
100
AcDbCircle
 62
7
  6
CONTINUOUS
 10
152.9001665776
 20
582.1101037877
 40
0.1999999642
100
AcDbArc
 50
170.8294495523
 51
180.0015704708
  0
ARC
  5
383
100
AcDbEntity
  8
0
100
AcDbCircle
 62
7
  6
CONTINUOUS
 10
158.1001940779
 20
657.8326246334
 40
3.2
100
AcDbArc
 50
90.0
 51
180.0
  0
ARC
  5
384
100
AcDbEntity
  8
0
100
AcDbCircle
 62
7
  6
CONTINUOUS
 10
152.9001940779
 20
643.4588186416
 40
3.2
100
AcDbArc
 50
259.0000000001
 51
360.0
  0
ARC
  5
385
100
AcDbEntity
  8
0
100
AcDbCircle
 62
7
  6
CONTINUOUS
 10
152.9001940779
 20
643.4588186416
 40
2.0
100
AcDbArc
 50
258.9999999987
 51
360.0
  0
ARC
  5
386
100
AcDbEntity
  8
0
100
AcDbCircle
 62
7
  6
CONTINUOUS
 10
158.1001940779
 20
657.8326246334
 40
2.0
100
AcDbArc
 50
90.0
 51
180.0
  0
ARC
  5
387
100
AcDbEntity
  8
0
100
AcDbCircle
 62
7
  6
CONTINUOUS
 10
154.3772216362
 20
609.3209314595
 40
1.3991053678
100
AcDbArc
 50
183.2947463984
 51
187.568654004
  0
ARC
  5
388
100
AcDbEntity
  8
0
100
AcDbCircle
 62
7
  6
CONTINUOUS
 10
136.2426019341
 20
643.2840256239
 40
1.35
100
AcDbArc
 50
78.9999999978
 51
261.2397393887
  0
ARC
  5
389
100
AcDbEntity
  8
0
100
AcDbCircle
 62
7
  6
CONTINUOUS
 10
153.1001732712
 20
609.1366393837
 40
0.3999997154
100
AcDbArc
 50
90.0
 51
179.9986568111
  0
ARC
  5
38A
100
AcDbEntity
  8
0
100
AcDbCircle
 62
7
  6
CONTINUOUS
 10
136.2426019341
 20
643.2840256239
 40
0.15
100
AcDbArc
 50
79.0000000012
 51
261.2397394042
  0
ARC
  5
38B
100
AcDbEntity
  8
0
100
AcDbCircle
 62
7
  6
CONTINUOUS
 10
166.4189440779
 20
592.0326246334
 40
12.7408438324
100
AcDbArc
 50
156.8936731417
 51
176.6252870275
  0
ARC
  5
38C
100
AcDbEntity
  8
0
100
AcDbCircle
 62
7
  6
CONTINUOUS
 10
166.4189440779
 20
592.0326246334
 40
12.7408438324
100
AcDbArc
 50
183.3747129725
 51
203.1063268583
  0
CIRCLE
  5
38D
100
AcDbEntity
  8
0
100
AcDbCircle
 62
7
  6
CONTINUOUS
 10
191.1001940779
 20
554.8326246334
 40
7.0
  0
CIRCLE
  5
38E
100
AcDbEntity
  8
0
100
AcDbCircle
 62
7
  6
CONTINUOUS
 10
191.1001940779
 20
554.8326246334
 40
6.5
  0
CIRCLE
  5
38F
100
AcDbEntity
  8
0
100
AcDbCircle
 62
7
  6
CONTINUOUS
 10
191.1001940779
 20
554.8326246334
 40
5.9667468245
  0
CIRCLE
  5
390
100
AcDbEntity
  8
0
100
AcDbCircle
 62
7
  6
CONTINUOUS
 10
191.1001940779
 20
554.8326246334
 40
5.75
  0
CIRCLE
  5
391
100
AcDbEntity
  8
0
100
AcDbCircle
 62
7
  6
CONTINUOUS
 10
191.1001940779
 20
554.8326246334
 40
5.6
  0
CIRCLE
  5
392
100
AcDbEntity
  8
0
100
AcDbCircle
 62
7
  6
CONTINUOUS
 10
191.1001940779
 20
554.8326246334
 40
4.0
  0
CIRCLE
  5
393
100
AcDbEntity
  8
0
100
AcDbCircle
 62
7
  6
CONTINUOUS
 10
191.1001940779
 20
554.8326246334
 40
3.25
  0
ARC
  5
394
100
AcDbEntity
  8
0
100
AcDbCircle
 62
7
  6
CONTINUOUS
 10
191.1121020916
 20
554.5766641665
 40
3.0473964853
100
AcDbArc
 50
269.1812591886
 51
271.7135237459
  0
CIRCLE
  5
395
100
AcDbEntity
  8
0
100
AcDbCircle
 62
7
  6
CONTINUOUS
 10
191.1001940779
 20
554.8326246334
 40
3.0
  0
ARC
  5
396
100
AcDbEntity
  8
0
100
AcDbCircle
 62
7
  6
CONTINUOUS
 10
191.0816880975
 20
555.1776342905
 40
2.9600337137
100
AcDbArc
 50
89.1817296697
 51
91.6819162902
  0
CIRCLE
  5
397
100
AcDbEntity
  8
0
100
AcDbCircle
 62
7
  6
CONTINUOUS
 10
191.1001940779
 20
554.8326246334
 40
2.5
  0
ARC
  5
398
100
AcDbEntity
  8
0
100
AcDbCircle
 62
7
  6
CONTINUOUS
 10
379.5001940779
 20
63.4326246334
 40
2.4
100
AcDbArc
 50
270.0
 51
360.0
  0
ARC
  5
399
100
AcDbEntity
  8
0
100
AcDbCircle
 62
7
  6
CONTINUOUS
 10
379.5001940779
 20
63.4326246334
 40
1.2
100
AcDbArc
 50
270.0
 51
360.0
  0
ARC
  5
39A
100
AcDbEntity
  8
0
100
AcDbCircle
 62
7
  6
CONTINUOUS
 10
379.3001940779
 20
89.5326246334
 40
0.8
100
AcDbArc
 50
0.0
 51
180.0
  0
ARC
  5
39B
100
AcDbEntity
  8
0
100
AcDbCircle
 62
7
  6
CONTINUOUS
 10
379.3001940779
 20
76.5326246334
 40
0.8
100
AcDbArc
 50
180.0
 51
360.0
  0
ARC
  5
39C
100
AcDbEntity
  8
0
100
AcDbCircle
 62
7
  6
CONTINUOUS
 10
379.5001940779
 20
658.6326246334
 40
2.4
100
AcDbArc
 50
0.0
 51
90.0
  0
ARC
  5
39D
100
AcDbEntity
  8
0
100
AcDbCircle
 62
7
  6
CONTINUOUS
 10
379.5001940779
 20
658.6326246334
 40
1.2
100
AcDbArc
 50
0.0
 51
90.0
  0
ARC
  5
39E
100
AcDbEntity
  8
0
100
AcDbCircle
 62
7
  6
CONTINUOUS
 10
379.3001940779
 20
645.5326246334
 40
0.8
100
AcDbArc
 50
0.0
 51
180.0
  0
ARC
  5
39F
100
AcDbEntity
  8
0
100
AcDbCircle
 62
7
  6
CONTINUOUS
 10
379.3001940779
 20
632.5326246334
 40
0.8
100
AcDbArc
 50
180.0
 51
360.0
  0
SPLINE
  5
3A0
100
AcDbEntity
  8
0
100
AcDbSpline
 62
7
  6
CONTINUOUS
 70
0
 71
3
 72
11
 73
7
 74
0
 42
0.0000001
 43
0.0000001
 44
0.0000000001
 40
0.0
 40
0.0
 40
0.0
 40
0.0
 40
0.250158794
 40
0.5000746605
 40
0.7499820889
 40
1.0
 40
1.0
 40
1.0
 40
1.0
 10
190.9948088547
 20
558.1363927435
 30
0.0
 10
190.1630176793
 20
558.1120402368
 30
0.0
 10
188.457843348
 20
557.3524735274
 30
0.0
 10
187.457746494
 20
554.7926641508
 30
0.0
 10
188.5146364264
 20
552.250418302
 30
0.0
 10
190.2369640825
 20
551.5415319991
 30
0.0
 10
191.0685571223
 20
551.5295788093
 30
0.0
  0
SPLINE
  5
3A1
100
AcDbEntity
  8
0
100
AcDbSpline
 62
7
  6
CONTINUOUS
 70
0
 71
3
 72
11
 73
7
 74
0
 42
0.0000001
 43
0.0000001
 44
0.0000000001
 40
0.0
 40
0.0
 40
0.0
 40
0.0
 40
0.2501090282
 40
0.5000267685
 40
0.7499369788
 40
1.0
 40
1.0
 40
1.0
 40
1.0
 10
191.2032258693
 20
551.5306303854
 30
0.0
 10
192.0356136732
 20
551.5554669609
 30
0.0
 10
193.7438371061
 20
552.3116127702
 30
0.0
 10
194.743296264
 20
554.8761639141
 30
0.0
 10
193.6816197194
 20
557.4199810616
 30
0.0
 10
191.956479489
 20
558.1253996422
 30
0.0
 10
191.1239604158
 20
558.1373661427
 30
0.0
  0
SPLINE
  5
3A2
100
AcDbEntity
  8
0
100
AcDbSpline
 62
7
  6
CONTINUOUS
 70
0
 71
3
 72
10
 73
6
 74
0
 42
0.0000001
 43
0.0000001
 44
0.0000000001
 40
0.0
 40
0.0
 40
0.0
 40
0.0
 40
0.3334103939
 40
0.6641623164
 40
1.0
 40
1.0
 40
1.0
 40
1.0
 10
136.219756877
 20
641.4147819625
 30
0.0
 10
136.1680679869
 20
641.6358252002
 30
0.0
 10
136.0726932119
 20
642.0806115334
 30
0.0
 10
136.1041473988
 20
642.7687232746
 30
0.0
 10
136.219493273
 20
643.2085391141
 30
0.0
 10
136.2712232834
 20
643.4312697014
 30
0.0
  0
SPLINE
  5
3A3
100
AcDbEntity
  8
0
100
AcDbSpline
 62
7
  6
CONTINUOUS
 70
0
 71
3
 72
13
 73
9
 74
0
 42
0.0000001
 43
0.0000001
 44
0.0000000001
 40
0.0
 40
0.0
 40
0.0
 40
0.0
 40
0.2207458235
 40
0.4132428878
 40
0.5431946
 40
0.6405053323
 40
0.7824484058
 40
1.0
 40
1.0
 40
1.0
 40
1.0
 10
136.5001940779
 20
643.4312697014
 30
0.0
 10
136.2678393396
 20
643.320110269
 30
0.0
 10
135.8219286215
 20
643.118203819
 30
0.0
 10
135.2866588285
 20
642.8285418943
 30
0.0
 10
134.8476345691
 20
642.4896491127
 30
0.0
 10
134.9590142007
 20
642.0047032607
 30
0.0
 10
135.4372883275
 20
641.7198207428
 30
0.0
 10
135.8012306336
 20
641.5269175278
 30
0.0
 10
136.0304803236
 20
641.4179057653
 30
0.0
  0
SPLINE
  5
3A4
100
AcDbEntity
  8
0
100
AcDbSpline
 62
7
  6
CONTINUOUS
 70
0
 71
3
 72
10
 73
6
 74
0
 42
0.0000001
 43
0.0000001
 44
0.0000000001
 40
0.0
 40
0.0
 40
0.0
 40
0.0
 40
0.3331959978
 40
0.6644099635
 40
1.0
 40
1.0
 40
1.0
 40
1.0
 10
136.2201019746
 20
641.4145800516
 30
0.0
 10
136.1684391533
 20
641.6355106375
 30
0.0
 10
136.0725141765
 20
642.080420342
 30
0.0
 10
136.1040703269
 20
642.7686892129
 30
0.0
 10
136.2195245044
 20
643.2086735846
 30
0.0
 10
136.2712232834
 20
643.4312697014
 30
0.0
  0
SPLINE
  5
3A5
100
AcDbEntity
  8
0
100
AcDbSpline
 62
7
  6
CONTINUOUS
 70
0
 71
3
 72
10
 73
6
 74
0
 42
0.0000001
 43
0.0000001
 44
0.0000000001
 40
0.0
 40
0.0
 40
0.0
 40
0.0
 40
0.3338535222
 40
0.6644778723
 40
1.0
 40
1.0
 40
1.0
 40
1.0
 10
136.2201019746
 20
80.6527785099
 30
0.0
 10
136.1682598188
 20
80.4311943782
 30
0.0
 10
136.0727807967
 20
79.9856836657
 30
0.0
 10
136.1040489857
 20
79.296784611
 30
0.0
 10
136.2194827927
 20
78.8567552773
 30
0.0
 10
136.2712232834
 20
78.6339795654
 30
0.0
  0
SPLINE
  5
3A6
100
AcDbEntity
  8
0
100
AcDbSpline
 62
7
  6
CONTINUOUS
 70
0
 71
3
 72
11
 73
7
 74
0
 42
0.0000001
 43
0.0000001
 44
0.0000000001
 40
0.0
 40
0.0
 40
0.0
 40
0.0
 40
0.1999901104
 40
0.435377736
 40
0.7092542388
 40
1.0
 40
1.0
 40
1.0
 40
1.0
 10
154.9001940779
 20
78.6064306252
 30
0.0
 10
154.9001940779
 20
78.875822958
 30
0.0
 10
154.7360378645
 20
79.4635141436
 30
0.0
 10
154.1576954661
 20
80.2352956369
 30
0.0
 10
153.3824637062
 20
80.9852433139
 30
0.0
 10
152.8085752984
 20
81.4844181048
 30
0.0
 10
152.5185760871
 20
81.7476376122
 30
0.0
  0
SPLINE
  5
3A7
100
AcDbEntity
  8
0
100
AcDbSpline
 62
7
  6
CONTINUOUS
 70
0
 71
3
 72
11
 73
7
 74
0
 42
0.0000001
 43
0.0000001
 44
0.0000000001
 40
0.0
 40
0.0
 40
0.0
 40
0.0
 40
0.2907346045
 40
0.5646089978
 40
0.8000016364
 40
1.0
 40
1.0
 40
1.0
 40
1.0
 10
152.5185760871
 20
640.3176116546
 30
0.0
 10
152.8085641311
 20
640.5808210175
 30
0.0
 10
153.3824386021
 20
641.0799844225
 30
0.0
 10
154.1576649845
 20
641.829921175
 30
0.0
 10
154.7360255562
 20
642.601706748
 30
0.0
 10
154.9001940779
 20
643.189415232
 30
0.0
 10
154.9001940779
 20
643.4588186416
 30
0.0
  0
SPLINE
  5
3A8
100
AcDbEntity
  8
0
100
AcDbSpline
 62
7
  6
CONTINUOUS
 70
0
 71
3
 72
13
 73
9
 74
0
 42
0.0000001
 43
0.0000001
 44
0.0000000001
 40
0.0
 40
0.0
 40
0.0
 40
0.0
 40
0.2368132437
 40
0.4159998593
 40
0.5435757987
 40
0.6426783177
 40
0.7960942144
 40
1.0
 40
1.0
 40
1.0
 40
1.0
 10
136.5001940779
 20
78.6340167008
 30
0.0
 10
136.2500046567
 20
78.7537083166
 30
0.0
 10
135.7984775461
 20
78.9573391167
 30
0.0
 10
135.2628850749
 20
79.2521221285
 30
0.0
 10
134.8393778267
 20
79.5898848376
 30
0.0
 10
134.9772461432
 20
80.086582855
 30
0.0
 10
135.4631447198
 20
80.3572767445
 30
0.0
 10
135.8274808718
 20
80.5495850606
 30
0.0
 10
136.0432054806
 20
80.6520120074
 30
0.0
  0
SPLINE
  5
3A9
100
AcDbEntity
  8
0
100
AcDbSpline
 62
7
  6
CONTINUOUS
 70
0
 71
3
 72
13
 73
9
 74
0
 42
0.0000001
 43
0.0000001
 44
0.0000000001
 40
0.0
 40
0.0
 40
0.0
 40
0.0
 40
0.2054078951
 40
0.3583017364
 40
0.4567448256
 40
0.5834302998
 40
0.7619585513
 40
1.0
 40
1.0
 40
1.0
 40
1.0
 10
136.0432054806
 20
641.4147945042
 30
0.0
 10
135.8258969138
 20
641.5178178558
 30
0.0
 10
135.4613278565
 20
641.7114334817
 30
0.0
 10
134.9751632761
 20
641.9832140343
 30
0.0
 10
134.8407909771
 20
642.4774731496
 30
0.0
 10
135.261221656
 20
642.8129038561
 30
0.0
 10
135.7965855761
 20
643.1076231307
 30
0.0
 10
136.2487105945
 20
643.3111072954
 30
0.0
 10
136.5001940779
 20
643.4312322258
 30
0.0
  0
LINE
  5
3AA
100
AcDbEntity
  8
0
100
AcDbLine
 62
7
  6
CONTINUOUS
 10
136.0423178886
 20
80.6505846492
 11
136.1605001123
 21
80.65068749
  0
SPLINE
  5
3AB
100
AcDbEntity
  8
0
100
AcDbSpline
 62
7
  6
CONTINUOUS
 70
0
 71
3
 72
8
 73
4
 74
0
 42
0.0000001
 43
0.0000001
 44
0.0000000001
 40
0.0
 40
0.0
 40
0.0
 40
0.0
 40
1.0
 40
1.0
 40
1.0
 40
1.0
 10
136.2206390191
 20
641.4142973941
 30
0.0
 10
136.1808090674
 20
641.4143987448
 30
0.0
 10
136.1409775561
 20
641.4149681995
 30
0.0
 10
136.1011491641
 20
641.4146014436
 30
0.0
  0
SPLINE
  5
3AC
100
AcDbEntity
  8
0
100
AcDbSpline
 62
7
  6
CONTINUOUS
 70
0
 71
3
 72
11
 73
7
 74
0
 42
0.0000001
 43
0.0000001
 44
0.0000000001
 40
0.0
 40
0.0
 40
0.0
 40
0.0
 40
0.1276112591
 40
0.345801767
 40
0.648959465
 40
1.0
 40
1.0
 40
1.0
 40
1.0
 10
381.9001940779
 20
658.6326246334
 30
0.0
 10
381.9001940779
 20
658.7497040184
 30
0.0
 10
381.6602282771
 20
659.0240569693
 30
0.0
 10
381.1330569526
 20
659.2691421015
 30
0.0
 10
380.3783738524
 20
659.5562440562
 30
0.0
 10
379.8070904185
 20
659.7349364941
 30
0.0
 10
379.5001940779
 20
659.8326246334
 30
0.0
  0
SPLINE
  5
3AD
100
AcDbEntity
  8
0
100
AcDbSpline
 62
7
  6
CONTINUOUS
 70
0
 71
3
 72
11
 73
7
 74
0
 42
0.0000001
 43
0.0000001
 44
0.0000000001
 40
0.0
 40
0.0
 40
0.0
 40
0.0
 40
0.3510315872
 40
0.6541888351
 40
0.8723843636
 40
1.0
 40
1.0
 40
1.0
 40
1.0
 10
379.5001940779
 20
62.2326246334
 30
0.0
 10
379.8070825285
 20
62.3303102612
 30
0.0
 10
380.3783574202
 20
62.5090001435
 30
0.0
 10
381.1330378245
 20
62.7960992016
 30
0.0
 10
381.6602160198
 20
63.0411837532
 30
0.0
 10
381.9001940779
 20
63.3155412582
 30
0.0
 10
381.9001940779
 20
63.4326246334
 30
0.0
  0
SPLINE
  5
3AE
100
AcDbEntity
  8
0
100
AcDbSpline
 62
7
  6
CONTINUOUS
 70
0
 71
3
 72
10
 73
6
 74
0
 42
0.0000001
 43
0.0000001
 44
0.0000000001
 40
0.0
 40
0.0
 40
0.0
 40
0.0
 40
0.2824169032
 40
0.6164373175
 40
1.0
 40
1.0
 40
1.0
 40
1.0
 10
154.9001940779
 20
616.5524930488
 30
0.0
 10
154.9001940779
 20
616.4092096703
 30
0.0
 10
154.9243484528
 20
616.096948874
 30
0.0
 10
154.9650945309
 20
615.5914313974
 30
0.0
 10
154.9767778726
 20
615.2272240233
 30
0.0
 10
154.9767778726
 20
615.0326246334
 30
0.0
  0
SPLINE
  5
3AF
100
AcDbEntity
  8
0
100
AcDbSpline
 62
7
  6
CONTINUOUS
 70
0
 71
3
 72
11
 73
7
 74
0
 42
0.0000001
 43
0.0000001
 44
0.0000000001
 40
0.0
 40
0.0
 40
0.0
 40
0.0
 40
0.3403534796
 40
0.6368549276
 40
0.8568865914
 40
1.0
 40
1.0
 40
1.0
 40
1.0
 10
158.1001940779
 20
659.8326246334
 30
0.0
 10
157.6905278177
 20
659.6696236076
 30
0.0
 10
156.9233441224
 20
659.3678982836
 30
0.0
 10
155.915144075
 20
658.8937019576
 30
0.0
 10
155.1866752455
 20
658.4559851081
 30
0.0
 10
154.9001940779
 20
658.0180177247
 30
0.0
 10
154.9001940779
 20
657.8326246334
 30
0.0
  0
SPLINE
  5
3B0
100
AcDbEntity
  8
0
100
AcDbSpline
 62
7
  6
CONTINUOUS
 70
0
 71
3
 72
11
 73
7
 74
0
 42
0.0000001
 43
0.0000001
 44
0.0000000001
 40
0.0
 40
0.0
 40
0.0
 40
0.0
 40
0.1431088399
 40
0.3631358608
 40
0.6596378952
 40
1.0
 40
1.0
 40
1.0
 40
1.0
 10
154.9001940779
 20
64.2326246334
 30
0.0
 10
154.9001940779
 20
64.0472374234
 30
0.0
 10
155.186660334
 20
63.6092783224
 30
0.0
 10
155.9151181828
 20
63.1715605133
 30
0.0
 10
156.9233222149
 20
62.6973595925
 30
0.0
 10
157.6905173541
 20
62.3956298229
 30
0.0
 10
158.1001940779
 20
62.2326246334
 30
0.0
  0
SPLINE
  5
3B1
100
AcDbEntity
  8
0
100
AcDbSpline
 62
7
  6
CONTINUOUS
 70
0
 71
3
 72
10
 73
6
 74
0
 42
0.0000001
 43
0.0000001
 44
0.0000000001
 40
0.0
 40
0.0
 40
0.0
 40
0.0
 40
0.379951179
 40
0.7242823788
 40
1.0
 40
1.0
 40
1.0
 40
1.0
 10
154.9767778726
 20
569.0326246334
 30
0.0
 10
154.9767778726
 20
568.8398557025
 30
0.0
 10
154.9655443009
 20
568.4722252544
 30
0.0
 10
154.9238029586
 20
567.9667680012
 30
0.0
 10
154.9001940779
 20
567.6526420613
 30
0.0
 10
154.9001940779
 20
567.512756218
 30
0.0
  0
SPLINE
  5
3B2
100
AcDbEntity
  8
0
100
AcDbSpline
 62
7
  6
CONTINUOUS
 70
0
 71
3
 72
15
 73
11
 74
0
 42
0.0000001
 43
0.0000001
 44
0.0000000001
 40
0.0
 40
0.0
 40
0.0
 40
0.0
 40
0.0345120301
 40
0.1174429778
 40
0.2436727841
 40
0.3977201674
 40
0.5606429774
 40
0.7203113314
 40
0.8700913152
 40
1.0
 40
1.0
 40
1.0
 40
1.0
 10
153.4001940779
 20
617.0225995076
 30
0.0
 10
153.4001940779
 20
616.996620609
 30
0.0
 10
153.4552462532
 20
616.9187749717
 30
0.0
 10
153.5501823149
 20
616.7684723145
 30
0.0
 10
153.7144307072
 20
616.5461853426
 30
0.0
 10
153.9040998615
 20
616.272987028
 30
0.0
 10
154.0977407744
 20
615.9703361188
 30
0.0
 10
154.2636788703
 20
615.6551601553
 30
0.0
 10
154.3744027375
 20
615.3415344595
 30
0.0
 10
154.4001940779
 20
615.1304132754
 30
0.0
 10
154.4001940779
 20
615.0326246334
 30
0.0
  0
SPLINE
  5
3B3
100
AcDbEntity
  8
0
100
AcDbSpline
 62
7
  6
CONTINUOUS
 70
0
 71
3
 72
21
 73
17
 74
0
 42
0.0000001
 43
0.0000001
 44
0.0000000001
 40
0.0
 40
0.0
 40
0.0
 40
0.0
 40
0.0705096015
 40
0.1304096132
 40
0.1920355216
 40
0.2613962436
 40
0.3377834625
 40
0.4179541591
 40
0.5000738267
 40
0.5815654068
 40
0.6620072023
 40
0.7385771789
 40
0.8084960734
 40
0.8704906929
 40
0.9302262375
 40
1.0
 40
1.0
 40
1.0
 40
1.0
 10
140.4215133147
 20
608.0326246334
 30
0.0
 10
140.3348625575
 20
608.031312633
 30
0.0
 10
140.1706591055
 20
608.0496851985
 30
0.0
 10
139.966148181
 20
608.1871994353
 30
0.0
 10
139.8580414108
 20
608.403269237
 30
0.0
 10
139.8114839582
 20
608.6547741349
 30
0.0
 10
139.7942979643
 20
608.9322342184
 30
0.0
 10
139.790408669
 20
609.2255547511
 30
0.0
 10
139.790078148
 20
609.5251823819
 30
0.0
 10
139.7903636078
 20
609.8251439924
 30
0.0
 10
139.7938842852
 20
610.1182495478
 30
0.0
 10
139.8100739546
 20
610.3970015361
 30
0.0
 10
139.8546049622
 20
610.6501412663
 30
0.0
 10
139.9586991371
 20
610.8688340855
 30
0.0
 10
140.1588281179
 20
611.0115419345
 30
0.0
 10
140.3218398213
 20
611.0326246334
 30
0.0
 10
140.4075961187
 20
611.0326246334
 30
0.0
  0
SPLINE
  5
3B4
100
AcDbEntity
  8
0
100
AcDbSpline
 62
7
  6
CONTINUOUS
 70
0
 71
3
 72
10
 73
6
 74
0
 42
0.0000001
 43
0.0000001
 44
0.0000000001
 40
0.0
 40
0.0
 40
0.0
 40
0.0
 40
0.3159351975
 40
0.6422333398
 40
1.0
 40
1.0
 40
1.0
 40
1.0
 10
146.7037149703
 20
608.3672151409
 30
0.0
 10
146.6694146501
 20
608.3274316258
 30
0.0
 10
146.596313345
 20
608.2493142375
 30
0.0
 10
146.4707047869
 20
608.1401240771
 30
0.0
 10
146.3816080017
 20
608.0694402444
 30
0.0
 10
146.3348864982
 20
608.0326246334
 30
0.0
  0
SPLINE
  5
3B5
100
AcDbEntity
  8
0
100
AcDbSpline
 62
7
  6
CONTINUOUS
 70
0
 71
3
 72
10
 73
6
 74
0
 42
0.0000001
 43
0.0000001
 44
0.0000000001
 40
0.0
 40
0.0
 40
0.0
 40
0.0
 40
0.3115919114
 40
0.6438089593
 40
1.0
 40
1.0
 40
1.0
 40
1.0
 10
146.9140154609
 20
608.6876756591
 30
0.0
 10
146.8976115589
 20
608.6512754417
 30
0.0
 10
146.8590562937
 20
608.5781046428
 30
0.0
 10
146.7879606151
 20
608.4713432133
 30
0.0
 10
146.7335174981
 20
608.4017818537
 30
0.0
 10
146.7037149703
 20
608.3672151409
 30
0.0
  0
SPLINE
  5
3B6
100
AcDbEntity
  8
0
100
AcDbSpline
 62
7
  6
CONTINUOUS
 70
0
 71
3
 72
10
 73
6
 74
0
 42
0.0000001
 43
0.0000001
 44
0.0000000001
 40
0.0
 40
0.0
 40
0.0
 40
0.0
 40
0.3546095162
 40
0.6870709384
 40
1.0
 40
1.0
 40
1.0
 40
1.0
 10
146.7037149389
 20
610.6969313853
 30
0.0
 10
146.7333201217
 20
610.6625948865
 30
0.0
 10
146.7882818843
 20
610.5939202228
 30
0.0
 10
146.8591210205
 20
610.4872810259
 30
0.0
 10
146.8975776285
 20
610.4140491168
 30
0.0
 10
146.9140154609
 20
610.3775736077
 30
0.0
  0
SPLINE
  5
3B7
100
AcDbEntity
  8
0
100
AcDbSpline
 62
7
  6
CONTINUOUS
 70
0
 71
3
 72
10
 73
6
 74
0
 42
0.0000001
 43
0.0000001
 44
0.0000000001
 40
0.0
 40
0.0
 40
0.0
 40
0.0
 40
0.3553541287
 40
0.6885375883
 40
1.0
 40
1.0
 40
1.0
 40
1.0
 10
146.3464317776
 20
611.0326246334
 30
0.0
 10
146.3919615694
 20
610.9964597088
 30
0.0
 10
146.4785794355
 20
610.9243209961
 30
0.0
 10
146.5982518408
 20
610.812599947
 30
0.0
 10
146.6704358728
 20
610.7355289045
 30
0.0
 10
146.7037149389
 20
610.6969313853
 30
0.0
  0
SPLINE
  5
3B8
100
AcDbEntity
  8
0
100
AcDbSpline
 62
7
  6
CONTINUOUS
 70
0
 71
3
 72
14
 73
10
 74
0
 42
0.0000001
 43
0.0000001
 44
0.0000000001
 40
0.0
 40
0.0
 40
0.0
 40
0.0
 40
0.0746352957
 40
0.1521705675
 40
0.2510022951
 40
0.3845271368
 40
0.5590084175
 40
0.7674987646
 40
1.0
 40
1.0
 40
1.0
 40
1.0
 10
141.6502216803
 20
611.0326246334
 30
0.0
 10
141.6089318226
 20
611.0326246334
 30
0.0
 10
141.5223579109
 20
611.0142383734
 30
0.0
 10
141.4178832118
 20
610.9144325188
 30
0.0
 10
141.3512737802
 20
610.7534858313
 30
0.0
 10
141.3118328124
 20
610.5312236202
 30
0.0
 10
141.2945280515
 20
610.2456777546
 30
0.0
 10
141.2901174401
 20
609.9052240385
 30
0.0
 10
141.2900629348
 20
609.6612493388
 30
0.0
 10
141.2900629348
 20
609.5326246334
 30
0.0
  0
SPLINE
  5
3B9
100
AcDbEntity
  8
0
100
AcDbSpline
 62
7
  6
CONTINUOUS
 70
0
 71
3
 72
10
 73
6
 74
0
 42
0.0000001
 43
0.0000001
 44
0.0000000001
 40
0.0
 40
0.0
 40
0.0
 40
0.0
 40
0.3219270158
 40
0.6550632007
 40
1.0
 40
1.0
 40
1.0
 40
1.0
 10
145.3229576587
 20
610.6969313823
 30
0.0
 10
145.3038861936
 20
610.7348502645
 30
0.0
 10
145.2625264614
 20
610.8107461799
 30
0.0
 10
145.1927254669
 20
610.9226712945
 30
0.0
 10
145.1414619588
 20
610.9959689152
 30
0.0
 10
145.1145424813
 20
611.0326246334
 30
0.0
  0
SPLINE
  5
3BA
100
AcDbEntity
  8
0
100
AcDbSpline
 62
7
  6
CONTINUOUS
 70
0
 71
3
 72
10
 73
6
 74
0
 42
0.0000001
 43
0.0000001
 44
0.0000000001
 40
0.0
 40
0.0
 40
0.0
 40
0.0
 40
0.3246879994
 40
0.6575456322
 40
1.0
 40
1.0
 40
1.0
 40
1.0
 10
145.4456329632
 20
610.3775736077
 30
0.0
 10
145.4362040125
 20
610.4134412957
 30
0.0
 10
145.4142740864
 20
610.4853622067
 30
0.0
 10
145.3731101955
 20
610.5919980677
 30
0.0
 10
145.3405332432
 20
610.6619866879
 30
0.0
 10
145.3229576587
 20
610.6969313823
 30
0.0
  0
SPLINE
  5
3BB
100
AcDbEntity
  8
0
100
AcDbSpline
 62
7
  6
CONTINUOUS
 70
0
 71
3
 72
11
 73
7
 74
0
 42
0.0000001
 43
0.0000001
 44
0.0000000001
 40
0.0
 40
0.0
 40
0.0
 40
0.0
 40
0.2092965769
 40
0.5000763682
 40
0.7908072006
 40
1.0
 40
1.0
 40
1.0
 40
1.0
 10
145.4456329632
 20
608.6876756591
 30
0.0
 10
145.475681913
 20
608.8019817358
 30
0.0
 10
145.4877173385
 20
609.0873035178
 30
0.0
 10
145.4900810292
 20
609.5327264467
 30
0.0
 10
145.4877179944
 20
609.9780920908
 30
0.0
 10
145.4756670136
 20
610.2633242086
 30
0.0
 10
145.4456329632
 20
610.3775736077
 30
0.0
  0
SPLINE
  5
3BC
100
AcDbEntity
  8
0
100
AcDbSpline
 62
7
  6
CONTINUOUS
 70
0
 71
3
 72
10
 73
6
 74
0
 42
0.0000001
 43
0.0000001
 44
0.0000000001
 40
0.0
 40
0.0
 40
0.0
 40
0.0
 40
0.3424554304
 40
0.6753129312
 40
1.0
 40
1.0
 40
1.0
 40
1.0
 10
145.3229576587
 20
608.3683178821
 30
0.0
 10
145.3405332976
 20
608.4032626852
 30
0.0
 10
145.3731102874
 20
608.4732514064
 30
0.0
 10
145.4142741572
 20
608.5798872763
 30
0.0
 10
145.4362040395
 20
608.6518080737
 30
0.0
 10
145.4456329632
 20
608.6876756591
 30
0.0
  0
SPLINE
  5
3BD
100
AcDbEntity
  8
0
100
AcDbSpline
 62
7
  6
CONTINUOUS
 70
0
 71
3
 72
10
 73
6
 74
0
 42
0.0000001
 43
0.0000001
 44
0.0000000001
 40
0.0
 40
0.0
 40
0.0
 40
0.0
 40
0.3449387692
 40
0.6780748212
 40
1.0
 40
1.0
 40
1.0
 40
1.0
 10
145.1145424813
 20
608.0326246334
 30
0.0
 10
145.1414621124
 20
608.0692805608
 30
0.0
 10
145.192725753
 20
608.1425783848
 30
0.0
 10
145.2625267069
 20
608.2545035241
 30
0.0
 10
145.3038863028
 20
608.3303992163
 30
0.0
 10
145.3229576587
 20
608.3683178821
 30
0.0
  0
SPLINE
  5
3BE
100
AcDbEntity
  8
0
100
AcDbSpline
 62
7
  6
CONTINUOUS
 70
0
 71
3
 72
14
 73
10
 74
0
 42
0.0000001
 43
0.0000001
 44
0.0000000001
 40
0.0
 40
0.0
 40
0.0
 40
0.0
 40
0.2324975281
 40
0.4409619806
 40
0.6154310388
 40
0.7489879196
 40
0.8478716631
 40
0.9253891847
 40
1.0
 40
1.0
 40
1.0
 40
1.0
 10
141.2900629348
 20
609.5326246334
 30
0.0
 10
141.2900629348
 20
609.4040019507
 30
0.0
 10
141.29011746
 20
609.1600435291
 30
0.0
 10
141.2945273196
 20
608.8196130459
 30
0.0
 10
141.3118286314
 20
608.5340699044
 30
0.0
 10
141.3512679093
 20
608.3117686251
 30
0.0
 10
141.4178959898
 20
608.1507829176
 30
0.0
 10
141.5223970405
 20
608.0509977271
 30
0.0
 10
141.6089453566
 20
608.0326246334
 30
0.0
 10
141.6502216803
 20
608.0326246334
 30
0.0
  0
SPLINE
  5
3BF
100
AcDbEntity
  8
0
100
AcDbSpline
 62
7
  6
CONTINUOUS
 70
0
 71
3
 72
10
 73
6
 74
0
 42
0.0000001
 43
0.0000001
 44
0.0000000001
 40
0.0
 40
0.0
 40
0.0
 40
0.0
 40
0.2140486539
 40
0.552106749
 40
1.0
 40
1.0
 40
1.0
 40
1.0
 10
142.9935761772
 20
602.3326246334
 30
0.0
 10
143.1307281226
 20
602.3326246334
 30
0.0
 10
143.4454574857
 20
602.0703347064
 30
0.0
 10
143.6580363935
 20
601.46920803
 30
0.0
 10
143.7433232798
 20
600.9671481783
 30
0.0
 10
143.7631026958
 20
600.6808424286
 30
0.0
  0
SPLINE
  5
3C0
100
AcDbEntity
  8
0
100
AcDbSpline
 62
7
  6
CONTINUOUS
 70
0
 71
3
 72
10
 73
6
 74
0
 42
0.0000001
 43
0.0000001
 44
0.0000000001
 40
0.0
 40
0.0
 40
0.0
 40
0.0
 40
0.4477727051
 40
0.7858719192
 40
1.0
 40
1.0
 40
1.0
 40
1.0
 10
142.3823454156
 20
600.6808424287
 30
0.0
 10
142.3625714028
 20
600.9670699684
 30
0.0
 10
142.2773022148
 20
601.4690823045
 30
0.0
 10
142.0647853792
 20
602.0702014968
 30
0.0
 10
141.7500211823
 20
602.3326246334
 30
0.0
 10
141.6128188971
 20
602.3326246334
 30
0.0
  0
SPLINE
  5
3C1
100
AcDbEntity
  8
0
100
AcDbSpline
 62
7
  6
CONTINUOUS
 70
0
 71
3
 72
10
 73
6
 74
0
 42
0.0000001
 43
0.0000001
 44
0.0000000001
 40
0.0
 40
0.0
 40
0.0
 40
0.0
 40
0.3440999397
 40
0.6660300608
 40
1.0
 40
1.0
 40
1.0
 40
1.0
 10
143.3325428817
 20
597.2287770561
 30
0.0
 10
143.1174966177
 20
597.3314403145
 30
0.0
 10
142.7276206833
 20
597.6179645603
 30
0.0
 10
142.4429768151
 20
598.2731176204
 30
0.0
 10
142.4007818159
 20
598.7295477883
 30
0.0
 10
142.4007818159
 20
598.9608278637
 30
0.0
  0
SPLINE
  5
3C2
100
AcDbEntity
  8
0
100
AcDbSpline
 62
7
  6
CONTINUOUS
 70
0
 71
3
 72
10
 73
6
 74
0
 42
0.0000001
 43
0.0000001
 44
0.0000000001
 40
0.0
 40
0.0
 40
0.0
 40
0.0
 40
0.3588902009
 40
0.6943720709
 40
1.0
 40
1.0
 40
1.0
 40
1.0
 10
144.5714329898
 20
596.5903506024
 30
0.0
 10
144.4268564767
 20
596.6734694585
 30
0.0
 10
144.1436187335
 20
596.8282117874
 30
0.0
 10
143.7290303919
 20
597.0381498933
 30
0.0
 10
143.4607042339
 20
597.1675927242
 30
0.0
 10
143.3325428817
 20
597.2287770561
 30
0.0
  0
SPLINE
  5
3C3
100
AcDbEntity
  8
0
100
AcDbSpline
 62
7
  6
CONTINUOUS
 70
0
 71
3
 72
10
 73
6
 74
0
 42
0.0000001
 43
0.0000001
 44
0.0000000001
 40
0.0
 40
0.0
 40
0.0
 40
0.0
 40
0.3027342703
 40
0.6378262956
 40
1.0
 40
1.0
 40
1.0
 40
1.0
 10
144.2382014288
 20
597.2287770561
 30
0.0
 10
144.3031465064
 20
597.1667673923
 30
0.0
 10
144.4391472938
 20
597.035239042
 30
0.0
 10
144.647449198
 20
596.8240271682
 30
0.0
 10
144.7871503892
 20
596.6714087844
 30
0.0
 10
144.8576464829
 20
596.5903506024
 30
0.0
  0
SPLINE
  5
3C4
100
AcDbEntity
  8
0
100
AcDbSpline
 62
7
  6
CONTINUOUS
 70
0
 71
3
 72
12
 73
8
 74
0
 42
0.0000001
 43
0.0000001
 44
0.0000000001
 40
0.0
 40
0.0
 40
0.0
 40
0.0
 40
0.2615765142
 40
0.489557299
 40
0.6852711215
 40
0.8530458186
 40
1.0
 40
1.0
 40
1.0
 40
1.0
 10
143.7723208959
 20
598.9608278637
 30
0.0
 10
143.7723208959
 20
598.8006440076
 30
0.0
 10
143.7828637753
 20
598.5006863439
 30
0.0
 10
143.8334086743
 20
598.0834268498
 30
0.0
 10
143.9217873756
 20
597.7307250401
 30
0.0
 10
144.0522071174
 20
597.4442326213
 30
0.0
 10
144.1731138379
 20
597.290922792
 30
0.0
 10
144.2382014288
 20
597.2287770561
 30
0.0
  0
SPLINE
  5
3C5
100
AcDbEntity
  8
0
100
AcDbSpline
 62
7
  6
CONTINUOUS
 70
0
 71
3
 72
12
 73
8
 74
0
 42
0.0000001
 43
0.0000001
 44
0.0000000001
 40
0.0
 40
0.0
 40
0.0
 40
0.0
 40
0.2000627056
 40
0.4000217871
 40
0.6000226953
 40
0.7999667654
 40
1.0
 40
1.0
 40
1.0
 40
1.0
 10
144.8576464829
 20
596.5903506023
 30
0.0
 10
145.3734003653
 20
596.140511914
 30
0.0
 10
146.2540110246
 20
595.0512241895
 30
0.0
 10
146.9453176668
 20
593.0784188939
 30
0.0
 10
146.945238562
 20
590.9864170938
 30
0.0
 10
146.2538590163
 20
589.0138071822
 30
0.0
 10
145.37332439
 20
587.9246710875
 30
0.0
 10
144.8576464829
 20
587.4748986645
 30
0.0
  0
SPLINE
  5
3C6
100
AcDbEntity
  8
0
100
AcDbSpline
 62
7
  6
CONTINUOUS
 70
0
 71
3
 72
12
 73
8
 74
0
 42
0.0000001
 43
0.0000001
 44
0.0000000001
 40
0.0
 40
0.0
 40
0.0
 40
0.0
 40
0.1469551822
 40
0.3147278321
 40
0.5104462738
 40
0.7384277098
 40
1.0
 40
1.0
 40
1.0
 40
1.0
 10
144.2382014288
 20
586.8364722107
 30
0.0
 10
144.1731133949
 20
586.7743260519
 30
0.0
 10
144.0522072038
 20
586.6210165891
 30
0.0
 10
143.9217865104
 20
586.3345222683
 30
0.0
 10
143.8334078071
 20
585.9818183256
 30
0.0
 10
143.7828635501
 20
585.5645581412
 30
0.0
 10
143.7723208959
 20
585.2646026718
 30
0.0
 10
143.7723208959
 20
585.1044214031
 30
0.0
  0
SPLINE
  5
3C7
100
AcDbEntity
  8
0
100
AcDbSpline
 62
7
  6
CONTINUOUS
 70
0
 71
3
 72
10
 73
6
 74
0
 42
0.0000001
 43
0.0000001
 44
0.0000000001
 40
0.0
 40
0.0
 40
0.0
 40
0.0
 40
0.3627741186
 40
0.6978552945
 40
1.0
 40
1.0
 40
1.0
 40
1.0
 10
144.8576464828
 20
587.4748986645
 30
0.0
 10
144.7870335247
 20
587.3937061086
 30
0.0
 10
144.6472081803
 20
587.2409638641
 30
0.0
 10
144.4388946334
 20
587.0297636362
 30
0.0
 10
144.303020024
 20
586.898361109
 30
0.0
 10
144.2382014288
 20
586.8364722107
 30
0.0
  0
SPLINE
  5
3C8
100
AcDbEntity
  8
0
100
AcDbSpline
 62
7
  6
CONTINUOUS
 70
0
 71
3
 72
15
 73
11
 74
0
 42
0.0000001
 43
0.0000001
 44
0.0000000001
 40
0.0
 40
0.0
 40
0.0
 40
0.0
 40
0.130421421
 40
0.2801355977
 40
0.4398071458
 40
0.6025642251
 40
0.7564801761
 40
0.88246873
 40
0.9653806089
 40
1.0
 40
1.0
 40
1.0
 40
1.0
 10
154.4001940779
 20
569.0326246334
 30
0.0
 10
154.4001940779
 20
568.9344502511
 30
0.0
 10
154.3742525983
 20
568.7229895075
 30
0.0
 10
154.2632334319
 20
568.4091200135
 30
0.0
 10
154.0972810767
 20
568.0941483686
 30
0.0
 10
153.9037213512
 20
567.7917111638
 30
0.0
 10
153.7142770173
 20
567.5188502854
 30
0.0
 10
153.550202697
 20
567.296806307
 30
0.0
 10
153.4553454711
 20
567.1465917518
 30
0.0
 10
153.4001940779
 20
567.068709415
 30
0.0
 10
153.4001940779
 20
567.0426497592
 30
0.0
  0
SPLINE
  5
3C9
100
AcDbEntity
  8
0
100
AcDbSpline
 62
7
  6
CONTINUOUS
 70
0
 71
3
 72
8
 73
4
 74
0
 42
0.0000001
 43
0.0000001
 44
0.0000000001
 40
0.0
 40
0.0
 40
0.0
 40
0.0
 40
1.0
 40
1.0
 40
1.0
 40
1.0
 10
153.4070647268
 20
574.6821686394
 30
0.0
 10
153.3603897644
 20
574.6888364911
 30
0.0
 10
153.3123704409
 20
574.6801748542
 30
0.0
 10
153.2656954786
 20
574.686842706
 30
0.0
  0
LINE
  5
3CA
100
AcDbEntity
  8
0
100
AcDbLine
 62
7
  6
CONTINUOUS
 10
153.1950406885
 20
574.6915219745
 11
152.7001940779
 21
574.7551520419
  0
SPLINE
  5
3CB
100
AcDbEntity
  8
0
100
AcDbSpline
 62
7
  6
CONTINUOUS
 70
0
 71
3
 72
10
 73
6
 74
0
 42
0.0000001
 43
0.0000001
 44
0.0000000001
 40
0.0
 40
0.0
 40
0.0
 40
0.0
 40
0.4401070795
 40
0.7108742158
 40
1.0
 40
1.0
 40
1.0
 40
1.0
 10
153.4034143036
 20
574.4859444078
 30
0.0
 10
153.3542095497
 20
574.4842227829
 30
0.0
 10
153.2660296846
 20
574.4974593653
 30
0.0
 10
153.1975620734
 20
574.5944158123
 30
0.0
 10
153.1911925555
 20
574.6594026474
 30
0.0
 10
153.1950406983
 20
574.6915174753
 30
0.0
  0
SPLINE
  5
3CC
100
AcDbEntity
  8
0
100
AcDbSpline
 62
7
  6
CONTINUOUS
 70
0
 71
3
 72
10
 73
6
 74
0
 42
0.0000001
 43
0.0000001
 44
0.0000000001
 40
0.0
 40
0.0
 40
0.0
 40
0.0
 40
0.3346180924
 40
0.6652719639
 40
1.0
 40
1.0
 40
1.0
 40
1.0
 10
152.8318336273
 20
574.7355174561
 30
0.0
 10
152.8940364776
 20
574.7208220694
 30
0.0
 10
153.0201188559
 20
574.6967122209
 30
0.0
 10
153.2118661519
 20
574.7146681824
 30
0.0
 10
153.3379691295
 20
574.6905560498
 30
0.0
 10
153.4001940779
 20
574.6758628647
 30
0.0
  0
SPLINE
  5
3CD
100
AcDbEntity
  8
0
100
AcDbSpline
 62
7
  6
CONTINUOUS
 70
0
 71
3
 72
10
 73
6
 74
0
 42
0.0000001
 43
0.0000001
 44
0.0000000001
 40
0.0
 40
0.0
 40
0.0
 40
0.0
 40
0.318189219
 40
0.6610797248
 40
1.0
 40
1.0
 40
1.0
 40
1.0
 10
153.4001940779
 20
582.1893864021
 30
0.0
 10
153.3402441649
 20
582.1808221288
 30
0.0
 10
153.2125006222
 20
582.179003554
 30
0.0
 10
153.0274016881
 20
582.2390234987
 30
0.0
 10
152.8969243694
 20
582.2114609631
 30
0.0
 10
152.8330685257
 20
582.2023386997
 30
0.0
  0
SPLINE
  5
3CE
100
AcDbEntity
  8
0
100
AcDbSpline
 62
7
  6
CONTINUOUS
 70
0
 71
3
 72
10
 73
6
 74
0
 42
0.0000001
 43
0.0000001
 44
0.0000000001
 40
0.0
 40
0.0
 40
0.0
 40
0.0
 40
0.3173160126
 40
0.5811576363
 40
1.0
 40
1.0
 40
1.0
 40
1.0
 10
153.1950406136
 20
582.1737328952
 30
0.0
 10
153.1906305495
 20
582.2089296624
 30
0.0
 10
153.1977138519
 20
582.2774039778
 30
0.0
 10
153.2724992161
 20
582.3692353028
 30
0.0
 10
153.3555005871
 20
582.3805168842
 30
0.0
 10
153.4023176297
 20
582.379881267
 30
0.0
  0
LINE
  5
3CF
100
AcDbEntity
  8
0
100
AcDbLine
 62
7
  6
CONTINUOUS
 10
153.4070659164
 20
582.1831780938
 11
153.1950406136
 21
582.1737328951
  0
LINE
  5
3D0
100
AcDbEntity
  8
0
100
AcDbLine
 62
7
  6
CONTINUOUS
 10
153.1950406885
 20
582.1737283458
 11
152.7001940779
 21
582.1100983166
  0
SPLINE
  5
3D1
100
AcDbEntity
  8
0
100
AcDbSpline
 62
7
  6
CONTINUOUS
 70
0
 71
3
 72
8
 73
4
 74
0
 42
0.0000001
 43
0.0000001
 44
0.0000000001
 40
0.0
 40
0.0
 40
0.0
 40
0.0
 40
1.0
 40
1.0
 40
1.0
 40
1.0
 10
152.8640513531
 20
574.5606186031
 30
0.0
 10
152.8347938873
 20
574.5831391233
 30
0.0
 10
152.8350217816
 20
574.6319218333
 30
0.0
 10
152.8393377538
 20
574.6685898783
 30
0.0
  0
SPLINE
  5
3D2
100
AcDbEntity
  8
0
100
AcDbSpline
 62
7
  6
CONTINUOUS
 70
0
 71
3
 72
8
 73
4
 74
0
 42
0.0000001
 43
0.0000001
 44
0.0000000001
 40
0.0
 40
0.0
 40
0.0
 40
0.0
 40
1.0
 40
1.0
 40
1.0
 40
1.0
 10
153.4067666174
 20
609.2011757533
 30
0.0
 10
153.3588876844
 20
609.1993477347
 30
0.0
 10
153.3118043626
 20
609.2190661483
 30
0.0
 10
153.2639254296
 20
609.2172381297
 30
0.0
  0
SPLINE
  5
3D3
100
AcDbEntity
  8
0
100
AcDbSpline
 62
7
  6
CONTINUOUS
 70
0
 71
3
 72
8
 73
4
 74
0
 42
0.0000001
 43
0.0000001
 44
0.0000000001
 40
0.0
 40
0.0
 40
0.0
 40
0.0
 40
1.0
 40
1.0
 40
1.0
 40
1.0
 10
153.4067666063
 20
602.0640746673
 30
0.0
 10
153.3601672786
 20
602.070731714
 30
0.0
 10
153.3122049919
 20
602.0614064784
 30
0.0
 10
153.2656056642
 20
602.0680635253
 30
0.0
  0
SPLINE
  5
3D4
100
AcDbEntity
  8
0
100
AcDbSpline
 62
7
  6
CONTINUOUS
 70
0
 71
3
 72
10
 73
6
 74
0
 42
0.0000001
 43
0.0000001
 44
0.0000000001
 40
0.0
 40
0.0
 40
0.0
 40
0.0
 40
0.3087227981
 40
0.6650515571
 40
1.0
 40
1.0
 40
1.0
 40
1.0
 10
153.3982858868
 20
601.6859805069
 30
0.0
 10
153.3531525657
 20
601.7014145614
 30
0.0
 10
153.2662984685
 20
601.7673292724
 30
0.0
 10
153.2008459269
 20
601.9121940084
 30
0.0
 10
153.1918407284
 20
602.0204000627
 30
0.0
 10
153.1950410704
 20
602.0720523523
 30
0.0
  0
SPLINE
  5
3D5
100
AcDbEntity
  8
0
100
AcDbSpline
 62
7
  6
CONTINUOUS
 70
0
 71
3
 72
9
 73
5
 74
0
 42
0.0000001
 43
0.0000001
 44
0.0000000001
 40
0.0
 40
0.0
 40
0.0
 40
0.0
 40
0.5500328821
 40
1.0
 40
1.0
 40
1.0
 40
1.0
 10
153.0436255354
 20
601.732619894
 30
0.0
 10
152.9735094297
 20
601.7425610022
 30
0.0
 10
152.9797490264
 20
601.9426581483
 30
0.0
 10
152.9806032311
 20
602.0510017617
 30
0.0
 10
152.9877909649
 20
602.1084879005
 30
0.0
  0
SPLINE
  5
3D6
100
AcDbEntity
  8
0
100
AcDbSpline
 62
7
  6
CONTINUOUS
 70
0
 71
3
 72
10
 73
6
 74
0
 42
0.0000001
 43
0.0000001
 44
0.0000000001
 40
0.0
 40
0.0
 40
0.0
 40
0.0
 40
0.2996898177
 40
0.7106433611
 40
1.0
 40
1.0
 40
1.0
 40
1.0
 10
153.0436255354
 20
609.5326293728
 30
0.0
 10
153.0131531423
 20
609.5282761738
 30
0.0
 10
152.9838016492
 20
609.4365048352
 30
0.0
 10
152.9775875562
 20
609.3440413327
 30
0.0
 10
152.9787447453
 20
609.2701940648
 30
0.0
 10
152.9804288628
 20
609.2405213957
 30
0.0
  0
LINE
  5
3D7
100
AcDbEntity
  8
0
100
AcDbLine
 62
7
  6
CONTINUOUS
 10
152.7001940779
 20
602.1285974699
 11
153.1950402907
 21
602.0720486215
  0
SPLINE
  5
3D8
100
AcDbEntity
  8
0
100
AcDbSpline
 62
7
  6
CONTINUOUS
 70
0
 71
3
 72
9
 73
5
 74
0
 42
0.0000001
 43
0.0000001
 44
0.0000000001
 40
0.0
 40
0.0
 40
0.0
 40
0.0
 40
0.5454461774
 40
1.0
 40
1.0
 40
1.0
 40
1.0
 10
153.1933846842
 20
609.2199239087
 30
0.0
 10
153.10490667
 20
609.1984871783
 30
0.0
 10
152.941853851
 20
609.1616078064
 30
0.0
 10
152.7762068641
 20
609.1407910502
 30
0.0
 10
152.7001940779
 20
609.1366488002
 30
0.0
  0
SPLINE
  5
3D9
100
AcDbEntity
  8
0
100
AcDbSpline
 62
7
  6
CONTINUOUS
 70
0
 71
3
 72
10
 73
6
 74
0
 42
0.0000001
 43
0.0000001
 44
0.0000000001
 40
0.0
 40
0.0
 40
0.0
 40
0.0
 40
0.2624767756
 40
0.5844020892
 40
1.0
 40
1.0
 40
1.0
 40
1.0
 10
153.3990737731
 20
609.5795365974
 30
0.0
 10
153.3627530563
 20
609.5672629442
 30
0.0
 10
153.2884372863
 20
609.5183651978
 30
0.0
 10
153.2109104072
 20
609.3901538409
 30
0.0
 10
153.1933955874
 20
609.2806857799
 30
0.0
 10
153.1940630986
 20
609.219985484
 30
0.0
  0
SPLINE
  5
3DA
100
AcDbEntity
  8
0
100
AcDbSpline
 62
7
  6
CONTINUOUS
 70
0
 71
3
 72
10
 73
6
 74
0
 42
0.0000001
 43
0.0000001
 44
0.0000000001
 40
0.0
 40
0.0
 40
0.0
 40
0.0
 40
0.2468567099
 40
0.5870684631
 40
1.0
 40
1.0
 40
1.0
 40
1.0
 10
156.1001940779
 20
657.8326246334
 30
0.0
 10
156.1001940779
 20
658.0721147114
 30
0.0
 10
156.3842940399
 20
658.6216560553
 30
0.0
 10
157.1476159902
 20
659.22056515
 30
0.0
 10
157.7622549514
 20
659.6174859037
 30
0.0
 10
158.1001940779
 20
659.8326246334
 30
0.0
  0
SPLINE
  5
3DB
100
AcDbEntity
  8
0
100
AcDbSpline
 62
7
  6
CONTINUOUS
 70
0
 71
3
 72
10
 73
6
 74
0
 42
0.0000001
 43
0.0000001
 44
0.0000000001
 40
0.0
 40
0.0
 40
0.0
 40
0.0
 40
0.4129231402
 40
0.7531371002
 40
1.0
 40
1.0
 40
1.0
 40
1.0
 10
158.1001940779
 20
62.2326246334
 30
0.0
 10
157.7622618921
 20
62.4477589446
 30
0.0
 10
157.1476279318
 20
62.8446766965
 30
0.0
 10
156.3843046064
 20
63.4435811566
 30
0.0
 10
156.1001940779
 20
63.9931285992
 30
0.0
 10
156.1001940779
 20
64.2326246334
 30
0.0
  0
SPLINE
  5
3DC
100
AcDbEntity
  8
0
100
AcDbSpline
 62
7
  6
CONTINUOUS
 70
0
 71
3
 72
10
 73
6
 74
0
 42
0.0000001
 43
0.0000001
 44
0.0000000001
 40
0.0
 40
0.0
 40
0.0
 40
0.0
 40
0.2468396648
 40
0.5870972566
 40
1.0
 40
1.0
 40
1.0
 40
1.0
 10
380.7001940779
 20
658.6326246334
 30
0.0
 10
380.7001940779
 20
658.7763086757
 30
0.0
 10
380.5297236137
 20
659.1060441271
 30
0.0
 10
380.0717454601
 20
659.4654078024
 30
0.0
 10
379.7029432986
 20
659.7035504707
 30
0.0
 10
379.5001940779
 20
659.8326246334
 30
0.0
  0
SPLINE
  5
3DD
100
AcDbEntity
  8
0
100
AcDbSpline
 62
7
  6
CONTINUOUS
 70
0
 71
3
 72
10
 73
6
 74
0
 42
0.0000001
 43
0.0000001
 44
0.0000000001
 40
0.0
 40
0.0
 40
0.0
 40
0.0
 40
0.4129037297
 40
0.7531610635
 40
1.0
 40
1.0
 40
1.0
 40
1.0
 10
379.5001940779
 20
62.2326246334
 30
0.0
 10
379.7029437875
 20
62.3616991074
 30
0.0
 10
380.0717462977
 20
62.5998419936
 30
0.0
 10
380.5297243536
 20
62.9592059926
 30
0.0
 10
380.7001940779
 20
63.2889410119
 30
0.0
 10
380.7001940779
 20
63.4326246334
 30
0.0
  0
SPLINE
  5
3DE
100
AcDbEntity
  8
0
100
AcDbSpline
 62
7
  6
CONTINUOUS
 70
0
 71
3
 72
11
 73
7
 74
0
 42
0.0000001
 43
0.0000001
 44
0.0000000001
 40
0.0
 40
0.0
 40
0.0
 40
0.0
 40
0.1657365192
 40
0.3946141278
 40
0.6845819248
 40
1.0
 40
1.0
 40
1.0
 40
1.0
 10
156.1001940779
 20
78.6064306252
 30
0.0
 10
156.1001940779
 20
78.8873242794
 30
0.0
 10
155.7795013478
 20
79.5367425723
 30
0.0
 10
154.8656491381
 20
80.2587974781
 30
0.0
 10
153.6567567457
 20
80.9953614045
 30
0.0
 10
152.7545758055
 20
81.4838668402
 30
0.0
 10
152.2896052927
 20
81.7476376122
 30
0.0
  0
SPLINE
  5
3DF
100
AcDbEntity
  8
0
100
AcDbSpline
 62
7
  6
CONTINUOUS
 70
0
 71
3
 72
11
 73
7
 74
0
 42
0.0000001
 43
0.0000001
 44
0.0000000001
 40
0.0
 40
0.0
 40
0.0
 40
0.0
 40
0.3154055548
 40
0.6053717445
 40
0.8342558402
 40
1.0
 40
1.0
 40
1.0
 40
1.0
 10
152.2896052927
 20
640.3176116546
 30
0.0
 10
152.7545572242
 20
640.5813718858
 30
0.0
 10
153.6567164071
 20
641.0698662469
 30
0.0
 10
154.8656001931
 20
641.8064197306
 30
0.0
 10
155.7794758427
 20
642.5284741692
 30
0.0
 10
156.1001940779
 20
643.1779121131
 30
0.0
 10
156.1001940779
 20
643.4588186416
 30
0.0
  0
SPLINE
  5
3E0
100
AcDbEntity
  8
0
100
AcDbSpline
 62
7
  6
CONTINUOUS
 70
0
 71
3
 72
12
 73
8
 74
0
 42
0.0000001
 43
0.0000001
 44
0.0000000001
 40
0.0
 40
0.0
 40
0.0
 40
0.0
 40
0.2000627057
 40
0.4000217871
 40
0.6000226953
 40
0.7999667654
 40
1.0
 40
1.0
 40
1.0
 40
1.0
 10
144.5714329898
 20
587.4748986645
 30
0.0
 10
145.0871868721
 20
587.9247373528
 30
0.0
 10
145.9677975315
 20
589.0140250774
 30
0.0
 10
146.6591041737
 20
590.9868303729
 30
0.0
 10
146.6590250689
 20
593.0788321731
 30
0.0
 10
145.9676455232
 20
595.0514420846
 30
0.0
 10
145.087110897
 20
596.1405781793
 30
0.0
 10
144.5714329898
 20
596.5903506023
 30
0.0
  0
SPLINE
  5
3E1
100
AcDbEntity
  8
0
100
AcDbSpline
 62
7
  6
CONTINUOUS
 70
0
 71
3
 72
10
 73
6
 74
0
 42
0.0000001
 43
0.0000001
 44
0.0000000001
 40
0.0
 40
0.0
 40
0.0
 40
0.0
 40
0.3056629708
 40
0.6411579173
 40
1.0
 40
1.0
 40
1.0
 40
1.0
 10
143.3325428817
 20
586.8364722107
 30
0.0
 10
143.4607189281
 20
586.8976635577
 30
0.0
 10
143.7290652354
 20
587.0271160958
 30
0.0
 10
144.1436526529
 20
587.2370560468
 30
0.0
 10
144.4268758608
 20
587.3917909526
 30
0.0
 10
144.5714329898
 20
587.4748986645
 30
0.0
  0
SPLINE
  5
3E2
100
AcDbEntity
  8
0
100
AcDbSpline
 62
7
  6
CONTINUOUS
 70
0
 71
3
 72
10
 73
6
 74
0
 42
0.0000001
 43
0.0000001
 44
0.0000000001
 40
0.0
 40
0.0
 40
0.0
 40
0.0
 40
0.3393235512
 40
0.656781517
 40
1.0
 40
1.0
 40
1.0
 40
1.0
 10
142.4007818159
 20
585.1044214031
 30
0.0
 10
142.4007818159
 20
585.3394168822
 30
0.0
 10
142.4438587663
 20
585.7967583639
 30
0.0
 10
142.7311598462
 20
586.4501750782
 30
0.0
 10
143.1180402457
 20
586.7340684808
 30
0.0
 10
143.3325428817
 20
586.8364722107
 30
0.0
  0
SPLINE
  5
3E3
100
AcDbEntity
  8
0
100
AcDbSpline
 62
7
  6
CONTINUOUS
 70
0
 71
3
 72
10
 73
6
 74
0
 42
0.0000001
 43
0.0000001
 44
0.0000000001
 40
0.0
 40
0.0
 40
0.0
 40
0.0
 40
0.4477727051
 40
0.7858719191
 40
1.0
 40
1.0
 40
1.0
 40
1.0
 10
143.7631026958
 20
583.3844068382
 30
0.0
 10
143.7433286829
 20
583.0981792986
 30
0.0
 10
143.6580594949
 20
582.5961669624
 30
0.0
 10
143.4455426593
 20
581.9950477701
 30
0.0
 10
143.1307784624
 20
581.7326246334
 30
0.0
 10
142.9935761771
 20
581.7326246334
 30
0.0
  0
SPLINE
  5
3E4
100
AcDbEntity
  8
0
100
AcDbSpline
 62
7
  6
CONTINUOUS
 70
0
 71
3
 72
14
 73
10
 74
0
 42
0.0000001
 43
0.0000001
 44
0.0000000001
 40
0.0
 40
0.0
 40
0.0
 40
0.0
 40
0.0746352957
 40
0.1521705675
 40
0.2510022951
 40
0.3845271368
 40
0.5590084175
 40
0.7674987646
 40
1.0
 40
1.0
 40
1.0
 40
1.0
 10
141.6502216803
 20
576.0326246334
 30
0.0
 10
141.6089318226
 20
576.0326246334
 30
0.0
 10
141.5223579109
 20
576.0142383735
 30
0.0
 10
141.4178832118
 20
575.9144325188
 30
0.0
 10
141.3512737802
 20
575.7534858313
 30
0.0
 10
141.3118328123
 20
575.5312236202
 30
0.0
 10
141.2945280515
 20
575.2456777547
 30
0.0
 10
141.2901174401
 20
574.9052240385
 30
0.0
 10
141.2900629348
 20
574.6612493388
 30
0.0
 10
141.2900629348
 20
574.5326246334
 30
0.0
  0
SPLINE
  5
3E5
100
AcDbEntity
  8
0
100
AcDbSpline
 62
7
  6
CONTINUOUS
 70
0
 71
3
 72
10
 73
6
 74
0
 42
0.0000001
 43
0.0000001
 44
0.0000000001
 40
0.0
 40
0.0
 40
0.0
 40
0.0
 40
0.3219270157
 40
0.6550632006
 40
1.0
 40
1.0
 40
1.0
 40
1.0
 10
145.3229576587
 20
575.6969313823
 30
0.0
 10
145.3038861936
 20
575.7348502645
 30
0.0
 10
145.2625264614
 20
575.8107461798
 30
0.0
 10
145.1927254669
 20
575.9226712945
 30
0.0
 10
145.1414619589
 20
575.9959689152
 30
0.0
 10
145.1145424813
 20
576.0326246334
 30
0.0
  0
SPLINE
  5
3E6
100
AcDbEntity
  8
0
100
AcDbSpline
 62
7
  6
CONTINUOUS
 70
0
 71
3
 72
10
 73
6
 74
0
 42
0.0000001
 43
0.0000001
 44
0.0000000001
 40
0.0
 40
0.0
 40
0.0
 40
0.0
 40
0.3246879994
 40
0.6575456322
 40
1.0
 40
1.0
 40
1.0
 40
1.0
 10
145.4456329632
 20
575.3775736077
 30
0.0
 10
145.4362040125
 20
575.4134412957
 30
0.0
 10
145.4142740864
 20
575.4853622067
 30
0.0
 10
145.3731101955
 20
575.5919980676
 30
0.0
 10
145.3405332432
 20
575.6619866879
 30
0.0
 10
145.3229576587
 20
575.6969313823
 30
0.0
  0
SPLINE
  5
3E7
100
AcDbEntity
  8
0
100
AcDbSpline
 62
7
  6
CONTINUOUS
 70
0
 71
3
 72
11
 73
7
 74
0
 42
0.0000001
 43
0.0000001
 44
0.0000000001
 40
0.0
 40
0.0
 40
0.0
 40
0.0
 40
0.2092965768
 40
0.5000763679
 40
0.7908072004
 40
1.0
 40
1.0
 40
1.0
 40
1.0
 10
145.4456329632
 20
573.6876756591
 30
0.0
 10
145.475681913
 20
573.8019817357
 30
0.0
 10
145.4877173385
 20
574.0873035176
 30
0.0
 10
145.4900810292
 20
574.5327264463
 30
0.0
 10
145.4877179944
 20
574.9780920905
 30
0.0
 10
145.4756670136
 20
575.2633242085
 30
0.0
 10
145.4456329632
 20
575.3775736077
 30
0.0
  0
SPLINE
  5
3E8
100
AcDbEntity
  8
0
100
AcDbSpline
 62
7
  6
CONTINUOUS
 70
0
 71
3
 72
10
 73
6
 74
0
 42
0.0000001
 43
0.0000001
 44
0.0000000001
 40
0.0
 40
0.0
 40
0.0
 40
0.0
 40
0.3424554304
 40
0.6753129312
 40
1.0
 40
1.0
 40
1.0
 40
1.0
 10
145.3229576587
 20
573.3683178821
 30
0.0
 10
145.3405332976
 20
573.4032626852
 30
0.0
 10
145.3731102874
 20
573.4732514064
 30
0.0
 10
145.4142741572
 20
573.5798872763
 30
0.0
 10
145.4362040395
 20
573.6518080737
 30
0.0
 10
145.4456329632
 20
573.6876756591
 30
0.0
  0
SPLINE
  5
3E9
100
AcDbEntity
  8
0
100
AcDbSpline
 62
7
  6
CONTINUOUS
 70
0
 71
3
 72
10
 73
6
 74
0
 42
0.0000001
 43
0.0000001
 44
0.0000000001
 40
0.0
 40
0.0
 40
0.0
 40
0.0
 40
0.3449387692
 40
0.6780748212
 40
1.0
 40
1.0
 40
1.0
 40
1.0
 10
145.1145424813
 20
573.0326246334
 30
0.0
 10
145.1414621124
 20
573.0692805608
 30
0.0
 10
145.192725753
 20
573.1425783848
 30
0.0
 10
145.2625267069
 20
573.2545035241
 30
0.0
 10
145.3038863028
 20
573.3303992163
 30
0.0
 10
145.3229576587
 20
573.3683178821
 30
0.0
  0
SPLINE
  5
3EA
100
AcDbEntity
  8
0
100
AcDbSpline
 62
7
  6
CONTINUOUS
 70
0
 71
3
 72
14
 73
10
 74
0
 42
0.0000001
 43
0.0000001
 44
0.0000000001
 40
0.0
 40
0.0
 40
0.0
 40
0.0
 40
0.2324975281
 40
0.4409619806
 40
0.6154310388
 40
0.7489879196
 40
0.847871663
 40
0.9253891847
 40
1.0
 40
1.0
 40
1.0
 40
1.0
 10
141.2900629348
 20
574.5326246334
 30
0.0
 10
141.2900629348
 20
574.4040019507
 30
0.0
 10
141.29011746
 20
574.1600435291
 30
0.0
 10
141.2945273196
 20
573.819613046
 30
0.0
 10
141.3118286314
 20
573.5340699045
 30
0.0
 10
141.3512679093
 20
573.3117686252
 30
0.0
 10
141.4178959898
 20
573.1507829178
 30
0.0
 10
141.5223970404
 20
573.0509977272
 30
0.0
 10
141.6089453566
 20
573.0326246334
 30
0.0
 10
141.6502216803
 20
573.0326246334
 30
0.0
  0
SPLINE
  5
3EB
100
AcDbEntity
  8
0
100
AcDbSpline
 62
7
  6
CONTINUOUS
 70
0
 71
3
 72
21
 73
17
 74
0
 42
0.0000001
 43
0.0000001
 44
0.0000000001
 40
0.0
 40
0.0
 40
0.0
 40
0.0
 40
0.0698435204
 40
0.1295329872
 40
0.1914870432
 40
0.2612599554
 40
0.3378889421
 40
0.418190892
 40
0.5003293929
 40
0.5818305923
 40
0.6622039409
 40
0.7386166924
 40
0.8081357297
 40
0.8697692143
 40
0.9296625347
 40
1.0
 40
1.0
 40
1.0
 40
1.0
 10
140.4075961187
 20
573.0326246334
 30
0.0
 10
140.3217538617
 20
573.0326246334
 30
0.0
 10
140.1586969667
 20
573.0537383709
 30
0.0
 10
139.9586606304
 20
573.1965123735
 30
0.0
 10
139.8546915695
 20
573.4149283622
 30
0.0
 10
139.8101080856
 20
573.667897853
 30
0.0
 10
139.7939054912
 20
573.9463733411
 30
0.0
 10
139.7903572312
 20
574.2401744072
 30
0.0
 10
139.7900779835
 20
574.5400003001
 30
0.0
 10
139.7904157509
 20
574.8399122465
 30
0.0
 10
139.7942817305
 20
575.1327553073
 30
0.0
 10
139.8114983399
 20
575.4106872292
 30
0.0
 10
139.858129729
 20
575.6624330105
 30
0.0
 10
139.9665856231
 20
575.8785828041
 30
0.0
 10
140.1711339668
 20
576.0156390646
 30
0.0
 10
140.3350738749
 20
576.0339334342
 30
0.0
 10
140.4215133147
 20
576.0326246334
 30
0.0
  0
SPLINE
  5
3EC
100
AcDbEntity
  8
0
100
AcDbSpline
 62
7
  6
CONTINUOUS
 70
0
 71
3
 72
10
 73
6
 74
0
 42
0.0000001
 43
0.0000001
 44
0.0000000001
 40
0.0
 40
0.0
 40
0.0
 40
0.0
 40
0.3113638854
 40
0.6447017473
 40
1.0
 40
1.0
 40
1.0
 40
1.0
 10
146.7037149389
 20
573.368313278
 30
0.0
 10
146.6704466902
 20
573.329728277
 30
0.0
 10
146.5981486023
 20
573.2527576764
 30
0.0
 10
146.4786852162
 20
573.1408172162
 30
0.0
 10
146.3919540323
 20
573.0687835712
 30
0.0
 10
146.3464317776
 20
573.0326246334
 30
0.0
  0
SPLINE
  5
3ED
100
AcDbEntity
  8
0
100
AcDbSpline
 62
7
  6
CONTINUOUS
 70
0
 71
3
 72
10
 73
6
 74
0
 42
0.0000001
 43
0.0000001
 44
0.0000000001
 40
0.0
 40
0.0
 40
0.0
 40
0.0
 40
0.3127831517
 40
0.6454903307
 40
1.0
 40
1.0
 40
1.0
 40
1.0
 10
146.9140154609
 20
573.6876756591
 30
0.0
 10
146.8975851513
 20
573.6512168433
 30
0.0
 10
146.8590421289
 20
573.5780194341
 30
0.0
 10
146.7883663214
 20
573.4712716724
 30
0.0
 10
146.7333120286
 20
573.4026404151
 30
0.0
 10
146.7037149389
 20
573.368313278
 30
0.0
  0
SPLINE
  5
3EE
100
AcDbEntity
  8
0
100
AcDbSpline
 62
7
  6
CONTINUOUS
 70
0
 71
3
 72
10
 73
6
 74
0
 42
0.0000001
 43
0.0000001
 44
0.0000000001
 40
0.0
 40
0.0
 40
0.0
 40
0.0
 40
0.3561831495
 40
0.688880668
 40
1.0
 40
1.0
 40
1.0
 40
1.0
 10
146.7037151206
 20
575.6980028333
 30
0.0
 10
146.7335186728
 20
575.6634410728
 30
0.0
 10
146.7880698282
 20
575.5938928322
 30
0.0
 10
146.8591203215
 20
575.4871018123
 30
0.0
 10
146.8976371812
 20
575.4139169695
 30
0.0
 10
146.9140154609
 20
575.3775736077
 30
0.0
  0
SPLINE
  5
3EF
100
AcDbEntity
  8
0
100
AcDbSpline
 62
7
  6
CONTINUOUS
 70
0
 71
3
 72
10
 73
6
 74
0
 42
0.0000001
 43
0.0000001
 44
0.0000000001
 40
0.0
 40
0.0
 40
0.0
 40
0.0
 40
0.353833345
 40
0.6902006081
 40
1.0
 40
1.0
 40
1.0
 40
1.0
 10
146.3348864982
 20
576.0326246334
 30
0.0
 10
146.3810964338
 20
575.9962121278
 30
0.0
 10
146.4711476397
 20
575.9250771173
 30
0.0
 10
146.5965180481
 20
575.8155854081
 30
0.0
 10
146.6700759998
 20
575.73701252
 30
0.0
 10
146.7037151206
 20
575.6980028333
 30
0.0
  0
SPLINE
  5
3F0
100
AcDbEntity
  8
0
100
AcDbSpline
 62
7
  6
CONTINUOUS
 70
0
 71
3
 72
10
 73
6
 74
0
 42
0.0000001
 43
0.0000001
 44
0.0000000001
 40
0.0
 40
0.0
 40
0.0
 40
0.0
 40
0.214048654
 40
0.5521067491
 40
1.0
 40
1.0
 40
1.0
 40
1.0
 10
141.6128188971
 20
581.7326246334
 30
0.0
 10
141.7499708425
 20
581.7326246334
 30
0.0
 10
142.0647002056
 20
581.9949145605
 30
0.0
 10
142.2772791134
 20
582.5960412368
 30
0.0
 10
142.3625659996
 20
583.0981010884
 30
0.0
 10
142.3823454156
 20
583.384406838
 30
0.0
  0
SPLINE
  5
3F1
100
AcDbEntity
  8
0
100
AcDbSpline
 62
7
  6
CONTINUOUS
 70
0
 71
3
 72
17
 73
13
 74
0
 42
0.0000001
 43
0.0000001
 44
0.0000000001
 40
0.0
 40
0.0
 40
0.0
 40
0.0
 40
0.0530283576
 40
0.1149479688
 40
0.1872728183
 40
0.2701910568
 40
0.3637153113
 40
0.4679671761
 40
0.5832752178
 40
0.7101155118
 40
0.8491297508
 40
1.0
 40
1.0
 40
1.0
 40
1.0
 10
141.2329369223
 20
577.7469103477
 30
0.0
 10
141.1980724908
 20
577.7469103477
 30
0.0
 10
141.1219081999
 20
577.7273428846
 30
0.0
 10
141.0232811074
 20
577.6502406278
 30
0.0
 10
140.934038214
 20
577.5379393128
 30
0.0
 10
140.8515375905
 20
577.3962863585
 30
0.0
 10
140.7738798691
 20
577.2286889566
 30
0.0
 10
140.6996666961
 20
577.0365698998
 30
0.0
 10
140.628143893
 20
576.8202873016
 30
0.0
 10
140.5577719599
 20
576.5796895517
 30
0.0
 10
140.4919330132
 20
576.31373297
 30
0.0
 10
140.4426261044
 20
576.1295440081
 30
0.0
 10
140.4215133147
 20
576.0326246334
 30
0.0
  0
SPLINE
  5
3F2
100
AcDbEntity
  8
0
100
AcDbSpline
 62
7
  6
CONTINUOUS
 70
0
 71
3
 72
16
 73
12
 74
0
 42
0.0000001
 43
0.0000001
 44
0.0000000001
 40
0.0
 40
0.0
 40
0.0
 40
0.0
 40
0.0933549213
 40
0.2016427547
 40
0.3198208566
 40
0.4401671486
 40
0.5598515368
 40
0.6801821289
 40
0.7983590392
 40
0.9066455409
 40
1.0
 40
1.0
 40
1.0
 40
1.0
 10
146.9140154609
 20
573.6876756591
 30
0.0
 10
146.9358134567
 20
573.7360453575
 30
0.0
 10
146.9636874755
 20
573.8486845916
 30
0.0
 10
146.9810629139
 20
574.0295511534
 30
0.0
 10
146.9872249435
 20
574.2266874895
 30
0.0
 10
146.9888259834
 20
574.430229924
 30
0.0
 10
146.9888259061
 20
574.6350422839
 30
0.0
 10
146.9872246
 20
574.8385751187
 30
0.0
 10
146.9810627138
 20
575.0357010938
 30
0.0
 10
146.9636872069
 20
575.2165659464
 30
0.0
 10
146.9358133488
 20
575.3292041488
 30
0.0
 10
146.9140154609
 20
575.3775736077
 30
0.0
  0
SPLINE
  5
3F3
100
AcDbEntity
  8
0
100
AcDbSpline
 62
7
  6
CONTINUOUS
 70
0
 71
3
 72
17
 73
13
 74
0
 42
0.0000001
 43
0.0000001
 44
0.0000000001
 40
0.0
 40
0.0
 40
0.0
 40
0.0
 40
0.1532229144
 40
0.293719231
 40
0.420763779
 40
0.5358037746
 40
0.6396424155
 40
0.732694002
 40
0.815115093
 40
0.8868812193
 40
0.9481649254
 40
1.0
 40
1.0
 40
1.0
 40
1.0
 10
146.3348864982
 20
576.0326246334
 30
0.0
 10
146.3140044479
 20
576.1303223
 30
0.0
 10
146.2553222129
 20
576.313070487
 30
0.0
 10
146.1940648205
 20
576.5805608401
 30
0.0
 10
146.1246932477
 20
576.820267643
 30
0.0
 10
146.0559396237
 20
577.0351178789
 30
0.0
 10
145.984888303
 20
577.2257981099
 30
0.0
 10
145.9110163271
 20
577.3924088459
 30
0.0
 10
145.8328771858
 20
577.5337971553
 30
0.0
 10
145.7484398019
 20
577.6467737908
 30
0.0
 10
145.6548988446
 20
577.7259508265
 30
0.0
 10
145.5806555228
 20
577.7469103477
 30
0.0
 10
145.5468580107
 20
577.7469103477
 30
0.0
  0
SPLINE
  5
3F4
100
AcDbEntity
  8
0
100
AcDbSpline
 62
7
  6
CONTINUOUS
 70
0
 71
3
 72
16
 73
12
 74
0
 42
0.0000001
 43
0.0000001
 44
0.0000000001
 40
0.0
 40
0.0
 40
0.0
 40
0.0
 40
0.0933549213
 40
0.2016427547
 40
0.3198208566
 40
0.4401671486
 40
0.5598515368
 40
0.6801821289
 40
0.7983590392
 40
0.9066455408
 40
1.0
 40
1.0
 40
1.0
 40
1.0
 10
146.9140154609
 20
608.6876756591
 30
0.0
 10
146.9358134567
 20
608.7360453575
 30
0.0
 10
146.9636874755
 20
608.8486845916
 30
0.0
 10
146.9810629139
 20
609.0295511534
 30
0.0
 10
146.9872249435
 20
609.2266874895
 30
0.0
 10
146.9888259834
 20
609.430229924
 30
0.0
 10
146.9888259061
 20
609.6350422839
 30
0.0
 10
146.9872246
 20
609.8385751187
 30
0.0
 10
146.9810627138
 20
610.0357010938
 30
0.0
 10
146.9636872069
 20
610.2165659464
 30
0.0
 10
146.9358133488
 20
610.3292041488
 30
0.0
 10
146.9140154609
 20
610.3775736077
 30
0.0
  0
SPLINE
  5
3F5
100
AcDbEntity
  8
0
100
AcDbSpline
 62
7
  6
CONTINUOUS
 70
0
 71
3
 72
16
 73
12
 74
0
 42
0.0000001
 43
0.0000001
 44
0.0000000001
 40
0.0
 40
0.0
 40
0.0
 40
0.0
 40
0.0633445598
 40
0.1379085192
 40
0.2233577928
 40
0.3215197843
 40
0.4318920092
 40
0.5546954879
 40
0.6903808826
 40
0.8397258907
 40
1.0
 40
1.0
 40
1.0
 40
1.0
 10
145.5468580107
 20
606.6040532048
 30
0.0
 10
145.5827326315
 20
606.6040532048
 30
0.0
 10
145.6614572441
 20
606.6234061484
 30
0.0
 10
145.764148369
 20
606.7008651406
 30
0.0
 10
145.8575492504
 20
606.8142301436
 30
0.0
 10
145.9440447944
 20
606.9569366423
 30
0.0
 10
146.0260065337
 20
607.1259461736
 30
0.0
 10
146.1042489635
 20
607.3197262301
 30
0.0
 10
146.1819127108
 20
607.5374033976
 30
0.0
 10
146.2500591665
 20
607.780280126
 30
0.0
 10
146.3123454631
 20
607.9446981983
 30
0.0
 10
146.3348864982
 20
608.0326246334
 30
0.0
  0
SPLINE
  5
3F6
100
AcDbEntity
  8
0
100
AcDbSpline
 62
7
  6
CONTINUOUS
 70
0
 71
3
 72
16
 73
12
 74
0
 42
0.0000001
 43
0.0000001
 44
0.0000000001
 40
0.0
 40
0.0
 40
0.0
 40
0.0
 40
0.160297986
 40
0.3083766825
 40
0.4435005639
 40
0.5660547805
 40
0.676347737
 40
0.7746055938
 40
0.860342384
 40
0.9354460447
 40
1.0
 40
1.0
 40
1.0
 40
1.0
 10
140.4215133147
 20
608.0326246334
 30
0.0
 10
140.4447116469
 20
607.9438868589
 30
0.0
 10
140.4983242533
 20
607.7756767599
 30
0.0
 10
140.5719721555
 20
607.5328278211
 30
0.0
 10
140.6511593671
 20
607.3144542531
 30
0.0
 10
140.7327042403
 20
607.1202179519
 30
0.0
 10
140.8184262307
 20
606.9510297429
 30
0.0
 10
140.9093940569
 20
606.8088314641
 30
0.0
 10
141.0077649662
 20
606.6968649486
 30
0.0
 10
141.1154276266
 20
606.6220506256
 30
0.0
 10
141.1960001659
 20
606.6040532048
 30
0.0
 10
141.2329369223
 20
606.6040532048
 30
0.0
  0
SPLINE
  5
3F7
100
AcDbEntity
  8
0
100
AcDbSpline
 62
7
  6
CONTINUOUS
 70
0
 71
3
 72
9
 73
5
 74
0
 42
0.0000001
 43
0.0000001
 44
0.0000000001
 40
0.0
 40
0.0
 40
0.0
 40
0.0
 40
0.5
 40
1.0
 40
1.0
 40
1.0
 40
1.0
 10
136.219756877
 20
80.6504673043
 30
0.0
 10
136.1870240865
 20
80.6504673043
 30
0.0
 10
136.1215662112
 20
80.6491434682
 30
0.0
 10
136.0561019254
 20
80.6487357664
 30
0.0
 10
136.0233723402
 20
80.6482776993
 30
0.0
  0
SPLINE
  5
3F8
100
AcDbEntity
  8
0
100
AcDbSpline
 62
7
  6
CONTINUOUS
 70
0
 71
3
 72
9
 73
5
 74
0
 42
0.0000001
 43
0.0000001
 44
0.0000000001
 40
0.0
 40
0.0
 40
0.0
 40
0.0
 40
0.5
 40
1.0
 40
1.0
 40
1.0
 40
1.0
 10
136.219756877
 20
78.9294737807
 30
0.0
 10
136.1893013237
 20
79.1271112802
 30
0.0
 10
136.1201092723
 20
79.5210589111
 30
0.0
 10
136.0567385662
 20
79.9159475866
 30
0.0
 10
136.0233723402
 20
80.1131145638
 30
0.0
  0
ENDSEC
  0
SECTION
  2
OBJECTS
  0
DICTIONARY
  5
C
100
AcDbDictionary
280
0
281
1
  3
ACAD_GROUP
350
D
  3
ACAD_MLINESTYLE
350
17
  3
ACAD_LAYOUT
350
1A
  3
ACAD_PLOTSETTINGS
350
19
  3
ACAD_PLOTSTYLENAME
350
E
  0
DICTIONARY
  5
D
102
{ACAD_REACTORS
330
C
102
}
100
AcDbDictionary
280
0
281
1
  0
ACDBDICTIONARYWDFLT
  5
E
102
{ACAD_REACTORS
330
C
102
}
100
AcDbDictionary
281
1
  3
Normal
350
F
100
AcDbDictionaryWithDefault
340
F
  0
DICTIONARY
  5
17
102
{ACAD_REACTORS
330
C
102
}
100
AcDbDictionary
280
0
281
1
  3
Standard
350
18
  0
DICTIONARY
  5
19
102
{ACAD_REACTORS
330
C
102
}
100
AcDbDictionary
281
1
  0
DICTIONARY
  5
1A
102
{ACAD_REACTORS
330
C
102
}
100
AcDbDictionary
281
1
  3
Model
350
3F9
  3
Layout1
350
3FA
  0
ACDBPLACEHOLDER
  5
F
102
{ACAD_REACTORS
330
E
102
}
  0
MLINESTYLE
  5
18
102
{ACAD_REACTORS
330
17
102
}
100
AcDbMlineStyle
  2
STANDARD
 70
0
  3

 62
256
 51
90.0
 52
90.0
 71
2
 49
0.5
 62
256
  6
BYLAYER
 49
-0.5
 62
256
  6
BYLAYER
  0
LAYOUT
  5
3F9
102
{ACAD_REACTORS
330
1A
102
}
100
AcDbPlotSettings
  1

  2
none_device
  4

  6

 40
0.0
 41
0.0
 42
0.0
 43
0.0
 44
210.0
 45
297.0
 46
0.0
 47
0.0
 48
0.0
 49
0.0
140
0.0
141
0.0
142
1.0
143
1.0
 70
1024
 72
1
 73
0
 74
0
  7

 75
0
147
1.0
148
0.0
149
0.0
100
AcDbLayout
  1
Model
 70
0
 71
0
 10
0.0
 20
0.0
 11
210.0
 21
297.0
 12
0.0
 22
0.0
 32
0.0
 14
0.0
 24
0.0
 34
0.0
 15
0.0
 25
0.0
 35
0.0
146
0.0
 13
0.0
 23
0.0
 33
0.0
 16
1.0
 26
0.0
 36
0.0
 17
0.0
 27
1.0
 37
0.0
 76
0
330
210
345
0
346
0
  0
LAYOUT
  5
3FA
102
{ACAD_REACTORS
330
1A
102
}
100
AcDbPlotSettings
  1

  2
none_device
  4

  6

 40
0.0
 41
0.0
 42
0.0
 43
0.0
 44
210.0
 45
297.0
 46
0.0
 47
0.0
 48
0.0
 49
0.0
140
0.0
141
0.0
142
1.0
143
1.0
 70
0
 72
1
 73
0
 74
0
  7

 75
0
147
1.0
148
0.0
149
0.0
100
AcDbLayout
  1
Layout1
 70
0
 71
1
 10
0.0
 20
0.0
 11
210.0
 21
297.0
 12
0.0
 22
0.0
 32
0.0
 14
0.0
 24
0.0
 34
0.0
 15
0.0
 25
0.0
 35
0.0
146
0.0
 13
0.0
 23
0.0
 33
0.0
 16
1.0
 26
0.0
 36
0.0
 17
0.0
 27
1.0
 37
0.0
 76
0
330
211
345
0
346
0
  0
ENDSEC
  0
EOF
