999
DXF file: C:\Users\sesa63760\Dev\_Creo\CAD\MCADID0005491_3D-CAD\drw0001_3.dxf
999
Pro/ENGINEER 2019471 by Parametric Technology Corporation
  0
SECTION
  2
HEADER
  9
$ACADVER
  1
AC1024
  9
$DWGCODEPAGE
  3
ANSI_1252
  9
$EXTMAX
 10
37.9218884689
 20
53.6323851204
 30
0.0
  9
$EXTMIN
 10
0.0
 20
0.0
 30
0.0
  9
$LIMMIN
 10
0.0
 20
0.0
  9
$LIMMAX
 10
37.9218884689
 20
53.6323851204
  9
$VIEWCTR
 10
18.9609442345
 20
26.8161925602
  9
$VIEWSIZE
 40
53.6323851204
  9
$CLAYER
  8
0
  9
$LTSCALE
 40
3.496036956
  9
$CELTYPE
  6
BYLAYER
  9
$DIMSCALE
 40
1.0
  9
$DIMASZ
 40
0.4514510532
  9
$DIMEXO
 40
1.0
  9
$DIMDLI
 40
2.415443715
  9
$DIMEXE
 40
1.0
  9
$DIMCEN
 40
0.5720787746
  9
$DIMLFAC
 40
1.0
  9
$DIMBLK
  1
_FILLED
  9
$DIMALT
 70
0
  9
$DIMALTF
 40
0.0393700787
  9
$DIMTXT
 40
0.6320314745
  9
$DIMTOL
 70
1
  9
$DIMLIM
 70
0
  9
$DIMTFAC
 40
1.0
  9
$DIMTP
 40
0.01
  9
$DIMTM
 40
0.01
  9
$DIMGAP
 40
0.625
  9
$DIMDSEP
 70
46
  9
$AUNITS
 70
0
  9
$PDMODE
 70
3
  9
$PDSIZE
 40
0.3125
  9
$HANDSEED
  5
2BA
  9
$TILEMODE
 70
1
  9
$MEASUREMENT
 70
1
  9
$INSUNITS
 70
4
  0
ENDSEC
  0
SECTION
  2
CLASSES
  0
CLASS
  1
ACDBDICTIONARYWDFLT
  2
AcDbDictionaryWithDefault
  3
AutoCAD 2000
 90
0
 91
1
280
0
281
0
  0
CLASS
  1
ACDBPLACEHOLDER
  2
AcDbPlaceHolder
  3
AutoCAD 2000
 90
0
 91
1
280
0
281
0
  0
CLASS
  1
LAYOUT
  2
AcDbLayout
  3
AutoCAD 2000
 90
0
 91
0
280
0
281
0
  0
ENDSEC
  0
SECTION
  2
TABLES
  0
TABLE
  2
VPORT
  5
8
100
AcDbSymbolTable
 70
2
  0
VPORT
  5
1F4
100
AcDbSymbolTableRecord
100
AcDbViewportTableRecord
  2
*ACTIVE
 70
0
 10
0.0
 20
0.0
 11
1.0
 21
1.0
 12
18.9609442345
 22
26.8161925602
 13
0.0
 23
0.0
 14
1.0
 24
1.0
 15
0.0
 25
0.0
 16
0.0
 26
0.0
 36
1.0
 17
0.0
 27
0.0
 37
0.0
 40
53.6323851204
 41
0.7070707071
 42
50.0
 43
0.0
 44
0.0
 50
0.0
 51
0.0
 71
0
 72
100
 73
1
 74
1
 75
0
 76
0
 77
0
 78
0
  0
ENDTAB
  0
TABLE
  2
LTYPE
  5
5
100
AcDbSymbolTable
 70
6
  0
LTYPE
  5
14
100
AcDbSymbolTableRecord
100
AcDbLinetypeTableRecord
  2
BYBLOCK
 70
0
  3

 72
65
 73
0
 40
0.0
  0
LTYPE
  5
15
100
AcDbSymbolTableRecord
100
AcDbLinetypeTableRecord
  2
BYLAYER
 70
0
  3

 72
65
 73
0
 40
0.0
  0
LTYPE
  5
16
100
AcDbSymbolTableRecord
100
AcDbLinetypeTableRecord
  2
CONTINUOUS
 70
64
  3
Solid line
 72
65
 73
0
 40
0.0
  0
LTYPE
  5
1F5
100
AcDbSymbolTableRecord
100
AcDbLinetypeTableRecord
  2
CENTER
 70
64
  3
____ _ ____ _ ____ _ ____ _ ____ _ ____ _ ____
 72
65
 73
4
 40
0.6
 49
0.375
 74
0
 49
-0.075
 74
0
 49
0.075
 74
0
 49
-0.075
 74
0
  0
LTYPE
  5
1F6
100
AcDbSymbolTableRecord
100
AcDbLinetypeTableRecord
  2
HIDDEN
 70
64
  3
- - - - - - - - - - - - - - - - - - - -
 72
65
 73
2
 40
0.2
 49
0.1
 74
0
 49
-0.1
 74
0
  0
LTYPE
  5
1F7
100
AcDbSymbolTableRecord
100
AcDbLinetypeTableRecord
  2
PHANTOM
 70
64
  3
_____ _ _ _____ _ _ _____ _ _ _____
 72
65
 73
6
 40
0.8
 49
0.45
 74
0
 49
-0.05
 74
0
 49
0.1
 74
0
 49
-0.05
 74
0
 49
0.1
 74
0
 49
-0.05
 74
0
  0
LTYPE
  5
1F8
100
AcDbSymbolTableRecord
100
AcDbLinetypeTableRecord
  2
DOT
 70
64
  3
. . . . . . . . . . . . . . . . . . . .
 72
65
 73
2
 40
0.2
 49
0.1
 74
0
 49
-0.1
 74
0
  0
LTYPE
  5
1F9
100
AcDbSymbolTableRecord
100
AcDbLinetypeTableRecord
  2
DASHED
 70
64
  3
- - - - - - - - - - - - - - - - - - - -
 72
65
 73
2
 40
0.2
 49
0.1
 74
0
 49
-0.1
 74
0
  0
ENDTAB
  0
TABLE
  2
LAYER
  5
2
100
AcDbSymbolTable
 70
36
  0
LAYER
  5
10
100
AcDbSymbolTableRecord
100
AcDbLayerTableRecord
  2
0
 70
0
 62
7
  6
CONTINUOUS
370
-3
390
F
  0
LAYER
  5
1FA
100
AcDbSymbolTableRecord
100
AcDbLayerTableRecord
  2
DEFAULT_1
 70
0
 62
7
  6
CENTER
370
-3
390
F
  0
LAYER
  5
1FB
100
AcDbSymbolTableRecord
100
AcDbLayerTableRecord
  2
DEFAULT_2
 70
0
 62
7
  6
HIDDEN
370
-3
390
F
  0
LAYER
  5
1FC
100
AcDbSymbolTableRecord
100
AcDbLayerTableRecord
  2
DEFAULT_3
 70
0
 62
7
  6
PHANTOM
370
-3
390
F
  0
LAYER
  5
1FD
100
AcDbSymbolTableRecord
100
AcDbLayerTableRecord
  2
00_COMPONENTS
 70
0
 62
7
  6
CONTINUOUS
370
-3
390
F
  0
LAYER
  5
1FE
100
AcDbSymbolTableRecord
100
AcDbLayerTableRecord
  2
00_COMPONENTS_1
 70
0
 62
7
  6
CONTINUOUS
370
-3
390
F
  0
LAYER
  5
1FF
100
AcDbSymbolTableRecord
100
AcDbLayerTableRecord
  2
01_1_DEFAULT_DATUMS
 70
0
 62
7
  6
CONTINUOUS
370
-3
390
F
  0
LAYER
  5
200
100
AcDbSymbolTableRecord
100
AcDbLayerTableRecord
  2
01_PLANES
 70
0
 62
7
  6
CONTINUOUS
370
-3
390
F
  0
LAYER
  5
201
100
AcDbSymbolTableRecord
100
AcDbLayerTableRecord
  2
02_COORD_SYS
 70
0
 62
7
  6
CONTINUOUS
370
-3
390
F
  0
LAYER
  5
202
100
AcDbSymbolTableRecord
100
AcDbLayerTableRecord
  2
03_AXES
 70
0
 62
7
  6
CONTINUOUS
370
-3
390
F
  0
LAYER
  5
203
100
AcDbSymbolTableRecord
100
AcDbLayerTableRecord
  2
03_AXES_1
 70
0
 62
7
  6
CONTINUOUS
370
-3
390
F
  0
LAYER
  5
204
100
AcDbSymbolTableRecord
100
AcDbLayerTableRecord
  2
04_POINTS
 70
0
 62
7
  6
CONTINUOUS
370
-3
390
F
  0
LAYER
  5
205
100
AcDbSymbolTableRecord
100
AcDbLayerTableRecord
  2
05_CURVES
 70
0
 62
7
  6
CONTINUOUS
370
-3
390
F
  0
LAYER
  5
206
100
AcDbSymbolTableRecord
100
AcDbLayerTableRecord
  2
06_SURFS
 70
0
 62
7
  6
CONTINUOUS
370
-3
390
F
  0
LAYER
  5
207
100
AcDbSymbolTableRecord
100
AcDbLayerTableRecord
  2
07_COSMETICS
 70
0
 62
7
  6
CONTINUOUS
370
-3
390
F
  0
LAYER
  5
208
100
AcDbSymbolTableRecord
100
AcDbLayerTableRecord
  2
10_NOTES
 70
0
 62
7
  6
CONTINUOUS
370
-3
390
F
  0
LAYER
  5
209
100
AcDbSymbolTableRecord
100
AcDbLayerTableRecord
  2
11_NOTES_PUB
 70
0
 62
7
  6
CONTINUOUS
370
-3
390
F
  0
LAYER
  5
20A
100
AcDbSymbolTableRecord
100
AcDbLayerTableRecord
  2
13_REF_GTOL
 70
0
 62
7
  6
CONTINUOUS
370
-3
390
F
  0
LAYER
  5
20B
100
AcDbSymbolTableRecord
100
AcDbLayerTableRecord
  2
16_MISC
 70
0
 62
7
  6
CONTINUOUS
370
-3
390
F
  0
LAYER
  5
20C
100
AcDbSymbolTableRecord
100
AcDbLayerTableRecord
  2
17_NO_PRINT
 70
0
 62
7
  6
CONTINUOUS
370
-3
390
F
  0
LAYER
  5
20D
100
AcDbSymbolTableRecord
100
AcDbLayerTableRecord
  2
18_DATUM_CAMS_JOINTS
 70
0
 62
7
  6
CONTINUOUS
370
-3
390
F
  0
LAYER
  5
20E
100
AcDbSymbolTableRecord
100
AcDbLayerTableRecord
  2
19_DATUM_FUNCTIONAL
 70
0
 62
7
  6
CONTINUOUS
370
-3
390
F
  0
LAYER
  5
20F
100
AcDbSymbolTableRecord
100
AcDbLayerTableRecord
  2
20_DATUM_KINEMATIC_SCHEME
 70
0
 62
7
  6
CONTINUOUS
370
-3
390
F
  0
LAYER
  5
210
100
AcDbSymbolTableRecord
100
AcDbLayerTableRecord
  2
AXE
 70
0
 62
7
  6
CONTINUOUS
370
-3
390
F
  0
LAYER
  5
211
100
AcDbSymbolTableRecord
100
AcDbLayerTableRecord
  2
AXE_1
 70
0
 62
7
  6
CONTINUOUS
370
-3
390
F
  0
LAYER
  5
212
100
AcDbSymbolTableRecord
100
AcDbLayerTableRecord
  2
AXE_2
 70
0
 62
7
  6
CONTINUOUS
370
-3
390
F
  0
LAYER
  5
213
100
AcDbSymbolTableRecord
100
AcDbLayerTableRecord
  2
AXE_3
 70
0
 62
7
  6
CONTINUOUS
370
-3
390
F
  0
LAYER
  5
214
100
AcDbSymbolTableRecord
100
AcDbLayerTableRecord
  2
AXE_4
 70
0
 62
7
  6
CONTINUOUS
370
-3
390
F
  0
LAYER
  5
215
100
AcDbSymbolTableRecord
100
AcDbLayerTableRecord
  2
AXE_5
 70
0
 62
7
  6
CONTINUOUS
370
-3
390
F
  0
LAYER
  5
216
100
AcDbSymbolTableRecord
100
AcDbLayerTableRecord
  2
AXE_6
 70
0
 62
7
  6
CONTINUOUS
370
-3
390
F
  0
LAYER
  5
217
100
AcDbSymbolTableRecord
100
AcDbLayerTableRecord
  2
AXE_7
 70
0
 62
7
  6
CONTINUOUS
370
-3
390
F
  0
LAYER
  5
218
100
AcDbSymbolTableRecord
100
AcDbLayerTableRecord
  2
AXE_8
 70
0
 62
7
  6
CONTINUOUS
370
-3
390
F
  0
LAYER
  5
219
100
AcDbSymbolTableRecord
100
AcDbLayerTableRecord
  2
AXE_9
 70
0
 62
7
  6
CONTINUOUS
370
-3
390
F
  0
LAYER
  5
21A
100
AcDbSymbolTableRecord
100
AcDbLayerTableRecord
  2
AXIS
 70
0
 62
7
  6
CONTINUOUS
370
-3
390
F
  0
LAYER
  5
21B
100
AcDbSymbolTableRecord
100
AcDbLayerTableRecord
  2
AXIS_1
 70
0
 62
7
  6
CONTINUOUS
370
-3
390
F
  0
LAYER
  5
21C
100
AcDbSymbolTableRecord
100
AcDbLayerTableRecord
  2
CAP
 70
0
 62
7
  6
CONTINUOUS
370
-3
390
F
  0
LAYER
  5
21D
100
AcDbSymbolTableRecord
100
AcDbLayerTableRecord
  2
COSMETIC_1
 70
0
 62
7
  6
CONTINUOUS
370
-3
390
F
  0
LAYER
  5
21E
100
AcDbSymbolTableRecord
100
AcDbLayerTableRecord
  2
COSMETIC_THREAD
 70
0
 62
7
  6
CONTINUOUS
370
-3
390
F
  0
LAYER
  5
21F
100
AcDbSymbolTableRecord
100
AcDbLayerTableRecord
  2
CURVE
 70
0
 62
7
  6
CONTINUOUS
370
-3
390
F
  0
LAYER
  5
220
100
AcDbSymbolTableRecord
100
AcDbLayerTableRecord
  2
CURVE_1
 70
0
 62
7
  6
CONTINUOUS
370
-3
390
F
  0
LAYER
  5
221
100
AcDbSymbolTableRecord
100
AcDbLayerTableRecord
  2
CURVE_3
 70
0
 62
7
  6
CONTINUOUS
370
-3
390
F
  0
LAYER
  5
222
100
AcDbSymbolTableRecord
100
AcDbLayerTableRecord
  2
FEAT
 70
0
 62
7
  6
CONTINUOUS
370
-3
390
F
  0
LAYER
  5
223
100
AcDbSymbolTableRecord
100
AcDbLayerTableRecord
  2
HOME
 70
0
 62
7
  6
CONTINUOUS
370
-3
390
F
  0
LAYER
  5
224
100
AcDbSymbolTableRecord
100
AcDbLayerTableRecord
  2
INTFCLR_115375
 70
0
 62
7
  6
CONTINUOUS
370
-3
390
F
  0
LAYER
  5
225
100
AcDbSymbolTableRecord
100
AcDbLayerTableRecord
  2
INTFCLR_17184
 70
0
 62
7
  6
CONTINUOUS
370
-3
390
F
  0
LAYER
  5
226
100
AcDbSymbolTableRecord
100
AcDbLayerTableRecord
  2
INTFCLR_17185
 70
0
 62
7
  6
CONTINUOUS
370
-3
390
F
  0
LAYER
  5
227
100
AcDbSymbolTableRecord
100
AcDbLayerTableRecord
  2
INTFCLR_2
 70
0
 62
7
  6
CONTINUOUS
370
-3
390
F
  0
LAYER
  5
228
100
AcDbSymbolTableRecord
100
AcDbLayerTableRecord
  2
INTFCLR_26683
 70
0
 62
7
  6
CONTINUOUS
370
-3
390
F
  0
LAYER
  5
229
100
AcDbSymbolTableRecord
100
AcDbLayerTableRecord
  2
INTFCLR_26684
 70
0
 62
7
  6
CONTINUOUS
370
-3
390
F
  0
LAYER
  5
22A
100
AcDbSymbolTableRecord
100
AcDbLayerTableRecord
  2
INTFCLR_39
 70
0
 62
7
  6
CONTINUOUS
370
-3
390
F
  0
LAYER
  5
22B
100
AcDbSymbolTableRecord
100
AcDbLayerTableRecord
  2
INTFCLR_48905
 70
0
 62
7
  6
CONTINUOUS
370
-3
390
F
  0
LAYER
  5
22C
100
AcDbSymbolTableRecord
100
AcDbLayerTableRecord
  2
INTF_YELLOW
 70
0
 62
7
  6
CONTINUOUS
370
-3
390
F
  0
LAYER
  5
22D
100
AcDbSymbolTableRecord
100
AcDbLayerTableRecord
  2
POINT_1
 70
0
 62
7
  6
CONTINUOUS
370
-3
390
F
  0
LAYER
  5
22E
100
AcDbSymbolTableRecord
100
AcDbLayerTableRecord
  2
POINT_2
 70
0
 62
7
  6
CONTINUOUS
370
-3
390
F
  0
LAYER
  5
22F
100
AcDbSymbolTableRecord
100
AcDbLayerTableRecord
  2
TEMPO_PRINT_ZCE05
 70
0
 62
7
  6
CONTINUOUS
370
-3
390
F
  0
LAYER
  5
230
100
AcDbSymbolTableRecord
100
AcDbLayerTableRecord
  2
_BLACK_HOLE
 70
0
 62
7
  6
CONTINUOUS
370
-3
390
F
  0
ENDTAB
  0
TABLE
  2
STYLE
  5
3
100
AcDbSymbolTable
 70
1
  0
STYLE
  5
11
100
AcDbSymbolTableRecord
100
AcDbTextStyleTableRecord
  2
STANDARD
 70
0
 40
0.0
 41
1.0
 50
0.0
 71
0
 42
0.2
  3
ARIAL.TTF
  4

  0
STYLE
  5
231
100
AcDbSymbolTableRecord
100
AcDbTextStyleTableRecord
  2
TEXTSTYLE_1
 70
0
 40
0.0
 41
0.8
 50
0.0
 71
0
 42
0.2
  3
gdt
  4

  0
ENDTAB
  0
TABLE
  2
VIEW
  5
6
100
AcDbSymbolTable
 70
0
  0
ENDTAB
  0
TABLE
  2
UCS
  5
7
100
AcDbSymbolTable
 70
0
  0
ENDTAB
  0
TABLE
  2
APPID
  5
9
100
AcDbSymbolTable
 70
1
  0
APPID
  5
232
100
AcDbSymbolTableRecord
100
AcDbRegAppTableRecord
  2
ACAD
 70
0
  0
ENDTAB
  0
TABLE
  2
BLOCK_RECORD
  5
1
100
AcDbSymbolTable
 70
0
  0
BLOCK_RECORD
  5
233
100
AcDbSymbolTableRecord
100
AcDbBlockTableRecord
  2
*Model_Space
  0
BLOCK_RECORD
  5
234
100
AcDbSymbolTableRecord
100
AcDbBlockTableRecord
  2
*Paper_Space
  0
BLOCK_RECORD
  5
235
100
AcDbSymbolTableRecord
100
AcDbBlockTableRecord
  2
_FILLED
  0
ENDTAB
  0
TABLE
  2
DIMSTYLE
  5
A
100
AcDbSymbolTable
 70
1
100
AcDbDimStyleTable
 71
0
  0
DIMSTYLE
105
236
100
AcDbSymbolTableRecord
100
AcDbDimStyleTableRecord
  2
STANDARD
 70
0
  3

  4

 40
1.0
 41
0.4514510532
 42
1.0
 43
0.38
 44
1.0
 45
0.0
 46
0.0
 47
0.01
 48
0.01
140
0.6320314745
141
0.09
142
0.0
143
25.4
144
1.0
145
0.0
146
1.0
147
0.625
 71
1
 72
0
 73
0
 74
0
 75
0
 76
0
 77
1
 78
8
 79
2
170
0
171
1
172
0
173
0
174
0
175
0
176
0
177
0
178
0
270
2
179
2
271
2
272
2
273
2
274
2
275
0
280
0
281
0
282
0
283
1
284
8
285
0
286
0
287
3
288
0
340
11
278
46
341
235
342
235
343
235
344
235
  0
ENDTAB
  0
ENDSEC
  0
SECTION
  2
BLOCKS
  0
BLOCK
  5
20
100
AcDbEntity
  8
0
100
AcDbBlockBegin
  2
*Model_Space
 70
0
 10
0.0
 20
0.0
 30
0.0
  3
*Model_Space
  1

  0
ENDBLK
  5
21
100
AcDbEntity
  8
0
100
AcDbBlockEnd
  0
BLOCK
  5
1C
100
AcDbEntity
  8
0
100
AcDbBlockBegin
  2
*Paper_Space
 70
0
 10
0.0
 20
0.0
 30
0.0
  3
*Paper_Space
  1

  0
ENDBLK
  5
1D
100
AcDbEntity
  8
0
100
AcDbBlockEnd
  0
BLOCK
  5
237
100
AcDbEntity
  8
0
100
AcDbBlockBegin
  2
_FILLED
 70
64
 10
0.0
 20
0.0
  3
_FILLED
  1

  0
SOLID
  5
238
100
AcDbEntity
  8
0
  6
BYBLOCK
 62
0
100
AcDbTrace
 10
0.0
 20
0.0
 11
-1.0
 21
0.25
 12
-1.0
 22
-0.25
 13
-1.0
 23
-0.25
  0
ENDBLK
  5
239
100
AcDbEntity
  8
0
  6
BYBLOCK
 62
0
100
AcDbBlockEnd
  0
ENDSEC
  0
SECTION
  2
ENTITIES
  0
LINE
  5
23A
100
AcDbEntity
  8
00_COMPONENTS
100
AcDbLine
 62
7
  6
BYLAYER
 10
5.121374799
 20
8.2475066844
 11
4.6170115313
 21
8.7474876459
  0
LINE
  5
23B
100
AcDbEntity
  8
00_COMPONENTS
100
AcDbLine
 62
7
  6
BYLAYER
 10
4.9861083483
 20
8.2475066844
 11
4.4861083483
 21
8.7475066844
  0
LINE
  5
23C
100
AcDbEntity
  8
00_COMPONENTS
100
AcDbLine
 62
7
  6
BYLAYER
 10
5.4956577257
 20
8.7474876459
 11
5.852296412
 21
8.2475066844
  0
LINE
  5
23D
100
AcDbEntity
  8
00_COMPONENTS
100
AcDbLine
 62
7
  6
BYLAYER
 10
4.9861083483
 20
8.2475066844
 11
33.9861083483
 21
8.2475066844
  0
LINE
  5
23E
100
AcDbEntity
  8
00_COMPONENTS
100
AcDbLine
 62
7
  6
BYLAYER
 10
4.6170115312
 20
8.7474876539
 11
11.6616840273
 21
8.7474876459
  0
LINE
  5
23F
100
AcDbEntity
  8
00_COMPONENTS
100
AcDbLine
 62
7
  6
BYLAYER
 10
13.7829235888
 20
8.7474876459
 11
25.1892931074
 21
8.7474876459
  0
LINE
  5
240
100
AcDbEntity
  8
00_COMPONENTS
100
AcDbLine
 62
7
  6
BYLAYER
 10
27.3105326689
 20
8.7474876459
 11
34.3552051652
 21
8.7474876459
  0
LINE
  5
241
100
AcDbEntity
  8
00_COMPONENTS
100
AcDbLine
 62
7
  6
BYLAYER
 10
34.1268500101
 20
8.7471249948
 11
33.4765589707
 21
8.7474876459
  0
LINE
  5
242
100
AcDbEntity
  8
00_COMPONENTS
100
AcDbLine
 62
7
  6
BYLAYER
 10
4.8453666834
 20
8.7471249948
 11
4.6170115313
 21
8.7474876459
  0
LINE
  5
243
100
AcDbEntity
  8
00_COMPONENTS
100
AcDbLine
 62
7
  6
BYLAYER
 10
12.0183227145
 20
8.2475066844
 11
11.6616840273
 21
8.7474876459
  0
LINE
  5
244
100
AcDbEntity
  8
00_COMPONENTS
100
AcDbLine
 62
7
  6
BYLAYER
 10
4.4861850049
 20
23.7387226998
 11
4.6170115313
 21
8.7474876459
  0
LINE
  5
245
100
AcDbEntity
  8
00_COMPONENTS
100
AcDbLine
 62
7
  6
BYLAYER
 10
4.4861083483
 20
8.7475066844
 11
4.4861083483
 21
23.7475066844
  0
LINE
  5
246
100
AcDbEntity
  8
0
100
AcDbLine
 62
7
  6
BYLAYER
 10
15.48610835
 20
41.6709820674
 11
15.7231308041
 21
41.8475066844
  0
LINE
  5
247
100
AcDbEntity
  8
00_COMPONENTS
100
AcDbLine
 62
7
  6
BYLAYER
 10
5.4956577257
 20
8.7474876459
 11
5.3648311996
 21
23.7387226997
  0
LINE
  5
248
100
AcDbEntity
  8
00_COMPONENTS
100
AcDbLine
 62
7
  6
BYLAYER
 10
5.7214698859
 20
24.2475066844
 11
5.3648311996
 21
23.7387226997
  0
LINE
  5
249
100
AcDbEntity
  8
00_COMPONENTS
100
AcDbLine
 62
7
  6
BYLAYER
 10
11.6074939061
 20
23.7387226997
 11
11.6616840273
 21
8.7474876459
  0
LINE
  5
24A
100
AcDbEntity
  8
0
100
AcDbLine
 62
7
  6
BYLAYER
 10
11.4861083483
 20
44.3172648798
 11
11.4861083483
 21
39.0475066844
  0
LINE
  5
24B
100
AcDbEntity
  8
0
100
AcDbLine
 62
7
  6
BYLAYER
 10
11.4861083483
 20
24.2475066844
 11
11.4861083483
 21
34.2475066844
  0
LINE
  5
24C
100
AcDbEntity
  8
00_COMPONENTS
100
AcDbLine
 62
7
  6
BYLAYER
 10
4.486185005
 20
23.7387226998
 11
4.9905482727
 21
24.2475066844
  0
LINE
  5
24D
100
AcDbEntity
  8
00_COMPONENTS
100
AcDbLine
 62
7
  6
BYLAYER
 10
4.4861083483
 20
23.7475066844
 11
4.9861083483
 21
24.2475066844
  0
LINE
  5
24E
100
AcDbEntity
  8
0
100
AcDbLine
 62
7
  6
BYLAYER
 10
11.7718209081
 20
24.2475066844
 11
11.7718209081
 21
34.2475066844
  0
LINE
  5
24F
100
AcDbEntity
  8
0
100
AcDbLine
 62
7
  6
BYLAYER
 10
11.9861083483
 20
35.7475066844
 11
11.9861083483
 21
38.7475066844
  0
LINE
  5
250
100
AcDbEntity
  8
0
100
AcDbLine
 62
7
  6
BYLAYER
 10
13.0575369197
 20
36.7475066844
 11
13.0575369197
 21
35.7475066844
  0
LINE
  5
251
100
AcDbEntity
  8
0
100
AcDbLine
 62
7
  6
BYLAYER
 10
13.2361083483
 20
35.7475066844
 11
13.2361083483
 21
34.7475066844
  0
LINE
  5
252
100
AcDbEntity
  8
00_COMPONENTS
100
AcDbLine
 62
7
  6
BYLAYER
 10
13.7829235888
 20
8.7474876459
 11
13.7287334676
 21
23.7387226997
  0
LINE
  5
253
100
AcDbEntity
  8
00_COMPONENTS
100
AcDbLine
 62
7
  6
BYLAYER
 10
13.7287334671
 20
24.2475066844
 11
13.7287334676
 21
23.7387226997
  0
LINE
  5
254
100
AcDbEntity
  8
00_COMPONENTS
100
AcDbLine
 62
7
  6
BYLAYER
 10
13.7829235888
 20
8.7474876459
 11
13.7829235883
 21
8.2475066844
  0
LINE
  5
255
100
AcDbEntity
  8
0
100
AcDbLine
 62
7
  6
BYLAYER
 10
14.0161083483
 20
34.2475066844
 11
14.0161083483
 21
34.7475066844
  0
LINE
  5
256
100
AcDbEntity
  8
0
100
AcDbLine
 62
7
  6
BYLAYER
 10
14.4861083483
 20
45.2475066844
 11
14.4861083483
 21
45.1859650114
  0
LINE
  5
257
100
AcDbEntity
  8
00_COMPONENTS
100
AcDbLine
 62
7
  6
BYLAYER
 10
11.6074939061
 20
23.7387226997
 11
11.9641325935
 21
24.2475066844
  0
LINE
  5
258
100
AcDbEntity
  8
0
100
AcDbLine
 62
7
  6
BYLAYER
 10
12.9861083483
 20
39.3424081957
 11
13.0641608423
 21
38.7475066844
  0
LINE
  5
259
100
AcDbEntity
  8
0
100
AcDbLine
 62
7
  6
BYLAYER
 10
15.4861083483
 20
41.6709820674
 11
15.4861083483
 21
39.9475066844
  0
LINE
  5
25A
100
AcDbEntity
  8
00_COMPONENTS
100
AcDbLine
 62
7
  6
BYLAYER
 10
25.2434832293
 20
23.7387226997
 11
13.7287334676
 21
23.7387226997
  0
LINE
  5
25B
100
AcDbEntity
  8
00_COMPONENTS
100
AcDbLine
 62
7
  6
BYLAYER
 10
4.4861850049
 20
23.7387226998
 11
11.6074939061
 21
23.7387226997
  0
LINE
  5
25C
100
AcDbEntity
  8
00_COMPONENTS
100
AcDbLine
 62
7
  6
BYLAYER
 10
27.3647227907
 20
23.7387226997
 11
34.4860316916
 21
23.7387227077
  0
LINE
  5
25D
100
AcDbEntity
  8
00_COMPONENTS
100
AcDbLine
 62
7
  6
BYLAYER
 10
4.4861850049
 20
23.7387226998
 11
4.7145401565
 21
23.7383600486
  0
LINE
  5
25E
100
AcDbEntity
  8
0
100
AcDbLine
 62
7
  6
BYLAYER
 10
16.6545554097
 20
36.7475066844
 11
16.6545554097
 21
35.7475066844
  0
LINE
  5
25F
100
AcDbEntity
  8
0
100
AcDbLine
 62
7
  6
BYLAYER
 10
16.9861083483
 20
38.7475066844
 11
16.9861083483
 21
36.7475066844
  0
LINE
  5
260
100
AcDbEntity
  8
AXE_8
100
AcDbLine
 62
7
  6
BYLAYER
 10
17.4861083483
 20
26.5475066844
 11
17.4861083483
 21
36.5475066844
  0
LINE
  5
261
100
AcDbEntity
  8
00_COMPONENTS
100
AcDbLine
 62
7
  6
BYLAYER
 10
33.9816684238
 20
24.2475066844
 11
4.9905482727
 21
24.2475066844
  0
LINE
  5
262
100
AcDbEntity
  8
0
100
AcDbLine
 62
7
  6
BYLAYER
 10
18.9966124968
 20
42.6763693751
 11
18.9966124968
 21
42.9728567725
  0
LINE
  5
263
100
AcDbEntity
  8
AXE_5
100
AcDbLine
 62
2
  6
BYLAYER
 10
19.4861083483
 20
45.8248108441
 11
19.4861083483
 21
45.6475066844
  0
LINE
  5
264
100
AcDbEntity
  8
AXIS_1
100
AcDbLine
 62
2
  6
BYLAYER
 10
19.4861083483
 20
43.0475066844
 11
19.4861083483
 21
42.6763693751
  0
LINE
  5
265
100
AcDbEntity
  8
AXE_8
100
AcDbLine
 62
7
  6
BYLAYER
 10
21.1061083483
 20
26.5475066844
 11
17.8661083483
 21
26.5475066844
  0
LINE
  5
266
100
AcDbEntity
  8
AXE_8
100
AcDbLine
 62
7
  6
BYLAYER
 10
21.4861083483
 20
26.5475066844
 11
21.1061083483
 21
26.5475066844
  0
LINE
  5
267
100
AcDbEntity
  8
AXE_8
100
AcDbLine
 62
7
  6
BYLAYER
 10
17.8661083483
 20
26.5475066844
 11
17.4861083483
 21
26.5475066844
  0
LINE
  5
268
100
AcDbEntity
  8
0
100
AcDbLine
 62
7
  6
BYLAYER
 10
19.9756041997
 20
42.9728567725
 11
19.9756041997
 21
42.6763693751
  0
LINE
  5
269
100
AcDbEntity
  8
AXE_8
100
AcDbLine
 62
7
  6
BYLAYER
 10
21.4861083483
 20
26.5475066844
 11
21.4861083483
 21
36.5475066844
  0
LINE
  5
26A
100
AcDbEntity
  8
0
100
AcDbLine
 62
7
  6
BYLAYER
 10
21.9861083483
 20
36.7475066844
 11
21.9861083483
 21
38.7475066844
  0
LINE
  5
26B
100
AcDbEntity
  8
0
100
AcDbLine
 62
7
  6
BYLAYER
 10
22.3176612868
 20
36.7475066844
 11
22.3176612868
 21
35.7475066844
  0
LINE
  5
26C
100
AcDbEntity
  8
00_COMPONENTS
100
AcDbLine
 62
7
420
32767
  6
BYLAYER
 10
22.940723379
 20
29.1403054998
 11
21.6334804041
 21
24.2616082995
  0
LINE
  5
26D
100
AcDbEntity
  8
00_COMPONENTS
100
AcDbLine
 62
7
420
32767
  6
BYLAYER
 10
17.3425148088
 20
8.2475066844
 11
16.0314933175
 21
3.354707869
  0
LINE
  5
26E
100
AcDbEntity
  8
0
100
AcDbLine
 62
7
  6
BYLAYER
 10
23.4861083483
 20
41.6709820674
 11
23.4861083483
 21
39.9475066844
  0
LINE
  5
26F
100
AcDbEntity
  8
0
100
AcDbLine
 62
7
  6
BYLAYER
 10
24.4861083483
 20
45.2475066844
 11
24.4861083483
 21
45.1859650114
  0
LINE
  5
270
100
AcDbEntity
  8
0
100
AcDbLine
 62
7
  6
BYLAYER
 10
25.9861083483
 20
39.3424081957
 11
25.9080558542
 21
38.7475066844
  0
LINE
  5
271
100
AcDbEntity
  8
00_COMPONENTS
100
AcDbLine
 62
7
  6
BYLAYER
 10
27.0080841034
 20
24.2475066844
 11
27.3647227907
 21
23.7387226997
  0
LINE
  5
272
100
AcDbEntity
  8
0
100
AcDbLine
 62
7
  6
BYLAYER
 10
24.9561083483
 20
34.7475066844
 11
24.9561083483
 21
34.2475066844
  0
LINE
  5
273
100
AcDbEntity
  8
00_COMPONENTS
100
AcDbLine
 62
7
  6
BYLAYER
 10
25.1892931078
 20
8.2475066844
 11
25.1892931074
 21
8.7474876459
  0
LINE
  5
274
100
AcDbEntity
  8
00_COMPONENTS
100
AcDbLine
 62
7
  6
BYLAYER
 10
25.2434832293
 20
23.7387226997
 11
25.2434832298
 21
24.2475066844
  0
LINE
  5
275
100
AcDbEntity
  8
0
100
AcDbLine
 62
7
  6
BYLAYER
 10
25.7361083483
 20
35.7475066844
 11
25.7361083483
 21
34.7475066844
  0
LINE
  5
276
100
AcDbEntity
  8
0
100
AcDbLine
 62
7
  6
BYLAYER
 10
25.9146797768
 20
35.7475066844
 11
25.9146797768
 21
36.7475066844
  0
LINE
  5
277
100
AcDbEntity
  8
00_COMPONENTS
100
AcDbLine
 62
7
  6
BYLAYER
 10
25.2434832293
 20
23.7387226997
 11
25.1892931074
 21
8.7474876459
  0
LINE
  5
278
100
AcDbEntity
  8
0
100
AcDbLine
 62
7
  6
BYLAYER
 10
26.9861083483
 20
38.7475066844
 11
26.9861083483
 21
35.7475066844
  0
LINE
  5
279
100
AcDbEntity
  8
0
100
AcDbLine
 62
7
  6
BYLAYER
 10
27.2003954444
 20
34.2475066844
 11
27.2003954444
 21
24.2475066844
  0
LINE
  5
27A
100
AcDbEntity
  8
0
100
AcDbLine
 62
7
  6
BYLAYER
 10
27.4861083483
 20
44.3172648796
 11
27.4861083483
 21
39.0475066844
  0
LINE
  5
27B
100
AcDbEntity
  8
0
100
AcDbLine
 62
7
  6
BYLAYER
 10
27.4861083483
 20
34.2475066844
 11
27.4861083483
 21
24.2475066844
  0
LINE
  5
27C
100
AcDbEntity
  8
00_COMPONENTS
100
AcDbLine
 62
7
  6
BYLAYER
 10
27.3105326689
 20
8.7474876459
 11
27.3647227907
 21
23.7387226997
  0
LINE
  5
27D
100
AcDbEntity
  8
0
100
AcDbLine
 62
7
  6
BYLAYER
 10
27.4861083483
 20
34.2475066844
 11
11.4861083483
 21
34.2475066844
  0
LINE
  5
27E
100
AcDbEntity
  8
0
100
AcDbLine
 62
7
  6
BYLAYER
 10
13.2361083483
 20
34.7475066844
 11
25.7361083483
 21
34.7475066844
  0
LINE
  5
27F
100
AcDbEntity
  8
0
100
AcDbLine
 62
7
  6
BYLAYER
 10
11.9861083483
 20
35.7475066844
 11
26.9861083483
 21
35.7475066844
  0
LINE
  5
280
100
AcDbEntity
  8
AXE_8
100
AcDbLine
 62
7
  6
BYLAYER
 10
21.4861083483
 20
36.5475066844
 11
17.4861083483
 21
36.5475066844
  0
LINE
  5
281
100
AcDbEntity
  8
0
100
AcDbLine
 62
7
  6
BYLAYER
 10
11.9861083483
 20
36.7475066844
 11
26.9861083483
 21
36.7475066844
  0
LINE
  5
282
100
AcDbEntity
  8
00_COMPONENTS
100
AcDbLine
 62
7
  6
BYLAYER
 10
33.9861083483
 20
24.2475066844
 11
34.4861083483
 21
23.7475066844
  0
LINE
  5
283
100
AcDbEntity
  8
00_COMPONENTS
100
AcDbLine
 62
7
  6
BYLAYER
 10
33.9816684238
 20
24.2475066844
 11
34.4860316916
 21
23.7387226997
  0
LINE
  5
284
100
AcDbEntity
  8
00_COMPONENTS
100
AcDbLine
 62
7
  6
BYLAYER
 10
33.6073854972
 20
23.7387226997
 11
33.250746811
 21
24.2475066844
  0
LINE
  5
285
100
AcDbEntity
  8
0
100
AcDbLine
 62
7
  6
BYLAYER
 10
26.9861083483
 20
38.7475066844
 11
11.9861083483
 21
38.7475066844
  0
LINE
  5
286
100
AcDbEntity
  8
0
100
AcDbLine
 62
7
  6
BYLAYER
 10
11.4861757904
 20
39.0475066844
 11
13.0248001284
 21
39.0475066844
  0
LINE
  5
287
100
AcDbEntity
  8
0
100
AcDbLine
 62
7
  6
BYLAYER
 10
25.9474165681
 20
39.0475066844
 11
27.4860409061
 21
39.0475066844
  0
LINE
  5
288
100
AcDbEntity
  8
0
100
AcDbLine
 62
7
  6
BYLAYER
 10
25.9861083483
 20
39.3424081957
 11
12.9861083483
 21
39.3424081957
  0
LINE
  5
289
100
AcDbEntity
  8
00_COMPONENTS
100
AcDbLine
 62
7
  6
BYLAYER
 10
33.6073854972
 20
23.7387226997
 11
33.4765589705
 21
8.7474876459
  0
LINE
  5
28A
100
AcDbEntity
  8
0
100
AcDbLine
 62
7
  6
BYLAYER
 10
17.5980558542
 20
39.9475066844
 11
12.9861083483
 21
39.3424081957
  0
LINE
  5
28B
100
AcDbEntity
  8
0
100
AcDbLine
 62
7
  6
BYLAYER
 10
15.4861613213
 20
39.9475066844
 11
23.4860553752
 21
39.9475066844
  0
LINE
  5
28C
100
AcDbEntity
  8
0
100
AcDbLine
 62
7
  6
BYLAYER
 10
21.3741608423
 20
39.9475066844
 11
25.9861083483
 21
39.3424081957
  0
LINE
  5
28D
100
AcDbEntity
  8
00_COMPONENTS
100
AcDbLine
 62
7
  6
BYLAYER
 10
34.4861083483
 20
23.7475066844
 11
34.4861083483
 21
8.7475066844
  0
LINE
  5
28E
100
AcDbEntity
  8
00_COMPONENTS
100
AcDbLine
 62
7
  6
BYLAYER
 10
34.3552051652
 20
8.7474876459
 11
34.4860316916
 21
23.7387226997
  0
LINE
  5
28F
100
AcDbEntity
  8
0
100
AcDbLine
 62
7
420
3368703
  6
BYLAYER
 10
18.9326386484
 20
43.0002070945
 11
18.9351859185
 21
43.00064305
  0
LINE
  5
290
100
AcDbEntity
  8
0
100
AcDbLine
 62
7
  6
BYLAYER
 10
23.4861083483
 20
41.6709820674
 11
15.48610835
 21
41.6709820674
  0
LINE
  5
291
100
AcDbEntity
  8
0
100
AcDbLine
 62
7
  6
BYLAYER
 10
23.2490738386
 20
41.8475066844
 11
23.2009434725
 21
41.8475066844
  0
LINE
  5
292
100
AcDbEntity
  8
0
100
AcDbLine
 62
7
  6
BYLAYER
 10
15.7712732241
 20
41.8475066844
 11
15.723142858
 21
41.8475066844
  0
LINE
  5
293
100
AcDbEntity
  8
0
100
AcDbLine
 62
7
  6
BYLAYER
 10
18.9966124968
 20
42.6763693751
 11
19.9756041997
 21
42.6763693751
  0
LINE
  5
294
100
AcDbEntity
  8
00_COMPONENTS
100
AcDbLine
 62
7
  6
BYLAYER
 10
27.3105326689
 20
8.7474876459
 11
26.9538939816
 21
8.2475066844
  0
LINE
  5
295
100
AcDbEntity
  8
0
100
AcDbLine
 62
7
  6
BYLAYER
 10
27.4861083483
 20
44.3172648794
 11
11.4861083483
 21
44.3172648798
  0
LINE
  5
296
100
AcDbEntity
  8
0
100
AcDbLine
 62
7
  6
BYLAYER
 10
27.2625984501
 20
44.6073498058
 11
11.7100517329
 21
44.6073936478
  0
LINE
  5
297
100
AcDbEntity
  8
0
100
AcDbLine
 62
7
  6
BYLAYER
 10
14.4861083483
 20
45.2475066844
 11
18.4861083482
 21
45.6475066844
  0
LINE
  5
298
100
AcDbEntity
  8
0
100
AcDbLine
 62
7
  6
BYLAYER
 10
14.3861083483
 20
45.1859650114
 11
24.5861083483
 21
45.1859650114
  0
LINE
  5
299
100
AcDbEntity
  8
0
100
AcDbLine
 62
7
  6
BYLAYER
 10
24.4861083483
 20
45.2475066844
 11
14.4861083483
 21
45.2475066844
  0
LINE
  5
29A
100
AcDbEntity
  8
0
100
AcDbLine
 62
7
  6
BYLAYER
 10
20.4860686725
 20
45.6475066844
 11
18.486148024
 21
45.6475066844
  0
LINE
  5
29B
100
AcDbEntity
  8
0
100
AcDbLine
 62
7
  6
BYLAYER
 10
24.4861083483
 20
45.2475066844
 11
20.4861083483
 21
45.6475066844
  0
LINE
  5
29C
100
AcDbEntity
  8
00_COMPONENTS
100
AcDbLine
 62
7
  6
BYLAYER
 10
33.1199202841
 20
8.2475066844
 11
33.4765589705
 21
8.7474876459
  0
LINE
  5
29D
100
AcDbEntity
  8
00_COMPONENTS
100
AcDbLine
 62
7
  6
BYLAYER
 10
34.4861083483
 20
8.7475066844
 11
33.9861083483
 21
8.2475066844
  0
LINE
  5
29E
100
AcDbEntity
  8
00_COMPONENTS
100
AcDbLine
 62
7
  6
BYLAYER
 10
34.3552051652
 20
8.7474876459
 11
33.8508418975
 21
8.2475066844
  0
ARC
  5
29F
100
AcDbEntity
  8
0
100
AcDbCircle
 62
7
  6
BYLAYER
 10
19.4861083483
 20
15.1153813789
 40
30.5
100
AcDbArc
 50
99.6258230089
 51
104.7719128689
  0
ARC
  5
2A0
100
AcDbEntity
  8
0
100
AcDbCircle
 62
7
  6
BYLAYER
 10
19.4861083483
 20
15.1153813789
 40
30.5
100
AcDbArc
 50
75.2283769156
 51
80.3741769911
  0
ARC
  5
2A1
100
AcDbEntity
  8
0
100
AcDbCircle
 62
7
  6
BYLAYER
 10
6.4222385578
 20
23.7696720177
 40
22.7812760968
100
AcDbArc
 50
57.2803940717
 51
57.426383304
  0
ARC
  5
2A2
100
AcDbEntity
  8
0
100
AcDbCircle
 62
7
  6
BYLAYER
 10
32.5408030871
 20
23.7840004818
 40
22.7642618042
100
AcDbArc
 50
122.5735729774
 51
122.7195438427
  0
ARC
  5
2A3
100
AcDbEntity
  8
0
100
AcDbCircle
 62
7
  6
BYLAYER
 10
19.4861083483
 20
36.5475066844
 40
6.5
100
AcDbArc
 50
52.0201275562
 51
54.625409554
  0
ARC
  5
2A4
100
AcDbEntity
  8
0
100
AcDbCircle
 62
7
  6
BYLAYER
 10
19.4858784329
 20
36.5319769193
 40
6.4848413857
100
AcDbArc
 50
97.0737900344
 51
124.9466683703
  0
ARC
  5
2A5
100
AcDbEntity
  8
0
100
AcDbCircle
 62
7
  6
BYLAYER
 10
19.4863384106
 20
36.5319807303
 40
6.4848380073
100
AcDbArc
 50
55.053313407
 51
82.9262088155
  0
ARC
  5
2A6
100
AcDbEntity
  8
0
100
AcDbCircle
 62
7
  6
BYLAYER
 10
19.6334727056
 20
39.1722616346
 40
3.8738481929
100
AcDbArc
 50
100.3750574739
 51
103.4014127548
  0
ARC
  5
2A7
100
AcDbEntity
  8
0
100
AcDbCircle
 62
7
  6
BYLAYER
 10
19.3418584842
 20
39.1873285984
 40
3.8584764504
100
AcDbArc
 50
76.5910795216
 51
79.6294716331
  0
CIRCLE
  5
2A8
100
AcDbEntity
  8
00_COMPONENTS
100
AcDbCircle
 62
7
  6
BYLAYER
 10
19.4859822858
 20
16.2742564372
 40
2.5696448678
  0
ARC
  5
2A9
100
AcDbEntity
  8
0
100
AcDbCircle
 62
7
  6
BYLAYER
 10
11.7861083483
 20
44.3172648798
 40
0.3
100
AcDbArc
 50
104.7716230844
 51
180.0
  0
ARC
  5
2AA
100
AcDbEntity
  8
0
100
AcDbCircle
 62
7
  6
BYLAYER
 10
27.1861083483
 20
44.3172648798
 40
0.3
100
AcDbArc
 50
0.0
 51
75.2283698895
  0
SPLINE
  5
2AB
100
AcDbEntity
  8
0
100
AcDbSpline
 62
7
  6
BYLAYER
 70
0
 71
3
 72
9
 73
5
 74
0
 42
0.0000001
 43
0.0000001
 44
0.0000000001
 40
0.0
 40
0.0
 40
0.0
 40
0.0
 40
0.4944203805
 40
1.0
 40
1.0
 40
1.0
 40
1.0
 10
20.2366366798
 20
42.9406221519
 30
0.0
 10
20.4119046921
 20
42.8988618205
 30
0.0
 10
20.7609022589
 20
42.7896715575
 30
0.0
 10
21.0922737064
 20
42.635354052
 30
0.0
 10
21.2541469614
 20
42.5473666595
 30
0.0
  0
SPLINE
  5
2AC
100
AcDbEntity
  8
0
100
AcDbSpline
 62
7
  6
BYLAYER
 70
0
 71
3
 72
15
 73
11
 74
0
 42
0.0000001
 43
0.0000001
 44
0.0000000001
 40
0.0
 40
0.0
 40
0.0
 40
0.0
 40
0.2131325104
 40
0.4047417238
 40
0.5717464823
 40
0.7118343035
 40
0.8239844085
 40
0.8694492344
 40
0.9079194192
 40
1.0
 40
1.0
 40
1.0
 40
1.0
 10
20.0363484942
 20
42.9827722609
 30
0.0
 10
20.0318677411
 20
42.9827785642
 30
0.0
 10
20.0233583244
 20
42.9826952202
 30
0.0
 10
20.0113439845
 20
42.9822386282
 30
0.0
 10
20.0008883954
 20
42.9814667807
 30
0.0
 10
19.9921276277
 20
42.9803727829
 30
0.0
 10
19.9860005695
 20
42.9791843042
 30
0.0
 10
19.98200182
 20
42.9779948722
 30
0.0
 10
19.9786866835
 20
42.9767340389
 30
0.0
 10
19.9756041997
 20
42.974792614
 30
0.0
 10
19.9756041997
 20
42.9728567725
 30
0.0
  0
SPLINE
  5
2AD
100
AcDbEntity
  8
0
100
AcDbSpline
 62
7
  6
BYLAYER
 70
0
 71
3
 72
9
 73
5
 74
0
 42
0.0000001
 43
0.0000001
 44
0.0000000001
 40
0.0
 40
0.0
 40
0.0
 40
0.0
 40
0.5055453648
 40
1.0
 40
1.0
 40
1.0
 40
1.0
 10
17.7180645781
 20
42.5473358516
 30
0.0
 10
17.8799350694
 20
42.6353235512
 30
0.0
 10
18.21130725
 20
42.7896874505
 30
0.0
 10
18.5603318039
 20
42.8988681207
 30
0.0
 10
18.7356235908
 20
42.9406255752
 30
0.0
  0
SPLINE
  5
2AE
100
AcDbEntity
  8
0
100
AcDbSpline
 62
7
  6
BYLAYER
 70
0
 71
3
 72
15
 73
11
 74
0
 42
0.0000001
 43
0.0000001
 44
0.0000000001
 40
0.0
 40
0.0
 40
0.0
 40
0.0
 40
0.0920840197
 40
0.1305538953
 40
0.1760170425
 40
0.2881621709
 40
0.4282475491
 40
0.5952550858
 40
0.7868667068
 40
1.0
 40
1.0
 40
1.0
 40
1.0
 10
18.9966124968
 20
42.9728567725
 30
0.0
 10
18.9966124968
 20
42.9747926879
 30
0.0
 10
18.9935299126
 20
42.9767341261
 30
0.0
 10
18.9902147796
 20
42.9779950606
 30
0.0
 10
18.986216186
 20
42.9791845101
 30
0.0
 10
18.9800893029
 20
42.9803729412
 30
0.0
 10
18.9713286081
 20
42.9814667934
 30
0.0
 10
18.9608729432
 20
42.9822384931
 30
0.0
 10
18.9488584703
 20
42.9826950937
 30
0.0
 10
18.940348981
 20
42.9827785116
 30
0.0
 10
18.9358682077
 20
42.9827722651
 30
0.0
  0
SPLINE
  5
2AF
100
AcDbEntity
  8
0
100
AcDbSpline
 62
7
  6
BYLAYER
 70
0
 71
3
 72
11
 73
7
 74
0
 42
0.0000001
 43
0.0000001
 44
0.0000000001
 40
0.0
 40
0.0
 40
0.0
 40
0.0
 40
0.2438643801
 40
0.4911955706
 40
0.7429725859
 40
1.0
 40
1.0
 40
1.0
 40
1.0
 10
18.6873547442
 20
42.9674714073
 30
0.0
 10
18.6034539076
 20
42.9474362274
 30
0.0
 10
18.4361869185
 20
42.8994475002
 30
0.0
 10
18.1905915393
 20
42.8050349283
 30
0.0
 10
17.9496982151
 20
42.6881338366
 30
0.0
 10
17.7945150709
 20
42.5965396852
 30
0.0
 10
17.7180645781
 20
42.5473358516
 30
0.0
  0
SPLINE
  5
2B0
100
AcDbEntity
  8
0
100
AcDbSpline
 62
7
  6
BYLAYER
 70
0
 71
3
 72
10
 73
6
 74
0
 42
0.0000001
 43
0.0000001
 44
0.0000000001
 40
0.0
 40
0.0
 40
0.0
 40
0.0
 40
0.5086416276
 40
0.7560619001
 40
1.0
 40
1.0
 40
1.0
 40
1.0
 10
21.2541469614
 20
42.5473666595
 30
0.0
 10
21.1029307459
 20
42.6446848469
 30
0.0
 10
20.8663527471
 20
42.7724710224
 30
0.0
 10
20.5360701972
 20
42.8994298498
 30
0.0
 10
20.3688188842
 20
42.9474295214
 30
0.0
 10
20.2849356681
 20
42.9674616635
 30
0.0
  0
SPLINE
  5
2B1
100
AcDbEntity
  8
0
100
AcDbSpline
 62
7
420
3368703
  6
BYLAYER
 70
0
 71
3
 72
36
 73
32
 74
0
 42
0.0000001
 43
0.0000001
 44
0.0000000001
 40
0.0
 40
0.0
 40
0.0
 40
0.0
 40
0.125
 40
0.1875
 40
0.25
 40
0.28125
 40
0.3125
 40
0.328125
 40
0.34375
 40
0.359375
 40
0.375
 40
0.40625
 40
0.4375
 40
0.46875
 40
0.484375
 40
0.5
 40
0.515625
 40
0.53125
 40
0.5625
 40
0.625
 40
0.6875
 40
0.75
 40
0.78125
 40
0.8125
 40
0.828125
 40
0.8359375
 40
0.84375
 40
0.859375
 40
0.875
 40
0.9375
 40
1.0
 40
1.0
 40
1.0
 40
1.0
 10
18.708676267
 20
42.9538471935
 30
0.0
 10
18.7165872228
 20
42.9557270593
 30
0.0
 10
18.7284577078
 20
42.9585590893
 30
0.0
 10
18.7442688156
 20
42.9622862046
 30
0.0
 10
18.7542072374
 20
42.9645222017
 30
0.0
 10
18.762053737
 20
42.9663130585
 30
0.0
 10
18.7671901542
 20
42.9674739211
 30
0.0
 10
18.7707676955
 20
42.9683023113
 30
0.0
 10
18.7749062159
 20
42.9691995574
 30
0.0
 10
18.7794533979
 20
42.9701743409
 30
0.0
 10
18.7853725084
 20
42.9714467158
 30
0.0
 10
18.7928282336
 20
42.973048364
 30
0.0
 10
18.8017179839
 20
42.9749576844
 30
0.0
 10
18.8092407264
 20
42.9765760701
 30
0.0
 10
18.8150123988
 20
42.9778116225
 30
0.0
 10
18.8200119476
 20
42.9788993841
 30
0.0
 10
18.8224515794
 20
42.9793723346
 30
0.0
 10
18.826597358
 20
42.9802174718
 30
0.0
 10
18.8334363504
 20
42.9815956671
 30
0.0
 10
18.8434245722
 20
42.9836239608
 30
0.0
 10
18.8553140534
 20
42.9860029734
 30
0.0
 10
18.8652715966
 20
42.987893256
 30
0.0
 10
18.8731898853
 20
42.9894189751
 30
0.0
 10
18.8782333593
 20
42.9903849311
 30
0.0
 10
18.8815756941
 20
42.9910321472
 30
0.0
 10
18.8837796885
 20
42.9914479045
 30
0.0
 10
18.8870913129
 20
42.9920367832
 30
0.0
 10
18.8908522426
 20
42.9927137067
 30
0.0
 10
18.9001901518
 20
42.994387038
 30
0.0
 10
18.9140650551
 20
42.9968764097
 30
0.0
 10
18.9264519245
 20
42.9990975656
 30
0.0
 10
18.9326386565
 20
43.0002070959
 30
0.0
  0
SPLINE
  5
2B2
100
AcDbEntity
  8
0
100
AcDbSpline
 62
7
420
3368703
  6
BYLAYER
 70
0
 71
3
 72
15
 73
11
 74
0
 42
0.0000001
 43
0.0000001
 44
0.0000000001
 40
0.0
 40
0.0
 40
0.0
 40
0.0
 40
0.25
 40
0.5
 40
0.5625
 40
0.625
 40
0.6875
 40
0.75
 40
0.875
 40
1.0
 40
1.0
 40
1.0
 40
1.0
 10
18.9351859186
 20
43.00064305
 30
0.0
 10
18.9391687676
 20
43.0013131321
 30
0.0
 10
18.9471424825
 20
43.0026646903
 30
0.0
 10
18.9560768357
 20
43.0041339206
 30
0.0
 10
18.9620917934
 20
43.0051144343
 30
0.0
 10
18.9649962975
 20
43.00559023
 30
0.0
 10
18.9683009561
 20
43.006123665
 30
0.0
 10
18.9746127709
 20
43.0071099453
 30
0.0
 10
18.9818443541
 20
43.0082478005
 30
0.0
 10
18.9878302104
 20
43.0091870355
 30
0.0
 10
18.9907980649
 20
43.0096530342
 30
0.0
  0
SPLINE
  5
2B3
100
AcDbEntity
  8
0
100
AcDbSpline
 62
7
420
3368703
  6
BYLAYER
 70
0
 71
3
 72
26
 73
22
 74
0
 42
0.0000001
 43
0.0000001
 44
0.0000000001
 40
0.0
 40
0.0
 40
0.0
 40
0.0
 40
0.125
 40
0.1875
 40
0.25
 40
0.3125
 40
0.375
 40
0.4375
 40
0.5
 40
0.5625
 40
0.625
 40
0.6875
 40
0.75
 40
0.78125
 40
0.8125
 40
0.828125
 40
0.84375
 40
0.859375
 40
0.875
 40
0.9375
 40
1.0
 40
1.0
 40
1.0
 40
1.0
 10
18.9907980655
 20
43.0096530343
 30
0.0
 10
19.0107538016
 20
43.0124632217
 30
0.0
 10
19.040683014
 20
43.0167459865
 30
0.0
 10
19.0806061971
 20
43.0221864052
 30
0.0
 10
19.1105995892
 20
43.0254626627
 30
0.0
 10
19.140570021
 20
43.0291323287
 30
0.0
 10
19.1705812895
 20
43.0320324174
 30
0.0
 10
19.2006054835
 20
43.0346553871
 30
0.0
 10
19.230613795
 20
43.0376754002
 30
0.0
 10
19.2606727108
 20
43.0393843586
 30
0.0
 10
19.2907201948
 20
43.0414924637
 30
0.0
 10
19.3207628018
 20
43.0433150367
 30
0.0
 10
19.3458574753
 20
43.0442164232
 30
0.0
 10
19.3658337118
 20
43.0450782257
 30
0.0
 10
19.3785380315
 20
43.0455738311
 30
0.0
 10
19.3882003503
 20
43.0460383929
 30
0.0
 10
19.3968189971
 20
43.0462083946
 30
0.0
 10
19.4058220794
 20
43.0463286236
 30
0.0
 10
19.4236304431
 20
43.0465946907
 30
0.0
 10
19.450426735
 20
43.0469829488
 30
0.0
 10
19.4742116309
 20
43.047332473
 30
0.0
 10
19.4861083326
 20
43.0475066844
 30
0.0
  0
SPLINE
  5
2B4
100
AcDbEntity
  8
00_COMPONENTS
100
AcDbSpline
 62
7
  6
BYLAYER
 70
0
 71
3
 72
9
 73
5
 74
0
 42
0.0000001
 43
0.0000001
 44
0.0000000001
 40
0.0
 40
0.0
 40
0.0
 40
0.0
 40
0.4588043831
 40
1.0
 40
1.0
 40
1.0
 40
1.0
 10
27.310532669
 20
8.7474876459
 30
0.0
 10
26.9861214334
 20
8.7472084321
 30
0.0
 10
26.2790414587
 20
8.747020781
 30
0.0
 10
25.5719615735
 20
8.7472547564
 30
0.0
 10
25.1892931033
 20
8.7474876459
 30
0.0
  0
SPLINE
  5
2B5
100
AcDbEntity
  8
00_COMPONENTS
100
AcDbSpline
 62
7
  6
BYLAYER
 70
0
 71
3
 72
9
 73
5
 74
0
 42
0.0000001
 43
0.0000001
 44
0.0000000001
 40
0.0
 40
0.0
 40
0.0
 40
0.0
 40
0.5411956169
 40
1.0
 40
1.0
 40
1.0
 40
1.0
 10
25.2434832249
 20
23.7387226997
 30
0.0
 10
25.6261516954
 20
23.738490499
 30
0.0
 10
26.3332315804
 20
23.7382550551
 30
0.0
 10
27.0403115542
 20
23.7384443129
 30
0.0
 10
27.3647227906
 20
23.7387226997
 30
0.0
  0
SPLINE
  5
2B6
100
AcDbEntity
  8
00_COMPONENTS
100
AcDbSpline
 62
7
  6
BYLAYER
 70
0
 71
3
 72
9
 73
5
 74
0
 42
0.0000001
 43
0.0000001
 44
0.0000000001
 40
0.0
 40
0.0
 40
0.0
 40
0.0
 40
0.5411956169
 40
1.0
 40
1.0
 40
1.0
 40
1.0
 10
13.7829235932
 20
8.7474876459
 30
0.0
 10
13.400255123
 20
8.7472547564
 30
0.0
 10
12.6931752379
 20
8.747020781
 30
0.0
 10
11.9860952632
 20
8.7472084321
 30
0.0
 10
11.6616840275
 20
8.7474876459
 30
0.0
  0
SPLINE
  5
2B7
100
AcDbEntity
  8
00_COMPONENTS
100
AcDbSpline
 62
7
  6
BYLAYER
 70
0
 71
3
 72
9
 73
5
 74
0
 42
0.0000001
 43
0.0000001
 44
0.0000000001
 40
0.0
 40
0.0
 40
0.0
 40
0.0
 40
0.4588043831
 40
1.0
 40
1.0
 40
1.0
 40
1.0
 10
11.6074939059
 20
23.7387226997
 30
0.0
 10
11.9319051423
 20
23.738444313
 30
0.0
 10
12.6389851161
 20
23.7382550551
 30
0.0
 10
13.3460650011
 20
23.738490499
 30
0.0
 10
13.7287334717
 20
23.7387226997
 30
0.0
  0
ENDSEC
  0
SECTION
  2
OBJECTS
  0
DICTIONARY
  5
C
100
AcDbDictionary
280
0
281
1
  3
ACAD_GROUP
350
D
  3
ACAD_MLINESTYLE
350
17
  3
ACAD_LAYOUT
350
1A
  3
ACAD_PLOTSETTINGS
350
19
  3
ACAD_PLOTSTYLENAME
350
E
  0
DICTIONARY
  5
D
102
{ACAD_REACTORS
330
C
102
}
100
AcDbDictionary
280
0
281
1
  0
ACDBDICTIONARYWDFLT
  5
E
102
{ACAD_REACTORS
330
C
102
}
100
AcDbDictionary
281
1
  3
Normal
350
F
100
AcDbDictionaryWithDefault
340
F
  0
DICTIONARY
  5
17
102
{ACAD_REACTORS
330
C
102
}
100
AcDbDictionary
280
0
281
1
  3
Standard
350
18
  0
DICTIONARY
  5
19
102
{ACAD_REACTORS
330
C
102
}
100
AcDbDictionary
281
1
  0
DICTIONARY
  5
1A
102
{ACAD_REACTORS
330
C
102
}
100
AcDbDictionary
281
1
  3
Model
350
2B8
  3
Layout1
350
2B9
  0
ACDBPLACEHOLDER
  5
F
102
{ACAD_REACTORS
330
E
102
}
  0
MLINESTYLE
  5
18
102
{ACAD_REACTORS
330
17
102
}
100
AcDbMlineStyle
  2
STANDARD
 70
0
  3

 62
256
 51
90.0
 52
90.0
 71
2
 49
0.5
 62
256
  6
BYLAYER
 49
-0.5
 62
256
  6
BYLAYER
  0
LAYOUT
  5
2B8
102
{ACAD_REACTORS
330
1A
102
}
100
AcDbPlotSettings
  1

  2
none_device
  4

  6

 40
0.0
 41
0.0
 42
0.0
 43
0.0
 44
210.0
 45
297.0
 46
0.0
 47
0.0
 48
0.0
 49
0.0
140
0.0
141
0.0
142
1.0
143
1.0
 70
1024
 72
1
 73
0
 74
0
  7

 75
0
147
1.0
148
0.0
149
0.0
100
AcDbLayout
  1
Model
 70
0
 71
0
 10
0.0
 20
0.0
 11
210.0
 21
297.0
 12
0.0
 22
0.0
 32
0.0
 14
0.0
 24
0.0
 34
0.0
 15
0.0
 25
0.0
 35
0.0
146
0.0
 13
0.0
 23
0.0
 33
0.0
 16
1.0
 26
0.0
 36
0.0
 17
0.0
 27
1.0
 37
0.0
 76
0
330
233
345
0
346
0
  0
LAYOUT
  5
2B9
102
{ACAD_REACTORS
330
1A
102
}
100
AcDbPlotSettings
  1

  2
none_device
  4

  6

 40
0.0
 41
0.0
 42
0.0
 43
0.0
 44
210.0
 45
297.0
 46
0.0
 47
0.0
 48
0.0
 49
0.0
140
0.0
141
0.0
142
1.0
143
1.0
 70
0
 72
1
 73
0
 74
0
  7

 75
0
147
1.0
148
0.0
149
0.0
100
AcDbLayout
  1
Layout1
 70
0
 71
1
 10
0.0
 20
0.0
 11
210.0
 21
297.0
 12
0.0
 22
0.0
 32
0.0
 14
0.0
 24
0.0
 34
0.0
 15
0.0
 25
0.0
 35
0.0
146
0.0
 13
0.0
 23
0.0
 33
0.0
 16
1.0
 26
0.0
 36
0.0
 17
0.0
 27
1.0
 37
0.0
 76
0
330
234
345
0
346
0
  0
ENDSEC
  0
EOF
