999
DXF file: C:\Users\sesa63760\Dev\_Creo\CAD\MCADID0005854_3D-CAD\mcadid0005854_3d-simplified_6.dxf
999
Pro/ENGINEER 2019471 by Parametric Technology Corporation
  0
SECTION
  2
HEADER
  9
$ACADVER
  1
AC1024
  9
$DWGCODEPAGE
  3
ANSI_1252
  9
$EXTMAX
 10
81.6584665031
 20
115.4884026258
 30
0.0
  9
$EXTMIN
 10
0.0
 20
0.0
 30
0.0
  9
$LIMMIN
 10
0.0
 20
0.0
  9
$LIMMAX
 10
81.6584665031
 20
115.4884026258
  9
$VIEWCTR
 10
40.8292332516
 20
57.7442013129
  9
$VIEWSIZE
 40
115.4884026258
  9
$CLAYER
  8
0
  9
$LTSCALE
 40
7.5281329119
  9
$CELTYPE
  6
BYLAYER
  9
$DIMSCALE
 40
1.0
  9
$DIMASZ
 40
0.9721246012
  9
$DIMEXO
 40
1.0
  9
$DIMDLI
 40
5.2012554664
  9
$DIMEXE
 40
1.0
  9
$DIMCEN
 40
1.2318762947
  9
$DIMLFAC
 40
1.0
  9
$DIMBLK
  1
_FILLED
  9
$DIMALT
 70
0
  9
$DIMALTF
 40
0.0393700787
  9
$DIMTXT
 40
1.3609744417
  9
$DIMTOL
 70
1
  9
$DIMLIM
 70
0
  9
$DIMTFAC
 40
1.0
  9
$DIMTP
 40
0.01
  9
$DIMTM
 40
0.01
  9
$DIMGAP
 40
0.625
  9
$DIMDSEP
 70
46
  9
$AUNITS
 70
0
  9
$PDMODE
 70
3
  9
$PDSIZE
 40
0.3125
  9
$HANDSEED
  5
30A
  9
$TILEMODE
 70
1
  9
$MEASUREMENT
 70
1
  9
$INSUNITS
 70
4
  0
ENDSEC
  0
SECTION
  2
CLASSES
  0
CLASS
  1
ACDBDICTIONARYWDFLT
  2
AcDbDictionaryWithDefault
  3
AutoCAD 2000
 90
0
 91
1
280
0
281
0
  0
CLASS
  1
ACDBPLACEHOLDER
  2
AcDbPlaceHolder
  3
AutoCAD 2000
 90
0
 91
1
280
0
281
0
  0
CLASS
  1
LAYOUT
  2
AcDbLayout
  3
AutoCAD 2000
 90
0
 91
0
280
0
281
0
  0
ENDSEC
  0
SECTION
  2
TABLES
  0
TABLE
  2
VPORT
  5
8
100
AcDbSymbolTable
 70
2
  0
VPORT
  5
1F4
100
AcDbSymbolTableRecord
100
AcDbViewportTableRecord
  2
*ACTIVE
 70
0
 10
0.0
 20
0.0
 11
1.0
 21
1.0
 12
40.8292332516
 22
57.7442013129
 13
0.0
 23
0.0
 14
1.0
 24
1.0
 15
0.0
 25
0.0
 16
0.0
 26
0.0
 36
1.0
 17
0.0
 27
0.0
 37
0.0
 40
115.4884026258
 41
0.7070707071
 42
50.0
 43
0.0
 44
0.0
 50
0.0
 51
0.0
 71
0
 72
100
 73
1
 74
1
 75
0
 76
0
 77
0
 78
0
  0
ENDTAB
  0
TABLE
  2
LTYPE
  5
5
100
AcDbSymbolTable
 70
6
  0
LTYPE
  5
14
100
AcDbSymbolTableRecord
100
AcDbLinetypeTableRecord
  2
BYBLOCK
 70
0
  3

 72
65
 73
0
 40
0.0
  0
LTYPE
  5
15
100
AcDbSymbolTableRecord
100
AcDbLinetypeTableRecord
  2
BYLAYER
 70
0
  3

 72
65
 73
0
 40
0.0
  0
LTYPE
  5
16
100
AcDbSymbolTableRecord
100
AcDbLinetypeTableRecord
  2
CONTINUOUS
 70
64
  3
Solid line
 72
65
 73
0
 40
0.0
  0
LTYPE
  5
1F5
100
AcDbSymbolTableRecord
100
AcDbLinetypeTableRecord
  2
CENTER
 70
64
  3
____ _ ____ _ ____ _ ____ _ ____ _ ____ _ ____
 72
65
 73
4
 40
0.6
 49
0.375
 74
0
 49
-0.075
 74
0
 49
0.075
 74
0
 49
-0.075
 74
0
  0
LTYPE
  5
1F6
100
AcDbSymbolTableRecord
100
AcDbLinetypeTableRecord
  2
HIDDEN
 70
64
  3
- - - - - - - - - - - - - - - - - - - -
 72
65
 73
2
 40
0.2
 49
0.1
 74
0
 49
-0.1
 74
0
  0
LTYPE
  5
1F7
100
AcDbSymbolTableRecord
100
AcDbLinetypeTableRecord
  2
PHANTOM
 70
64
  3
_____ _ _ _____ _ _ _____ _ _ _____
 72
65
 73
6
 40
0.8
 49
0.45
 74
0
 49
-0.05
 74
0
 49
0.1
 74
0
 49
-0.05
 74
0
 49
0.1
 74
0
 49
-0.05
 74
0
  0
LTYPE
  5
1F8
100
AcDbSymbolTableRecord
100
AcDbLinetypeTableRecord
  2
DOT
 70
64
  3
. . . . . . . . . . . . . . . . . . . .
 72
65
 73
2
 40
0.2
 49
0.1
 74
0
 49
-0.1
 74
0
  0
LTYPE
  5
1F9
100
AcDbSymbolTableRecord
100
AcDbLinetypeTableRecord
  2
DASHED
 70
64
  3
- - - - - - - - - - - - - - - - - - - -
 72
65
 73
2
 40
0.2
 49
0.1
 74
0
 49
-0.1
 74
0
  0
ENDTAB
  0
TABLE
  2
LAYER
  5
2
100
AcDbSymbolTable
 70
36
  0
LAYER
  5
10
100
AcDbSymbolTableRecord
100
AcDbLayerTableRecord
  2
0
 70
0
 62
7
  6
CONTINUOUS
370
-3
390
F
  0
LAYER
  5
1FA
100
AcDbSymbolTableRecord
100
AcDbLayerTableRecord
  2
DEFAULT_1
 70
0
 62
7
  6
CENTER
370
-3
390
F
  0
LAYER
  5
1FB
100
AcDbSymbolTableRecord
100
AcDbLayerTableRecord
  2
DEFAULT_2
 70
0
 62
7
  6
HIDDEN
370
-3
390
F
  0
LAYER
  5
1FC
100
AcDbSymbolTableRecord
100
AcDbLayerTableRecord
  2
DEFAULT_3
 70
0
 62
7
  6
PHANTOM
370
-3
390
F
  0
LAYER
  5
1FD
100
AcDbSymbolTableRecord
100
AcDbLayerTableRecord
  2
00_COMPONENTS
 70
0
 62
7
  6
CONTINUOUS
370
-3
390
F
  0
LAYER
  5
1FE
100
AcDbSymbolTableRecord
100
AcDbLayerTableRecord
  2
01_1_DEFAULT_DATUMS
 70
0
 62
7
  6
CONTINUOUS
370
-3
390
F
  0
LAYER
  5
1FF
100
AcDbSymbolTableRecord
100
AcDbLayerTableRecord
  2
01_PLANES
 70
0
 62
7
  6
CONTINUOUS
370
-3
390
F
  0
LAYER
  5
200
100
AcDbSymbolTableRecord
100
AcDbLayerTableRecord
  2
02_COORD_SYS
 70
0
 62
7
  6
CONTINUOUS
370
-3
390
F
  0
LAYER
  5
201
100
AcDbSymbolTableRecord
100
AcDbLayerTableRecord
  2
03_AXES
 70
0
 62
7
  6
CONTINUOUS
370
-3
390
F
  0
LAYER
  5
202
100
AcDbSymbolTableRecord
100
AcDbLayerTableRecord
  2
04_POINTS
 70
0
 62
7
  6
CONTINUOUS
370
-3
390
F
  0
LAYER
  5
203
100
AcDbSymbolTableRecord
100
AcDbLayerTableRecord
  2
05_CURVES
 70
0
 62
7
  6
CONTINUOUS
370
-3
390
F
  0
LAYER
  5
204
100
AcDbSymbolTableRecord
100
AcDbLayerTableRecord
  2
06_SURFS
 70
0
 62
7
  6
CONTINUOUS
370
-3
390
F
  0
LAYER
  5
205
100
AcDbSymbolTableRecord
100
AcDbLayerTableRecord
  2
07_COSMETICS
 70
0
 62
7
  6
CONTINUOUS
370
-3
390
F
  0
LAYER
  5
206
100
AcDbSymbolTableRecord
100
AcDbLayerTableRecord
  2
10_NOTES
 70
0
 62
7
  6
CONTINUOUS
370
-3
390
F
  0
LAYER
  5
207
100
AcDbSymbolTableRecord
100
AcDbLayerTableRecord
  2
11_NOTES_PUB
 70
0
 62
7
  6
CONTINUOUS
370
-3
390
F
  0
LAYER
  5
208
100
AcDbSymbolTableRecord
100
AcDbLayerTableRecord
  2
13_REF_GTOL
 70
0
 62
7
  6
CONTINUOUS
370
-3
390
F
  0
LAYER
  5
209
100
AcDbSymbolTableRecord
100
AcDbLayerTableRecord
  2
16_MISC
 70
0
 62
7
  6
CONTINUOUS
370
-3
390
F
  0
LAYER
  5
20A
100
AcDbSymbolTableRecord
100
AcDbLayerTableRecord
  2
17_NO_PRINT
 70
0
 62
7
  6
CONTINUOUS
370
-3
390
F
  0
LAYER
  5
20B
100
AcDbSymbolTableRecord
100
AcDbLayerTableRecord
  2
18_DATUM_CAMS_JOINTS
 70
0
 62
7
  6
CONTINUOUS
370
-3
390
F
  0
LAYER
  5
20C
100
AcDbSymbolTableRecord
100
AcDbLayerTableRecord
  2
19_DATUM_FUNCTIONAL
 70
0
 62
7
  6
CONTINUOUS
370
-3
390
F
  0
LAYER
  5
20D
100
AcDbSymbolTableRecord
100
AcDbLayerTableRecord
  2
20_DATUM_KINEMATIC_SCHEME
 70
0
 62
7
  6
CONTINUOUS
370
-3
390
F
  0
ENDTAB
  0
TABLE
  2
STYLE
  5
3
100
AcDbSymbolTable
 70
1
  0
STYLE
  5
11
100
AcDbSymbolTableRecord
100
AcDbTextStyleTableRecord
  2
STANDARD
 70
0
 40
0.0
 41
1.0
 50
0.0
 71
0
 42
0.2
  3
ARIAL.TTF
  4

  0
STYLE
  5
20E
100
AcDbSymbolTableRecord
100
AcDbTextStyleTableRecord
  2
TEXTSTYLE_1
 70
0
 40
0.0
 41
0.8
 50
0.0
 71
0
 42
0.2
  3
gdt
  4

  0
ENDTAB
  0
TABLE
  2
VIEW
  5
6
100
AcDbSymbolTable
 70
0
  0
ENDTAB
  0
TABLE
  2
UCS
  5
7
100
AcDbSymbolTable
 70
0
  0
ENDTAB
  0
TABLE
  2
APPID
  5
9
100
AcDbSymbolTable
 70
1
  0
APPID
  5
20F
100
AcDbSymbolTableRecord
100
AcDbRegAppTableRecord
  2
ACAD
 70
0
  0
ENDTAB
  0
TABLE
  2
BLOCK_RECORD
  5
1
100
AcDbSymbolTable
 70
0
  0
BLOCK_RECORD
  5
210
100
AcDbSymbolTableRecord
100
AcDbBlockTableRecord
  2
*Model_Space
  0
BLOCK_RECORD
  5
211
100
AcDbSymbolTableRecord
100
AcDbBlockTableRecord
  2
*Paper_Space
  0
BLOCK_RECORD
  5
212
100
AcDbSymbolTableRecord
100
AcDbBlockTableRecord
  2
_FILLED
  0
ENDTAB
  0
TABLE
  2
DIMSTYLE
  5
A
100
AcDbSymbolTable
 70
1
100
AcDbDimStyleTable
 71
0
  0
DIMSTYLE
105
213
100
AcDbSymbolTableRecord
100
AcDbDimStyleTableRecord
  2
STANDARD
 70
0
  3

  4

 40
1.0
 41
0.9721246012
 42
1.0
 43
0.38
 44
1.0
 45
0.0
 46
0.0
 47
0.01
 48
0.01
140
1.3609744417
141
0.09
142
0.0
143
25.4
144
1.0
145
0.0
146
1.0
147
0.625
 71
1
 72
0
 73
0
 74
0
 75
0
 76
0
 77
1
 78
8
 79
2
170
0
171
1
172
0
173
0
174
0
175
0
176
0
177
0
178
0
270
2
179
2
271
2
272
2
273
2
274
2
275
0
280
0
281
0
282
0
283
1
284
8
285
0
286
0
287
3
288
0
340
11
278
46
341
212
342
212
343
212
344
212
  0
ENDTAB
  0
ENDSEC
  0
SECTION
  2
BLOCKS
  0
BLOCK
  5
20
100
AcDbEntity
  8
0
100
AcDbBlockBegin
  2
*Model_Space
 70
0
 10
0.0
 20
0.0
 30
0.0
  3
*Model_Space
  1

  0
ENDBLK
  5
21
100
AcDbEntity
  8
0
100
AcDbBlockEnd
  0
BLOCK
  5
1C
100
AcDbEntity
  8
0
100
AcDbBlockBegin
  2
*Paper_Space
 70
0
 10
0.0
 20
0.0
 30
0.0
  3
*Paper_Space
  1

  0
ENDBLK
  5
1D
100
AcDbEntity
  8
0
100
AcDbBlockEnd
  0
BLOCK
  5
214
100
AcDbEntity
  8
0
100
AcDbBlockBegin
  2
_FILLED
 70
64
 10
0.0
 20
0.0
  3
_FILLED
  1

  0
SOLID
  5
215
100
AcDbEntity
  8
0
  6
BYBLOCK
 62
0
100
AcDbTrace
 10
0.0
 20
0.0
 11
-1.0
 21
0.25
 12
-1.0
 22
-0.25
 13
-1.0
 23
-0.25
  0
ENDBLK
  5
216
100
AcDbEntity
  8
0
  6
BYBLOCK
 62
0
100
AcDbBlockEnd
  0
ENDSEC
  0
SECTION
  2
ENTITIES
  0
LINE
  5
217
100
AcDbEntity
  8
0
100
AcDbLine
 62
7
  6
BYLAYER
 10
9.2360166214
 20
56.7443349393
 11
9.2360166214
 21
58.7440676865
  0
LINE
  5
218
100
AcDbEntity
  8
0
100
AcDbLine
 62
7
  6
BYLAYER
 10
19.2360166214
 20
52.9444561837
 11
19.2360166214
 21
62.5439464421
  0
LINE
  5
219
100
AcDbEntity
  8
0
100
AcDbLine
 62
7
  6
BYLAYER
 10
19.4360166214
 20
52.7442013129
 11
19.4360166214
 21
62.7442013129
  0
LINE
  5
21A
100
AcDbEntity
  8
0
100
AcDbLine
 62
7
  6
BYLAYER
 10
21.2360166214
 20
62.7440756339
 11
21.2360166214
 21
52.7444779365
  0
LINE
  5
21B
100
AcDbEntity
  8
0
100
AcDbLine
 62
7
  6
BYLAYER
 10
21.3360166214
 20
52.7444576166
 11
21.3360166214
 21
62.7439450092
  0
LINE
  5
21C
100
AcDbEntity
  8
0
100
AcDbLine
 62
7
  6
BYLAYER
 10
27.2360166214
 20
62.7442013129
 11
27.2360166214
 21
52.7442013129
  0
LINE
  5
21D
100
AcDbEntity
  8
0
100
AcDbLine
 62
7
  6
BYLAYER
 10
28.2360166214
 20
51.7442013129
 11
28.2360166214
 21
63.7442013129
  0
LINE
  5
21E
100
AcDbEntity
  8
0
100
AcDbLine
 62
7
  6
BYLAYER
 10
27.2360166214
 20
62.7442013129
 11
28.2360166214
 21
63.7442013129
  0
LINE
  5
21F
100
AcDbEntity
  8
0
100
AcDbLine
 62
7
  6
BYLAYER
 10
27.2360166214
 20
52.7442013129
 11
28.2360166214
 21
51.7442013129
  0
LINE
  5
220
100
AcDbEntity
  8
0
100
AcDbLine
 62
7
  6
BYLAYER
 10
59.0360166214
 20
50.4927911514
 11
58.8360166214
 21
50.4392013129
  0
LINE
  5
221
100
AcDbEntity
  8
0
100
AcDbLine
 62
7
  6
BYLAYER
 10
58.1614140862
 20
48.0792467367
 11
56.5106191483
 21
48.0792467367
  0
LINE
  5
222
100
AcDbEntity
  8
0
100
AcDbLine
 62
7
  6
BYLAYER
 10
63.5106191566
 20
48.0792467367
 11
65.1614140862
 21
48.0792467367
  0
LINE
  5
223
100
AcDbEntity
  8
0
100
AcDbLine
 62
7
  6
BYLAYER
 10
68.6360166214
 20
51.7442013129
 11
65.8360166214
 21
51.7442013129
  0
LINE
  5
224
100
AcDbEntity
  8
0
100
AcDbLine
 62
7
  6
BYLAYER
 10
62.3406496209
 20
51.7442013129
 11
59.3313862754
 21
51.7442013129
  0
LINE
  5
225
100
AcDbEntity
  8
0
100
AcDbLine
 62
7
  6
BYLAYER
 10
55.8360166214
 20
51.7442013129
 11
28.2360166214
 21
51.7442013129
  0
LINE
  5
226
100
AcDbEntity
  8
0
100
AcDbLine
 62
7
  6
BYLAYER
 10
68.8360166214
 20
52.5442013129
 11
73.7683039814
 21
52.5442013129
  0
LINE
  5
227
100
AcDbEntity
  8
0
100
AcDbLine
 62
7
  6
BYLAYER
 10
58.1614140873
 20
52.6867240248
 11
56.5106191555
 21
52.6867240248
  0
LINE
  5
228
100
AcDbEntity
  8
0
100
AcDbLine
 62
7
  6
BYLAYER
 10
63.5106191555
 20
52.6867240248
 11
65.1614140955
 21
52.6867240248
  0
LINE
  5
229
100
AcDbEntity
  8
0
100
AcDbLine
 62
7
  6
BYLAYER
 10
27.2360166214
 20
52.7442013129
 11
21.3360166214
 21
52.7442013129
  0
LINE
  5
22A
100
AcDbEntity
  8
0
100
AcDbLine
 62
7
  6
BYLAYER
 10
21.2360166214
 20
52.7442013129
 11
19.4360166214
 21
52.7442013129
  0
LINE
  5
22B
100
AcDbEntity
  8
0
100
AcDbLine
 62
7
  6
BYLAYER
 10
21.3360166214
 20
52.7942013129
 11
21.2360166214
 21
52.7942013129
  0
LINE
  5
22C
100
AcDbEntity
  8
0
100
AcDbLine
 62
7
  6
BYLAYER
 10
58.2155090094
 20
53.3367240248
 11
56.4565242527
 21
53.3367240248
  0
LINE
  5
22D
100
AcDbEntity
  8
0
100
AcDbLine
 62
7
  6
BYLAYER
 10
63.4565242334
 20
53.3367240248
 11
65.2155089118
 21
53.3367240248
  0
LINE
  5
22E
100
AcDbEntity
  8
0
100
AcDbLine
 62
7
  6
BYLAYER
 10
9.2360166214
 20
56.7442013129
 11
19.2360166214
 21
56.7442013129
  0
LINE
  5
22F
100
AcDbEntity
  8
0
100
AcDbLine
 62
7
  6
BYLAYER
 10
62.6360166214
 20
50.4927911514
 11
62.8360166214
 21
50.4392013129
  0
LINE
  5
230
100
AcDbEntity
  8
0
100
AcDbLine
 62
7
  6
BYLAYER
 10
62.1360166214
 20
64.8616368782
 11
62.8360166214
 21
65.0492013129
  0
LINE
  5
231
100
AcDbEntity
  8
0
100
AcDbLine
 62
7
  6
BYLAYER
 10
9.2360166214
 20
58.7442013129
 11
19.2360166214
 21
58.7442013129
  0
LINE
  5
232
100
AcDbEntity
  8
0
100
AcDbLine
 62
7
  6
BYLAYER
 10
58.2155090094
 20
62.151678601
 11
56.4565243309
 21
62.151678601
  0
LINE
  5
233
100
AcDbEntity
  8
0
100
AcDbLine
 62
7
  6
BYLAYER
 10
63.4565242334
 20
62.151678601
 11
65.21550899
 21
62.151678601
  0
LINE
  5
234
100
AcDbEntity
  8
0
100
AcDbLine
 62
7
  6
BYLAYER
 10
21.3360166214
 20
62.6942013129
 11
21.2360166214
 21
62.6942013129
  0
LINE
  5
235
100
AcDbEntity
  8
0
100
AcDbLine
 62
7
  6
BYLAYER
 10
27.2360166214
 20
62.7442013129
 11
21.3360166214
 21
62.7442013129
  0
LINE
  5
236
100
AcDbEntity
  8
0
100
AcDbLine
 62
7
  6
BYLAYER
 10
21.2360166214
 20
62.7442013129
 11
19.4360166214
 21
62.7442013129
  0
LINE
  5
237
100
AcDbEntity
  8
0
100
AcDbLine
 62
7
  6
BYLAYER
 10
58.1614140862
 20
62.801678601
 11
56.5106191483
 21
62.801678601
  0
LINE
  5
238
100
AcDbEntity
  8
0
100
AcDbLine
 62
7
  6
BYLAYER
 10
63.5106191566
 20
62.801678601
 11
65.161414055
 21
62.801678601
  0
LINE
  5
239
100
AcDbEntity
  8
0
100
AcDbLine
 62
7
  6
BYLAYER
 10
68.8360166214
 20
62.9442013129
 11
73.7683039814
 21
62.9442013129
  0
LINE
  5
23A
100
AcDbEntity
  8
0
100
AcDbLine
 62
7
  6
BYLAYER
 10
68.6360166214
 20
63.7442013129
 11
65.8360166214
 21
63.7442013129
  0
LINE
  5
23B
100
AcDbEntity
  8
0
100
AcDbLine
 62
7
  6
BYLAYER
 10
62.1360166214
 20
63.7442013129
 11
59.5360166214
 21
63.7442013129
  0
LINE
  5
23C
100
AcDbEntity
  8
0
100
AcDbLine
 62
7
  6
BYLAYER
 10
55.8360166214
 20
63.7442013129
 11
28.2360166214
 21
63.7442013129
  0
LINE
  5
23D
100
AcDbEntity
  8
0
100
AcDbLine
 62
7
  6
BYLAYER
 10
55.8360166214
 20
66.2442013129
 11
56.4869528244
 21
67.3716558891
  0
LINE
  5
23E
100
AcDbEntity
  8
0
100
AcDbLine
 62
7
  6
BYLAYER
 10
55.8360166214
 20
49.2442013129
 11
56.4869528244
 21
48.1167467367
  0
LINE
  5
23F
100
AcDbEntity
  8
0
100
AcDbLine
 62
7
  6
BYLAYER
 10
58.1614140873
 20
67.4091558891
 11
56.5106191871
 21
67.4091558891
  0
LINE
  5
240
100
AcDbEntity
  8
0
100
AcDbLine
 62
7
  6
BYLAYER
 10
63.5106191555
 20
67.4091558891
 11
65.1614140955
 21
67.4091558891
  0
LINE
  5
241
100
AcDbEntity
  8
0
100
AcDbLine
 62
7
  6
BYLAYER
 10
59.5360166214
 20
64.8616368782
 11
58.8360166214
 21
65.0492013129
  0
LINE
  5
242
100
AcDbEntity
  8
0
100
AcDbLine
 62
7
  6
BYLAYER
 10
55.8360166214
 20
49.2442041805
 11
55.8360166214
 21
66.2441984454
  0
LINE
  5
243
100
AcDbEntity
  8
0
100
AcDbLine
 62
7
  6
BYLAYER
 10
62.8360166214
 20
66.2442013129
 11
63.4869528244
 21
67.3716558891
  0
LINE
  5
244
100
AcDbEntity
  8
0
100
AcDbLine
 62
7
  6
BYLAYER
 10
62.8360166214
 20
49.2442013129
 11
63.4869528244
 21
48.1167467367
  0
LINE
  5
245
100
AcDbEntity
  8
0
100
AcDbLine
 62
7
  6
BYLAYER
 10
58.8360166214
 20
66.2441984454
 11
58.8360166214
 21
49.2442041805
  0
LINE
  5
246
100
AcDbEntity
  8
0
100
AcDbLine
 62
7
  6
BYLAYER
 10
59.5360166214
 20
64.8602903915
 11
59.5360166214
 21
64.5591882335
  0
LINE
  5
247
100
AcDbEntity
  8
0
100
AcDbLine
 62
7
  6
BYLAYER
 10
59.5360166214
 20
64.4551758967
 11
59.5360166214
 21
64.2064518332
  0
LINE
  5
248
100
AcDbEntity
  8
0
100
AcDbLine
 62
7
  6
BYLAYER
 10
59.5360166214
 20
63.9240044659
 11
59.5360166214
 21
63.6460133839
  0
LINE
  5
249
100
AcDbEntity
  8
0
100
AcDbLine
 62
7
  6
BYLAYER
 10
59.5360166214
 20
63.194209077
 11
59.5360166214
 21
62.8958858387
  0
LINE
  5
24A
100
AcDbEntity
  8
0
100
AcDbLine
 62
7
  6
BYLAYER
 10
59.5360166214
 20
62.2892459543
 11
59.5360166214
 21
61.980178914
  0
LINE
  5
24B
100
AcDbEntity
  8
0
100
AcDbLine
 62
7
  6
BYLAYER
 10
59.5360166214
 20
61.2382013571
 11
59.5360166214
 21
60.9283241838
  0
LINE
  5
24C
100
AcDbEntity
  8
0
100
AcDbLine
 62
7
  6
BYLAYER
 10
59.5360166214
 20
60.0748567236
 11
59.5360166214
 21
59.7741291246
  0
LINE
  5
24D
100
AcDbEntity
  8
0
100
AcDbLine
 62
7
  6
BYLAYER
 10
59.5360166214
 20
58.8366029076
 11
59.5360166214
 21
58.5546905154
  0
LINE
  5
24E
100
AcDbEntity
  8
0
100
AcDbLine
 62
7
  6
BYLAYER
 10
59.5360166214
 20
57.5632384054
 11
59.5360166214
 21
57.2866399618
  0
LINE
  5
24F
100
AcDbEntity
  8
0
100
AcDbLine
 62
7
  6
BYLAYER
 10
59.5360166214
 20
56.3182523545
 11
59.5360166214
 21
56.02575485
  0
LINE
  5
250
100
AcDbEntity
  8
0
100
AcDbLine
 62
7
  6
BYLAYER
 10
59.5360166214
 20
55.126638433
 11
59.5360166214
 21
54.8201020214
  0
LINE
  5
251
100
AcDbEntity
  8
0
100
AcDbLine
 62
7
  6
BYLAYER
 10
59.5360166214
 20
54.0191551362
 11
59.5360166214
 21
53.70843215
  0
LINE
  5
252
100
AcDbEntity
  8
0
100
AcDbLine
 62
7
  6
BYLAYER
 10
59.5360166214
 20
53.0313978884
 11
59.5360166214
 21
52.7264752201
  0
LINE
  5
253
100
AcDbEntity
  8
0
100
AcDbLine
 62
7
  6
BYLAYER
 10
59.5360166214
 20
52.1951140205
 11
59.5360166214
 21
51.9057921355
  0
LINE
  5
254
100
AcDbEntity
  8
0
100
AcDbLine
 62
7
  6
BYLAYER
 10
59.5360166214
 20
51.5371823839
 11
59.5360166214
 21
51.2727603257
  0
LINE
  5
255
100
AcDbEntity
  8
0
100
AcDbLine
 62
7
  6
BYLAYER
 10
59.5360166214
 20
51.0787494428
 11
59.5360166214
 21
50.8477259539
  0
LINE
  5
256
100
AcDbEntity
  8
0
100
AcDbLine
 62
7
  6
BYLAYER
 10
59.5360166214
 20
50.8345496092
 11
59.5360166214
 21
50.6443499746
  0
LINE
  5
257
100
AcDbEntity
  8
0
100
AcDbLine
 62
7
  6
BYLAYER
 10
58.8360166214
 20
49.2442013129
 11
58.1850804183
 21
48.1167467367
  0
LINE
  5
258
100
AcDbEntity
  8
0
100
AcDbLine
 62
7
  6
BYLAYER
 10
58.8360166214
 20
66.2442013129
 11
58.1850804183
 21
67.3716558891
  0
LINE
  5
259
100
AcDbEntity
  8
0
100
AcDbLine
 62
7
  6
BYLAYER
 10
62.1360166214
 20
50.6443499746
 11
62.1360166214
 21
50.8345496092
  0
LINE
  5
25A
100
AcDbEntity
  8
0
100
AcDbLine
 62
7
  6
BYLAYER
 10
62.1360166214
 20
50.8477259539
 11
62.1360166214
 21
51.0787494428
  0
LINE
  5
25B
100
AcDbEntity
  8
0
100
AcDbLine
 62
7
  6
BYLAYER
 10
62.1360166214
 20
51.2727603257
 11
62.1360166214
 21
51.5371823839
  0
LINE
  5
25C
100
AcDbEntity
  8
0
100
AcDbLine
 62
7
  6
BYLAYER
 10
62.1360166214
 20
51.9057921355
 11
62.1360166214
 21
52.1951140205
  0
LINE
  5
25D
100
AcDbEntity
  8
0
100
AcDbLine
 62
7
  6
BYLAYER
 10
62.1360166214
 20
52.7264752201
 11
62.1360166214
 21
53.0313978884
  0
LINE
  5
25E
100
AcDbEntity
  8
0
100
AcDbLine
 62
7
  6
BYLAYER
 10
62.1360166214
 20
53.70843215
 11
62.1360166214
 21
54.0191551362
  0
LINE
  5
25F
100
AcDbEntity
  8
0
100
AcDbLine
 62
7
  6
BYLAYER
 10
62.1360166214
 20
54.8201020214
 11
62.1360166214
 21
55.126638433
  0
LINE
  5
260
100
AcDbEntity
  8
0
100
AcDbLine
 62
7
  6
BYLAYER
 10
62.1360166214
 20
56.02575485
 11
62.1360166214
 21
56.3182523545
  0
LINE
  5
261
100
AcDbEntity
  8
0
100
AcDbLine
 62
7
  6
BYLAYER
 10
62.1360166214
 20
57.2866399618
 11
62.1360166214
 21
57.5632384054
  0
LINE
  5
262
100
AcDbEntity
  8
0
100
AcDbLine
 62
7
  6
BYLAYER
 10
62.1360166214
 20
58.5546905154
 11
62.1360166214
 21
58.8366029076
  0
LINE
  5
263
100
AcDbEntity
  8
0
100
AcDbLine
 62
7
  6
BYLAYER
 10
62.1360166214
 20
59.7741291246
 11
62.1360166214
 21
60.0748567236
  0
LINE
  5
264
100
AcDbEntity
  8
0
100
AcDbLine
 62
7
  6
BYLAYER
 10
62.1360166214
 20
60.9283241838
 11
62.1360166214
 21
61.2382013571
  0
LINE
  5
265
100
AcDbEntity
  8
0
100
AcDbLine
 62
7
  6
BYLAYER
 10
62.1360166214
 20
61.980178914
 11
62.1360166214
 21
62.2892459543
  0
LINE
  5
266
100
AcDbEntity
  8
0
100
AcDbLine
 62
7
  6
BYLAYER
 10
62.1360166214
 20
62.8958858387
 11
62.1360166214
 21
63.194209077
  0
LINE
  5
267
100
AcDbEntity
  8
0
100
AcDbLine
 62
7
  6
BYLAYER
 10
62.1360166214
 20
63.6460133839
 11
62.1360166214
 21
63.9240044659
  0
LINE
  5
268
100
AcDbEntity
  8
0
100
AcDbLine
 62
7
  6
BYLAYER
 10
62.1360166214
 20
64.2064518332
 11
62.1360166214
 21
64.4551758967
  0
LINE
  5
269
100
AcDbEntity
  8
0
100
AcDbLine
 62
7
  6
BYLAYER
 10
62.1360166214
 20
64.5591882335
 11
62.1360166214
 21
64.8602903915
  0
LINE
  5
26A
100
AcDbEntity
  8
0
100
AcDbLine
 62
7
  6
BYLAYER
 10
62.8360166214
 20
49.2442041805
 11
62.8360166214
 21
66.2441984454
  0
LINE
  5
26B
100
AcDbEntity
  8
0
100
AcDbLine
 62
7
  6
BYLAYER
 10
65.8360166214
 20
66.2441984454
 11
65.8360166214
 21
49.2442041805
  0
LINE
  5
26C
100
AcDbEntity
  8
0
100
AcDbLine
 62
7
  6
BYLAYER
 10
68.8360166214
 20
51.9442013129
 11
68.6360166214
 21
51.7442013129
  0
LINE
  5
26D
100
AcDbEntity
  8
0
100
AcDbLine
 62
7
  6
BYLAYER
 10
68.8360166214
 20
63.5442013129
 11
68.6360166214
 21
63.7442013129
  0
LINE
  5
26E
100
AcDbEntity
  8
0
100
AcDbLine
 62
7
  6
BYLAYER
 10
68.6360166214
 20
63.7442013129
 11
68.6360166214
 21
51.7442013129
  0
LINE
  5
26F
100
AcDbEntity
  8
0
100
AcDbLine
 62
7
  6
BYLAYER
 10
65.8360166214
 20
49.2442013129
 11
65.1850804183
 21
48.1167467367
  0
LINE
  5
270
100
AcDbEntity
  8
0
100
AcDbLine
 62
7
  6
BYLAYER
 10
65.8360166214
 20
66.2442013129
 11
65.1850804183
 21
67.3716558891
  0
LINE
  5
271
100
AcDbEntity
  8
0
100
AcDbLine
 62
7
  6
BYLAYER
 10
68.8360166214
 20
63.5441679131
 11
68.8360166214
 21
51.9444412266
  0
LINE
  5
272
100
AcDbEntity
  8
0
100
AcDbLine
 62
7
  6
BYLAYER
 10
73.6360166214
 20
62.9442013129
 11
73.6360166214
 21
52.5442013129
  0
LINE
  5
273
100
AcDbEntity
  8
0
100
AcDbLine
 62
7
  6
BYLAYER
 10
73.8360166214
 20
62.7942065056
 11
73.8360166214
 21
52.694201488
  0
ARC
  5
274
100
AcDbEntity
  8
0
100
AcDbCircle
 62
7
  6
BYLAYER
 10
78.2175717436
 20
61.2504715225
 40
14.7885326452
100
AcDbArc
 50
173.9790233607
 51
176.5062541384
  0
ARC
  5
275
100
AcDbEntity
  8
0
100
AcDbCircle
 62
7
  6
BYLAYER
 10
43.4544614991
 20
61.2504715225
 40
14.7885326452
100
AcDbArc
 50
3.4937458616
 51
6.0209766393
  0
ARC
  5
276
100
AcDbEntity
  8
0
100
AcDbCircle
 62
7
  6
BYLAYER
 10
78.217571743
 20
54.2379310784
 40
14.7885326431
100
AcDbArc
 50
183.4937457653
 51
186.020976543
  0
ARC
  5
277
100
AcDbEntity
  8
0
100
AcDbCircle
 62
7
  6
BYLAYER
 10
43.4544614997
 20
54.2379310784
 40
14.7885326431
100
AcDbArc
 50
353.979023457
 51
356.5062542347
  0
ARC
  5
278
100
AcDbEntity
  8
0
100
AcDbCircle
 62
7
  6
BYLAYER
 10
71.2175625205
 20
61.2504729162
 40
14.788523335
100
AcDbArc
 50
173.9790249857
 51
176.5062573459
  0
ARC
  5
279
100
AcDbEntity
  8
0
100
AcDbCircle
 62
7
  6
BYLAYER
 10
50.4544707344
 20
61.2504729174
 40
14.7885233227
100
AcDbArc
 50
3.4937426522
 51
6.0209750144
  0
ARC
  5
27A
100
AcDbEntity
  8
0
100
AcDbCircle
 62
7
  6
BYLAYER
 10
50.454471147
 20
54.2379296486
 40
14.7885229073
100
AcDbArc
 50
353.9790250487
 51
356.5062574816
  0
ARC
  5
27B
100
AcDbEntity
  8
0
100
AcDbCircle
 62
7
  6
BYLAYER
 10
71.2175620839
 20
54.2379296472
 40
14.7885228954
100
AcDbArc
 50
183.4937425156
 51
186.0209749506
  0
ARC
  5
27C
100
AcDbEntity
  8
0
100
AcDbCircle
 62
7
  6
BYLAYER
 10
73.6360166214
 20
52.6942013129
 40
0.2
100
AcDbArc
 50
311.4096221093
 51
360.0
  0
ARC
  5
27D
100
AcDbEntity
  8
0
100
AcDbCircle
 62
7
  6
BYLAYER
 10
73.6360166214
 20
62.7942013129
 40
0.2
100
AcDbArc
 50
0.0
 51
48.5903778907
  0
ARC
  5
27E
100
AcDbEntity
  8
0
100
AcDbCircle
 62
7
  6
BYLAYER
 10
19.4360166214
 20
62.5442013129
 40
0.2
100
AcDbArc
 50
90.0
 51
180.0
  0
ARC
  5
27F
100
AcDbEntity
  8
0
100
AcDbCircle
 62
7
  6
BYLAYER
 10
19.4360166214
 20
52.9442013129
 40
0.2
100
AcDbArc
 50
180.0
 51
270.0
  0
SPLINE
  5
280
100
AcDbEntity
  8
0
100
AcDbSpline
 62
7
  6
BYLAYER
 70
0
 71
3
 72
9
 73
5
 74
0
 42
0.0000001
 43
0.0000001
 44
0.0000000001
 40
0.0
 40
0.0
 40
0.0
 40
0.0
 40
0.2456457997
 40
1.0
 40
1.0
 40
1.0
 40
1.0
 10
65.18508161
 20
67.3716559032
 30
0.0
 10
65.1832660638
 20
67.3748009822
 30
0.0
 10
65.1757443049
 20
67.3875285088
 30
0.0
 10
65.1677140453
 20
67.3999538934
 30
0.0
 10
65.1614140955
 20
67.4091558891
 30
0.0
  0
SPLINE
  5
281
100
AcDbEntity
  8
0
100
AcDbSpline
 62
7
  6
BYLAYER
 70
0
 71
3
 72
9
 73
5
 74
0
 42
0.0000001
 43
0.0000001
 44
0.0000000001
 40
0.0
 40
0.0
 40
0.0
 40
0.0
 40
0.2456457548
 40
1.0
 40
1.0
 40
1.0
 40
1.0
 10
63.4869516977
 20
48.1167467234
 30
0.0
 10
63.4887672381
 20
48.1136016445
 30
0.0
 10
63.4962889728
 20
48.1008741149
 30
0.0
 10
63.5043192107
 20
48.0884487271
 30
0.0
 10
63.5106191566
 20
48.0792467367
 30
0.0
  0
SPLINE
  5
282
100
AcDbEntity
  8
0
100
AcDbSpline
 62
7
  6
BYLAYER
 70
0
 71
3
 72
9
 73
5
 74
0
 42
0.0000001
 43
0.0000001
 44
0.0000000001
 40
0.0
 40
0.0
 40
0.0
 40
0.0
 40
0.2544693665
 40
1.0
 40
1.0
 40
1.0
 40
1.0
 10
63.5106191555
 20
67.4091558891
 30
0.0
 10
63.5084939787
 20
67.4060517583
 30
0.0
 10
63.500252367
 20
67.3937787196
 30
0.0
 10
63.4924618072
 20
67.3812011202
 30
0.0
 10
63.4869516979
 20
67.3716559024
 30
0.0
  0
SPLINE
  5
283
100
AcDbEntity
  8
0
100
AcDbSpline
 62
7
  6
BYLAYER
 70
0
 71
3
 72
9
 73
5
 74
0
 42
0.0000001
 43
0.0000001
 44
0.0000000001
 40
0.0
 40
0.0
 40
0.0
 40
0.0
 40
0.2544692676
 40
1.0
 40
1.0
 40
1.0
 40
1.0
 10
65.1614140944
 20
48.0792467367
 30
0.0
 10
65.1635392719
 20
48.0823508684
 30
0.0
 10
65.1717808952
 20
48.0946239113
 30
0.0
 10
65.1795714833
 20
48.1072015048
 30
0.0
 10
65.1850816106
 20
48.1167467226
 30
0.0
  0
LINE
  5
284
100
AcDbEntity
  8
0
100
AcDbLine
 62
7
  6
BYLAYER
 10
62.3145479102
 20
57.7442013544
 11
62.6360166214
 21
58.0695345996
  0
LINE
  5
285
100
AcDbEntity
  8
0
100
AcDbLine
 62
7
  6
BYLAYER
 10
62.1360166214
 20
57.5632384054
 11
62.3145479102
 21
57.7442013544
  0
SPLINE
  5
286
100
AcDbEntity
  8
0
100
AcDbSpline
 62
7
  6
BYLAYER
 70
0
 71
3
 72
13
 73
9
 74
0
 42
0.0000001
 43
0.0000001
 44
0.0000000001
 40
0.0
 40
0.0
 40
0.0
 40
0.0
 40
0.1204075738
 40
0.2413790086
 40
0.3634049778
 40
0.4869076111
 40
0.7393477075
 40
1.0
 40
1.0
 40
1.0
 40
1.0
 10
62.8360166214
 20
65.1054172411
 30
0.0
 10
62.8360166213
 20
65.202780302
 30
0.0
 10
62.8438205663
 20
65.3980487727
 30
0.0
 10
62.8785306726
 20
65.690121527
 30
0.0
 10
62.9355521388
 20
65.9812168521
 30
0.0
 10
63.0406444986
 20
66.3702191835
 30
0.0
 10
63.2230599994
 20
66.8529398315
 30
0.0
 10
63.4090084519
 20
67.224499831
 30
0.0
 10
63.5106191555
 20
67.4091558891
 30
0.0
  0
SPLINE
  5
287
100
AcDbEntity
  8
0
100
AcDbSpline
 62
7
  6
BYLAYER
 70
0
 71
3
 72
12
 73
8
 74
0
 42
0.0000001
 43
0.0000001
 44
0.0000000001
 40
0.0
 40
0.0
 40
0.0
 40
0.0
 40
0.2606932857
 40
0.5131700517
 40
0.7585851535
 40
0.8795744756
 40
1.0
 40
1.0
 40
1.0
 40
1.0
 10
65.1614140873
 20
52.6867240248
 30
0.0
 10
65.2630255777
 20
52.5020665324
 30
0.0
 10
65.4489965461
 20
52.1304531243
 30
0.0
 10
65.6663065692
 20
51.5555772527
 30
0.0
 10
65.7817709048
 20
51.0668010169
 30
0.0
 10
65.8282209376
 20
50.6756229099
 30
0.0
 10
65.8360166213
 20
50.480348401
 30
0.0
 10
65.8360166214
 20
50.3829853817
 30
0.0
  0
SPLINE
  5
288
100
AcDbEntity
  8
0
100
AcDbSpline
 62
7
  6
BYLAYER
 70
0
 71
3
 72
11
 73
7
 74
0
 42
0.0000001
 43
0.0000001
 44
0.0000000001
 40
0.0
 40
0.0
 40
0.0
 40
0.0
 40
0.2499942762
 40
0.4999901455
 40
0.7499920033
 40
1.0
 40
1.0
 40
1.0
 40
1.0
 10
65.8360166214
 20
57.7442013129
 30
0.0
 10
65.8360166214
 20
57.3722958966
 30
0.0
 10
65.8075984638
 20
56.6281901513
 30
0.0
 10
65.6831224723
 20
55.5185350116
 30
0.0
 10
65.4848992307
 20
54.4198117435
 30
0.0
 10
65.3110385405
 20
53.6961720897
 30
0.0
 10
65.2155089118
 20
53.3367240248
 30
0.0
  0
SPLINE
  5
289
100
AcDbEntity
  8
0
100
AcDbSpline
 62
7
  6
BYLAYER
 70
0
 71
3
 72
12
 73
8
 74
0
 42
0.0000001
 43
0.0000001
 44
0.0000000001
 40
0.0
 40
0.0
 40
0.0
 40
0.0
 40
0.1204255339
 40
0.2414148775
 40
0.4868299847
 40
0.7393067407
 40
1.0
 40
1.0
 40
1.0
 40
1.0
 10
62.8360166214
 20
50.382985403
 30
0.0
 10
62.8360166219
 20
50.4803484289
 30
0.0
 10
62.8438123541
 20
50.6756229579
 30
0.0
 10
62.8902622936
 20
51.0668011007
 30
0.0
 10
63.005726716
 20
51.5555773335
 30
0.0
 10
63.2230367527
 20
52.1304531588
 30
0.0
 10
63.4090076745
 20
52.5020665539
 30
0.0
 10
63.5106191555
 20
52.6867240248
 30
0.0
  0
SPLINE
  5
28A
100
AcDbEntity
  8
0
100
AcDbSpline
 62
7
  6
BYLAYER
 70
0
 71
3
 72
11
 73
7
 74
0
 42
0.0000001
 43
0.0000001
 44
0.0000000001
 40
0.0
 40
0.0
 40
0.0
 40
0.0
 40
0.2500021378
 40
0.5000026229
 40
0.7500023753
 40
1.0
 40
1.0
 40
1.0
 40
1.0
 10
63.4565242334
 20
53.3367240248
 30
0.0
 10
63.3609967756
 20
53.6961638973
 30
0.0
 10
63.1870792115
 20
54.4197806353
 30
0.0
 10
62.988945503
 20
55.5185153632
 30
0.0
 10
62.864392522
 20
56.628170661
 30
0.0
 10
62.8360166214
 20
57.3722906743
 30
0.0
 10
62.8360166214
 20
57.7442013129
 30
0.0
  0
SPLINE
  5
28B
100
AcDbEntity
  8
0
100
AcDbSpline
 62
7
  6
BYLAYER
 70
0
 71
3
 72
13
 73
9
 74
0
 42
0.0000001
 43
0.0000001
 44
0.0000000001
 40
0.0
 40
0.0
 40
0.0
 40
0.0
 40
0.1204075738
 40
0.2413790087
 40
0.3634049779
 40
0.4869076112
 40
0.7393477075
 40
1.0
 40
1.0
 40
1.0
 40
1.0
 10
65.8360166214
 20
50.3829853817
 30
0.0
 10
65.8360166214
 20
50.285622321
 30
0.0
 10
65.8282126742
 20
50.0903538506
 30
0.0
 10
65.7935025652
 20
49.7982810969
 30
0.0
 10
65.7364810995
 20
49.5071857722
 30
0.0
 10
65.6313887414
 20
49.1181834411
 30
0.0
 10
65.4489732428
 20
48.6354627929
 30
0.0
 10
65.2630247879
 20
48.2639027956
 30
0.0
 10
65.1614140862
 20
48.0792467367
 30
0.0
  0
SPLINE
  5
28C
100
AcDbEntity
  8
0
100
AcDbSpline
 62
7
  6
BYLAYER
 70
0
 71
3
 72
13
 73
9
 74
0
 42
0.0000001
 43
0.0000001
 44
0.0000000001
 40
0.0
 40
0.0
 40
0.0
 40
0.0
 40
0.2606523187
 40
0.5130924247
 40
0.6365950603
 40
0.7586210226
 40
0.8795924356
 40
1.0
 40
1.0
 40
1.0
 40
1.0
 10
63.5106191566
 20
48.0792467367
 30
0.0
 10
63.4090084419
 20
48.263902815
 30
0.0
 10
63.2230599425
 20
48.6354628283
 30
0.0
 10
63.0406444683
 20
49.1181835257
 30
0.0
 10
62.9355521298
 20
49.5071858709
 30
0.0
 10
62.8785306886
 20
49.7982811796
 30
0.0
 10
62.8438205183
 20
50.090353899
 30
0.0
 10
62.8360166208
 20
50.2856223489
 30
0.0
 10
62.8360166214
 20
50.382985403
 30
0.0
  0
SPLINE
  5
28D
100
AcDbEntity
  8
0
100
AcDbSpline
 62
7
  6
BYLAYER
 70
0
 71
3
 72
13
 73
9
 74
0
 42
0.0000001
 43
0.0000001
 44
0.0000000001
 40
0.0
 40
0.0
 40
0.0
 40
0.0
 40
0.2606523126
 40
0.5130924098
 40
0.6365950498
 40
0.7586210178
 40
0.8795924342
 40
1.0
 40
1.0
 40
1.0
 40
1.0
 10
65.1614140556
 20
67.4091558891
 30
0.0
 10
65.2630247644
 20
67.2244998179
 30
0.0
 10
65.4489732299
 20
66.852939804
 30
0.0
 10
65.6313885458
 20
66.3702190722
 30
0.0
 10
65.7364809487
 20
65.9812167545
 30
0.0
 10
65.7935024749
 20
65.6901214571
 30
0.0
 10
65.8282127108
 20
65.3980487419
 30
0.0
 10
65.8360166215
 20
65.2027802915
 30
0.0
 10
65.8360166214
 20
65.1054172382
 30
0.0
  0
SPLINE
  5
28E
100
AcDbEntity
  8
0
100
AcDbSpline
 62
7
  6
BYLAYER
 70
0
 71
3
 72
11
 73
7
 74
0
 42
0.0000001
 43
0.0000001
 44
0.0000000001
 40
0.0
 40
0.0
 40
0.0
 40
0.0
 40
0.2499942119
 40
0.4999901773
 40
0.7499920107
 40
1.0
 40
1.0
 40
1.0
 40
1.0
 10
62.8360166214
 20
57.7442013129
 30
0.0
 10
62.8360166214
 20
58.1161067806
 30
0.0
 10
62.8644111681
 20
58.8602143307
 30
0.0
 10
62.9889205544
 20
59.969866086
 30
0.0
 10
63.1871082235
 20
61.0685961115
 30
0.0
 10
63.3609945638
 20
61.7922304062
 30
0.0
 10
63.4565242334
 20
62.151678601
 30
0.0
  0
SPLINE
  5
28F
100
AcDbEntity
  8
0
100
AcDbSpline
 62
7
  6
BYLAYER
 70
0
 71
3
 72
12
 73
8
 74
0
 42
0.0000001
 43
0.0000001
 44
0.0000000001
 40
0.0
 40
0.0
 40
0.0
 40
0.0
 40
0.2606932857
 40
0.5131700517
 40
0.7585851532
 40
0.8795744755
 40
1.0
 40
1.0
 40
1.0
 40
1.0
 10
63.5106191566
 20
62.801678601
 30
0.0
 10
63.4090076645
 20
62.9863360921
 30
0.0
 10
63.2230367
 20
63.3579495014
 30
0.0
 10
63.005726673
 20
63.9328253706
 30
0.0
 10
62.8902623502
 20
64.4216016083
 30
0.0
 10
62.8438123106
 20
64.8127797133
 30
0.0
 10
62.8360166215
 20
65.008054222
 30
0.0
 10
62.8360166214
 20
65.1054172411
 30
0.0
  0
SPLINE
  5
290
100
AcDbEntity
  8
0
100
AcDbSpline
 62
7
  6
BYLAYER
 70
0
 71
3
 72
11
 73
7
 74
0
 42
0.0000001
 43
0.0000001
 44
0.0000000001
 40
0.0
 40
0.0
 40
0.0
 40
0.0
 40
0.2500021179
 40
0.5000026405
 40
0.7500023583
 40
1.0
 40
1.0
 40
1.0
 40
1.0
 10
65.2155089141
 20
62.151678601
 30
0.0
 10
65.3110363128
 20
61.7922389267
 30
0.0
 10
65.4849209521
 20
61.0686154025
 30
0.0
 10
65.6831042704
 20
59.9698897868
 30
0.0
 10
65.807608203
 20
58.8602293671
 30
0.0
 10
65.8360166214
 20
58.1161117997
 30
0.0
 10
65.8360166214
 20
57.7442013129
 30
0.0
  0
SPLINE
  5
291
100
AcDbEntity
  8
0
100
AcDbSpline
 62
7
  6
BYLAYER
 70
0
 71
3
 72
13
 73
9
 74
0
 42
0.0000001
 43
0.0000001
 44
0.0000000001
 40
0.0
 40
0.0
 40
0.0
 40
0.0
 40
0.1204075753
 40
0.2413790138
 40
0.3634049887
 40
0.4869076263
 40
0.7393477139
 40
1.0
 40
1.0
 40
1.0
 40
1.0
 10
65.8360166214
 20
65.1054172382
 30
0.0
 10
65.8360166212
 20
65.0080541779
 30
0.0
 10
65.8282126584
 20
64.8127857063
 30
0.0
 10
65.7935024805
 20
64.5207129563
 30
0.0
 10
65.7364809299
 20
64.2296176422
 30
0.0
 10
65.6313885104
 20
63.8406153367
 30
0.0
 10
65.4489731681
 20
63.357894654
 30
0.0
 10
65.2630247527
 20
62.9863346521
 30
0.0
 10
65.161414055
 20
62.801678601
 30
0.0
  0
SPLINE
  5
292
100
AcDbEntity
  8
0
100
AcDbSpline
 62
7
  6
BYLAYER
 70
0
 71
3
 72
9
 73
5
 74
0
 42
0.0000001
 43
0.0000001
 44
0.0000000001
 40
0.0
 40
0.0
 40
0.0
 40
0.0
 40
0.2456243692
 40
1.0
 40
1.0
 40
1.0
 40
1.0
 10
56.4869481248
 20
67.3716559445
 30
0.0
 10
56.4887629795
 20
67.3748012362
 30
0.0
 10
56.4962842644
 20
67.3875298268
 30
0.0
 10
56.5043187487
 20
67.3999532381
 30
0.0
 10
56.5106191472
 20
67.4091558891
 30
0.0
  0
SPLINE
  5
293
100
AcDbEntity
  8
0
100
AcDbSpline
 62
7
  6
BYLAYER
 70
0
 71
3
 72
9
 73
5
 74
0
 42
0.0000001
 43
0.0000001
 44
0.0000000001
 40
0.0
 40
0.0
 40
0.0
 40
0.0
 40
0.245624377
 40
1.0
 40
1.0
 40
1.0
 40
1.0
 10
58.1850851241
 20
48.1167466813
 30
0.0
 10
58.183270268
 20
48.1136013894
 30
0.0
 10
58.1757489767
 20
48.1008727994
 30
0.0
 10
58.1677144855
 20
48.0884493895
 30
0.0
 10
58.1614140862
 20
48.0792467367
 30
0.0
  0
SPLINE
  5
294
100
AcDbEntity
  8
0
100
AcDbSpline
 62
7
  6
BYLAYER
 70
0
 71
3
 72
9
 73
5
 74
0
 42
0.0000001
 43
0.0000001
 44
0.0000000001
 40
0.0
 40
0.0
 40
0.0
 40
0.0
 40
0.254471822
 40
1.0
 40
1.0
 40
1.0
 40
1.0
 10
56.5106191483
 20
48.0792467367
 30
0.0
 10
56.5084938612
 20
48.0823510285
 30
0.0
 10
56.5002507005
 20
48.0946237328
 30
0.0
 10
56.4924566076
 20
48.1072000297
 30
0.0
 10
56.4869481242
 20
48.1167466813
 30
0.0
  0
LINE
  5
295
100
AcDbEntity
  8
0
100
AcDbLine
 62
7
  6
BYLAYER
 10
59.5360166214
 20
57.5632384054
 11
59.3574853325
 21
57.7442013544
  0
SPLINE
  5
296
100
AcDbEntity
  8
0
100
AcDbSpline
 62
7
  6
BYLAYER
 70
0
 71
3
 72
9
 73
5
 74
0
 42
0.0000001
 43
0.0000001
 44
0.0000000001
 40
0.0
 40
0.0
 40
0.0
 40
0.0
 40
0.2544717996
 40
1.0
 40
1.0
 40
1.0
 40
1.0
 10
58.1614140873
 20
67.4091558891
 30
0.0
 10
58.1635393744
 20
67.4060515971
 30
0.0
 10
58.1717825374
 20
67.3937788918
 30
0.0
 10
58.1795766367
 20
67.3812025965
 30
0.0
 10
58.1850851234
 20
67.3716559445
 30
0.0
  0
LINE
  5
297
100
AcDbEntity
  8
0
100
AcDbLine
 62
7
  6
BYLAYER
 10
59.3574853325
 20
57.7442013544
 11
59.0360166214
 21
58.0695345996
  0
SPLINE
  5
298
100
AcDbEntity
  8
0
100
AcDbSpline
 62
7
  6
BYLAYER
 70
0
 71
3
 72
11
 73
7
 74
0
 42
0.0000001
 43
0.0000001
 44
0.0000000001
 40
0.0
 40
0.0
 40
0.0
 40
0.0
 40
0.2500021179
 40
0.5000026405
 40
0.7500023583
 40
1.0
 40
1.0
 40
1.0
 40
1.0
 10
56.4565243286
 20
53.3367240248
 30
0.0
 10
56.3609969299
 20
53.6961636991
 30
0.0
 10
56.1871122906
 20
54.4197872233
 30
0.0
 10
55.9889289723
 20
55.518512839
 30
0.0
 10
55.8644250398
 20
56.6281732587
 30
0.0
 10
55.8360166214
 20
57.3722908261
 30
0.0
 10
55.8360166214
 20
57.7442013129
 30
0.0
  0
SPLINE
  5
299
100
AcDbEntity
  8
0
100
AcDbSpline
 62
7
  6
BYLAYER
 70
0
 71
3
 72
12
 73
8
 74
0
 42
0.0000001
 43
0.0000001
 44
0.0000000001
 40
0.0
 40
0.0
 40
0.0
 40
0.0
 40
0.1204255339
 40
0.2414148775
 40
0.4868299847
 40
0.7393067406
 40
1.0
 40
1.0
 40
1.0
 40
1.0
 10
55.8360166214
 20
50.3829853817
 30
0.0
 10
55.8360166214
 20
50.4803484086
 30
0.0
 10
55.8438123525
 20
50.6756229393
 30
0.0
 10
55.8902622906
 20
51.0668010858
 30
0.0
 10
56.0057267129
 20
51.5555773229
 30
0.0
 10
56.2230367491
 20
52.1304531544
 30
0.0
 10
56.4090076754
 20
52.5020665512
 30
0.0
 10
56.5106191555
 20
52.6867240248
 30
0.0
  0
SPLINE
  5
29A
100
AcDbEntity
  8
0
100
AcDbSpline
 62
7
  6
BYLAYER
 70
0
 71
3
 72
11
 73
7
 74
0
 42
0.0000001
 43
0.0000001
 44
0.0000000001
 40
0.0
 40
0.0
 40
0.0
 40
0.0
 40
0.2499942119
 40
0.4999901773
 40
0.7499920107
 40
1.0
 40
1.0
 40
1.0
 40
1.0
 10
58.8360166214
 20
57.7442013129
 30
0.0
 10
58.8360166214
 20
57.3722958452
 30
0.0
 10
58.8076220746
 20
56.6281882951
 30
0.0
 10
58.6831126883
 20
55.5185365398
 30
0.0
 10
58.4849250192
 20
54.4198065143
 30
0.0
 10
58.3110386789
 20
53.6961722196
 30
0.0
 10
58.2155090094
 20
53.3367240248
 30
0.0
  0
SPLINE
  5
29B
100
AcDbEntity
  8
0
100
AcDbSpline
 62
7
  6
BYLAYER
 70
0
 71
3
 72
12
 73
8
 74
0
 42
0.0000001
 43
0.0000001
 44
0.0000000001
 40
0.0
 40
0.0
 40
0.0
 40
0.0
 40
0.2606932856
 40
0.5131700517
 40
0.7585851535
 40
0.8795744756
 40
1.0
 40
1.0
 40
1.0
 40
1.0
 10
58.1614140873
 20
52.6867240248
 30
0.0
 10
58.2630255786
 20
52.5020665351
 30
0.0
 10
58.4489965425
 20
52.1304531287
 30
0.0
 10
58.6663065662
 20
51.5555772633
 30
0.0
 10
58.7817709018
 20
51.0668010318
 30
0.0
 10
58.8282209361
 20
50.6756229284
 30
0.0
 10
58.8360166208
 20
50.4803484214
 30
0.0
 10
58.8360166214
 20
50.382985403
 30
0.0
  0
SPLINE
  5
29C
100
AcDbEntity
  8
0
100
AcDbSpline
 62
7
  6
BYLAYER
 70
0
 71
3
 72
13
 73
9
 74
0
 42
0.0000001
 43
0.0000001
 44
0.0000000001
 40
0.0
 40
0.0
 40
0.0
 40
0.0
 40
0.2606523187
 40
0.5130924246
 40
0.6365950603
 40
0.7586210226
 40
0.8795924356
 40
1.0
 40
1.0
 40
1.0
 40
1.0
 10
56.5106191566
 20
48.0792467367
 30
0.0
 10
56.4090084446
 20
48.2639028144
 30
0.0
 10
56.2230599437
 20
48.6354628227
 30
0.0
 10
56.0406444718
 20
49.1181835163
 30
0.0
 10
55.9355521329
 20
49.5071858577
 30
0.0
 10
55.8785306912
 20
49.7982811638
 30
0.0
 10
55.8438205198
 20
50.0903538804
 30
0.0
 10
55.8360166213
 20
50.2856223286
 30
0.0
 10
55.8360166214
 20
50.3829853817
 30
0.0
  0
SPLINE
  5
29D
100
AcDbEntity
  8
0
100
AcDbSpline
 62
7
  6
BYLAYER
 70
0
 71
3
 72
13
 73
9
 74
0
 42
0.0000001
 43
0.0000001
 44
0.0000000001
 40
0.0
 40
0.0
 40
0.0
 40
0.0
 40
0.2606523187
 40
0.5130924247
 40
0.6365950604
 40
0.7586210227
 40
0.8795924356
 40
1.0
 40
1.0
 40
1.0
 40
1.0
 10
58.1614140873
 20
67.4091558891
 30
0.0
 10
58.2630248012
 20
67.2244998122
 30
0.0
 10
58.4489732994
 20
66.8529398017
 30
0.0
 10
58.6313887735
 20
66.3702191083
 30
0.0
 10
58.7364811142
 20
65.9812167665
 30
0.0
 10
58.7935025564
 20
65.6901214601
 30
0.0
 10
58.8282127251
 20
65.3980487428
 30
0.0
 10
58.8360166215
 20
65.2027802944
 30
0.0
 10
58.8360166214
 20
65.1054172411
 30
0.0
  0
SPLINE
  5
29E
100
AcDbEntity
  8
0
100
AcDbSpline
 62
7
  6
BYLAYER
 70
0
 71
3
 72
12
 73
8
 74
0
 42
0.0000001
 43
0.0000001
 44
0.0000000001
 40
0.0
 40
0.0
 40
0.0
 40
0.0
 40
0.120425534
 40
0.2414148778
 40
0.4868299846
 40
0.7393067406
 40
1.0
 40
1.0
 40
1.0
 40
1.0
 10
58.8360166214
 20
65.1054172411
 30
0.0
 10
58.8360166213
 20
65.0080542144
 30
0.0
 10
58.8282208847
 20
64.8127796838
 30
0.0
 10
58.7817709398
 20
64.4216015393
 30
0.0
 10
58.6663065303
 20
63.9328253003
 30
0.0
 10
58.4489964902
 20
63.3579494713
 30
0.0
 10
58.2630255679
 20
62.9863360733
 30
0.0
 10
58.1614140862
 20
62.801678601
 30
0.0
  0
SPLINE
  5
29F
100
AcDbEntity
  8
0
100
AcDbSpline
 62
7
  6
BYLAYER
 70
0
 71
3
 72
11
 73
7
 74
0
 42
0.0000001
 43
0.0000001
 44
0.0000000001
 40
0.0
 40
0.0
 40
0.0
 40
0.0
 40
0.2500021378
 40
0.5000026229
 40
0.7500023753
 40
1.0
 40
1.0
 40
1.0
 40
1.0
 10
58.2155090094
 20
62.151678601
 30
0.0
 10
58.3110364671
 20
61.7922387286
 30
0.0
 10
58.4849540312
 20
61.0686219906
 30
0.0
 10
58.6830877397
 20
59.9698872626
 30
0.0
 10
58.8076407207
 20
58.8602319648
 30
0.0
 10
58.8360166214
 20
58.1161119515
 30
0.0
 10
58.8360166214
 20
57.7442013129
 30
0.0
  0
SPLINE
  5
2A0
100
AcDbEntity
  8
0
100
AcDbSpline
 62
7
  6
BYLAYER
 70
0
 71
3
 72
13
 73
9
 74
0
 42
0.0000001
 43
0.0000001
 44
0.0000000001
 40
0.0
 40
0.0
 40
0.0
 40
0.0
 40
0.1204075753
 40
0.2413790135
 40
0.3634049884
 40
0.486907626
 40
0.7393477136
 40
1.0
 40
1.0
 40
1.0
 40
1.0
 10
55.8360166214
 20
65.1054172382
 30
0.0
 10
55.8360166212
 20
65.202780299
 30
0.0
 10
55.8438205806
 20
65.3980487717
 30
0.0
 10
55.8785307541
 20
65.690121524
 30
0.0
 10
55.9355523043
 20
65.98121684
 30
0.0
 10
56.0406447264
 20
66.3702191474
 30
0.0
 10
56.2230600689
 20
66.8529398338
 30
0.0
 10
56.4090084886
 20
67.2244998367
 30
0.0
 10
56.5106191871
 20
67.4091558891
 30
0.0
  0
SPLINE
  5
2A1
100
AcDbEntity
  8
0
100
AcDbSpline
 62
7
  6
BYLAYER
 70
0
 71
3
 72
13
 73
9
 74
0
 42
0.0000001
 43
0.0000001
 44
0.0000000001
 40
0.0
 40
0.0
 40
0.0
 40
0.0
 40
0.1204075739
 40
0.2413790088
 40
0.3634049779
 40
0.4869076111
 40
0.7393477075
 40
1.0
 40
1.0
 40
1.0
 40
1.0
 10
58.8360166214
 20
50.382985403
 30
0.0
 10
58.8360166219
 20
50.2856223414
 30
0.0
 10
58.8282126757
 20
50.0903538691
 30
0.0
 10
58.7935025678
 20
49.7982811128
 30
0.0
 10
58.7364811026
 20
49.5071857854
 30
0.0
 10
58.631388745
 20
49.1181834505
 30
0.0
 10
58.4489732441
 20
48.6354627985
 30
0.0
 10
58.2630247905
 20
48.2639027963
 30
0.0
 10
58.1614140862
 20
48.0792467367
 30
0.0
  0
SPLINE
  5
2A2
100
AcDbEntity
  8
0
100
AcDbSpline
 62
7
  6
BYLAYER
 70
0
 71
3
 72
13
 73
9
 74
0
 42
0.0000001
 43
0.0000001
 44
0.0000000001
 40
0.0
 40
0.0
 40
0.0
 40
0.0
 40
0.2606523123
 40
0.5130924095
 40
0.6365950495
 40
0.7586210176
 40
0.8795924341
 40
1.0
 40
1.0
 40
1.0
 40
1.0
 10
56.5106191878
 20
62.801678601
 30
0.0
 10
56.4090084797
 20
62.9863346709
 30
0.0
 10
56.2230600185
 20
63.3578946837
 30
0.0
 10
56.0406447029
 20
63.8406154119
 30
0.0
 10
55.9355523025
 20
64.2296177277
 30
0.0
 10
55.8785307759
 20
64.5207130232
 30
0.0
 10
55.8438205356
 20
64.8127857362
 30
0.0
 10
55.8360166215
 20
65.0080541855
 30
0.0
 10
55.8360166214
 20
65.1054172382
 30
0.0
  0
SPLINE
  5
2A3
100
AcDbEntity
  8
0
100
AcDbSpline
 62
7
  6
BYLAYER
 70
0
 71
3
 72
11
 73
7
 74
0
 42
0.0000001
 43
0.0000001
 44
0.0000000001
 40
0.0
 40
0.0
 40
0.0
 40
0.0
 40
0.2499942762
 40
0.4999901455
 40
0.7499920033
 40
1.0
 40
1.0
 40
1.0
 40
1.0
 10
55.8360166214
 20
57.7442013129
 30
0.0
 10
55.8360166214
 20
58.1161067292
 30
0.0
 10
55.8644347789
 20
58.8602124745
 30
0.0
 10
55.9889107704
 20
59.9698676142
 30
0.0
 10
56.187134012
 20
61.0685908823
 30
0.0
 10
56.3609947022
 20
61.7922305361
 30
0.0
 10
56.4565243309
 20
62.151678601
 30
0.0
  0
ELLIPSE
  5
2A4
100
AcDbEntity
  8
0
100
AcDbEllipse
 62
7
  6
BYLAYER
 10
59.7965898771
 20
56.7464982401
 30
0.0
 11
6.7778954833
 21
5.7498567937
 31
0.0
 40
0.6717760696
 41
-1.7842127228
 42
-1.7639946709
  0
ELLIPSE
  5
2A5
100
AcDbEntity
  8
0
100
AcDbEllipse
 62
7
  6
BYLAYER
 10
59.7965898771
 20
56.2878613875
 30
0.0
 11
6.9892805436
 21
6.3556937277
 31
0.0
 40
0.5452577243
 41
-1.7265371317
 42
-1.6947658549
  0
ELLIPSE
  5
2A6
100
AcDbEntity
  8
0
100
AcDbEllipse
 62
7
  6
BYLAYER
 10
64.7293184257
 20
57.3704278428
 30
0.0
 11
6.4571461231
 21
-5.3215173093
 31
0.0
 40
0.8263497679
 41
-1.311294534
 42
-1.2441874396
  0
ELLIPSE
  5
2A7
100
AcDbEntity
  8
0
100
AcDbEllipse
 62
7
  6
BYLAYER
 10
64.7293184257
 20
57.0086677596
 30
0.0
 11
6.6270509456
 21
-6.0601069723
 31
0.0
 40
0.6826531162
 41
-1.3511058083
 42
-1.283998714
  0
ELLIPSE
  5
2A8
100
AcDbEntity
  8
0
100
AcDbEllipse
 62
7
  6
BYLAYER
 10
64.7293184257
 20
56.6705483301
 30
0.0
 11
6.9078851538
 21
-6.5607671043
 31
0.0
 40
0.5561450433
 41
-1.4232156771
 42
-1.3561085828
  0
ELLIPSE
  5
2A9
100
AcDbEntity
  8
0
100
AcDbEllipse
 62
7
  6
BYLAYER
 10
64.7293184257
 20
56.3669369907
 30
0.0
 11
7.1783004868
 21
-6.9596182974
 31
0.0
 40
0.4429672902
 41
-1.5035143162
 42
-1.4364072218
  0
ELLIPSE
  5
2AA
100
AcDbEntity
  8
0
100
AcDbEllipse
 62
7
  6
BYLAYER
 10
64.7293184257
 20
56.1075920599
 30
0.0
 11
7.4104872802
 21
-7.279395874
 31
0.0
 40
0.3397569986
 41
-1.5870446344
 42
-1.5199375401
  0
ELLIPSE
  5
2AB
100
AcDbEntity
  8
0
100
AcDbEllipse
 62
7
  6
BYLAYER
 10
64.7293184257
 20
55.9008490972
 30
0.0
 11
7.5938540461
 21
-7.5246575103
 31
0.0
 40
0.2438041777
 41
-1.672126334
 42
-1.6050192396
  0
ELLIPSE
  5
2AC
100
AcDbEntity
  8
0
100
AcDbEllipse
 62
7
  6
BYLAYER
 10
64.7293184257
 20
55.7533529913
 30
0.0
 11
7.7232380929
 21
-7.6954506012
 31
0.0
 40
0.1528608948
 41
-1.7580179329
 42
-1.6909108386
  0
ELLIPSE
  5
2AD
100
AcDbEntity
  8
0
100
AcDbEllipse
 62
7
  6
BYLAYER
 10
64.7293184257
 20
55.6698443886
 30
0.0
 11
7.7958900717
 21
-7.7908030039
 31
0.0
 40
0.0649774206
 41
-1.8443231913
 42
-1.777216097
  0
ELLIPSE
  5
2AE
100
AcDbEntity
  8
0
100
AcDbEllipse
 62
7
  6
BYLAYER
 10
59.7965898771
 20
55.8760324984
 30
0.0
 11
7.2216881888
 21
6.8211355117
 31
0.0
 40
0.4325884012
 41
-1.6541251716
 42
-1.613991356
  0
ELLIPSE
  5
2AF
100
AcDbEntity
  8
0
100
AcDbEllipse
 62
7
  6
BYLAYER
 10
59.7965898771
 20
55.5242480921
 30
0.0
 11
7.4303153681
 21
7.1896323761
 31
0.0
 40
0.3306136582
 41
-1.575847761
 42
-1.5289981995
  0
ELLIPSE
  5
2B0
100
AcDbEntity
  8
0
100
AcDbEllipse
 62
7
  6
BYLAYER
 10
59.7965898771
 20
55.2438148088
 30
0.0
 11
7.5984400747
 21
7.4711827883
 31
0.0
 40
0.2365500347
 41
-1.4947568169
 42
-1.4420471734
  0
ELLIPSE
  5
2B1
100
AcDbEntity
  8
0
100
AcDbEllipse
 62
7
  6
BYLAYER
 10
59.7965898771
 20
55.0437460052
 30
0.0
 11
7.7182939033
 21
7.6671333883
 31
0.0
 40
0.1479991431
 41
-1.4122039587
 42
-1.3540188368
  0
ELLIPSE
  5
2B2
100
AcDbEntity
  8
0
100
AcDbEllipse
 62
7
  6
BYLAYER
 10
64.7293184257
 20
57.7442013129
 30
0.0
 11
7.8123086895
 21
-0.0
 31
0.0
 40
0.963433044
 41
4.3740181323
 42
4.4411252267
  0
ELLIPSE
  5
2B3
100
AcDbEntity
  8
0
100
AcDbEllipse
 62
7
  6
BYLAYER
 10
59.7965898771
 20
57.2372020904
 30
0.0
 11
6.769687539
 21
4.761806636
 31
0.0
 40
0.8141833296
 41
-1.7863337475
 42
-1.784520737
  0
ELLIPSE
  5
2B4
100
AcDbEntity
  8
0
100
AcDbEllipse
 62
7
  6
BYLAYER
 10
59.7965898771
 20
54.9304720571
 30
0.0
 11
7.785942562
 21
7.776570827
 31
0.0
 40
0.0628349518
 41
-1.3289086446
 42
-1.265399183
  0
ELLIPSE
  5
2B5
100
AcDbEntity
  8
0
100
AcDbEllipse
 62
7
  6
BYLAYER
 10
64.7293184257
 20
59.7850196706
 30
0.0
 11
7.7667659793
 21
7.7526181998
 31
0.0
 40
0.108650535
 41
1.7340296909
 42
1.8011367852
  0
ELLIPSE
  5
2B6
100
AcDbEntity
  8
0
100
AcDbEllipse
 62
7
  6
BYLAYER
 10
64.7293184257
 20
59.6690504584
 30
0.0
 11
7.6655060057
 21
7.6194188564
 31
0.0
 40
0.1978335621
 41
1.6478933896
 42
1.7150004839
  0
ELLIPSE
  5
2B7
100
AcDbEntity
  8
0
100
AcDbEllipse
 62
7
  6
BYLAYER
 10
64.7293184257
 20
59.4912150108
 30
0.0
 11
7.508671714
 21
7.4112915527
 31
0.0
 40
0.2910225948
 41
1.5623427433
 42
1.6294498377
  0
ELLIPSE
  5
2B8
100
AcDbEntity
  8
0
100
AcDbEllipse
 62
7
  6
BYLAYER
 10
64.7293184257
 20
59.2572291056
 30
0.0
 11
7.3000243014
 21
7.128928855
 31
0.0
 40
0.3902986392
 41
1.4779077276
 42
1.545014822
  0
ELLIPSE
  5
2B9
100
AcDbEntity
  8
0
100
AcDbEllipse
 62
7
  6
BYLAYER
 10
64.7293184257
 20
58.9746132421
 30
0.0
 11
7.0468101624
 21
6.7707526428
 31
0.0
 40
0.4981174544
 41
1.3956754821
 42
1.4627825764
  0
ELLIPSE
  5
2BA
100
AcDbEntity
  8
0
100
AcDbEllipse
 62
7
  6
BYLAYER
 10
64.7293184257
 20
58.6524509269
 30
0.0
 11
6.7654754064
 21
6.3263364658
 31
0.0
 40
0.6174932746
 41
1.3184146161
 42
1.3855217105
  0
ELLIPSE
  5
2BB
100
AcDbEntity
  8
0
100
AcDbEllipse
 62
7
  6
BYLAYER
 10
64.7293184257
 20
58.3010967218
 30
0.0
 11
6.5090715451
 21
5.7438845358
 31
0.0
 40
0.7521396115
 41
1.2561000265
 42
1.3232071208
  0
ELLIPSE
  5
2BC
100
AcDbEntity
  8
0
100
AcDbEllipse
 62
7
  6
BYLAYER
 10
64.7293184257
 20
57.93184344
 30
0.0
 11
6.6576717293
 21
4.5189586685
 31
0.0
 40
0.9045203251
 41
1.291444969
 42
1.3585520634
  0
ELLIPSE
  5
2BD
100
AcDbEntity
  8
0
100
AcDbEllipse
 62
7
  6
BYLAYER
 10
59.7965898771
 20
60.5807689434
 30
0.0
 11
7.7995571123
 21
-7.7985162524
 31
0.0
 40
0.0209057077
 41
1.2206588168
 42
1.2871314031
  0
ELLIPSE
  5
2BE
100
AcDbEntity
  8
0
100
AcDbEllipse
 62
7
  6
BYLAYER
 10
59.7965898771
 20
60.5124377005
 30
0.0
 11
7.7587971111
 21
-7.7327395204
 31
0.0
 40
0.1051190463
 41
1.3100291931
 42
1.3706167409
  0
ELLIPSE
  5
2BF
100
AcDbEntity
  8
0
100
AcDbEllipse
 62
7
  6
BYLAYER
 10
59.7965898771
 20
60.3551330624
 30
0.0
 11
7.6647083204
 21
-7.5798977311
 31
0.0
 40
0.1917233997
 41
1.3981386149
 42
1.4536092812
  0
ELLIPSE
  5
2C0
100
AcDbEntity
  8
0
100
AcDbEllipse
 62
7
  6
BYLAYER
 10
59.7965898771
 20
60.1139109296
 30
0.0
 11
7.5200493134
 21
-7.341096966
 31
0.0
 40
0.2827506224
 41
1.4856941074
 42
1.5355477211
  0
ELLIPSE
  5
2C1
100
AcDbEntity
  8
0
100
AcDbEllipse
 62
7
  6
BYLAYER
 10
59.7965898771
 20
59.7965243799
 30
0.0
 11
7.3303344293
 21
-7.0165429758
 31
0.0
 40
0.3804483491
 41
1.5718320053
 42
1.615467057
  0
ELLIPSE
  5
2C2
100
AcDbEntity
  8
0
100
AcDbEllipse
 62
7
  6
BYLAYER
 10
59.7965898771
 20
59.4131744782
 30
0.0
 11
7.1067502841
 21
-6.6018876611
 31
0.0
 40
0.4873950986
 41
1.6551578627
 42
1.6913871092
  0
ELLIPSE
  5
2C3
100
AcDbEntity
  8
0
100
AcDbEllipse
 62
7
  6
BYLAYER
 10
59.7965898771
 20
58.9761824057
 30
0.0
 11
6.8756759107
 21
-6.0762217966
 31
0.0
 40
0.6065857959
 41
1.7317634819
 42
1.7583064649
  0
ELLIPSE
  5
2C4
100
AcDbEntity
  8
0
100
AcDbEllipse
 62
7
  6
BYLAYER
 10
59.7965898771
 20
58.4995934472
 30
0.0
 11
6.7213029091
 21
-5.3438259075
 31
0.0
 40
0.7410930986
 41
1.7863947399
 42
1.7986809299
  0
ELLIPSE
  5
2C5
100
AcDbEntity
  8
0
100
AcDbEllipse
 62
7
  6
BYLAYER
 10
64.7293184257
 20
59.7350496345
 30
0.0
 11
7.7232380929
 21
7.6954506012
 31
0.0
 40
0.1528608948
 41
-2.0603164168
 42
-1.9932093225
  0
ELLIPSE
  5
2C6
100
AcDbEntity
  8
0
100
AcDbEllipse
 62
7
  6
BYLAYER
 10
64.7293184257
 20
59.1214656351
 30
0.0
 11
7.1783004868
 21
6.9596182974
 31
0.0
 40
0.4429672902
 41
-2.3148200336
 42
-2.2477129392
  0
ELLIPSE
  5
2C7
100
AcDbEntity
  8
0
100
AcDbEllipse
 62
7
  6
BYLAYER
 10
64.7293184257
 20
59.3808105659
 30
0.0
 11
7.4104872802
 21
7.279395874
 31
0.0
 40
0.3397569986
 41
-2.2312897153
 42
-2.164182621
  0
ELLIPSE
  5
2C8
100
AcDbEntity
  8
0
100
AcDbEllipse
 62
7
  6
BYLAYER
 10
64.7293184257
 20
55.6530073242
 30
0.0
 11
7.8104831204
 21
-7.8099182007
 31
0.0
 40
0.0216237981
 41
1.863678946
 42
1.9307860403
  0
ELLIPSE
  5
2C9
100
AcDbEntity
  8
0
100
AcDbEllipse
 62
7
  6
BYLAYER
 10
64.7293184257
 20
55.7033829552
 30
0.0
 11
7.7667659793
 21
-7.7526181998
 31
0.0
 40
0.108650535
 41
1.9500904702
 42
2.0171975645
  0
ELLIPSE
  5
2CA
100
AcDbEntity
  8
0
100
AcDbEllipse
 62
7
  6
BYLAYER
 10
64.7293184257
 20
55.8193521675
 30
0.0
 11
7.6655060057
 21
-7.6194188564
 31
0.0
 40
0.1978335621
 41
2.0362267715
 42
2.1033338658
  0
ELLIPSE
  5
2CB
100
AcDbEntity
  8
0
100
AcDbEllipse
 62
7
  6
BYLAYER
 10
64.7293184257
 20
55.997187615
 30
0.0
 11
7.508671714
 21
-7.4112915527
 31
0.0
 40
0.2910225948
 41
2.1217774177
 42
2.1888845121
  0
ELLIPSE
  5
2CC
100
AcDbEntity
  8
0
100
AcDbEllipse
 62
7
  6
BYLAYER
 10
64.7293184257
 20
56.2311735203
 30
0.0
 11
7.3000243014
 21
-7.128928855
 31
0.0
 40
0.3902986392
 41
2.2062124334
 42
2.2733195278
  0
ELLIPSE
  5
2CD
100
AcDbEntity
  8
0
100
AcDbEllipse
 62
7
  6
BYLAYER
 10
64.7293184257
 20
56.5137893837
 30
0.0
 11
7.0468101624
 21
-6.7707526428
 31
0.0
 40
0.4981174544
 41
2.288444679
 42
2.3555517733
  0
ELLIPSE
  5
2CE
100
AcDbEntity
  8
0
100
AcDbEllipse
 62
7
  6
BYLAYER
 10
64.7293184257
 20
56.8359516989
 30
0.0
 11
6.7654754064
 21
-6.3263364658
 31
0.0
 40
0.6174932746
 41
2.3657055449
 42
2.4328126392
  0
ELLIPSE
  5
2CF
100
AcDbEntity
  8
0
100
AcDbEllipse
 62
7
  6
BYLAYER
 10
64.7293184257
 20
57.1873059041
 30
0.0
 11
6.5090715451
 21
-5.7438845358
 31
0.0
 40
0.7521396115
 41
2.4280201346
 42
2.4951272289
  0
ELLIPSE
  5
2D0
100
AcDbEntity
  8
0
100
AcDbEllipse
 62
7
  6
BYLAYER
 10
64.7293184257
 20
57.5565591858
 30
0.0
 11
6.6576717293
 21
-4.5189586685
 31
0.0
 40
0.9045203251
 41
2.392675192
 42
2.4597822864
  0
ELLIPSE
  5
2D1
100
AcDbEntity
  8
0
100
AcDbEllipse
 62
7
  6
BYLAYER
 10
64.7293184257
 20
59.8185582373
 30
0.0
 11
7.7958900717
 21
7.7908030039
 31
0.0
 40
0.0649774206
 41
-1.9740111584
 42
-1.9069040641
  0
ELLIPSE
  5
2D2
100
AcDbEntity
  8
0
100
AcDbEllipse
 62
7
  6
BYLAYER
 10
64.7293184257
 20
58.117974783
 30
0.0
 11
6.4571461231
 21
5.3215173093
 31
0.0
 40
0.8263497679
 41
-2.5070398158
 42
-2.4399327214
  0
ELLIPSE
  5
2D3
100
AcDbEntity
  8
0
100
AcDbEllipse
 62
7
  6
BYLAYER
 10
64.7293184257
 20
59.5875535287
 30
0.0
 11
7.5938540461
 21
7.5246575103
 31
0.0
 40
0.2438041777
 41
-2.1462080158
 42
-2.0791009214
  0
ELLIPSE
  5
2D4
100
AcDbEntity
  8
0
100
AcDbEllipse
 62
7
  6
BYLAYER
 10
64.7293184257
 20
58.8178542958
 30
0.0
 11
6.9078851538
 21
6.5607671043
 31
0.0
 40
0.5561450433
 41
-2.3951186726
 42
-2.3280115783
  0
ELLIPSE
  5
2D5
100
AcDbEntity
  8
0
100
AcDbEllipse
 62
7
  6
BYLAYER
 10
64.7293184257
 20
58.4797348662
 30
0.0
 11
6.6270509456
 21
6.0601069723
 31
0.0
 40
0.6826531162
 41
-2.4672285414
 42
-2.4001214471
  0
ELLIPSE
  5
2D6
100
AcDbEntity
  8
0
100
AcDbEllipse
 62
7
  6
BYLAYER
 10
61.8754433657
 20
56.7464982401
 30
0.0
 11
6.7778954833
 21
-5.7498567937
 31
0.0
 40
0.6717760696
 41
-1.3775981148
 42
-1.3573799308
  0
ELLIPSE
  5
2D7
100
AcDbEntity
  8
0
100
AcDbEllipse
 62
7
  6
BYLAYER
 10
61.8754433656
 20
56.2878613875
 30
0.0
 11
6.9892805436
 21
-6.3556937277
 31
0.0
 40
0.5452577243
 41
-1.4468268092
 42
-1.4150555219
  0
ELLIPSE
  5
2D8
100
AcDbEntity
  8
0
100
AcDbEllipse
 62
7
  6
BYLAYER
 10
61.8754433656
 20
55.8760324984
 30
0.0
 11
7.2216881888
 21
-6.8211355117
 31
0.0
 40
0.4325884012
 41
-1.5276013277
 42
-1.487467482
  0
ELLIPSE
  5
2D9
100
AcDbEntity
  8
0
100
AcDbEllipse
 62
7
  6
BYLAYER
 10
61.8754433657
 20
55.5242480921
 30
0.0
 11
7.4303153681
 21
-7.1896323761
 31
0.0
 40
0.3306136582
 41
-1.6125941643
 42
-1.5657448926
  0
ELLIPSE
  5
2DA
100
AcDbEntity
  8
0
100
AcDbEllipse
 62
7
  6
BYLAYER
 10
61.8754433656
 20
55.2438148088
 30
0.0
 11
7.5984400747
 21
-7.4711827883
 31
0.0
 40
0.2365500347
 41
-1.6995452328
 42
-1.6468358367
  0
ELLIPSE
  5
2DB
100
AcDbEntity
  8
0
100
AcDbEllipse
 62
7
  6
BYLAYER
 10
61.8754433657
 20
55.0437460052
 30
0.0
 11
7.7182939033
 21
-7.6671333883
 31
0.0
 40
0.1479991431
 41
-1.7875736354
 42
-1.7293886949
  0
ELLIPSE
  5
2DC
100
AcDbEntity
  8
0
100
AcDbEllipse
 62
7
  6
BYLAYER
 10
61.8754433656
 20
54.9304720571
 30
0.0
 11
7.785942562
 21
-7.776570827
 31
0.0
 40
0.0628349518
 41
-1.8761933735
 42
-1.8126840089
  0
ELLIPSE
  5
2DD
100
AcDbEntity
  8
0
100
AcDbEllipse
 62
7
  6
BYLAYER
 10
61.8754433657
 20
57.2372020904
 30
0.0
 11
6.769687539
 21
-4.761806636
 31
0.0
 40
0.8141833296
 41
4.9261133898
 42
4.9279264011
  0
ELLIPSE
  5
2DE
100
AcDbEntity
  8
0
100
AcDbEllipse
 62
7
  6
BYLAYER
 10
56.942714817
 20
57.3704278428
 30
0.0
 11
6.4571461231
 21
5.3215173093
 31
0.0
 40
0.8263497679
 41
-1.8974052139
 42
-1.8302981196
  0
ELLIPSE
  5
2DF
100
AcDbEntity
  8
0
100
AcDbEllipse
 62
7
  6
BYLAYER
 10
56.942714817
 20
57.0086677596
 30
0.0
 11
6.6270509456
 21
6.0601069723
 31
0.0
 40
0.6826531162
 41
-1.8575939396
 42
-1.7904868453
  0
ELLIPSE
  5
2E0
100
AcDbEntity
  8
0
100
AcDbEllipse
 62
7
  6
BYLAYER
 10
56.942714817
 20
57.7442013129
 30
0.0
 11
7.8123086895
 21
0.0
 31
0.0
 40
0.963433044
 41
-1.2995325731
 42
-1.2324254787
  0
ELLIPSE
  5
2E1
100
AcDbEntity
  8
0
100
AcDbEllipse
 62
7
  6
BYLAYER
 10
56.942714817
 20
56.6705483301
 30
0.0
 11
6.9078851538
 21
6.5607671043
 31
0.0
 40
0.5561450433
 41
-1.7854840708
 42
-1.7183769765
  0
ELLIPSE
  5
2E2
100
AcDbEntity
  8
0
100
AcDbEllipse
 62
7
  6
BYLAYER
 10
56.942714817
 20
56.3669369907
 30
0.0
 11
7.1783004868
 21
6.9596182974
 31
0.0
 40
0.4429672902
 41
-1.7051854317
 42
-1.6380783374
  0
ELLIPSE
  5
2E3
100
AcDbEntity
  8
0
100
AcDbEllipse
 62
7
  6
BYLAYER
 10
56.942714817
 20
56.1075920599
 30
0.0
 11
7.4104872802
 21
7.279395874
 31
0.0
 40
0.3397569986
 41
-1.6216551135
 42
-1.5545480192
  0
ELLIPSE
  5
2E4
100
AcDbEntity
  8
0
100
AcDbEllipse
 62
7
  6
BYLAYER
 10
56.942714817
 20
55.9008490972
 30
0.0
 11
7.5938540461
 21
7.5246575103
 31
0.0
 40
0.2438041777
 41
-1.536573414
 42
-1.4694663196
  0
ELLIPSE
  5
2E5
100
AcDbEntity
  8
0
100
AcDbEllipse
 62
7
  6
BYLAYER
 10
56.942714817
 20
55.7533529913
 30
0.0
 11
7.7232380929
 21
7.6954506012
 31
0.0
 40
0.1528608948
 41
-1.450681815
 42
-1.3835747207
  0
ELLIPSE
  5
2E6
100
AcDbEntity
  8
0
100
AcDbEllipse
 62
7
  6
BYLAYER
 10
56.942714817
 20
55.6698443886
 30
0.0
 11
7.7958900717
 21
7.7908030039
 31
0.0
 40
0.0649774206
 41
-1.3643765566
 42
-1.2972694622
  0
ELLIPSE
  5
2E7
100
AcDbEntity
  8
0
100
AcDbEllipse
 62
7
  6
BYLAYER
 10
61.8754433657
 20
60.5807689434
 30
0.0
 11
7.7995571123
 21
7.7985162524
 31
0.0
 40
0.0209057077
 41
1.8544612505
 42
1.9209338703
  0
ELLIPSE
  5
2E8
100
AcDbEntity
  8
0
100
AcDbEllipse
 62
7
  6
BYLAYER
 10
61.8754433657
 20
60.5124377005
 30
0.0
 11
7.7587971111
 21
7.7327395204
 31
0.0
 40
0.1051190463
 41
1.7709759127
 42
1.8315636138
  0
ELLIPSE
  5
2E9
100
AcDbEntity
  8
0
100
AcDbEllipse
 62
7
  6
BYLAYER
 10
61.8754433657
 20
60.3551330624
 30
0.0
 11
7.6647083204
 21
7.5798977311
 31
0.0
 40
0.1917233997
 41
1.6879833724
 42
1.743454256
  0
ELLIPSE
  5
2EA
100
AcDbEntity
  8
0
100
AcDbEllipse
 62
7
  6
BYLAYER
 10
61.8754433657
 20
60.1139109296
 30
0.0
 11
7.5200493134
 21
7.341096966
 31
0.0
 40
0.2827506224
 41
1.6060449324
 42
1.6558988179
  0
ELLIPSE
  5
2EB
100
AcDbEntity
  8
0
100
AcDbEllipse
 62
7
  6
BYLAYER
 10
61.8754433656
 20
59.7965243799
 30
0.0
 11
7.3303344293
 21
7.0165429758
 31
0.0
 40
0.3804483491
 41
1.5261255966
 42
1.569760596
  0
ELLIPSE
  5
2EC
100
AcDbEntity
  8
0
100
AcDbEllipse
 62
7
  6
BYLAYER
 10
61.8754433657
 20
59.4131744782
 30
0.0
 11
7.1067502841
 21
6.6018876611
 31
0.0
 40
0.4873950986
 41
1.4502055444
 42
1.4864347757
  0
ELLIPSE
  5
2ED
100
AcDbEntity
  8
0
100
AcDbEllipse
 62
7
  6
BYLAYER
 10
56.942714817
 20
57.93184344
 30
0.0
 11
6.6576717293
 21
-4.5189586685
 31
0.0
 40
0.9045203251
 41
1.7830405902
 42
1.8501476846
  0
ELLIPSE
  5
2EE
100
AcDbEntity
  8
0
100
AcDbEllipse
 62
7
  6
BYLAYER
 10
56.942714817
 20
58.3010967218
 30
0.0
 11
6.5090715451
 21
-5.7438845358
 31
0.0
 40
0.7521396115
 41
1.8183855327
 42
1.8854926271
  0
ELLIPSE
  5
2EF
100
AcDbEntity
  8
0
100
AcDbEllipse
 62
7
  6
BYLAYER
 10
56.942714817
 20
58.6524509269
 30
0.0
 11
6.7654754064
 21
-6.3263364658
 31
0.0
 40
0.6174932746
 41
1.7560709431
 42
1.8231780374
  0
ELLIPSE
  5
2F0
100
AcDbEntity
  8
0
100
AcDbEllipse
 62
7
  6
BYLAYER
 10
56.942714817
 20
58.9746132421
 30
0.0
 11
7.0468101624
 21
-6.7707526428
 31
0.0
 40
0.4981174544
 41
1.6788100772
 42
1.7459171715
  0
ELLIPSE
  5
2F1
100
AcDbEntity
  8
0
100
AcDbEllipse
 62
7
  6
BYLAYER
 10
56.942714817
 20
59.2572291056
 30
0.0
 11
7.3000243014
 21
-7.128928855
 31
0.0
 40
0.3902986392
 41
1.5965778316
 42
1.663684926
  0
ELLIPSE
  5
2F2
100
AcDbEntity
  8
0
100
AcDbEllipse
 62
7
  6
BYLAYER
 10
56.942714817
 20
59.4912150108
 30
0.0
 11
7.508671714
 21
-7.4112915527
 31
0.0
 40
0.2910225948
 41
1.5121428159
 42
1.5792499103
  0
ELLIPSE
  5
2F3
100
AcDbEntity
  8
0
100
AcDbEllipse
 62
7
  6
BYLAYER
 10
56.942714817
 20
59.6690504584
 30
0.0
 11
7.6655060057
 21
-7.6194188564
 31
0.0
 40
0.1978335621
 41
1.4265921697
 42
1.493699264
  0
ELLIPSE
  5
2F4
100
AcDbEntity
  8
0
100
AcDbEllipse
 62
7
  6
BYLAYER
 10
56.942714817
 20
59.7850196706
 30
0.0
 11
7.7667659793
 21
-7.7526181998
 31
0.0
 40
0.108650535
 41
1.3404558684
 42
1.4075629627
  0
ELLIPSE
  5
2F5
100
AcDbEntity
  8
0
100
AcDbEllipse
 62
7
  6
BYLAYER
 10
61.8754433657
 20
58.9761824057
 30
0.0
 11
6.8756759107
 21
6.0762217966
 31
0.0
 40
0.6065857959
 41
1.3832861887
 42
1.4098291498
  0
ELLIPSE
  5
2F6
100
AcDbEntity
  8
0
100
AcDbEllipse
 62
7
  6
BYLAYER
 10
61.8754433657
 20
58.4995934472
 30
0.0
 11
6.7213029091
 21
5.3438259075
 31
0.0
 40
0.7410930986
 41
1.3429117237
 42
1.3551978658
  0
ELLIPSE
  5
2F7
100
AcDbEntity
  8
0
100
AcDbEllipse
 62
7
  6
BYLAYER
 10
56.942714817
 20
55.6530073242
 30
0.0
 11
7.8104831204
 21
7.8099182007
 31
0.0
 40
0.0216237981
 41
1.2108066133
 42
1.2779137076
  0
ELLIPSE
  5
2F8
100
AcDbEntity
  8
0
100
AcDbEllipse
 62
7
  6
BYLAYER
 10
56.942714817
 20
55.7033829552
 30
0.0
 11
7.7667659793
 21
7.7526181998
 31
0.0
 40
0.108650535
 41
1.1243950891
 42
1.1915021834
  0
ELLIPSE
  5
2F9
100
AcDbEntity
  8
0
100
AcDbEllipse
 62
7
  6
BYLAYER
 10
56.942714817
 20
59.8185582373
 30
0.0
 11
7.7958900717
 21
-7.7908030039
 31
0.0
 40
0.0649774206
 41
-1.2346885895
 42
-1.1675814952
  0
ELLIPSE
  5
2FA
100
AcDbEntity
  8
0
100
AcDbEllipse
 62
7
  6
BYLAYER
 10
56.942714817
 20
55.8193521675
 30
0.0
 11
7.6655060057
 21
7.6194188564
 31
0.0
 40
0.1978335621
 41
1.0382587878
 42
1.1053658821
  0
ELLIPSE
  5
2FB
100
AcDbEntity
  8
0
100
AcDbEllipse
 62
7
  6
BYLAYER
 10
56.942714817
 20
59.7350496345
 30
0.0
 11
7.7232380929
 21
-7.6954506012
 31
0.0
 40
0.1528608948
 41
-1.1483833311
 42
-1.0812762368
  0
ELLIPSE
  5
2FC
100
AcDbEntity
  8
0
100
AcDbEllipse
 62
7
  6
BYLAYER
 10
56.942714817
 20
59.5875535287
 30
0.0
 11
7.5938540461
 21
-7.5246575103
 31
0.0
 40
0.2438041777
 41
-1.0624917322
 42
-0.9953846378
  0
ELLIPSE
  5
2FD
100
AcDbEntity
  8
0
100
AcDbEllipse
 62
7
  6
BYLAYER
 10
56.942714817
 20
59.3808105659
 30
0.0
 11
7.4104872802
 21
-7.279395874
 31
0.0
 40
0.3397569986
 41
-0.9774100326
 42
-0.9103029382
  0
ELLIPSE
  5
2FE
100
AcDbEntity
  8
0
100
AcDbEllipse
 62
7
  6
BYLAYER
 10
56.942714817
 20
59.1214656351
 30
0.0
 11
7.1783004868
 21
-6.9596182974
 31
0.0
 40
0.4429672902
 41
-0.8938797144
 42
-0.82677262
  0
ELLIPSE
  5
2FF
100
AcDbEntity
  8
0
100
AcDbEllipse
 62
7
  6
BYLAYER
 10
56.942714817
 20
58.8178542958
 30
0.0
 11
6.9078851538
 21
-6.5607671043
 31
0.0
 40
0.5561450433
 41
-0.8135810753
 42
-0.746473981
  0
ELLIPSE
  5
300
100
AcDbEntity
  8
0
100
AcDbEllipse
 62
7
  6
BYLAYER
 10
56.942714817
 20
58.4797348662
 30
0.0
 11
6.6270509456
 21
-6.0601069723
 31
0.0
 40
0.6826531162
 41
-0.7414712065
 42
-0.6743641122
  0
ELLIPSE
  5
301
100
AcDbEntity
  8
0
100
AcDbEllipse
 62
7
  6
BYLAYER
 10
56.942714817
 20
58.117974783
 30
0.0
 11
6.4571461231
 21
-5.3215173093
 31
0.0
 40
0.8263497679
 41
-0.7016599322
 42
-0.6345528378
  0
ELLIPSE
  5
302
100
AcDbEntity
  8
0
100
AcDbEllipse
 62
7
  6
BYLAYER
 10
56.942714817
 20
55.997187615
 30
0.0
 11
7.508671714
 21
7.4112915527
 31
0.0
 40
0.2910225948
 41
0.9527081415
 42
1.0198152359
  0
ELLIPSE
  5
303
100
AcDbEntity
  8
0
100
AcDbEllipse
 62
7
  6
BYLAYER
 10
56.942714817
 20
56.2311735203
 30
0.0
 11
7.3000243014
 21
7.128928855
 31
0.0
 40
0.3902986392
 41
0.8682731258
 42
0.9353802201
  0
ELLIPSE
  5
304
100
AcDbEntity
  8
0
100
AcDbEllipse
 62
7
  6
BYLAYER
 10
56.942714817
 20
56.5137893837
 30
0.0
 11
7.0468101624
 21
6.7707526428
 31
0.0
 40
0.4981174544
 41
0.7860408803
 42
0.8531479746
  0
ELLIPSE
  5
305
100
AcDbEntity
  8
0
100
AcDbEllipse
 62
7
  6
BYLAYER
 10
56.942714817
 20
56.8359516989
 30
0.0
 11
6.7654754064
 21
6.3263364658
 31
0.0
 40
0.6174932746
 41
0.7087800143
 42
0.7758871087
  0
ELLIPSE
  5
306
100
AcDbEntity
  8
0
100
AcDbEllipse
 62
7
  6
BYLAYER
 10
56.942714817
 20
57.1873059041
 30
0.0
 11
6.5090715451
 21
5.7438845358
 31
0.0
 40
0.7521396115
 41
0.6464654247
 42
0.713572519
  0
ELLIPSE
  5
307
100
AcDbEntity
  8
0
100
AcDbEllipse
 62
7
  6
BYLAYER
 10
56.942714817
 20
57.5565591858
 30
0.0
 11
6.6576717293
 21
4.5189586685
 31
0.0
 40
0.9045203251
 41
0.6818103672
 42
0.7489174616
  0
ENDSEC
  0
SECTION
  2
OBJECTS
  0
DICTIONARY
  5
C
100
AcDbDictionary
280
0
281
1
  3
ACAD_GROUP
350
D
  3
ACAD_MLINESTYLE
350
17
  3
ACAD_LAYOUT
350
1A
  3
ACAD_PLOTSETTINGS
350
19
  3
ACAD_PLOTSTYLENAME
350
E
  0
DICTIONARY
  5
D
102
{ACAD_REACTORS
330
C
102
}
100
AcDbDictionary
280
0
281
1
  0
ACDBDICTIONARYWDFLT
  5
E
102
{ACAD_REACTORS
330
C
102
}
100
AcDbDictionary
281
1
  3
Normal
350
F
100
AcDbDictionaryWithDefault
340
F
  0
DICTIONARY
  5
17
102
{ACAD_REACTORS
330
C
102
}
100
AcDbDictionary
280
0
281
1
  3
Standard
350
18
  0
DICTIONARY
  5
19
102
{ACAD_REACTORS
330
C
102
}
100
AcDbDictionary
281
1
  0
DICTIONARY
  5
1A
102
{ACAD_REACTORS
330
C
102
}
100
AcDbDictionary
281
1
  3
Model
350
308
  3
Layout1
350
309
  0
ACDBPLACEHOLDER
  5
F
102
{ACAD_REACTORS
330
E
102
}
  0
MLINESTYLE
  5
18
102
{ACAD_REACTORS
330
17
102
}
100
AcDbMlineStyle
  2
STANDARD
 70
0
  3

 62
256
 51
90.0
 52
90.0
 71
2
 49
0.5
 62
256
  6
BYLAYER
 49
-0.5
 62
256
  6
BYLAYER
  0
LAYOUT
  5
308
102
{ACAD_REACTORS
330
1A
102
}
100
AcDbPlotSettings
  1

  2
none_device
  4

  6

 40
0.0
 41
0.0
 42
0.0
 43
0.0
 44
210.0
 45
297.0
 46
0.0
 47
0.0
 48
0.0
 49
0.0
140
0.0
141
0.0
142
1.0
143
1.0
 70
1024
 72
1
 73
0
 74
0
  7

 75
0
147
1.0
148
0.0
149
0.0
100
AcDbLayout
  1
Model
 70
0
 71
0
 10
0.0
 20
0.0
 11
210.0
 21
297.0
 12
0.0
 22
0.0
 32
0.0
 14
0.0
 24
0.0
 34
0.0
 15
0.0
 25
0.0
 35
0.0
146
0.0
 13
0.0
 23
0.0
 33
0.0
 16
1.0
 26
0.0
 36
0.0
 17
0.0
 27
1.0
 37
0.0
 76
0
330
210
345
0
346
0
  0
LAYOUT
  5
309
102
{ACAD_REACTORS
330
1A
102
}
100
AcDbPlotSettings
  1

  2
none_device
  4

  6

 40
0.0
 41
0.0
 42
0.0
 43
0.0
 44
210.0
 45
297.0
 46
0.0
 47
0.0
 48
0.0
 49
0.0
140
0.0
141
0.0
142
1.0
143
1.0
 70
0
 72
1
 73
0
 74
0
  7

 75
0
147
1.0
148
0.0
149
0.0
100
AcDbLayout
  1
Layout1
 70
0
 71
1
 10
0.0
 20
0.0
 11
210.0
 21
297.0
 12
0.0
 22
0.0
 32
0.0
 14
0.0
 24
0.0
 34
0.0
 15
0.0
 25
0.0
 35
0.0
146
0.0
 13
0.0
 23
0.0
 33
0.0
 16
1.0
 26
0.0
 36
0.0
 17
0.0
 27
1.0
 37
0.0
 76
0
330
211
345
0
346
0
  0
ENDSEC
  0
EOF
