999
DXF file: C:\Users\sesa63760\Dev\_Creo\CAD\MCADUE0001348_3D-CAD\drw0001_4.dxf
999
Pro/ENGINEER 2019471 by Parametric Technology Corporation
  0
SECTION
  2
HEADER
  9
$ACADVER
  1
AC1024
  9
$DWGCODEPAGE
  3
ANSI_1252
  9
$EXTMAX
 10
1244.9930337861
 20
1760.775862069
 30
0.0
  9
$EXTMIN
 10
0.0
 20
0.0
 30
0.0
  9
$LIMMIN
 10
0.0
 20
0.0
  9
$LIMMAX
 10
1244.9930337861
 20
1760.775862069
  9
$VIEWCTR
 10
622.4965168931
 20
880.3879310345
  9
$VIEWSIZE
 40
1760.775862069
  9
$CLAYER
  8
0
  9
$LTSCALE
 40
114.7765006386
  9
$CELTYPE
  6
BYLAYER
  9
$DIMSCALE
 40
1.0
  9
$DIMASZ
 40
14.8213456403
  9
$DIMEXO
 40
1.0
  9
$DIMDLI
 40
79.3001277139
  9
$DIMEXE
 40
1.0
  9
$DIMCEN
 40
18.7816091954
  9
$DIMLFAC
 40
1.0
  9
$DIMBLK
  1
_FILLED
  9
$DIMALT
 70
0
  9
$DIMALTF
 40
0.0393700787
  9
$DIMTXT
 40
20.7498838964
  9
$DIMTOL
 70
1
  9
$DIMLIM
 70
0
  9
$DIMTFAC
 40
1.0
  9
$DIMTP
 40
0.01
  9
$DIMTM
 40
0.01
  9
$DIMGAP
 40
0.625
  9
$DIMDSEP
 70
46
  9
$AUNITS
 70
0
  9
$PDMODE
 70
3
  9
$PDSIZE
 40
0.3125
  9
$HANDSEED
  5
2D3
  9
$TILEMODE
 70
1
  9
$MEASUREMENT
 70
1
  9
$INSUNITS
 70
4
  0
ENDSEC
  0
SECTION
  2
CLASSES
  0
CLASS
  1
ACDBDICTIONARYWDFLT
  2
AcDbDictionaryWithDefault
  3
AutoCAD 2000
 90
0
 91
1
280
0
281
0
  0
CLASS
  1
ACDBPLACEHOLDER
  2
AcDbPlaceHolder
  3
AutoCAD 2000
 90
0
 91
1
280
0
281
0
  0
CLASS
  1
LAYOUT
  2
AcDbLayout
  3
AutoCAD 2000
 90
0
 91
0
280
0
281
0
  0
ENDSEC
  0
SECTION
  2
TABLES
  0
TABLE
  2
VPORT
  5
8
100
AcDbSymbolTable
 70
2
  0
VPORT
  5
1F4
100
AcDbSymbolTableRecord
100
AcDbViewportTableRecord
  2
*ACTIVE
 70
0
 10
0.0
 20
0.0
 11
1.0
 21
1.0
 12
622.4965168931
 22
880.3879310345
 13
0.0
 23
0.0
 14
1.0
 24
1.0
 15
0.0
 25
0.0
 16
0.0
 26
0.0
 36
1.0
 17
0.0
 27
0.0
 37
0.0
 40
1760.775862069
 41
0.7070707071
 42
50.0
 43
0.0
 44
0.0
 50
0.0
 51
0.0
 71
0
 72
100
 73
1
 74
1
 75
0
 76
0
 77
0
 78
0
  0
ENDTAB
  0
TABLE
  2
LTYPE
  5
5
100
AcDbSymbolTable
 70
6
  0
LTYPE
  5
14
100
AcDbSymbolTableRecord
100
AcDbLinetypeTableRecord
  2
BYBLOCK
 70
0
  3

 72
65
 73
0
 40
0.0
  0
LTYPE
  5
15
100
AcDbSymbolTableRecord
100
AcDbLinetypeTableRecord
  2
BYLAYER
 70
0
  3

 72
65
 73
0
 40
0.0
  0
LTYPE
  5
16
100
AcDbSymbolTableRecord
100
AcDbLinetypeTableRecord
  2
CONTINUOUS
 70
64
  3
Solid line
 72
65
 73
0
 40
0.0
  0
LTYPE
  5
1F5
100
AcDbSymbolTableRecord
100
AcDbLinetypeTableRecord
  2
CENTER
 70
64
  3
____ _ ____ _ ____ _ ____ _ ____ _ ____ _ ____
 72
65
 73
4
 40
0.6
 49
0.375
 74
0
 49
-0.075
 74
0
 49
0.075
 74
0
 49
-0.075
 74
0
  0
LTYPE
  5
1F6
100
AcDbSymbolTableRecord
100
AcDbLinetypeTableRecord
  2
HIDDEN
 70
64
  3
- - - - - - - - - - - - - - - - - - - -
 72
65
 73
2
 40
0.2
 49
0.1
 74
0
 49
-0.1
 74
0
  0
LTYPE
  5
1F7
100
AcDbSymbolTableRecord
100
AcDbLinetypeTableRecord
  2
PHANTOM
 70
64
  3
_____ _ _ _____ _ _ _____ _ _ _____
 72
65
 73
6
 40
0.8
 49
0.45
 74
0
 49
-0.05
 74
0
 49
0.1
 74
0
 49
-0.05
 74
0
 49
0.1
 74
0
 49
-0.05
 74
0
  0
LTYPE
  5
1F8
100
AcDbSymbolTableRecord
100
AcDbLinetypeTableRecord
  2
DOT
 70
64
  3
. . . . . . . . . . . . . . . . . . . .
 72
65
 73
2
 40
0.2
 49
0.1
 74
0
 49
-0.1
 74
0
  0
LTYPE
  5
1F9
100
AcDbSymbolTableRecord
100
AcDbLinetypeTableRecord
  2
DASHED
 70
64
  3
- - - - - - - - - - - - - - - - - - - -
 72
65
 73
2
 40
0.2
 49
0.1
 74
0
 49
-0.1
 74
0
  0
ENDTAB
  0
TABLE
  2
LAYER
  5
2
100
AcDbSymbolTable
 70
36
  0
LAYER
  5
10
100
AcDbSymbolTableRecord
100
AcDbLayerTableRecord
  2
0
 70
0
 62
7
  6
CONTINUOUS
370
-3
390
F
  0
LAYER
  5
1FA
100
AcDbSymbolTableRecord
100
AcDbLayerTableRecord
  2
DEFAULT_1
 70
0
 62
7
  6
CENTER
370
-3
390
F
  0
LAYER
  5
1FB
100
AcDbSymbolTableRecord
100
AcDbLayerTableRecord
  2
DEFAULT_2
 70
0
 62
8
  6
HIDDEN
370
-3
390
F
  0
LAYER
  5
1FC
100
AcDbSymbolTableRecord
100
AcDbLayerTableRecord
  2
DEFAULT_3
 70
0
 62
7
  6
PHANTOM
370
-3
390
F
  0
LAYER
  5
1FD
100
AcDbSymbolTableRecord
100
AcDbLayerTableRecord
  2
00_COMPONENTS
 70
0
 62
7
  6
CONTINUOUS
370
-3
390
F
  0
LAYER
  5
1FE
100
AcDbSymbolTableRecord
100
AcDbLayerTableRecord
  2
01_1_DEFAULT_DATUMS
 70
0
 62
7
  6
CONTINUOUS
370
-3
390
F
  0
LAYER
  5
1FF
100
AcDbSymbolTableRecord
100
AcDbLayerTableRecord
  2
01_PLANES
 70
0
 62
7
  6
CONTINUOUS
370
-3
390
F
  0
LAYER
  5
200
100
AcDbSymbolTableRecord
100
AcDbLayerTableRecord
  2
02_COORD_SYS
 70
0
 62
7
  6
CONTINUOUS
370
-3
390
F
  0
LAYER
  5
201
100
AcDbSymbolTableRecord
100
AcDbLayerTableRecord
  2
03_AXES
 70
0
 62
7
  6
CONTINUOUS
370
-3
390
F
  0
LAYER
  5
202
100
AcDbSymbolTableRecord
100
AcDbLayerTableRecord
  2
04_POINTS
 70
0
 62
7
  6
CONTINUOUS
370
-3
390
F
  0
LAYER
  5
203
100
AcDbSymbolTableRecord
100
AcDbLayerTableRecord
  2
05_CURVES
 70
0
 62
7
  6
CONTINUOUS
370
-3
390
F
  0
LAYER
  5
204
100
AcDbSymbolTableRecord
100
AcDbLayerTableRecord
  2
06_SURFS
 70
0
 62
7
  6
CONTINUOUS
370
-3
390
F
  0
LAYER
  5
205
100
AcDbSymbolTableRecord
100
AcDbLayerTableRecord
  2
07_COSMETICS
 70
0
 62
7
  6
CONTINUOUS
370
-3
390
F
  0
LAYER
  5
206
100
AcDbSymbolTableRecord
100
AcDbLayerTableRecord
  2
10_NOTES
 70
0
 62
7
  6
CONTINUOUS
370
-3
390
F
  0
LAYER
  5
207
100
AcDbSymbolTableRecord
100
AcDbLayerTableRecord
  2
11_NOTES_PUB
 70
0
 62
7
  6
CONTINUOUS
370
-3
390
F
  0
LAYER
  5
208
100
AcDbSymbolTableRecord
100
AcDbLayerTableRecord
  2
13_REF_GTOL
 70
0
 62
7
  6
CONTINUOUS
370
-3
390
F
  0
LAYER
  5
209
100
AcDbSymbolTableRecord
100
AcDbLayerTableRecord
  2
16_MISC
 70
0
 62
7
  6
CONTINUOUS
370
-3
390
F
  0
LAYER
  5
20A
100
AcDbSymbolTableRecord
100
AcDbLayerTableRecord
  2
17_NO_PRINT
 70
0
 62
7
  6
CONTINUOUS
370
-3
390
F
  0
LAYER
  5
20B
100
AcDbSymbolTableRecord
100
AcDbLayerTableRecord
  2
18_DATUM_CAMS_JOINTS
 70
0
 62
7
  6
CONTINUOUS
370
-3
390
F
  0
LAYER
  5
20C
100
AcDbSymbolTableRecord
100
AcDbLayerTableRecord
  2
19_DATUM_FUNCTIONAL
 70
0
 62
7
  6
CONTINUOUS
370
-3
390
F
  0
LAYER
  5
20D
100
AcDbSymbolTableRecord
100
AcDbLayerTableRecord
  2
20_DATUM_KINEMATIC_SCHEME
 70
0
 62
7
  6
CONTINUOUS
370
-3
390
F
  0
ENDTAB
  0
TABLE
  2
STYLE
  5
3
100
AcDbSymbolTable
 70
1
  0
STYLE
  5
11
100
AcDbSymbolTableRecord
100
AcDbTextStyleTableRecord
  2
STANDARD
 70
0
 40
0.0
 41
0.8
 50
0.0
 71
0
 42
0.2
  3
txt
  4

  0
STYLE
  5
20E
100
AcDbSymbolTableRecord
100
AcDbTextStyleTableRecord
  2
TEXTSTYLE_1
 70
0
 40
0.0
 41
0.8
 50
0.0
 71
0
 42
0.2
  3
gdt
  4

  0
ENDTAB
  0
TABLE
  2
VIEW
  5
6
100
AcDbSymbolTable
 70
0
  0
ENDTAB
  0
TABLE
  2
UCS
  5
7
100
AcDbSymbolTable
 70
0
  0
ENDTAB
  0
TABLE
  2
APPID
  5
9
100
AcDbSymbolTable
 70
1
  0
APPID
  5
20F
100
AcDbSymbolTableRecord
100
AcDbRegAppTableRecord
  2
ACAD
 70
0
  0
ENDTAB
  0
TABLE
  2
BLOCK_RECORD
  5
1
100
AcDbSymbolTable
 70
0
  0
BLOCK_RECORD
  5
210
100
AcDbSymbolTableRecord
100
AcDbBlockTableRecord
  2
*Model_Space
  0
BLOCK_RECORD
  5
211
100
AcDbSymbolTableRecord
100
AcDbBlockTableRecord
  2
*Paper_Space
  0
BLOCK_RECORD
  5
212
100
AcDbSymbolTableRecord
100
AcDbBlockTableRecord
  2
_FILLED
  0
ENDTAB
  0
TABLE
  2
DIMSTYLE
  5
A
100
AcDbSymbolTable
 70
1
100
AcDbDimStyleTable
 71
0
  0
DIMSTYLE
105
213
100
AcDbSymbolTableRecord
100
AcDbDimStyleTableRecord
  2
STANDARD
 70
0
  3

  4

 40
1.0
 41
14.8213456403
 42
1.0
 43
0.38
 44
1.0
 45
0.0
 46
0.0
 47
0.01
 48
0.01
140
20.7498838964
141
0.09
142
0.0
143
25.4
144
1.0
145
0.0
146
1.0
147
0.625
 71
1
 72
0
 73
0
 74
0
 75
0
 76
0
 77
1
 78
8
 79
2
170
0
171
1
172
0
173
0
174
0
175
0
176
0
177
0
178
0
270
2
179
2
271
2
272
2
273
2
274
2
275
0
280
0
281
0
282
0
283
1
284
8
285
0
286
0
287
3
288
0
340
11
278
46
341
212
342
212
343
212
344
212
  0
ENDTAB
  0
ENDSEC
  0
SECTION
  2
BLOCKS
  0
BLOCK
  5
20
100
AcDbEntity
  8
0
100
AcDbBlockBegin
  2
*Model_Space
 70
0
 10
0.0
 20
0.0
 30
0.0
  3
*Model_Space
  1

  0
ENDBLK
  5
21
100
AcDbEntity
  8
0
100
AcDbBlockEnd
  0
BLOCK
  5
1C
100
AcDbEntity
  8
0
100
AcDbBlockBegin
  2
*Paper_Space
 70
0
 10
0.0
 20
0.0
 30
0.0
  3
*Paper_Space
  1

  0
ENDBLK
  5
1D
100
AcDbEntity
  8
0
100
AcDbBlockEnd
  0
BLOCK
  5
214
100
AcDbEntity
  8
0
100
AcDbBlockBegin
  2
_FILLED
 70
64
 10
0.0
 20
0.0
  3
_FILLED
  1

  0
SOLID
  5
215
100
AcDbEntity
  8
0
  6
BYBLOCK
 62
0
100
AcDbTrace
 10
0.0
 20
0.0
 11
-1.0
 21
0.25
 12
-1.0
 22
-0.25
 13
-1.0
 23
-0.25
  0
ENDBLK
  5
216
100
AcDbEntity
  8
0
  6
BYBLOCK
 62
0
100
AcDbBlockEnd
  0
ENDSEC
  0
SECTION
  2
ENTITIES
  0
LINE
  5
217
100
AcDbEntity
  8
0
100
AcDbLine
 62
7
  6
CONTINUOUS
 10
138.6603099965
 20
1373.5
 11
138.6603099965
 21
376.5
  0
LINE
  5
218
100
AcDbEntity
  8
0
100
AcDbLine
 62
7
  6
CONTINUOUS
 10
140.1603099965
 20
1375.0
 11
140.1603099965
 21
1373.5
  0
LINE
  5
219
100
AcDbEntity
  8
0
100
AcDbLine
 62
7
  6
CONTINUOUS
 10
140.1603099965
 20
376.5
 11
140.1603099965
 21
375.0
  0
LINE
  5
21A
100
AcDbEntity
  8
0
100
AcDbLine
 62
7
  6
CONTINUOUS
 10
141.1603099965
 20
377.5
 11
141.1603099965
 21
1372.5
  0
LINE
  5
21B
100
AcDbEntity
  8
0
100
AcDbLine
 62
7
  6
CONTINUOUS
 10
154.0603099965
 20
391.15
 11
154.0603099965
 21
1358.85
  0
LINE
  5
21C
100
AcDbEntity
  8
0
100
AcDbLine
 62
7
  6
CONTINUOUS
 10
154.8103099965
 20
390.4
 11
154.8103099965
 21
1359.6
  0
LINE
  5
21D
100
AcDbEntity
  8
0
100
AcDbLine
 62
7
  6
CONTINUOUS
 10
159.2103099965
 20
1354.45
 11
159.2103099965
 21
395.55
  0
LINE
  5
21E
100
AcDbEntity
  8
0
100
AcDbLine
 62
7
  6
CONTINUOUS
 10
160.4603099965
 20
396.8
 11
160.4603099965
 21
1353.2
  0
LINE
  5
21F
100
AcDbEntity
  8
0
100
AcDbLine
 62
7
  6
CONTINUOUS
 10
140.1603099965
 20
375.0
 11
1137.1603099965
 21
375.0
  0
LINE
  5
220
100
AcDbEntity
  8
0
100
AcDbLine
 62
7
  6
CONTINUOUS
 10
138.6603099965
 20
376.5
 11
140.1603099965
 21
376.5
  0
LINE
  5
221
100
AcDbEntity
  8
0
100
AcDbLine
 62
7
  6
CONTINUOUS
 10
1137.1603099965
 20
376.5
 11
1138.6603099965
 21
376.5
  0
LINE
  5
222
100
AcDbEntity
  8
0
100
AcDbLine
 62
7
  6
CONTINUOUS
 10
642.6603099965
 20
376.8
 11
1134.6603099965
 21
376.8
  0
LINE
  5
223
100
AcDbEntity
  8
0
100
AcDbLine
 62
7
  6
CONTINUOUS
 10
1136.1603099965
 20
377.5
 11
1134.6603099965
 21
377.5
  0
LINE
  5
224
100
AcDbEntity
  8
0
100
AcDbLine
 62
7
  6
CONTINUOUS
 10
642.6603099965
 20
377.5
 11
141.1603099965
 21
377.5
  0
LINE
  5
225
100
AcDbEntity
  8
0
100
AcDbLine
 62
7
  6
CONTINUOUS
 10
641.1603099965
 20
378.3
 11
642.6603099965
 21
378.3
  0
LINE
  5
226
100
AcDbEntity
  8
0
100
AcDbLine
 62
7
  6
CONTINUOUS
 10
1134.6603099965
 20
378.3
 11
1136.1603099965
 21
378.3
  0
LINE
  5
227
100
AcDbEntity
  8
0
100
AcDbLine
 62
7
  6
CONTINUOUS
 10
1133.6603099965
 20
379.3
 11
643.6603099965
 21
379.3
  0
LINE
  5
228
100
AcDbEntity
  8
0
100
AcDbLine
 62
7
  6
CONTINUOUS
 10
641.1603099965
 20
390.4
 11
154.8103099965
 21
390.4
  0
LINE
  5
229
100
AcDbEntity
  8
0
100
AcDbLine
 62
7
  6
CONTINUOUS
 10
641.1603099965
 20
391.15
 11
154.0603099965
 21
391.15
  0
LINE
  5
22A
100
AcDbEntity
  8
0
100
AcDbLine
 62
7
  6
CONTINUOUS
 10
159.2103099965
 20
395.55
 11
641.1603099965
 21
395.55
  0
LINE
  5
22B
100
AcDbEntity
  8
0
100
AcDbLine
 62
7
  6
CONTINUOUS
 10
641.1603099965
 20
396.8
 11
160.4603099965
 21
396.8
  0
LINE
  5
22C
100
AcDbEntity
  8
0
100
AcDbLine
 62
7
  6
CONTINUOUS
 10
667.6603099965
 20
799.3
 11
692.6603099965
 21
799.3
  0
LINE
  5
22D
100
AcDbEntity
  8
0
100
AcDbLine
 62
7
  6
CONTINUOUS
 10
641.1603099965
 20
378.3
 11
641.1603099965
 21
1370.3
  0
LINE
  5
22E
100
AcDbEntity
  8
0
100
AcDbLine
 62
7
  6
CONTINUOUS
 10
642.6603099965
 20
1371.8
 11
642.6603099965
 21
1370.3
  0
LINE
  5
22F
100
AcDbEntity
  8
0
100
AcDbLine
 62
7
  6
CONTINUOUS
 10
642.6603099965
 20
378.3
 11
642.6603099965
 21
376.8
  0
LINE
  5
230
100
AcDbEntity
  8
0
100
AcDbLine
 62
7
  6
CONTINUOUS
 10
643.6603099965
 20
379.3
 11
643.6603099965
 21
1369.3
  0
LINE
  5
231
100
AcDbEntity
  8
0
100
AcDbLine
 62
7
  6
CONTINUOUS
 10
1136.1603099965
 20
1372.5
 11
1134.6603099965
 21
1371.0
  0
LINE
  5
232
100
AcDbEntity
  8
0
100
AcDbLine
 62
7
  6
CONTINUOUS
 10
159.2103099965
 20
395.55
 11
141.1603099965
 21
377.5
  0
LINE
  5
233
100
AcDbEntity
  8
0
100
AcDbLine
 62
7
  6
CONTINUOUS
 10
692.6603099965
 20
849.3
 11
667.6603099965
 21
849.3
  0
LINE
  5
234
100
AcDbEntity
  8
0
100
AcDbLine
 62
7
  6
CONTINUOUS
 10
1136.1603099965
 20
377.5
 11
1135.3603099965
 21
378.3
  0
LINE
  5
235
100
AcDbEntity
  8
0
100
AcDbLine
 62
7
  6
CONTINUOUS
 10
141.1603099965
 20
1372.5
 11
159.2103099965
 21
1354.45
  0
LINE
  5
236
100
AcDbEntity
  8
0
100
AcDbLine
 62
7
  6
CONTINUOUS
 10
667.6603099965
 20
949.3
 11
667.6603099965
 21
899.3
  0
LINE
  5
237
100
AcDbEntity
  8
0
100
AcDbLine
 62
7
  6
CONTINUOUS
 10
667.6603099965
 20
849.3
 11
667.6603099965
 21
799.3
  0
LINE
  5
238
100
AcDbEntity
  8
0
100
AcDbLine
 62
7
  6
CONTINUOUS
 10
668.6603099965
 20
899.3
 11
668.6603099965
 21
948.5451871802
  0
LINE
  5
239
100
AcDbEntity
  8
0
100
AcDbLine
 62
7
  6
CONTINUOUS
 10
669.8603099965
 20
921.3451871802
 11
669.8603099965
 21
926.3451871802
  0
LINE
  5
23A
100
AcDbEntity
  8
0
100
AcDbLine
 62
7
  6
CONTINUOUS
 10
671.0103099965
 20
921.3451871802
 11
671.0103099965
 21
926.3451871802
  0
LINE
  5
23B
100
AcDbEntity
  8
0
100
AcDbLine
 62
7
  6
CONTINUOUS
 10
671.8603099965
 20
921.3451871802
 11
671.8603099965
 21
926.3451871802
  0
LINE
  5
23C
100
AcDbEntity
  8
0
100
AcDbLine
 62
7
  6
CONTINUOUS
 10
673.3603099965
 20
904.8451871802
 11
673.3603099965
 21
899.3
  0
LINE
  5
23D
100
AcDbEntity
  8
0
100
AcDbLine
 62
7
  6
CONTINUOUS
 10
673.3603099965
 20
942.8451871802
 11
673.3603099965
 21
949.3
  0
LINE
  5
23E
100
AcDbEntity
  8
0
100
AcDbLine
 62
7
  6
CONTINUOUS
 10
675.8103099965
 20
927.8951871802
 11
675.8103099965
 21
919.7951871802
  0
LINE
  5
23F
100
AcDbEntity
  8
0
100
AcDbLine
 62
7
  6
CONTINUOUS
 10
683.9103099965
 20
919.7951871802
 11
683.9103099965
 21
927.8951871802
  0
LINE
  5
240
100
AcDbEntity
  8
0
100
AcDbLine
 62
7
  6
CONTINUOUS
 10
686.3603099965
 20
904.8451871802
 11
686.3603099965
 21
899.3
  0
LINE
  5
241
100
AcDbEntity
  8
0
100
AcDbLine
 62
7
  6
CONTINUOUS
 10
686.3603099965
 20
942.8451871802
 11
686.3603099965
 21
949.3
  0
LINE
  5
242
100
AcDbEntity
  8
0
100
AcDbLine
 62
7
  6
CONTINUOUS
 10
687.8603099965
 20
926.3451871802
 11
687.8603099965
 21
921.3451871802
  0
LINE
  5
243
100
AcDbEntity
  8
0
100
AcDbLine
 62
7
  6
CONTINUOUS
 10
689.8603099965
 20
926.3451871802
 11
689.8603099965
 21
921.3451871802
  0
LINE
  5
244
100
AcDbEntity
  8
0
100
AcDbLine
 62
7
  6
CONTINUOUS
 10
691.0603099965
 20
948.5451871802
 11
691.0603099965
 21
899.3
  0
LINE
  5
245
100
AcDbEntity
  8
0
100
AcDbLine
 62
7
  6
CONTINUOUS
 10
667.6603099965
 20
899.3
 11
692.6603099965
 21
899.3
  0
LINE
  5
246
100
AcDbEntity
  8
0
100
AcDbLine
 62
7
  6
CONTINUOUS
 10
675.8103099965
 20
919.7951871802
 11
683.9103099965
 21
919.7951871802
  0
LINE
  5
247
100
AcDbEntity
  8
0
100
AcDbLine
 62
7
  6
CONTINUOUS
 10
689.8603099965
 20
921.3451871802
 11
687.7224025933
 21
921.3451871802
  0
LINE
  5
248
100
AcDbEntity
  8
0
100
AcDbLine
 62
7
  6
CONTINUOUS
 10
671.9982173998
 20
921.3451871802
 11
669.8603099965
 21
921.3451871802
  0
LINE
  5
249
100
AcDbEntity
  8
0
100
AcDbLine
 62
7
  6
CONTINUOUS
 10
669.8603099965
 20
926.3451871802
 11
671.9982173998
 21
926.3451871802
  0
LINE
  5
24A
100
AcDbEntity
  8
0
100
AcDbLine
 62
7
  6
CONTINUOUS
 10
687.7224025933
 20
926.3451871802
 11
689.8603099965
 21
926.3451871802
  0
LINE
  5
24B
100
AcDbEntity
  8
0
100
AcDbLine
 62
7
  6
CONTINUOUS
 10
683.9103099965
 20
927.8951871802
 11
675.8103099965
 21
927.8951871802
  0
LINE
  5
24C
100
AcDbEntity
  8
0
100
AcDbLine
 62
7
  6
CONTINUOUS
 10
692.6603099965
 20
799.3
 11
692.6603099965
 21
849.3
  0
LINE
  5
24D
100
AcDbEntity
  8
0
100
AcDbLine
 62
7
  6
CONTINUOUS
 10
692.6603099965
 20
899.3
 11
692.6603099965
 21
949.3
  0
LINE
  5
24E
100
AcDbEntity
  8
0
100
AcDbLine
 62
7
  6
CONTINUOUS
 10
668.6603099965
 20
948.5451871802
 11
673.3603099965
 21
948.5451871802
  0
LINE
  5
24F
100
AcDbEntity
  8
0
100
AcDbLine
 62
7
  6
CONTINUOUS
 10
686.3603099965
 20
948.5451871802
 11
691.0603099965
 21
948.5451871802
  0
LINE
  5
250
100
AcDbEntity
  8
0
100
AcDbLine
 62
7
  6
CONTINUOUS
 10
692.6603099965
 20
949.3
 11
667.6603099965
 21
949.3
  0
LINE
  5
251
100
AcDbEntity
  8
0
100
AcDbLine
 62
7
  6
CONTINUOUS
 10
671.5960964914
 20
1045.2594007998
 11
670.7326576131
 21
1046.1228395341
  0
LINE
  5
252
100
AcDbEntity
  8
0
100
AcDbLine
 62
7
  6
CONTINUOUS
 10
1133.6603099965
 20
1369.3
 11
1133.6603099965
 21
379.3
  0
LINE
  5
253
100
AcDbEntity
  8
0
100
AcDbLine
 62
7
  6
CONTINUOUS
 10
1134.6603099965
 20
376.8
 11
1134.6603099965
 21
378.3
  0
LINE
  5
254
100
AcDbEntity
  8
0
100
AcDbLine
 62
7
  6
CONTINUOUS
 10
1134.6603099965
 20
1370.3
 11
1134.6603099965
 21
1371.8
  0
LINE
  5
255
100
AcDbEntity
  8
0
100
AcDbLine
 62
7
  6
CONTINUOUS
 10
1136.1603099965
 20
377.5
 11
1136.1603099965
 21
1372.5
  0
LINE
  5
256
100
AcDbEntity
  8
0
100
AcDbLine
 62
7
  6
CONTINUOUS
 10
1137.1603099965
 20
375.0
 11
1137.1603099965
 21
376.5
  0
LINE
  5
257
100
AcDbEntity
  8
0
100
AcDbLine
 62
7
  6
CONTINUOUS
 10
1137.1603099965
 20
1373.5
 11
1137.1603099965
 21
1375.0
  0
LINE
  5
258
100
AcDbEntity
  8
0
100
AcDbLine
 62
7
  6
CONTINUOUS
 10
1138.6603099965
 20
376.5
 11
1138.6603099965
 21
1373.5
  0
LINE
  5
259
100
AcDbEntity
  8
0
100
AcDbLine
 62
7
  6
CONTINUOUS
 10
160.4603099965
 20
1353.2
 11
641.1603099965
 21
1353.2
  0
LINE
  5
25A
100
AcDbEntity
  8
0
100
AcDbLine
 62
7
  6
CONTINUOUS
 10
641.1603099965
 20
1354.45
 11
159.2103099965
 21
1354.45
  0
LINE
  5
25B
100
AcDbEntity
  8
0
100
AcDbLine
 62
7
  6
CONTINUOUS
 10
154.0603099965
 20
1358.85
 11
641.1603099965
 21
1358.85
  0
LINE
  5
25C
100
AcDbEntity
  8
0
100
AcDbLine
 62
7
  6
CONTINUOUS
 10
154.8103099965
 20
1359.6
 11
641.1603099965
 21
1359.6
  0
LINE
  5
25D
100
AcDbEntity
  8
0
100
AcDbLine
 62
7
  6
CONTINUOUS
 10
643.6603099965
 20
1369.3
 11
1133.6603099965
 21
1369.3
  0
LINE
  5
25E
100
AcDbEntity
  8
0
100
AcDbLine
 62
7
  6
CONTINUOUS
 10
1136.1603099965
 20
1370.3
 11
1134.6603099965
 21
1370.3
  0
LINE
  5
25F
100
AcDbEntity
  8
0
100
AcDbLine
 62
7
  6
CONTINUOUS
 10
642.6603099965
 20
1370.3
 11
641.1603099965
 21
1370.3
  0
LINE
  5
260
100
AcDbEntity
  8
0
100
AcDbLine
 62
7
  6
CONTINUOUS
 10
1134.6603099965
 20
1371.8
 11
642.6603099965
 21
1371.8
  0
LINE
  5
261
100
AcDbEntity
  8
0
100
AcDbLine
 62
7
  6
CONTINUOUS
 10
141.1603099965
 20
1372.5
 11
1136.1603099965
 21
1372.5
  0
LINE
  5
262
100
AcDbEntity
  8
0
100
AcDbLine
 62
7
  6
CONTINUOUS
 10
1138.6603099965
 20
1373.5
 11
1137.1603099965
 21
1373.5
  0
LINE
  5
263
100
AcDbEntity
  8
0
100
AcDbLine
 62
7
  6
CONTINUOUS
 10
140.1603099965
 20
1373.5
 11
138.6603099965
 21
1373.5
  0
LINE
  5
264
100
AcDbEntity
  8
0
100
AcDbLine
 62
7
  6
CONTINUOUS
 10
1137.1603099965
 20
1375.0
 11
140.1603099965
 21
1375.0
  0
ARC
  5
265
100
AcDbEntity
  8
0
100
AcDbCircle
 62
7
  6
CONTINUOUS
 10
144.9022977226
 20
360.1414008626
 40
17.7420630488
100
AcDbArc
 50
105.5748127149
 51
106.1417934712
  0
CIRCLE
  5
266
100
AcDbEntity
  8
0
100
AcDbCircle
 62
7
  6
CONTINUOUS
 10
176.1603099965
 20
412.5
 40
7.0
  0
CIRCLE
  5
267
100
AcDbEntity
  8
0
100
AcDbCircle
 62
7
  6
CONTINUOUS
 10
176.1603099965
 20
412.5
 40
6.4999999087
  0
ARC
  5
268
100
AcDbEntity
  8
0
100
AcDbCircle
 62
7
  6
CONTINUOUS
 10
163.6603099965
 20
400.0
 40
5.0
100
AcDbArc
 50
319.1824179303
 51
130.7945118189
  0
CIRCLE
  5
269
100
AcDbEntity
  8
0
100
AcDbCircle
 62
7
  6
CONTINUOUS
 10
176.1603099965
 20
412.5
 40
4.499999441
  0
CIRCLE
  5
26A
100
AcDbEntity
  8
0
100
AcDbCircle
 62
7
  6
CONTINUOUS
 10
176.1603099965
 20
412.5
 40
4.0
  0
CIRCLE
  5
26B
100
AcDbEntity
  8
0
100
AcDbCircle
 62
7
  6
CONTINUOUS
 10
149.9603099965
 20
444.0
 40
3.825
  0
CIRCLE
  5
26C
100
AcDbEntity
  8
0
100
AcDbCircle
 62
7
  6
CONTINUOUS
 10
176.1603099965
 20
412.5
 40
3.0
  0
ARC
  5
26D
100
AcDbEntity
  8
0
100
AcDbCircle
 62
7
  6
CONTINUOUS
 10
123.8017108591
 20
1368.758012274
 40
17.7420630488
100
AcDbArc
 50
15.5748127149
 51
16.1417934711
  0
ARC
  5
26E
100
AcDbEntity
  8
0
100
AcDbCircle
 62
7
  6
CONTINUOUS
 10
627.8127581241
 20
1365.9890132101
 40
16.1707348528
100
AcDbArc
 50
15.757514786
 51
16.4636659728
  0
CIRCLE
  5
26F
100
AcDbEntity
  8
0
100
AcDbCircle
 62
7
  6
CONTINUOUS
 10
176.1603099965
 20
1337.5
 40
7.0
  0
CIRCLE
  5
270
100
AcDbEntity
  8
0
100
AcDbCircle
 62
7
  6
CONTINUOUS
 10
176.1603099965
 20
1337.5
 40
6.4999999087
  0
ARC
  5
271
100
AcDbEntity
  8
0
100
AcDbCircle
 62
7
  6
CONTINUOUS
 10
163.6603099965
 20
1350.0
 40
5.0
100
AcDbArc
 50
229.2890906
 51
40.8841502934
  0
CIRCLE
  5
272
100
AcDbEntity
  8
0
100
AcDbCircle
 62
7
  6
CONTINUOUS
 10
176.1603099965
 20
1337.5
 40
4.499999441
  0
CIRCLE
  5
273
100
AcDbEntity
  8
0
100
AcDbCircle
 62
7
  6
CONTINUOUS
 10
176.1603099965
 20
1337.5
 40
4.0
  0
CIRCLE
  5
274
100
AcDbEntity
  8
0
100
AcDbCircle
 62
7
  6
CONTINUOUS
 10
149.9603099965
 20
1306.0
 40
3.825
  0
CIRCLE
  5
275
100
AcDbEntity
  8
0
100
AcDbCircle
 62
7
  6
CONTINUOUS
 10
149.9603099965
 20
875.0
 40
3.825
  0
CIRCLE
  5
276
100
AcDbEntity
  8
0
100
AcDbCircle
 62
7
  6
CONTINUOUS
 10
176.1603099965
 20
1337.5
 40
3.0
  0
ARC
  5
277
100
AcDbEntity
  8
0
100
AcDbCircle
 62
7
  6
CONTINUOUS
 10
1153.5189091429
 20
381.2419877286
 40
17.7420630581
100
AcDbArc
 50
195.5748127151
 51
196.141793471
  0
ARC
  5
278
100
AcDbEntity
  8
0
100
AcDbCircle
 62
7
  6
CONTINUOUS
 10
646.9712967853
 20
363.4524481324
 40
16.1707348479
100
AcDbArc
 50
105.7575147866
 51
106.4636659736
  0
ARC
  5
279
100
AcDbEntity
  8
0
100
AcDbCircle
 62
7
  6
CONTINUOUS
 10
1149.5078618531
 20
382.6109867853
 40
16.1707348363
100
AcDbArc
 50
195.7575147855
 51
196.4636659731
  0
ARC
  5
27A
100
AcDbEntity
  8
0
100
AcDbCircle
 62
7
  6
CONTINUOUS
 10
673.2694838408
 20
915.8195443615
 40
7.02
100
AcDbArc
 50
106.6508242217
 51
108.8735442003
  0
ARC
  5
27B
100
AcDbEntity
  8
0
100
AcDbCircle
 62
7
  6
CONTINUOUS
 10
673.2694838408
 20
931.8708299989
 40
7.02
100
AcDbArc
 50
251.1264557997
 51
253.3491757783
  0
ARC
  5
27C
100
AcDbEntity
  8
0
100
AcDbCircle
 62
7
  6
CONTINUOUS
 10
686.4511361523
 20
915.8195443615
 40
7.02
100
AcDbArc
 50
60.8421993526
 51
73.3491757783
  0
ARC
  5
27D
100
AcDbEntity
  8
0
100
AcDbCircle
 62
7
  6
CONTINUOUS
 10
679.8603099965
 20
904.8451871802
 40
6.5
100
AcDbArc
 50
0.0
 51
180.0
  0
ARC
  5
27E
100
AcDbEntity
  8
0
100
AcDbCircle
 62
7
  6
CONTINUOUS
 10
679.8603099965
 20
904.8451871802
 40
5.2
100
AcDbArc
 50
291.6138457497
 51
248.3861542503
  0
ARC
  5
27F
100
AcDbEntity
  8
0
100
AcDbCircle
 62
7
  6
CONTINUOUS
 10
679.8603099965
 20
896.8451871802
 40
3.7
100
AcDbArc
 50
45.2717076173
 51
134.7282923827
  0
CIRCLE
  5
280
100
AcDbEntity
  8
0
100
AcDbCircle
 62
7
  6
CONTINUOUS
 10
679.8603099965
 20
904.8451871802
 40
3.1
  0
CIRCLE
  5
281
100
AcDbEntity
  8
0
100
AcDbCircle
 62
7
  6
CONTINUOUS
 10
679.8603099965
 20
904.8451871802
 40
3.05
  0
CIRCLE
  5
282
100
AcDbEntity
  8
0
100
AcDbCircle
 62
7
  6
CONTINUOUS
 10
679.8603099965
 20
904.8451871802
 40
2.25
  0
ARC
  5
283
100
AcDbEntity
  8
0
100
AcDbCircle
 62
7
  6
CONTINUOUS
 10
679.8603099965
 20
923.8451871802
 40
8.7
100
AcDbArc
 50
171.4063774013
 51
188.5936225987
  0
ARC
  5
284
100
AcDbEntity
  8
0
100
AcDbCircle
 62
7
  6
CONTINUOUS
 10
679.8603099965
 20
923.8451871802
 40
8.7
100
AcDbArc
 50
351.4063774013
 51
8.5936225987
  0
ARC
  5
285
100
AcDbEntity
  8
0
100
AcDbCircle
 62
7
  6
CONTINUOUS
 10
679.8603099965
 20
923.8451871802
 40
8.25
100
AcDbArc
 50
197.6397013942
 51
342.3602986058
  0
ARC
  5
286
100
AcDbEntity
  8
0
100
AcDbCircle
 62
7
  6
CONTINUOUS
 10
679.8603099965
 20
923.8451871802
 40
8.25
100
AcDbArc
 50
17.6397013942
 51
162.3602986058
  0
CIRCLE
  5
287
100
AcDbEntity
  8
0
100
AcDbCircle
 62
7
  6
CONTINUOUS
 10
679.8603099965
 20
923.8451871802
 40
7.05
  0
ARC
  5
288
100
AcDbEntity
  8
0
100
AcDbCircle
 62
7
  6
CONTINUOUS
 10
686.4511361523
 20
931.8708299989
 40
7.02
100
AcDbArc
 50
286.6508242217
 51
299.1578006474
  0
CIRCLE
  5
289
100
AcDbEntity
  8
0
100
AcDbCircle
 62
7
  6
CONTINUOUS
 10
679.8603099965
 20
923.8451871802
 40
6.9
  0
ARC
  5
28A
100
AcDbEntity
  8
0
100
AcDbCircle
 62
7
  6
CONTINUOUS
 10
679.8603099965
 20
942.8451871802
 40
6.5
100
AcDbArc
 50
180.0
 51
360.0
  0
ARC
  5
28B
100
AcDbEntity
  8
0
100
AcDbCircle
 62
7
  6
CONTINUOUS
 10
679.8603099965
 20
942.8451871802
 40
5.2
100
AcDbArc
 50
111.6138457497
 51
68.3861542503
  0
ARC
  5
28C
100
AcDbEntity
  8
0
100
AcDbCircle
 62
7
  6
CONTINUOUS
 10
679.8603099965
 20
950.8451871802
 40
3.7
100
AcDbArc
 50
201.6360847836
 51
338.3639152164
  0
CIRCLE
  5
28D
100
AcDbEntity
  8
0
100
AcDbCircle
 62
7
  6
CONTINUOUS
 10
679.8603099965
 20
942.8451871802
 40
3.1
  0
CIRCLE
  5
28E
100
AcDbEntity
  8
0
100
AcDbCircle
 62
7
  6
CONTINUOUS
 10
679.8603099965
 20
942.8451871802
 40
3.05
  0
CIRCLE
  5
28F
100
AcDbEntity
  8
0
100
AcDbCircle
 62
7
  6
CONTINUOUS
 10
679.8603099965
 20
942.8451871802
 40
2.25
  0
ARC
  5
290
100
AcDbEntity
  8
0
100
AcDbCircle
 62
7
  6
CONTINUOUS
 10
657.6603099965
 20
1347.55
 40
16.5
100
AcDbArc
 50
159.6576116825
 51
180.0
  0
ARC
  5
291
100
AcDbEntity
  8
0
100
AcDbCircle
 62
7
  6
CONTINUOUS
 10
1132.4183222672
 20
1389.858599149
 40
17.7420630609
100
AcDbArc
 50
285.5748127151
 51
286.1417934709
  0
ARC
  5
292
100
AcDbEntity
  8
0
100
AcDbCircle
 62
7
  6
CONTINUOUS
 10
1130.3493232112
 20
1385.1475518571
 40
16.1707348368
100
AcDbArc
 50
285.7575147849
 51
286.4636659724
  0
SPLINE
  5
293
100
AcDbEntity
  8
0
100
AcDbSpline
 62
7
  6
CONTINUOUS
 70
0
 71
3
 72
9
 73
5
 74
0
 42
0.0000001
 43
0.0000001
 44
0.0000000001
 40
0.0
 40
0.0
 40
0.0
 40
0.0
 40
0.4008802055
 40
1.0
 40
1.0
 40
1.0
 40
1.0
 10
642.6603099965
 20
378.3
 30
0.0
 10
642.8534669384
 20
378.3
 30
0.0
 10
643.2741867752
 20
378.6566613669
 30
0.0
 10
643.5052829991
 20
379.0564841619
 30
0.0
 10
643.6603099965
 20
379.3
 30
0.0
  0
SPLINE
  5
294
100
AcDbEntity
  8
0
100
AcDbSpline
 62
7
  6
CONTINUOUS
 70
0
 71
3
 72
9
 73
5
 74
0
 42
0.0000001
 43
0.0000001
 44
0.0000000001
 40
0.0
 40
0.0
 40
0.0
 40
0.0
 40
0.5991197945
 40
1.0
 40
1.0
 40
1.0
 40
1.0
 10
1133.6603099965
 20
379.3
 30
0.0
 10
1133.8153369939
 20
379.0564841619
 30
0.0
 10
1134.0464332178
 20
378.6566613669
 30
0.0
 10
1134.4671530547
 20
378.3
 30
0.0
 10
1134.6603099965
 20
378.3
 30
0.0
  0
SPLINE
  5
295
100
AcDbEntity
  8
0
100
AcDbSpline
 62
7
  6
CONTINUOUS
 70
0
 71
3
 72
9
 73
5
 74
0
 42
0.0000001
 43
0.0000001
 44
0.0000000001
 40
0.0
 40
0.0
 40
0.0
 40
0.0
 40
0.4008802055
 40
1.0
 40
1.0
 40
1.0
 40
1.0
 10
642.6603099965
 20
1370.3
 30
0.0
 10
642.6603099965
 20
1370.1068430582
 30
0.0
 10
643.0169713634
 20
1369.6861232213
 30
0.0
 10
643.4167941584
 20
1369.4550269974
 30
0.0
 10
643.6603099965
 20
1369.3
 30
0.0
  0
SPLINE
  5
296
100
AcDbEntity
  8
0
100
AcDbSpline
 62
7
  6
CONTINUOUS
 70
0
 71
3
 72
9
 73
5
 74
0
 42
0.0000001
 43
0.0000001
 44
0.0000000001
 40
0.0
 40
0.0
 40
0.0
 40
0.0
 40
0.5991197945
 40
1.0
 40
1.0
 40
1.0
 40
1.0
 10
643.6603099965
 20
379.3
 30
0.0
 10
643.4167941584
 20
379.1449730026
 30
0.0
 10
643.0169713634
 20
378.9138767787
 30
0.0
 10
642.6603099965
 20
378.4931569418
 30
0.0
 10
642.6603099965
 20
378.3
 30
0.0
  0
SPLINE
  5
297
100
AcDbEntity
  8
0
100
AcDbSpline
 62
7
  6
CONTINUOUS
 70
0
 71
3
 72
9
 73
5
 74
0
 42
0.0000001
 43
0.0000001
 44
0.0000000001
 40
0.0
 40
0.0
 40
0.0
 40
0.0
 40
0.4008802055
 40
1.0
 40
1.0
 40
1.0
 40
1.0
 10
1134.6603099965
 20
1370.3
 30
0.0
 10
1134.4671530547
 20
1370.3
 30
0.0
 10
1134.0464332178
 20
1369.9433386331
 30
0.0
 10
1133.8153369939
 20
1369.5435158381
 30
0.0
 10
1133.6603099965
 20
1369.3
 30
0.0
  0
SPLINE
  5
298
100
AcDbEntity
  8
0
100
AcDbSpline
 62
7
  6
CONTINUOUS
 70
0
 71
3
 72
9
 73
5
 74
0
 42
0.0000001
 43
0.0000001
 44
0.0000000001
 40
0.0
 40
0.0
 40
0.0
 40
0.0
 40
0.5991197945
 40
1.0
 40
1.0
 40
1.0
 40
1.0
 10
643.6603099965
 20
1369.3
 30
0.0
 10
643.5052829991
 20
1369.5435158381
 30
0.0
 10
643.2741867752
 20
1369.9433386331
 30
0.0
 10
642.8534669384
 20
1370.3
 30
0.0
 10
642.6603099965
 20
1370.3
 30
0.0
  0
SPLINE
  5
299
100
AcDbEntity
  8
0
100
AcDbSpline
 62
7
  6
CONTINUOUS
 70
0
 71
3
 72
9
 73
5
 74
0
 42
0.0000001
 43
0.0000001
 44
0.0000000001
 40
0.0
 40
0.0
 40
0.0
 40
0.0
 40
0.4008802055
 40
1.0
 40
1.0
 40
1.0
 40
1.0
 10
1134.6603099965
 20
378.3
 30
0.0
 10
1134.6603099965
 20
378.4931569418
 30
0.0
 10
1134.3036486296
 20
378.9138767787
 30
0.0
 10
1133.9038258346
 20
379.1449730026
 30
0.0
 10
1133.6603099965
 20
379.3
 30
0.0
  0
SPLINE
  5
29A
100
AcDbEntity
  8
0
100
AcDbSpline
 62
7
  6
CONTINUOUS
 70
0
 71
3
 72
9
 73
5
 74
0
 42
0.0000001
 43
0.0000001
 44
0.0000000001
 40
0.0
 40
0.0
 40
0.0
 40
0.0
 40
0.5991197945
 40
1.0
 40
1.0
 40
1.0
 40
1.0
 10
1133.6603099965
 20
1369.3
 30
0.0
 10
1133.9038258346
 20
1369.4550269974
 30
0.0
 10
1134.3036486296
 20
1369.6861232213
 30
0.0
 10
1134.6603099965
 20
1370.1068430582
 30
0.0
 10
1134.6603099965
 20
1370.3
 30
0.0
  0
SPLINE
  5
29B
100
AcDbEntity
  8
0
100
AcDbSpline
 62
7
  6
CONTINUOUS
 70
0
 71
3
 72
8
 73
4
 74
0
 42
0.0000001
 43
0.0000001
 44
0.0000000001
 40
0.0
 40
0.0
 40
0.0
 40
0.0
 40
1.0
 40
1.0
 40
1.0
 40
1.0
 10
1133.6603099965
 20
379.3
 30
0.0
 10
1134.021217675
 20
379.2080956151
 30
0.0
 10
1134.3823515242
 20
379.1167211495
 30
0.0
 10
1134.7407526111
 20
379.0154816846
 30
0.0
  0
SPLINE
  5
29C
100
AcDbEntity
  8
0
100
AcDbSpline
 62
7
  6
CONTINUOUS
 70
0
 71
3
 72
8
 73
4
 74
0
 42
0.0000001
 43
0.0000001
 44
0.0000000001
 40
0.0
 40
0.0
 40
0.0
 40
0.0
 40
1.0
 40
1.0
 40
1.0
 40
1.0
 10
1134.7407526111
 20
379.0154816846
 30
0.0
 10
1134.9718104069
 20
378.9502135577
 30
0.0
 10
1135.2021706616
 20
378.8813641326
 30
0.0
 10
1135.4280649223
 20
378.8000043369
 30
0.0
  0
SPLINE
  5
29D
100
AcDbEntity
  8
0
100
AcDbSpline
 62
7
  6
CONTINUOUS
 70
0
 71
3
 72
9
 73
5
 74
0
 42
0.0000001
 43
0.0000001
 44
0.0000000001
 40
0.0
 40
0.0
 40
0.0
 40
0.0
 40
0.6551194342
 40
1.0
 40
1.0
 40
1.0
 40
1.0
 10
1135.4280649223
 20
378.8000043369
 30
0.0
 10
1135.615236813
 20
378.7325910846
 30
0.0
 10
1135.8826408693
 20
378.6399166287
 30
0.0
 10
1136.1603100165
 20
378.4047307976
 30
0.0
 10
1136.1603100165
 20
378.3
 30
0.0
  0
SPLINE
  5
29E
100
AcDbEntity
  8
0
100
AcDbSpline
 62
7
  6
CONTINUOUS
 70
0
 71
3
 72
9
 73
5
 74
0
 42
0.0000001
 43
0.0000001
 44
0.0000000001
 40
0.0
 40
0.0
 40
0.0
 40
0.0
 40
0.3271535047
 40
1.0
 40
1.0
 40
1.0
 40
1.0
 10
641.1603099765
 20
378.3
 30
0.0
 10
641.1603099765
 20
378.455275939
 30
0.0
 10
641.6827984067
 20
378.751631636
 30
0.0
 10
642.0821626867
 20
378.8695788712
 30
0.0
 10
642.3883932326
 20
378.9601771907
 30
0.0
  0
SPLINE
  5
29F
100
AcDbEntity
  8
0
100
AcDbSpline
 62
7
  6
CONTINUOUS
 70
0
 71
3
 72
8
 73
4
 74
0
 42
0.0000001
 43
0.0000001
 44
0.0000000001
 40
0.0
 40
0.0
 40
0.0
 40
0.0
 40
1.0
 40
1.0
 40
1.0
 40
1.0
 10
642.5798639931
 20
379.0154807273
 30
0.0
 10
642.9382661903
 20
379.116720579
 30
0.0
 10
643.2994011807
 20
379.2080953255
 30
0.0
 10
643.6603099965
 20
379.3
 30
0.0
  0
SPLINE
  5
2A0
100
AcDbEntity
  8
0
100
AcDbSpline
 62
7
  6
CONTINUOUS
 70
0
 71
3
 72
8
 73
4
 74
0
 42
0.0000001
 43
0.0000001
 44
0.0000000001
 40
0.0
 40
0.0
 40
0.0
 40
0.0
 40
1.0
 40
1.0
 40
1.0
 40
1.0
 10
643.6603099965
 20
1369.3
 30
0.0
 10
643.299402318
 20
1369.3919043849
 30
0.0
 10
642.9382684688
 20
1369.4832788505
 30
0.0
 10
642.5798673819
 20
1369.5845183154
 30
0.0
  0
SPLINE
  5
2A1
100
AcDbEntity
  8
0
100
AcDbSpline
 62
7
  6
CONTINUOUS
 70
0
 71
3
 72
8
 73
4
 74
0
 42
0.0000001
 43
0.0000001
 44
0.0000000001
 40
0.0
 40
0.0
 40
0.0
 40
0.0
 40
1.0
 40
1.0
 40
1.0
 40
1.0
 10
642.5798673819
 20
1369.5845183154
 30
0.0
 10
642.3488095861
 20
1369.6497864423
 30
0.0
 10
642.1184493314
 20
1369.7186358674
 30
0.0
 10
641.8925550707
 20
1369.7999956631
 30
0.0
  0
SPLINE
  5
2A2
100
AcDbEntity
  8
0
100
AcDbSpline
 62
7
  6
CONTINUOUS
 70
0
 71
3
 72
9
 73
5
 74
0
 42
0.0000001
 43
0.0000001
 44
0.0000000001
 40
0.0
 40
0.0
 40
0.0
 40
0.0
 40
0.6551194342
 40
1.0
 40
1.0
 40
1.0
 40
1.0
 10
641.8925550707
 20
1369.7999956631
 30
0.0
 10
641.70538318
 20
1369.8674089154
 30
0.0
 10
641.4379791238
 20
1369.9600833713
 30
0.0
 10
641.1603099765
 20
1370.1952692024
 30
0.0
 10
641.1603099765
 20
1370.3
 30
0.0
  0
SPLINE
  5
2A3
100
AcDbEntity
  8
0
100
AcDbSpline
 62
7
  6
CONTINUOUS
 70
0
 71
3
 72
8
 73
4
 74
0
 42
0.0000001
 43
0.0000001
 44
0.0000000001
 40
0.0
 40
0.0
 40
0.0
 40
0.0
 40
1.0
 40
1.0
 40
1.0
 40
1.0
 10
643.6603099965
 20
379.3
 30
0.0
 10
643.5684056116
 20
378.9390923215
 30
0.0
 10
643.477031146
 20
378.5779584723
 30
0.0
 10
643.3757916811
 20
378.2195573854
 30
0.0
  0
SPLINE
  5
2A4
100
AcDbEntity
  8
0
100
AcDbSpline
 62
7
  6
CONTINUOUS
 70
0
 71
3
 72
8
 73
4
 74
0
 42
0.0000001
 43
0.0000001
 44
0.0000000001
 40
0.0
 40
0.0
 40
0.0
 40
0.0
 40
1.0
 40
1.0
 40
1.0
 40
1.0
 10
643.3757916811
 20
378.2195573854
 30
0.0
 10
643.3105235542
 20
377.9884995896
 30
0.0
 10
643.2416741291
 20
377.7581393349
 30
0.0
 10
643.1603143334
 20
377.5322450742
 30
0.0
  0
SPLINE
  5
2A5
100
AcDbEntity
  8
0
100
AcDbSpline
 62
7
  6
CONTINUOUS
 70
0
 71
3
 72
9
 73
5
 74
0
 42
0.0000001
 43
0.0000001
 44
0.0000000001
 40
0.0
 40
0.0
 40
0.0
 40
0.0
 40
0.6551194342
 40
1.0
 40
1.0
 40
1.0
 40
1.0
 10
643.1603143334
 20
377.5322450742
 30
0.0
 10
643.0929010811
 20
377.3450731835
 30
0.0
 10
643.0002266252
 20
377.0776691273
 30
0.0
 10
642.7650407942
 20
376.79999998
 30
0.0
 10
642.6603099965
 20
376.79999998
 30
0.0
  0
SPLINE
  5
2A6
100
AcDbEntity
  8
0
100
AcDbSpline
 62
7
  6
CONTINUOUS
 70
0
 71
3
 72
9
 73
5
 74
0
 42
0.0000001
 43
0.0000001
 44
0.0000000001
 40
0.0
 40
0.0
 40
0.0
 40
0.0
 40
0.3271535046
 40
1.0
 40
1.0
 40
1.0
 40
1.0
 10
642.6603099965
 20
1371.80000002
 30
0.0
 10
642.8155859355
 20
1371.80000002
 30
0.0
 10
643.1119416325
 20
1371.2775115898
 30
0.0
 10
643.2298888677
 20
1370.8781473098
 30
0.0
 10
643.3204871872
 20
1370.5719167639
 30
0.0
  0
SPLINE
  5
2A7
100
AcDbEntity
  8
0
100
AcDbSpline
 62
7
  6
CONTINUOUS
 70
0
 71
3
 72
8
 73
4
 74
0
 42
0.0000001
 43
0.0000001
 44
0.0000000001
 40
0.0
 40
0.0
 40
0.0
 40
0.0
 40
1.0
 40
1.0
 40
1.0
 40
1.0
 10
643.3757907239
 20
1370.3804460034
 30
0.0
 10
643.4770305755
 20
1370.0220438062
 30
0.0
 10
643.568405322
 20
1369.6609088158
 30
0.0
 10
643.6603099965
 20
1369.3
 30
0.0
  0
SPLINE
  5
2A8
100
AcDbEntity
  8
0
100
AcDbSpline
 62
7
  6
CONTINUOUS
 70
0
 71
3
 72
8
 73
4
 74
0
 42
0.0000001
 43
0.0000001
 44
0.0000000001
 40
0.0
 40
0.0
 40
0.0
 40
0.0
 40
1.0
 40
1.0
 40
1.0
 40
1.0
 10
1133.6603099965
 20
1369.3
 30
0.0
 10
1133.7522143814
 20
1369.6609076785
 30
0.0
 10
1133.843588847
 20
1370.0220415277
 30
0.0
 10
1133.9448283119
 20
1370.3804426146
 30
0.0
  0
SPLINE
  5
2A9
100
AcDbEntity
  8
0
100
AcDbSpline
 62
7
  6
CONTINUOUS
 70
0
 71
3
 72
8
 73
4
 74
0
 42
0.0000001
 43
0.0000001
 44
0.0000000001
 40
0.0
 40
0.0
 40
0.0
 40
0.0
 40
1.0
 40
1.0
 40
1.0
 40
1.0
 10
1133.9448283119
 20
1370.3804426146
 30
0.0
 10
1134.0100964388
 20
1370.6115004104
 30
0.0
 10
1134.0789458639
 20
1370.8418606651
 30
0.0
 10
1134.1603056596
 20
1371.0677549258
 30
0.0
  0
SPLINE
  5
2AA
100
AcDbEntity
  8
0
100
AcDbSpline
 62
7
  6
CONTINUOUS
 70
0
 71
3
 72
9
 73
5
 74
0
 42
0.0000001
 43
0.0000001
 44
0.0000000001
 40
0.0
 40
0.0
 40
0.0
 40
0.0
 40
0.6551194342
 40
1.0
 40
1.0
 40
1.0
 40
1.0
 10
1134.1603056596
 20
1371.0677549258
 30
0.0
 10
1134.2277189119
 20
1371.2549268165
 30
0.0
 10
1134.3203933678
 20
1371.5223308728
 30
0.0
 10
1134.5555791989
 20
1371.80000002
 30
0.0
 10
1134.6603099965
 20
1371.80000002
 30
0.0
  0
SPLINE
  5
2AB
100
AcDbEntity
  8
0
100
AcDbSpline
 62
7
  6
CONTINUOUS
 70
0
 71
3
 72
9
 73
5
 74
0
 42
0.0000001
 43
0.0000001
 44
0.0000000001
 40
0.0
 40
0.0
 40
0.0
 40
0.0
 40
0.3271535047
 40
1.0
 40
1.0
 40
1.0
 40
1.0
 10
1134.6603099965
 20
376.79999998
 30
0.0
 10
1134.5050340575
 20
376.79999998
 30
0.0
 10
1134.2086783606
 20
377.3224884102
 30
0.0
 10
1134.0907311253
 20
377.7218526902
 30
0.0
 10
1134.0001328058
 20
378.0280832361
 30
0.0
  0
SPLINE
  5
2AC
100
AcDbEntity
  8
0
100
AcDbSpline
 62
7
  6
CONTINUOUS
 70
0
 71
3
 72
8
 73
4
 74
0
 42
0.0000001
 43
0.0000001
 44
0.0000000001
 40
0.0
 40
0.0
 40
0.0
 40
0.0
 40
1.0
 40
1.0
 40
1.0
 40
1.0
 10
1133.9448292692
 20
378.2195539966
 30
0.0
 10
1133.8435894176
 20
378.5779561938
 30
0.0
 10
1133.752214671
 20
378.9390911842
 30
0.0
 10
1133.6603099965
 20
379.3
 30
0.0
  0
SPLINE
  5
2AD
100
AcDbEntity
  8
0
100
AcDbSpline
 62
7
  6
CONTINUOUS
 70
0
 71
3
 72
9
 73
5
 74
0
 42
0.0000001
 43
0.0000001
 44
0.0000000001
 40
0.0
 40
0.0
 40
0.0
 40
0.0
 40
0.3271535046
 40
1.0
 40
1.0
 40
1.0
 40
1.0
 10
1136.1603100165
 20
1370.3
 30
0.0
 10
1136.1603100165
 20
1370.144724061
 30
0.0
 10
1135.6378215864
 20
1369.848368364
 30
0.0
 10
1135.2384573063
 20
1369.7304211288
 30
0.0
 10
1134.9322267604
 20
1369.6398228093
 30
0.0
  0
SPLINE
  5
2AE
100
AcDbEntity
  8
0
100
AcDbSpline
 62
7
  6
CONTINUOUS
 70
0
 71
3
 72
8
 73
4
 74
0
 42
0.0000001
 43
0.0000001
 44
0.0000000001
 40
0.0
 40
0.0
 40
0.0
 40
0.0
 40
1.0
 40
1.0
 40
1.0
 40
1.0
 10
1134.7407559999
 20
1369.5845192727
 30
0.0
 10
1134.3823538027
 20
1369.483279421
 30
0.0
 10
1134.0212188123
 20
1369.3919046745
 30
0.0
 10
1133.6603099965
 20
1369.3
 30
0.0
  0
SPLINE
  5
2AF
100
AcDbEntity
  8
0
100
AcDbSpline
 62
7
  6
CONTINUOUS
 70
0
 71
3
 72
9
 73
5
 74
0
 42
0.0000001
 43
0.0000001
 44
0.0000000001
 40
0.0
 40
0.0
 40
0.0
 40
0.0
 40
0.2986778833
 40
1.0
 40
1.0
 40
1.0
 40
1.0
 10
159.2103099965
 20
395.55
 30
0.0
 10
159.3309462467
 20
395.6165102506
 30
0.0
 10
159.7266655126
 20
395.8477478412
 30
0.0
 10
160.1211843957
 20
396.1203668451
 30
0.0
 10
160.3095403977
 20
396.3833317267
 30
0.0
  0
SPLINE
  5
2B0
100
AcDbEntity
  8
0
100
AcDbSpline
 62
7
  6
CONTINUOUS
 70
0
 71
3
 72
8
 73
4
 74
0
 42
0.0000001
 43
0.0000001
 44
0.0000000001
 40
0.0
 40
0.0
 40
0.0
 40
0.0
 40
1.0
 40
1.0
 40
1.0
 40
1.0
 10
159.875423267
 20
1354.0333317267
 30
0.0
 10
159.7918020765
 20
1354.0954529994
 30
0.0
 10
159.7054191665
 20
1354.1539135411
 30
0.0
 10
159.6175860437
 20
1354.2099215633
 30
0.0
  0
SPLINE
  5
2B1
100
AcDbEntity
  8
0
100
AcDbSpline
 62
7
  6
CONTINUOUS
 70
0
 71
3
 72
8
 73
4
 74
0
 42
0.0000001
 43
0.0000001
 44
0.0000000001
 40
0.0
 40
0.0
 40
0.0
 40
0.0
 40
1.0
 40
1.0
 40
1.0
 40
1.0
 10
159.6175860437
 20
1354.2099215633
 30
0.0
 10
159.4847117609
 20
1354.2946507128
 30
0.0
 10
159.3483153368
 20
1354.3739136682
 30
0.0
 10
159.2103099965
 20
1354.45
 30
0.0
  0
SPLINE
  5
2B2
100
AcDbEntity
  8
0
100
AcDbSpline
 62
7
  6
CONTINUOUS
 70
0
 71
3
 72
9
 73
5
 74
0
 42
0.0000001
 43
0.0000001
 44
0.0000000001
 40
0.0
 40
0.0
 40
0.0
 40
0.0
 40
0.2986778833
 40
1.0
 40
1.0
 40
1.0
 40
1.0
 10
159.2103099965
 20
1354.45
 30
0.0
 10
159.2768202471
 20
1354.3293637498
 30
0.0
 10
159.5080578377
 20
1353.9336444839
 30
0.0
 10
159.7806768417
 20
1353.5391256008
 30
0.0
 10
160.0436417232
 20
1353.3507695989
 30
0.0
  0
SPLINE
  5
2B3
100
AcDbEntity
  8
0
100
AcDbSpline
 62
7
  6
CONTINUOUS
 70
0
 71
3
 72
9
 73
5
 74
0
 42
0.0000001
 43
0.0000001
 44
0.0000000001
 40
0.0
 40
0.0
 40
0.0
 40
0.0
 40
0.1800969041
 40
1.0
 40
1.0
 40
1.0
 40
1.0
 10
1137.1603099965
 20
1373.4999999981
 30
0.0
 10
1137.0731878412
 20
1373.4999999981
 30
0.0
 10
1136.598531453
 20
1373.3149268956
 30
0.0
 10
1136.3733115884
 20
1372.8345821175
 30
0.0
 10
1136.1603099965
 20
1372.5
 30
0.0
  0
SPLINE
  5
2B4
100
AcDbEntity
  8
0
100
AcDbSpline
 62
7
  6
CONTINUOUS
 70
0
 71
3
 72
9
 73
5
 74
0
 42
0.0000001
 43
0.0000001
 44
0.0000000001
 40
0.0
 40
0.0
 40
0.0
 40
0.0
 40
0.3199962603
 40
1.0
 40
1.0
 40
1.0
 40
1.0
 10
141.1603099965
 20
1372.5
 30
0.0
 10
141.0784826947
 20
1372.6285340249
 30
0.0
 10
140.8319058481
 20
1373.0074845158
 30
0.0
 10
140.4841024107
 20
1373.4999999981
 30
0.0
 10
140.1603099965
 20
1373.4999999981
 30
0.0
  0
SPLINE
  5
2B5
100
AcDbEntity
  8
0
100
AcDbSpline
 62
7
  6
CONTINUOUS
 70
0
 71
3
 72
8
 73
4
 74
0
 42
0.0000001
 43
0.0000001
 44
0.0000000001
 40
0.0
 40
0.0
 40
0.0
 40
0.0
 40
1.0
 40
1.0
 40
1.0
 40
1.0
 10
159.6269782698
 20
396.2151132705
 30
0.0
 10
159.5648569972
 20
396.13149208
 30
0.0
 10
159.5063964554
 20
396.04510917
 30
0.0
 10
159.4503884332
 20
395.9572760472
 30
0.0
  0
SPLINE
  5
2B6
100
AcDbEntity
  8
0
100
AcDbSpline
 62
7
  6
CONTINUOUS
 70
0
 71
3
 72
8
 73
4
 74
0
 42
0.0000001
 43
0.0000001
 44
0.0000000001
 40
0.0
 40
0.0
 40
0.0
 40
0.0
 40
1.0
 40
1.0
 40
1.0
 40
1.0
 10
159.4503884332
 20
395.9572760472
 30
0.0
 10
159.3656592837
 20
395.8244017644
 30
0.0
 10
159.2863963283
 20
395.6880053402
 30
0.0
 10
159.2103099965
 20
395.55
 30
0.0
  0
SPLINE
  5
2B7
100
AcDbEntity
  8
0
100
AcDbSpline
 62
7
  6
CONTINUOUS
 70
0
 71
3
 72
9
 73
5
 74
0
 42
0.0000001
 43
0.0000001
 44
0.0000000001
 40
0.0
 40
0.0
 40
0.0
 40
0.0
 40
0.1800969041
 40
1.0
 40
1.0
 40
1.0
 40
1.0
 10
140.1603099965
 20
376.5000000019
 30
0.0
 10
140.2474321518
 20
376.5000000019
 30
0.0
 10
140.7220885401
 20
376.6850731044
 30
0.0
 10
140.9473084047
 20
377.1654178825
 30
0.0
 10
141.1603099965
 20
377.5
 30
0.0
  0
SPLINE
  5
2B8
100
AcDbEntity
  8
0
100
AcDbSpline
 62
7
  6
CONTINUOUS
 70
0
 71
3
 72
9
 73
5
 74
0
 42
0.0000001
 43
0.0000001
 44
0.0000000001
 40
0.0
 40
0.0
 40
0.0
 40
0.0
 40
0.3199962603
 40
1.0
 40
1.0
 40
1.0
 40
1.0
 10
1136.1603099965
 20
377.5
 30
0.0
 10
1136.2421372983
 20
377.3714659751
 30
0.0
 10
1136.4887141449
 20
376.9925154842
 30
0.0
 10
1136.8365175823
 20
376.5000000019
 30
0.0
 10
1137.1603099965
 20
376.5000000019
 30
0.0
  0
SPLINE
  5
2B9
100
AcDbEntity
  8
0
100
AcDbSpline
 62
7
  6
CONTINUOUS
 70
0
 71
3
 72
9
 73
5
 74
0
 42
0.0000001
 43
0.0000001
 44
0.0000000001
 40
0.0
 40
0.0
 40
0.0
 40
0.0
 40
0.1800969041
 40
1.0
 40
1.0
 40
1.0
 40
1.0
 10
1137.1603099946
 20
376.5
 30
0.0
 10
1137.1603099946
 20
376.5871221553
 30
0.0
 10
1136.9752368921
 20
377.0617785436
 30
0.0
 10
1136.494892114
 20
377.2869984082
 30
0.0
 10
1136.1603099965
 20
377.5
 30
0.0
  0
SPLINE
  5
2BA
100
AcDbEntity
  8
0
100
AcDbSpline
 62
7
  6
CONTINUOUS
 70
0
 71
3
 72
9
 73
5
 74
0
 42
0.0000001
 43
0.0000001
 44
0.0000000001
 40
0.0
 40
0.0
 40
0.0
 40
0.0
 40
0.3199962603
 40
1.0
 40
1.0
 40
1.0
 40
1.0
 10
1136.1603099965
 20
1372.5
 30
0.0
 10
1136.2888440214
 20
1372.5818273018
 30
0.0
 10
1136.6677945124
 20
1372.8284041484
 30
0.0
 10
1137.1603099946
 20
1373.1762075858
 30
0.0
 10
1137.1603099946
 20
1373.5
 30
0.0
  0
SPLINE
  5
2BB
100
AcDbEntity
  8
0
100
AcDbSpline
 62
7
  6
CONTINUOUS
 70
0
 71
3
 72
9
 73
5
 74
0
 42
0.0000001
 43
0.0000001
 44
0.0000000001
 40
0.0
 40
0.0
 40
0.0
 40
0.0
 40
0.1800969041
 40
1.0
 40
1.0
 40
1.0
 40
1.0
 10
140.1603099984
 20
1373.5
 30
0.0
 10
140.1603099984
 20
1373.4128778447
 30
0.0
 10
140.345383101
 20
1372.9382214564
 30
0.0
 10
140.825727879
 20
1372.7130015918
 30
0.0
 10
141.1603099965
 20
1372.5
 30
0.0
  0
SPLINE
  5
2BC
100
AcDbEntity
  8
0
100
AcDbSpline
 62
7
  6
CONTINUOUS
 70
0
 71
3
 72
9
 73
5
 74
0
 42
0.0000001
 43
0.0000001
 44
0.0000000001
 40
0.0
 40
0.0
 40
0.0
 40
0.0
 40
0.3199962603
 40
1.0
 40
1.0
 40
1.0
 40
1.0
 10
141.1603099965
 20
377.5
 30
0.0
 10
141.0317759716
 20
377.4181726982
 30
0.0
 10
140.6528254807
 20
377.1715958516
 30
0.0
 10
140.1603099984
 20
376.8237924142
 30
0.0
 10
140.1603099984
 20
376.5
 30
0.0
  0
SPLINE
  5
2BD
100
AcDbEntity
  8
0
100
AcDbSpline
 62
7
  6
CONTINUOUS
 70
0
 71
3
 72
8
 73
4
 74
0
 42
0.0000001
 43
0.0000001
 44
0.0000000001
 40
0.0
 40
0.0
 40
0.0
 40
0.0
 40
1.0
 40
1.0
 40
1.0
 40
1.0
 10
141.1603099965
 20
377.5
 30
0.0
 10
141.0734246714
 20
377.158802126
 30
0.0
 10
140.9869046033
 20
376.8174458482
 30
0.0
 10
140.8922976101
 20
376.4783078737
 30
0.0
  0
SPLINE
  5
2BE
100
AcDbEntity
  8
0
100
AcDbSpline
 62
7
  6
CONTINUOUS
 70
0
 71
3
 72
9
 73
5
 74
0
 42
0.0000001
 43
0.0000001
 44
0.0000000001
 40
0.0
 40
0.0
 40
0.0
 40
0.0
 40
0.2949158605
 40
1.0
 40
1.0
 40
1.0
 40
1.0
 10
140.8922976101
 20
376.4783078737
 30
0.0
 10
140.8602929938
 20
376.363580829
 30
0.0
 10
140.7472438566
 20
375.9764181571
 30
0.0
 10
140.6229066315
 20
375.5886415827
 30
0.0
 10
140.4936321341
 20
375.3349145163
 30
0.0
  0
SPLINE
  5
2BF
100
AcDbEntity
  8
0
100
AcDbSpline
 62
7
  6
CONTINUOUS
 70
0
 71
3
 72
9
 73
5
 74
0
 42
0.0000001
 43
0.0000001
 44
0.0000000001
 40
0.0
 40
0.0
 40
0.0
 40
0.0
 40
0.3464730339
 40
1.0
 40
1.0
 40
1.0
 40
1.0
 10
140.4936321341
 20
375.3349145163
 30
0.0
 10
140.4684127052
 20
375.2854163412
 30
0.0
 10
140.3939875448
 20
375.1516698386
 30
0.0
 10
140.2650947974
 20
375.0
 30
0.0
 10
140.1603099965
 20
375.0
 30
0.0
  0
SPLINE
  5
2C0
100
AcDbEntity
  8
0
100
AcDbSpline
 62
7
  6
CONTINUOUS
 70
0
 71
3
 72
8
 73
4
 74
0
 42
0.0000001
 43
0.0000001
 44
0.0000000001
 40
0.0
 40
0.0
 40
0.0
 40
0.0
 40
1.0
 40
1.0
 40
1.0
 40
1.0
 10
141.1603099965
 20
1372.5
 30
0.0
 10
140.8191121226
 20
1372.5868853251
 30
0.0
 10
140.4777558447
 20
1372.6734053932
 30
0.0
 10
140.1386178702
 20
1372.7680123864
 30
0.0
  0
SPLINE
  5
2C1
100
AcDbEntity
  8
0
100
AcDbSpline
 62
7
  6
CONTINUOUS
 70
0
 71
3
 72
9
 73
5
 74
0
 42
0.0000001
 43
0.0000001
 44
0.0000000001
 40
0.0
 40
0.0
 40
0.0
 40
0.0
 40
0.2949158605
 40
1.0
 40
1.0
 40
1.0
 40
1.0
 10
140.1386178702
 20
1372.7680123864
 30
0.0
 10
140.0238908255
 20
1372.8000170027
 30
0.0
 10
139.6367281536
 20
1372.9130661399
 30
0.0
 10
139.2489515792
 20
1373.037403365
 30
0.0
 10
138.9952245129
 20
1373.1666778624
 30
0.0
  0
SPLINE
  5
2C2
100
AcDbEntity
  8
0
100
AcDbSpline
 62
7
  6
CONTINUOUS
 70
0
 71
3
 72
9
 73
5
 74
0
 42
0.0000001
 43
0.0000001
 44
0.0000000001
 40
0.0
 40
0.0
 40
0.0
 40
0.0
 40
0.3464730339
 40
1.0
 40
1.0
 40
1.0
 40
1.0
 10
138.9952245129
 20
1373.1666778624
 30
0.0
 10
138.9457263377
 20
1373.1918972914
 30
0.0
 10
138.8119798351
 20
1373.2663224517
 30
0.0
 10
138.6603099965
 20
1373.3952151991
 30
0.0
 10
138.6603099965
 20
1373.5
 30
0.0
  0
SPLINE
  5
2C3
100
AcDbEntity
  8
0
100
AcDbSpline
 62
7
  6
CONTINUOUS
 70
0
 71
3
 72
9
 73
5
 74
0
 42
0.0000001
 43
0.0000001
 44
0.0000000001
 40
0.0
 40
0.0
 40
0.0
 40
0.0
 40
0.3256580369
 40
1.0
 40
1.0
 40
1.0
 40
1.0
 10
138.6603099965
 20
376.5
 30
0.0
 10
138.6603099965
 20
376.6636347912
 30
0.0
 10
139.2245307714
 20
376.9668652425
 30
0.0
 10
139.6442709652
 20
377.089735335
 30
0.0
 10
139.9697308938
 20
377.1840117456
 30
0.0
  0
SPLINE
  5
2C4
100
AcDbEntity
  8
0
100
AcDbSpline
 62
7
  6
CONTINUOUS
 70
0
 71
3
 72
8
 73
4
 74
0
 42
0.0000001
 43
0.0000001
 44
0.0000000001
 40
0.0
 40
0.0
 40
0.0
 40
0.0
 40
1.0
 40
1.0
 40
1.0
 40
1.0
 10
140.1386178895
 20
377.231987619
 30
0.0
 10
140.4777558577
 20
377.3265946101
 30
0.0
 10
140.819112129
 20
377.4131146765
 30
0.0
 10
141.1603099965
 20
377.5
 30
0.0
  0
SPLINE
  5
2C5
100
AcDbEntity
  8
0
100
AcDbSpline
 62
7
  6
CONTINUOUS
 70
0
 71
3
 72
9
 73
5
 74
0
 42
0.0000001
 43
0.0000001
 44
0.0000000001
 40
0.0
 40
0.0
 40
0.0
 40
0.0
 40
0.3256580369
 40
1.0
 40
1.0
 40
1.0
 40
1.0
 10
1138.6603099965
 20
1373.5
 30
0.0
 10
1138.6603099965
 20
1373.3363652088
 30
0.0
 10
1138.0960892216
 20
1373.0331347575
 30
0.0
 10
1137.6763490278
 20
1372.910264665
 30
0.0
 10
1137.3508890992
 20
1372.8159882544
 30
0.0
  0
SPLINE
  5
2C6
100
AcDbEntity
  8
0
100
AcDbSpline
 62
7
  6
CONTINUOUS
 70
0
 71
3
 72
8
 73
4
 74
0
 42
0.0000001
 43
0.0000001
 44
0.0000000001
 40
0.0
 40
0.0
 40
0.0
 40
0.0
 40
1.0
 40
1.0
 40
1.0
 40
1.0
 10
1137.1820021035
 20
1372.768012381
 30
0.0
 10
1136.8428641353
 20
1372.6734053899
 30
0.0
 10
1136.501507864
 20
1372.5868853235
 30
0.0
 10
1136.1603099965
 20
1372.5
 30
0.0
  0
SPLINE
  5
2C7
100
AcDbEntity
  8
0
100
AcDbSpline
 62
7
  6
CONTINUOUS
 70
0
 71
3
 72
8
 73
4
 74
0
 42
0.0000001
 43
0.0000001
 44
0.0000000001
 40
0.0
 40
0.0
 40
0.0
 40
0.0
 40
1.0
 40
1.0
 40
1.0
 40
1.0
 10
1136.1603099965
 20
1372.5
 30
0.0
 10
1136.2471953216
 20
1372.841197874
 30
0.0
 10
1136.3337153897
 20
1373.1825541518
 30
0.0
 10
1136.4283223829
 20
1373.5216921263
 30
0.0
  0
SPLINE
  5
2C8
100
AcDbEntity
  8
0
100
AcDbSpline
 62
7
  6
CONTINUOUS
 70
0
 71
3
 72
9
 73
5
 74
0
 42
0.0000001
 43
0.0000001
 44
0.0000000001
 40
0.0
 40
0.0
 40
0.0
 40
0.0
 40
0.2949158605
 40
1.0
 40
1.0
 40
1.0
 40
1.0
 10
1136.4283223829
 20
1373.5216921263
 30
0.0
 10
1136.4603269992
 20
1373.636419171
 30
0.0
 10
1136.5733761364
 20
1374.0235818429
 30
0.0
 10
1136.6977133616
 20
1374.4113584173
 30
0.0
 10
1136.8269878589
 20
1374.6650854837
 30
0.0
  0
SPLINE
  5
2C9
100
AcDbEntity
  8
0
100
AcDbSpline
 62
7
  6
CONTINUOUS
 70
0
 71
3
 72
9
 73
5
 74
0
 42
0.0000001
 43
0.0000001
 44
0.0000000001
 40
0.0
 40
0.0
 40
0.0
 40
0.0
 40
0.3464730339
 40
1.0
 40
1.0
 40
1.0
 40
1.0
 10
1136.8269878589
 20
1374.6650854837
 30
0.0
 10
1136.8522072879
 20
1374.7145836588
 30
0.0
 10
1136.9266324483
 20
1374.8483301614
 30
0.0
 10
1137.0555251956
 20
1375.0
 30
0.0
 10
1137.1603099965
 20
1375.0
 30
0.0
  0
SPLINE
  5
2CA
100
AcDbEntity
  8
0
100
AcDbSpline
 62
7
  6
CONTINUOUS
 70
0
 71
3
 72
9
 73
5
 74
0
 42
0.0000001
 43
0.0000001
 44
0.0000000001
 40
0.0
 40
0.0
 40
0.0
 40
0.0
 40
0.3256580369
 40
1.0
 40
1.0
 40
1.0
 40
1.0
 10
140.1603099965
 20
1375.0
 30
0.0
 10
140.3239447878
 20
1375.0
 30
0.0
 10
140.627175239
 20
1374.4357792251
 30
0.0
 10
140.7500453316
 20
1374.0160390313
 30
0.0
 10
140.8443217421
 20
1373.6905791027
 30
0.0
  0
SPLINE
  5
2CB
100
AcDbEntity
  8
0
100
AcDbSpline
 62
7
  6
CONTINUOUS
 70
0
 71
3
 72
8
 73
4
 74
0
 42
0.0000001
 43
0.0000001
 44
0.0000000001
 40
0.0
 40
0.0
 40
0.0
 40
0.0
 40
1.0
 40
1.0
 40
1.0
 40
1.0
 10
140.8922976155
 20
1373.521692107
 30
0.0
 10
140.9869046066
 20
1373.1825541388
 30
0.0
 10
141.073424673
 20
1372.8411978675
 30
0.0
 10
141.1603099965
 20
1372.5
 30
0.0
  0
SPLINE
  5
2CC
100
AcDbEntity
  8
0
100
AcDbSpline
 62
7
  6
CONTINUOUS
 70
0
 71
3
 72
8
 73
4
 74
0
 42
0.0000001
 43
0.0000001
 44
0.0000000001
 40
0.0
 40
0.0
 40
0.0
 40
0.0
 40
1.0
 40
1.0
 40
1.0
 40
1.0
 10
1136.1603099965
 20
377.5
 30
0.0
 10
1136.5015078705
 20
377.4131146749
 30
0.0
 10
1136.8428641483
 20
377.3265946068
 30
0.0
 10
1137.1820021228
 20
377.2319876136
 30
0.0
  0
SPLINE
  5
2CD
100
AcDbEntity
  8
0
100
AcDbSpline
 62
7
  6
CONTINUOUS
 70
0
 71
3
 72
9
 73
5
 74
0
 42
0.0000001
 43
0.0000001
 44
0.0000000001
 40
0.0
 40
0.0
 40
0.0
 40
0.0
 40
0.2949158605
 40
1.0
 40
1.0
 40
1.0
 40
1.0
 10
1137.1820021228
 20
377.2319876136
 30
0.0
 10
1137.2967291675
 20
377.1999829973
 30
0.0
 10
1137.6838918394
 20
377.0869338601
 30
0.0
 10
1138.0716684139
 20
376.962596635
 30
0.0
 10
1138.3253954802
 20
376.8333221376
 30
0.0
  0
SPLINE
  5
2CE
100
AcDbEntity
  8
0
100
AcDbSpline
 62
7
  6
CONTINUOUS
 70
0
 71
3
 72
9
 73
5
 74
0
 42
0.0000001
 43
0.0000001
 44
0.0000000001
 40
0.0
 40
0.0
 40
0.0
 40
0.0
 40
0.3464730339
 40
1.0
 40
1.0
 40
1.0
 40
1.0
 10
1138.3253954802
 20
376.8333221376
 30
0.0
 10
1138.3748936554
 20
376.8081027086
 30
0.0
 10
1138.5086401579
 20
376.7336775483
 30
0.0
 10
1138.6603099965
 20
376.6047848009
 30
0.0
 10
1138.6603099965
 20
376.5
 30
0.0
  0
SPLINE
  5
2CF
100
AcDbEntity
  8
0
100
AcDbSpline
 62
7
  6
CONTINUOUS
 70
0
 71
3
 72
9
 73
5
 74
0
 42
0.0000001
 43
0.0000001
 44
0.0000000001
 40
0.0
 40
0.0
 40
0.0
 40
0.0
 40
0.3256580369
 40
1.0
 40
1.0
 40
1.0
 40
1.0
 10
1137.1603099965
 20
375.0
 30
0.0
 10
1136.9966752053
 20
375.0
 30
0.0
 10
1136.693444754
 20
375.5642207749
 30
0.0
 10
1136.5705746615
 20
375.9839609687
 30
0.0
 10
1136.4762982509
 20
376.3094208973
 30
0.0
  0
SPLINE
  5
2D0
100
AcDbEntity
  8
0
100
AcDbSpline
 62
7
  6
CONTINUOUS
 70
0
 71
3
 72
8
 73
4
 74
0
 42
0.0000001
 43
0.0000001
 44
0.0000000001
 40
0.0
 40
0.0
 40
0.0
 40
0.0
 40
1.0
 40
1.0
 40
1.0
 40
1.0
 10
1136.4283223775
 20
376.478307893
 30
0.0
 10
1136.3337153864
 20
376.8174458612
 30
0.0
 10
1136.24719532
 20
377.1588021325
 30
0.0
 10
1136.1603099965
 20
377.5
 30
0.0
  0
ENDSEC
  0
SECTION
  2
OBJECTS
  0
DICTIONARY
  5
C
100
AcDbDictionary
280
0
281
1
  3
ACAD_GROUP
350
D
  3
ACAD_MLINESTYLE
350
17
  3
ACAD_LAYOUT
350
1A
  3
ACAD_PLOTSETTINGS
350
19
  3
ACAD_PLOTSTYLENAME
350
E
  0
DICTIONARY
  5
D
102
{ACAD_REACTORS
330
C
102
}
100
AcDbDictionary
280
0
281
1
  0
ACDBDICTIONARYWDFLT
  5
E
102
{ACAD_REACTORS
330
C
102
}
100
AcDbDictionary
281
1
  3
Normal
350
F
100
AcDbDictionaryWithDefault
340
F
  0
DICTIONARY
  5
17
102
{ACAD_REACTORS
330
C
102
}
100
AcDbDictionary
280
0
281
1
  3
Standard
350
18
  0
DICTIONARY
  5
19
102
{ACAD_REACTORS
330
C
102
}
100
AcDbDictionary
281
1
  0
DICTIONARY
  5
1A
102
{ACAD_REACTORS
330
C
102
}
100
AcDbDictionary
281
1
  3
Model
350
2D1
  3
Layout1
350
2D2
  0
ACDBPLACEHOLDER
  5
F
102
{ACAD_REACTORS
330
E
102
}
  0
MLINESTYLE
  5
18
102
{ACAD_REACTORS
330
17
102
}
100
AcDbMlineStyle
  2
STANDARD
 70
0
  3

 62
256
 51
90.0
 52
90.0
 71
2
 49
0.5
 62
256
  6
BYLAYER
 49
-0.5
 62
256
  6
BYLAYER
  0
LAYOUT
  5
2D1
102
{ACAD_REACTORS
330
1A
102
}
100
AcDbPlotSettings
  1

  2
none_device
  4

  6

 40
0.0
 41
0.0
 42
0.0
 43
0.0
 44
210.0
 45
297.0
 46
0.0
 47
0.0
 48
0.0
 49
0.0
140
0.0
141
0.0
142
1.0
143
1.0
 70
1024
 72
1
 73
0
 74
0
  7

 75
0
147
1.0
148
0.0
149
0.0
100
AcDbLayout
  1
Model
 70
0
 71
0
 10
0.0
 20
0.0
 11
210.0
 21
297.0
 12
0.0
 22
0.0
 32
0.0
 14
0.0
 24
0.0
 34
0.0
 15
0.0
 25
0.0
 35
0.0
146
0.0
 13
0.0
 23
0.0
 33
0.0
 16
1.0
 26
0.0
 36
0.0
 17
0.0
 27
1.0
 37
0.0
 76
0
330
210
345
0
346
0
  0
LAYOUT
  5
2D2
102
{ACAD_REACTORS
330
1A
102
}
100
AcDbPlotSettings
  1

  2
none_device
  4

  6

 40
0.0
 41
0.0
 42
0.0
 43
0.0
 44
210.0
 45
297.0
 46
0.0
 47
0.0
 48
0.0
 49
0.0
140
0.0
141
0.0
142
1.0
143
1.0
 70
0
 72
1
 73
0
 74
0
  7

 75
0
147
1.0
148
0.0
149
0.0
100
AcDbLayout
  1
Layout1
 70
0
 71
1
 10
0.0
 20
0.0
 11
210.0
 21
297.0
 12
0.0
 22
0.0
 32
0.0
 14
0.0
 24
0.0
 34
0.0
 15
0.0
 25
0.0
 35
0.0
146
0.0
 13
0.0
 23
0.0
 33
0.0
 16
1.0
 26
0.0
 36
0.0
 17
0.0
 27
1.0
 37
0.0
 76
0
330
211
345
0
346
0
  0
ENDSEC
  0
EOF
