  0
SECTION
  2
HEADER
  9
$ACADVER
  1
AC1012
  9
$DWGCODEPAGE
  3
ANSI_1252
  9
$INSBASE
 10
402.590624
 20
-1.041018
 30
0.0
  9
$EXTMIN
 10
21.271396
 20
18.517919
 30
0.0
  9
$EXTMAX
 10
114.718229
 20
269.869953
 30
0.0
  9
$LIMMIN
 10
-407.970438
 20
-367.832444
  9
$LIMMAX
 10
429.804077
 20
234.370848
  9
$ORTHOMODE
 70
     1
  9
$REGENMODE
 70
     1
  9
$FILLMODE
 70
     1
  9
$QTEXTMODE
 70
     0
  9
$MIRRTEXT
 70
     1
  9
$DRAGMODE
 70
     2
  9
$LTSCALE
 40
10.0
  9
$OSMODE
 70
    39
  9
$ATTMODE
 70
     1
  9
$TEXTSIZE
 40
6.0
  9
$TRACEWID
 40
1.0
  9
$TEXTSTYLE
  7
ROMANS
  9
$CLAYER
  8
ALPHA
  9
$CELTYPE
  6
BYLAYER
  9
$CECOLOR
 62
   256
  9
$CELTSCALE
 40
1.0
  9
$DELOBJ
 70
     1
  9
$DISPSILH
 70
     0
  9
$DIMSCALE
 40
1.0
  9
$DIMASZ
 40
5.0
  9
$DIMEXO
 40
2.0
  9
$DIMDLI
 40
0.38
  9
$DIMRND
 40
0.0
  9
$DIMDLE
 40
0.0
  9
$DIMEXE
 40
2.5
  9
$DIMTP
 40
0.0
  9
$DIMTM
 40
0.0
  9
$DIMTXT
 40
2.5
  9
$DIMCEN
 40
0.0
  9
$DIMTSZ
 40
0.0
  9
$DIMTOL
 70
     0
  9
$DIMLIM
 70
     0
  9
$DIMTIH
 70
     1
  9
$DIMTOH
 70
     1
  9
$DIMSE1
 70
     0
  9
$DIMSE2
 70
     0
  9
$DIMTAD
 70
     1
  9
$DIMZIN
 70
    12
  9
$DIMBLK
  1
OPEN30
  9
$DIMASO
 70
     1
  9
$DIMSHO
 70
     1
  9
$DIMPOST
  1

  9
$DIMAPOST
  1

  9
$DIMALT
 70
     0
  9
$DIMALTD
 70
     2
  9
$DIMALTF
 40
25.4
  9
$DIMLFAC
 40
1.0
  9
$DIMTOFL
 70
     0
  9
$DIMTVP
 40
0.0
  9
$DIMTIX
 70
     0
  9
$DIMSOXD
 70
     0
  9
$DIMSAH
 70
     0
  9
$DIMBLK1
  1

  9
$DIMBLK2
  1

  9
$DIMSTYLE
  2
SC_DEFAUT
  9
$DIMCLRD
 70
     0
  9
$DIMCLRE
 70
     0
  9
$DIMCLRT
 70
     0
  9
$DIMTFAC
 40
1.0
  9
$DIMGAP
 40
2.0
  9
$DIMJUST
 70
     0
  9
$DIMSD1
 70
     0
  9
$DIMSD2
 70
     0
  9
$DIMTOLJ
 70
     1
  9
$DIMTZIN
 70
    12
  9
$DIMALTZ
 70
    12
  9
$DIMALTTZ
 70
    12
  9
$DIMFIT
 70
     5
  9
$DIMUPT
 70
     0
  9
$DIMUNIT
 70
     2
  9
$DIMDEC
 70
     1
  9
$DIMTDEC
 70
     1
  9
$DIMALTU
 70
     2
  9
$DIMALTTD
 70
     2
  9
$DIMTXSTY
  7
ROMANS
  9
$DIMAUNIT
 70
     0
  9
$LUNITS
 70
     2
  9
$LUPREC
 70
     1
  9
$SKETCHINC
 40
0.1
  9
$FILLETRAD
 40
0.0
  9
$AUNITS
 70
     0
  9
$AUPREC
 70
     0
  9
$MENU
  1
acad
  9
$ELEVATION
 40
0.0
  9
$PELEVATION
 40
0.0
  9
$THICKNESS
 40
0.0
  9
$LIMCHECK
 70
     0
  9
$BLIPMODE
 70
     0
  9
$CHAMFERA
 40
0.0
  9
$CHAMFERB
 40
0.0
  9
$CHAMFERC
 40
0.0
  9
$CHAMFERD
 40
0.0
  9
$SKPOLY
 70
     0
  9
$TDCREATE
 40
2450373.687919444
  9
$TDUPDATE
 40
2453511.386141284
  9
$TDINDWG
 40
0.9576980093
  9
$TDUSRTIMER
 40
0.9576980093
  9
$USRTIMER
 70
     1
  9
$ANGBASE
 50
0.0
  9
$ANGDIR
 70
     0
  9
$PDMODE
 70
    32
  9
$PDSIZE
 40
0.0
  9
$PLINEWID
 40
0.0
  9
$COORDS
 70
     0
  9
$SPLFRAME
 70
     0
  9
$SPLINETYPE
 70
     6
  9
$SPLINESEGS
 70
     8
  9
$ATTDIA
 70
     0
  9
$ATTREQ
 70
     1
  9
$HANDLING
 70
     1
  9
$HANDSEED
  5
C772
  9
$SURFTAB1
 70
     6
  9
$SURFTAB2
 70
     6
  9
$SURFTYPE
 70
     6
  9
$SURFU
 70
     6
  9
$SURFV
 70
     6
  9
$UCSNAME
  2

  9
$UCSORG
 10
0.0
 20
0.0
 30
0.0
  9
$UCSXDIR
 10
1.0
 20
0.0
 30
0.0
  9
$UCSYDIR
 10
0.0
 20
1.0
 30
0.0
  9
$PUCSNAME
  2

  9
$PUCSORG
 10
0.0
 20
0.0
 30
0.0
  9
$PUCSXDIR
 10
1.0
 20
0.0
 30
0.0
  9
$PUCSYDIR
 10
0.0
 20
1.0
 30
0.0
  9
$USERI1
 70
     0
  9
$USERI2
 70
     0
  9
$USERI3
 70
     0
  9
$USERI4
 70
     0
  9
$USERI5
 70
     0
  9
$USERR1
 40
0.0
  9
$USERR2
 40
0.0
  9
$USERR3
 40
0.0
  9
$USERR4
 40
0.0
  9
$USERR5
 40
0.0
  9
$WORLDVIEW
 70
     1
  9
$SHADEDGE
 70
     3
  9
$SHADEDIF
 70
    70
  9
$TILEMODE
 70
     1
  9
$MAXACTVP
 70
    16
  9
$PINSBASE
 10
0.0
 20
0.0
 30
0.0
  9
$PLIMCHECK
 70
     0
  9
$PEXTMIN
 10
1.000000E+20
 20
1.000000E+20
 30
1.000000E+20
  9
$PEXTMAX
 10
-1.000000E+20
 20
-1.000000E+20
 30
-1.000000E+20
  9
$PLIMMIN
 10
0.0
 20
0.0
  9
$PLIMMAX
 10
12.0
 20
9.0
  9
$UNITMODE
 70
     0
  9
$VISRETAIN
 70
     0
  9
$PLINEGEN
 70
     0
  9
$PSLTSCALE
 70
     0
  9
$TREEDEPTH
 70
  3020
  9
$PICKSTYLE
 70
     1
  9
$CMLSTYLE
  2
STANDARD
  9
$CMLJUST
 70
     0
  9
$CMLSCALE
 40
1.0
  9
$SAVEIMAGES
 70
     1
  0
ENDSEC
  0
SECTION
  2
CLASSES
  0
CLASS
  1
ACDBDICTIONARYWDFLT
  2
AcDbDictionaryWithDefault
  3
AutoCAD 2000
 90
    32768
280
     0
281
     0
  0
CLASS
  1
ACDBPLACEHOLDER
  2
AcDbPlaceHolder
  3
AutoCAD 2000
 90
    32768
280
     0
281
     0
  0
CLASS
  1
LAYOUT
  2
AcDbLayout
  3
AutoCAD 2000
 90
    32768
280
     0
281
     0
  0
CLASS
  1
DICTIONARYVAR
  2
AcDbDictionaryVar
  3
"AutoCAD"
 90
    32768
280
     0
281
     0
  0
CLASS
  1
LONG_TRANSACTION
  2
AcDbLongTransaction
  3
AutoCAD 2000
 90
    32768
280
     0
281
     0
  0
CLASS
  1
LWPOLYLINE
  2
AcDbPolyline
  3
"AutoCAD"
 90
    32768
280
     0
281
     1
  0
CLASS
  1
HATCH
  2
AcDbHatch
  3
"ACAD_SEDONA"
 90
    32768
280
     0
281
     1
  0
CLASS
  1
XRECORD
  2
AcDbXrecord
  3
"<Built In>"
 90
    32768
280
     0
281
     0
  0
CLASS
  1
LONG_TRANSACTION
  2
AcDbLongTransaction
  3
AutoCAD 2000
 90
    32768
280
     0
281
     0
  0
CLASS
  1
LWPOLYLINE
  2
AcDbPolyline
  3
"AutoCAD"
 90
    32768
280
     0
281
     1
  0
CLASS
  1
HATCH
  2
AcDbHatch
  3
"ACAD_SEDONA"
 90
    32768
280
     0
281
     1
  0
CLASS
  1
XRECORD
  2
AcDbXrecord
  3
"<Built In>"
 90
    32768
280
     0
281
     0
  0
CLASS
  1
LONG_TRANSACTION
  2
AcDbLongTransaction
  3
AutoCAD 2000
 90
    32768
280
     0
281
     0
  0
CLASS
  1
LWPOLYLINE
  2
AcDbPolyline
  3
"AutoCAD"
 90
    32768
280
     0
281
     1
  0
CLASS
  1
HATCH
  2
AcDbHatch
  3
"ACAD_SEDONA"
 90
    32768
280
     0
281
     1
  0
CLASS
  1
XRECORD
  2
AcDbXrecord
  3
"<Built In>"
 90
    32768
280
     0
281
     0
  0
CLASS
  1
LONG_TRANSACTION
  2
AcDbLongTransaction
  3
AutoCAD 2000
 90
    32768
280
     0
281
     0
  0
CLASS
  1
LWPOLYLINE
  2
AcDbPolyline
  3
"AutoCAD"
 90
    32768
280
     0
281
     1
  0
CLASS
  1
HATCH
  2
AcDbHatch
  3
"ACAD_SEDONA"
 90
    32768
280
     0
281
     1
  0
CLASS
  1
XRECORD
  2
AcDbXrecord
  3
"<Built In>"
 90
    32768
280
     0
281
     0
  0
CLASS
  1
LONG_TRANSACTION
  2
AcDbLongTransaction
  3
AutoCAD 2000
 90
    32768
280
     0
281
     0
  0
CLASS
  1
LWPOLYLINE
  2
AcDbPolyline
  3
"AutoCAD"
 90
    32768
280
     0
281
     1
  0
CLASS
  1
HATCH
  2
AcDbHatch
  3
"ACAD_SEDONA"
 90
    32768
280
     0
281
     1
  0
CLASS
  1
XRECORD
  2
AcDbXrecord
  3
"<Built In>"
 90
    32768
280
     0
281
     0
  0
CLASS
  1
LONG_TRANSACTION
  2
AcDbLongTransaction
  3
AutoCAD 2000
 90
    32768
280
     0
281
     0
  0
CLASS
  1
LWPOLYLINE
  2
AcDbPolyline
  3
"AutoCAD"
 90
    32768
280
     0
281
     1
  0
CLASS
  1
HATCH
  2
AcDbHatch
  3
"ACAD_SEDONA"
 90
    32768
280
     0
281
     1
  0
CLASS
  1
XRECORD
  2
AcDbXrecord
  3
"<Built In>"
 90
    32768
280
     0
281
     0
  0
CLASS
  1
LONG_TRANSACTION
  2
AcDbLongTransaction
  3
AutoCAD 2000
 90
    32768
280
     0
281
     0
  0
CLASS
  1
LWPOLYLINE
  2
AcDbPolyline
  3
"AutoCAD"
 90
    32768
280
     0
281
     1
  0
CLASS
  1
HATCH
  2
AcDbHatch
  3
"ACAD_SEDONA"
 90
    32768
280
     0
281
     1
  0
CLASS
  1
XRECORD
  2
AcDbXrecord
  3
"<Built In>"
 90
    32768
280
     0
281
     0
  0
CLASS
  1
LONG_TRANSACTION
  2
AcDbLongTransaction
  3
AutoCAD 2000
 90
    32768
280
     0
281
     0
  0
CLASS
  1
LWPOLYLINE
  2
AcDbPolyline
  3
"AutoCAD"
 90
    32768
280
     0
281
     1
  0
CLASS
  1
HATCH
  2
AcDbHatch
  3
"ACAD_SEDONA"
 90
    32768
280
     0
281
     1
  0
CLASS
  1
XRECORD
  2
AcDbXrecord
  3
"<Built In>"
 90
    32768
280
     0
281
     0
  0
CLASS
  1
LONG_TRANSACTION
  2
AcDbLongTransaction
  3
AutoCAD 2000
 90
    32768
280
     0
281
     0
  0
CLASS
  1
LWPOLYLINE
  2
AcDbPolyline
  3
"AutoCAD"
 90
    32768
280
     0
281
     1
  0
CLASS
  1
HATCH
  2
AcDbHatch
  3
"ACAD_SEDONA"
 90
    32768
280
     0
281
     1
  0
CLASS
  1
XRECORD
  2
AcDbXrecord
  3
"<Built In>"
 90
    32768
280
     0
281
     0
  0
CLASS
  1
LONG_TRANSACTION
  2
AcDbLongTransaction
  3
AutoCAD 2000
 90
    32768
280
     0
281
     0
  0
CLASS
  1
LWPOLYLINE
  2
AcDbPolyline
  3
"AutoCAD"
 90
    32768
280
     0
281
     1
  0
CLASS
  1
HATCH
  2
AcDbHatch
  3
"ACAD_SEDONA"
 90
    32768
280
     0
281
     1
  0
CLASS
  1
XRECORD
  2
AcDbXrecord
  3
"<Built In>"
 90
    32768
280
     0
281
     0
  0
CLASS
  1
LONG_TRANSACTION
  2
AcDbLongTransaction
  3
AutoCAD 2000
 90
    32768
280
     0
281
     0
  0
CLASS
  1
LWPOLYLINE
  2
AcDbPolyline
  3
"AutoCAD"
 90
    32768
280
     0
281
     1
  0
CLASS
  1
HATCH
  2
AcDbHatch
  3
"ACAD_SEDONA"
 90
    32768
280
     0
281
     1
  0
CLASS
  1
XRECORD
  2
AcDbXrecord
  3
"<Built In>"
 90
    32768
280
     0
281
     0
  0
CLASS
  1
LONG_TRANSACTION
  2
AcDbLongTransaction
  3
AutoCAD 2000
 90
    32768
280
     0
281
     0
  0
CLASS
  1
LWPOLYLINE
  2
AcDbPolyline
  3
"AutoCAD"
 90
    32768
280
     0
281
     1
  0
CLASS
  1
HATCH
  2
AcDbHatch
  3
"ACAD_SEDONA"
 90
    32768
280
     0
281
     1
  0
CLASS
  1
XRECORD
  2
AcDbXrecord
  3
"<Built In>"
 90
    32768
280
     0
281
     0
  0
CLASS
  1
LONG_TRANSACTION
  2
AcDbLongTransaction
  3
AutoCAD 2000
 90
    32768
280
     0
281
     0
  0
CLASS
  1
LWPOLYLINE
  2
AcDbPolyline
  3
"AutoCAD"
 90
    32768
280
     0
281
     1
  0
CLASS
  1
HATCH
  2
AcDbHatch
  3
"ACAD_SEDONA"
 90
    32768
280
     0
281
     1
  0
CLASS
  1
XRECORD
  2
AcDbXrecord
  3
"<Built In>"
 90
    32768
280
     0
281
     0
  0
CLASS
  1
LONG_TRANSACTION
  2
AcDbLongTransaction
  3
AutoCAD 2000
 90
    32768
280
     0
281
     0
  0
CLASS
  1
LWPOLYLINE
  2
AcDbPolyline
  3
"AutoCAD"
 90
    32768
280
     0
281
     1
  0
CLASS
  1
HATCH
  2
AcDbHatch
  3
"ACAD_SEDONA"
 90
    32768
280
     0
281
     1
  0
CLASS
  1
XRECORD
  2
AcDbXrecord
  3
"<Built In>"
 90
    32768
280
     0
281
     0
  0
CLASS
  1
LONG_TRANSACTION
  2
AcDbLongTransaction
  3
AutoCAD 2000
 90
    32768
280
     0
281
     0
  0
CLASS
  1
LWPOLYLINE
  2
AcDbPolyline
  3
"AutoCAD"
 90
    32768
280
     0
281
     1
  0
CLASS
  1
HATCH
  2
AcDbHatch
  3
"ACAD_SEDONA"
 90
    32768
280
     0
281
     1
  0
CLASS
  1
XRECORD
  2
AcDbXrecord
  3
"<Built In>"
 90
    32768
280
     0
281
     0
  0
ENDSEC
  0
SECTION
  2
TABLES
  0
TABLE
  2
VPORT
  5
7CF0
100
AcDbSymbolTable
 70
     2
  0
VPORT
  5
C771
100
AcDbSymbolTableRecord
100
AcDbViewportTableRecord
  2
*ACTIVE
 70
     0
 10
0.0
 20
0.0
 11
1.0
 21
1.0
 12
67.994812
 22
144.193936
 13
0.0
 23
0.0
 14
1.0
 24
1.0
 15
10.0
 25
10.0
 16
0.0
 26
0.0
 36
1.0
 17
0.0
 27
0.0
 37
0.0
 40
253.592914
 41
1.625
 42
50.0
 43
0.0
 44
0.0
 50
0.0
 51
0.0
 71
     0
 72
   100
 73
     1
 74
     0
 75
     0
 76
     0
 77
     0
 78
     0
  0
ENDTAB
  0
TABLE
  2
LTYPE
  5
7CED
100
AcDbSymbolTable
 70
     2
  0
LTYPE
  5
7CFB
102
{ACAD_XDICTIONARY
360
C3C3
102
}
100
AcDbSymbolTableRecord
100
AcDbLinetypeTableRecord
  2
BYBLOCK
 70
     0
  3

 72
    65
 73
     0
 40
0.0
  0
LTYPE
  5
7CFC
102
{ACAD_XDICTIONARY
360
C3C5
102
}
100
AcDbSymbolTableRecord
100
AcDbLinetypeTableRecord
  2
BYLAYER
 70
     0
  3

 72
    65
 73
     0
 40
0.0
  0
LTYPE
  5
7CFD
100
AcDbSymbolTableRecord
100
AcDbLinetypeTableRecord
  2
CONTINUOUS
 70
     0
  3
Solid line
 72
    65
 73
     0
 40
0.0
  0
LTYPE
  5
7D15
100
AcDbSymbolTableRecord
100
AcDbLinetypeTableRecord
  2
AXES2
 70
     0
  3
___ _ ___ _ ___ _ ___ _ ___ _ ___ _ ___ _ ___ _
 72
    65
 73
     4
 40
1.125
 49
0.75
 74
     0
 49
-0.125
 74
     0
 49
0.125
 74
     0
 49
-0.125
 74
     0
  0
ENDTAB
  0
TABLE
  2
LAYER
  5
7CEA
100
AcDbSymbolTable
 70
     6
  0
LAYER
  5
7CF8
100
AcDbSymbolTableRecord
100
AcDbLayerTableRecord
  2
0
 70
     0
 62
   255
  6
CONTINUOUS
  0
LAYER
  5
7D1C
100
AcDbSymbolTableRecord
100
AcDbLayerTableRecord
  2
COTATION1
 70
     0
 62
     2
  6
CONTINUOUS
  0
LAYER
  5
7D1D
100
AcDbSymbolTableRecord
100
AcDbLayerTableRecord
  2
AXE
 70
     0
 62
    80
  6
AXES2
  0
LAYER
  5
7D1E
102
{ACAD_XDICTIONARY
360
C3F8
102
}
100
AcDbSymbolTableRecord
100
AcDbLayerTableRecord
  2
DEFPOINTS
 70
     0
 62
     7
  6
CONTINUOUS
  0
LAYER
  5
7D1F
100
AcDbSymbolTableRecord
100
AcDbLayerTableRecord
  2
ALPHA
 70
     0
 62
   254
  6
CONTINUOUS
  0
LAYER
  5
BF6A
100
AcDbSymbolTableRecord
100
AcDbLayerTableRecord
  2
TEXTE
 70
     0
 62
   130
  6
CONTINUOUS
  0
ENDTAB
  0
TABLE
  2
STYLE
  5
7CEB
100
AcDbSymbolTable
 70
     2
  0
STYLE
  5
7CF9
100
AcDbSymbolTableRecord
100
AcDbTextStyleTableRecord
  2
ROMANS
 70
     0
 40
0.0
 41
1.0
 50
0.0
 71
     0
 42
6.0
  3
romans
  4

  0
STYLE
  5
7D14
100
AcDbSymbolTableRecord
100
AcDbTextStyleTableRecord
  2
STANDARD
 70
     0
 40
0.0
 41
1.0
 50
0.0
 71
     0
 42
0.2
  3
txt
  4

  0
ENDTAB
  0
TABLE
  2
VIEW
  5
7CEE
100
AcDbSymbolTable
 70
     0
  0
ENDTAB
  0
TABLE
  2
UCS
  5
7CEF
100
AcDbSymbolTable
 70
     0
  0
ENDTAB
  0
TABLE
  2
APPID
  5
7CF1
100
AcDbSymbolTable
 70
     1
  0
APPID
  5
7CFA
100
AcDbSymbolTableRecord
100
AcDbRegAppTableRecord
  2
ACAD
 70
     0
  0
ENDTAB
  0
TABLE
  2
DIMSTYLE
  5
7CF2
100
AcDbSymbolTable
 70
     2
  0
DIMSTYLE
105
7D18
102
{ACAD_XDICTIONARY
360
C3F4
102
}
100
AcDbSymbolTableRecord
100
AcDbDimStyleTableRecord
  2
SC_DEFAUT
 70
     0
  3

  4

  5
OPEN30
  6

  7

 40
1.0
 41
5.0
 42
2.0
 43
0.38
 44
2.5
 45
0.0
 46
0.0
 47
0.0
 48
0.0
140
2.5
141
0.0
142
0.0
143
25.4
144
1.0
145
0.0
146
1.0
147
2.0
 71
     0
 72
     0
 73
     1
 74
     1
 75
     0
 76
     0
 77
     1
 78
    12
170
     0
171
     2
172
     0
173
     0
174
     0
175
     0
176
     0
177
     0
178
     0
270
     2
271
     1
272
     1
273
     2
274
     2
340
7CF9
275
     0
280
     0
281
     0
282
     0
283
     1
284
    12
285
    12
286
    12
287
     5
288
     0
  0
DIMSTYLE
105
7D19
102
{ACAD_XDICTIONARY
360
C3F6
102
}
100
AcDbSymbolTableRecord
100
AcDbDimStyleTableRecord
  2
STANDARD
 70
     0
  3

  4

  5

  6

  7

 40
1.0
 41
0.18
 42
0.0625
 43
0.38
 44
0.18
 45
0.0
 46
0.0
 47
0.0
 48
0.0
140
0.18
141
0.09
142
0.0
143
25.4
144
1.0
145
0.0
146
1.0
147
0.09
 71
     0
 72
     0
 73
     1
 74
     1
 75
     0
 76
     0
 77
     0
 78
     0
170
     0
171
     2
172
     0
173
     0
174
     0
175
     0
176
     0
177
     0
178
     0
270
     2
271
     1
272
     1
273
     2
274
     2
340
7CF9
275
     0
280
     0
281
     0
282
     0
283
     1
284
    12
285
    12
286
    12
287
     5
288
     0
  0
ENDTAB
  0
TABLE
  2
BLOCK_RECORD
  5
7CE9
100
AcDbSymbolTable
 70
     3
  0
BLOCK_RECORD
  5
7D06
102
{ACAD_XDICTIONARY
360
800F
102
}
100
AcDbSymbolTableRecord
100
AcDbBlockTableRecord
  2
*MODEL_SPACE
  0
BLOCK_RECORD
  5
7D02
102
{ACAD_XDICTIONARY
360
8011
102
}
100
AcDbSymbolTableRecord
100
AcDbBlockTableRecord
  2
*PAPER_SPACE
  0
BLOCK_RECORD
  5
7D0A
100
AcDbSymbolTableRecord
100
AcDbBlockTableRecord
  2
COTE
  0
BLOCK_RECORD
  5
7D0B
100
AcDbSymbolTableRecord
100
AcDbBlockTableRecord
  2
FOND
  0
BLOCK_RECORD
  5
7D0C
100
AcDbSymbolTableRecord
100
AcDbBlockTableRecord
  2
_OPEN30
  0
ENDTAB
  0
ENDSEC
  0
SECTION
  2
BLOCKS
  0
BLOCK
  5
7D24
100
AcDbEntity
  8
0
100
AcDbBlockBegin
  2
*MODEL_SPACE
 70
     0
 10
0.0
 20
0.0
 30
0.0
  3
*MODEL_SPACE
  1

  0
ENDBLK
  5
7D25
100
AcDbEntity
  8
0
100
AcDbBlockEnd
  0
BLOCK
  5
7D22
100
AcDbEntity
 67
     1
  8
0
100
AcDbBlockBegin
  2
*PAPER_SPACE
 70
     0
 10
0.0
 20
0.0
 30
0.0
  3
*PAPER_SPACE
  1

  0
ENDBLK
  5
7D23
100
AcDbEntity
 67
     1
  8
0
100
AcDbBlockEnd
  0
BLOCK
  5
E
100
AcDbEntity
  8
0
100
AcDbBlockBegin
  2
COTE
 70
     0
 10
0.0
 20
0.0
 30
0.0
  3
COTE
  1

  0
ENDBLK
  5
F
100
AcDbEntity
  8
0
100
AcDbBlockEnd
  0
BLOCK
  5
74
100
AcDbEntity
  8
0
100
AcDbBlockBegin
  2
FOND
 70
     0
 10
0.0
 20
0.0
 30
0.0
  3
FOND
  1

  0
ENDBLK
  5
75
100
AcDbEntity
  8
0
100
AcDbBlockEnd
  0
BLOCK
  5
4B08
100
AcDbEntity
  8
0
100
AcDbBlockBegin
  2
_OPEN30
 70
     0
 10
0.0
 20
0.0
 30
0.0
  3
_OPEN30
  1

  0
LINE
  5
4B05
100
AcDbEntity
  8
COTATION1
 62
     0
100
AcDbLine
 10
-1.0
 20
0.267949
 30
0.0
 11
0.0
 21
0.0
 31
0.0
1001
ACAD
1000
RTLwPs
1070
   158
  0
LINE
  5
4B06
100
AcDbEntity
  8
COTATION1
 62
     0
100
AcDbLine
 10
0.0
 20
0.0
 30
0.0
 11
-1.0
 21
-0.267949
 31
0.0
1001
ACAD
1000
RTLwPs
1070
   158
  0
LINE
  5
4B07
100
AcDbEntity
  8
COTATION1
 62
     0
100
AcDbLine
 10
0.0
 20
0.0
 30
0.0
 11
-1.0
 21
0.0
 31
0.0
1001
ACAD
1000
RTLwPs
1070
   158
  0
ENDBLK
  5
4B09
100
AcDbEntity
  8
0
100
AcDbBlockEnd
  0
ENDSEC
  0
SECTION
  2
ENTITIES
  0
INSERT
  5
A
100
AcDbEntity
  8
0
100
AcDbBlockReference
  2
COTE
 10
0.0
 20
0.0
 30
0.0
  0
INSERT
  5
17
100
AcDbEntity
  8
0
100
AcDbBlockReference
  2
COTE
 10
284.010391
 20
6.373258
 30
0.0
  0
INSERT
  5
72
100
AcDbEntity
  8
0
100
AcDbBlockReference
  2
FOND
 10
0.0
 20
0.0
 30
0.0
  0
ARC
  5
C1AC
100
AcDbEntity
  8
ALPHA
100
AcDbCircle
 10
66.295237
 20
219.889237
 30
0.0
 40
45.0
100
AcDbArc
 50
46.567463
 51
87.721378
  0
LINE
  5
C1AD
100
AcDbEntity
  8
ALPHA
100
AcDbLine
 10
97.232737
 20
252.567534
 30
0.0
 11
35.357737
 21
252.567534
 31
0.0
  0
LINE
  5
C1AE
100
AcDbEntity
  8
ALPHA
100
AcDbLine
 10
98.795237
 20
248.936612
 30
0.0
 11
33.795237
 21
248.936612
 31
0.0
  0
LINE
  5
C1AF
100
AcDbEntity
  8
ALPHA
100
AcDbLine
 10
102.845237
 20
214.513986
 30
0.0
 11
29.745237
 21
214.513986
 31
0.0
  0
LINE
  5
C1B0
100
AcDbEntity
  8
ALPHA
100
AcDbLine
 10
28.31535
 20
212.823313
 30
0.0
 11
104.275124
 21
212.823313
 31
0.0
  0
LINE
  5
C1B1
100
AcDbEntity
  8
ALPHA
100
AcDbLine
 10
28.31535
 20
201.204658
 30
0.0
 11
104.275124
 21
201.204658
 31
0.0
  0
LINE
  5
C1B2
100
AcDbEntity
  8
ALPHA
100
AcDbLine
 10
102.845237
 20
199.513986
 30
0.0
 11
29.745237
 21
199.513986
 31
0.0
  0
LINE
  5
C1B3
100
AcDbEntity
  8
ALPHA
100
AcDbLine
 10
29.720315
 20
104.313986
 30
0.0
 11
102.87016
 21
104.313986
 31
0.0
  0
LINE
  5
C1B4
100
AcDbEntity
  8
ALPHA
100
AcDbLine
 10
28.298348
 20
102.794874
 30
0.0
 11
104.292126
 21
102.794874
 31
0.0
  0
LINE
  5
C1B5
100
AcDbEntity
  8
ALPHA
100
AcDbLine
 10
28.298348
 20
84.833098
 30
0.0
 11
104.292126
 21
84.833098
 31
0.0
  0
LINE
  5
C1B6
100
AcDbEntity
  8
ALPHA
100
AcDbLine
 10
29.734963
 20
83.313986
 30
0.0
 11
83.667978
 21
83.313986
 31
0.0
  0
LINE
  5
C1B7
100
AcDbEntity
  8
ALPHA
100
AcDbLine
 10
31.345237
 20
35.513986
 30
0.0
 11
101.245237
 21
35.513986
 31
0.0
  0
LINE
  5
C1B8
100
AcDbEntity
  8
ALPHA
100
AcDbLine
 10
33.345623
 20
33.513986
 30
0.0
 11
99.244851
 21
33.513986
 31
0.0
  0
LINE
  5
C1B9
100
AcDbEntity
  8
ALPHA
100
AcDbLine
 10
31.295237
 20
199.513986
 30
0.0
 11
31.295237
 21
104.313986
 31
0.0
  0
POLYLINE
  5
C1BA
100
AcDbEntity
  8
ALPHA
100
AcDb2dPolyline
 66
     1
 10
0.0
 20
0.0
 30
0.0
  0
VERTEX
  5
C5B8
100
AcDbEntity
  8
ALPHA
100
AcDbVertex
100
AcDb2dVertex
 10
32.958317
 20
53.326641
 30
0.0
  0
VERTEX
  5
C5B9
100
AcDbEntity
  8
ALPHA
100
AcDbVertex
100
AcDb2dVertex
 10
32.920177
 20
51.388525
 30
0.0
  0
VERTEX
  5
C5BA
100
AcDbEntity
  8
ALPHA
100
AcDbVertex
100
AcDb2dVertex
 10
32.774105
 20
49.490667
 30
0.0
  0
VERTEX
  5
C5BB
100
AcDbEntity
  8
ALPHA
100
AcDbVertex
100
AcDb2dVertex
 10
32.537578
 20
47.691668
 30
0.0
  0
VERTEX
  5
C5BC
100
AcDbEntity
  8
ALPHA
100
AcDbVertex
100
AcDb2dVertex
 10
32.243287
 20
46.065402
 30
0.0
  0
VERTEX
  5
C5BD
100
AcDbEntity
  8
ALPHA
100
AcDbVertex
100
AcDb2dVertex
 10
31.936204
 20
44.689884
 30
0.0
  0
VERTEX
  5
C5BE
100
AcDbEntity
  8
ALPHA
100
AcDbVertex
100
AcDb2dVertex
 10
31.66339
 20
43.62717
 30
0.0
  0
VERTEX
  5
C5BF
100
AcDbEntity
  8
ALPHA
100
AcDbVertex
100
AcDb2dVertex
 10
31.462719
 20
42.911915
 30
0.0
  0
SEQEND
  5
C5C0
100
AcDbEntity
  8
ALPHA
  0
LINE
  5
C1BB
100
AcDbEntity
  8
ALPHA
100
AcDbLine
 10
32.845237
 20
50.414856
 30
0.0
 11
32.845237
 21
52.264048
 31
0.0
  0
LINE
  5
C1BC
100
AcDbEntity
  8
ALPHA
100
AcDbLine
 10
31.345237
 20
35.513986
 30
0.0
 11
33.345237
 21
33.513986
 31
0.0
  0
LINE
  5
C1BD
100
AcDbEntity
  8
ALPHA
100
AcDbLine
 10
31.345237
 20
42.513986
 30
0.0
 11
31.345237
 21
35.513986
 31
0.0
  0
LINE
  5
C1BE
100
AcDbEntity
  8
ALPHA
100
AcDbLine
 10
31.462719
 20
42.911915
 30
0.0
 11
31.345421
 21
42.513986
 31
0.0
  0
POLYLINE
  5
C1BF
100
AcDbEntity
  8
ALPHA
100
AcDb2dPolyline
 66
     1
 10
0.0
 20
0.0
 30
0.0
  0
VERTEX
  5
C5C1
100
AcDbEntity
  8
ALPHA
100
AcDbVertex
100
AcDb2dVertex
 10
40.411663
 20
96.813986
 30
0.0
  0
VERTEX
  5
C5C2
100
AcDbEntity
  8
ALPHA
100
AcDbVertex
100
AcDb2dVertex
 10
39.177022
 20
96.025332
 30
0.0
  0
VERTEX
  5
C5C3
100
AcDbEntity
  8
ALPHA
100
AcDbVertex
100
AcDb2dVertex
 10
37.981277
 20
95.191855
 30
0.0
  0
VERTEX
  5
C5C4
100
AcDbEntity
  8
ALPHA
100
AcDbVertex
100
AcDb2dVertex
 10
36.828809
 20
94.313986
 30
0.0
  0
SEQEND
  5
C5C5
100
AcDbEntity
  8
ALPHA
  0
LINE
  5
C1C0
100
AcDbEntity
  8
ALPHA
100
AcDbLine
 10
40.411663
 20
96.813986
 30
0.0
 11
39.983931
 21
96.813986
 31
0.0
  0
POLYLINE
  5
C1C1
100
AcDbEntity
  8
ALPHA
100
AcDb2dPolyline
 66
     1
 10
0.0
 20
0.0
 30
0.0
  0
VERTEX
  5
C5C6
100
AcDbEntity
  8
ALPHA
100
AcDbVertex
100
AcDb2dVertex
 10
36.689678
 20
99.313986
 30
0.0
  0
VERTEX
  5
C5C7
100
AcDbEntity
  8
ALPHA
100
AcDbVertex
100
AcDb2dVertex
 10
37.889646
 20
98.434566
 30
0.0
  0
VERTEX
  5
C5C8
100
AcDbEntity
  8
ALPHA
100
AcDbVertex
100
AcDb2dVertex
 10
39.131765
 20
97.601141
 30
0.0
  0
VERTEX
  5
C5C9
100
AcDbEntity
  8
ALPHA
100
AcDbVertex
100
AcDb2dVertex
 10
40.411663
 20
96.813986
 30
0.0
  0
SEQEND
  5
C5CA
100
AcDbEntity
  8
ALPHA
  0
POLYLINE
  5
C1C2
100
AcDbEntity
  8
ALPHA
100
AcDb2dPolyline
 66
     1
 10
0.0
 20
0.0
 30
0.0
  0
VERTEX
  5
C5CB
100
AcDbEntity
  8
ALPHA
100
AcDbVertex
100
AcDb2dVertex
 10
36.387207
 20
97.563986
 30
0.0
  0
VERTEX
  5
C5CC
100
AcDbEntity
  8
ALPHA
100
AcDbVertex
100
AcDb2dVertex
 10
36.3654
 20
98.147123
 30
0.0
  0
VERTEX
  5
C5CD
100
AcDbEntity
  8
ALPHA
100
AcDbVertex
100
AcDb2dVertex
 10
36.340441
 20
98.730448
 30
0.0
  0
VERTEX
  5
C5CE
100
AcDbEntity
  8
ALPHA
100
AcDbVertex
100
AcDb2dVertex
 10
36.312329
 20
99.313986
 30
0.0
  0
SEQEND
  5
C5CF
100
AcDbEntity
  8
ALPHA
  0
LINE
  5
C1C3
100
AcDbEntity
  8
ALPHA
100
AcDbLine
 10
28.533415
 20
97.913986
 30
0.0
 11
28.298348
 21
102.794874
 31
0.0
  0
POLYLINE
  5
C1C4
100
AcDbEntity
  8
ALPHA
100
AcDb2dPolyline
 66
     1
 10
0.0
 20
0.0
 30
0.0
  0
VERTEX
  5
C5D0
100
AcDbEntity
  8
ALPHA
100
AcDbVertex
100
AcDb2dVertex
 10
36.312329
 20
99.313986
 30
0.0
  0
VERTEX
  5
C5D1
100
AcDbEntity
  8
ALPHA
100
AcDbVertex
100
AcDb2dVertex
 10
37.495929
 20
98.435715
 30
0.0
  0
VERTEX
  5
C5D2
100
AcDbEntity
  8
ALPHA
100
AcDbVertex
100
AcDb2dVertex
 10
38.721205
 20
97.602284
 30
0.0
  0
VERTEX
  5
C5D3
100
AcDbEntity
  8
ALPHA
100
AcDbVertex
100
AcDb2dVertex
 10
39.983931
 20
96.813986
 30
0.0
  0
SEQEND
  5
C5D4
100
AcDbEntity
  8
ALPHA
  0
LINE
  5
C1C5
100
AcDbEntity
  8
ALPHA
100
AcDbLine
 10
31.345237
 20
83.313986
 30
0.0
 11
31.345237
 21
63.513986
 31
0.0
  0
POLYLINE
  5
C1C6
100
AcDbEntity
  8
ALPHA
100
AcDb2dPolyline
 66
     1
 10
0.0
 20
0.0
 30
0.0
  0
VERTEX
  5
C5D5
100
AcDbEntity
  8
ALPHA
100
AcDbVertex
100
AcDb2dVertex
 10
31.34666
 20
63.50925
 30
0.0
  0
VERTEX
  5
C5D6
100
AcDbEntity
  8
ALPHA
100
AcDbVertex
100
AcDb2dVertex
 10
31.417768
 20
63.269977
 30
0.0
  0
VERTEX
  5
C5D7
100
AcDbEntity
  8
ALPHA
100
AcDbVertex
100
AcDb2dVertex
 10
31.589483
 20
62.66991
 30
0.0
  0
VERTEX
  5
C5D8
100
AcDbEntity
  8
ALPHA
100
AcDbVertex
100
AcDb2dVertex
 10
31.842551
 20
61.716576
 30
0.0
  0
VERTEX
  5
C5D9
100
AcDbEntity
  8
ALPHA
100
AcDbVertex
100
AcDb2dVertex
 10
32.143483
 20
60.436235
 30
0.0
  0
VERTEX
  5
C5DA
100
AcDbEntity
  8
ALPHA
100
AcDbVertex
100
AcDb2dVertex
 10
32.447158
 20
58.882544
 30
0.0
  0
VERTEX
  5
C5DB
100
AcDbEntity
  8
ALPHA
100
AcDbVertex
100
AcDb2dVertex
 10
32.706574
 20
57.130515
 30
0.0
  0
VERTEX
  5
C5DC
100
AcDbEntity
  8
ALPHA
100
AcDbVertex
100
AcDb2dVertex
 10
32.884386
 20
55.257303
 30
0.0
  0
SEQEND
  5
C5DD
100
AcDbEntity
  8
ALPHA
  0
LINE
  5
C1C7
100
AcDbEntity
  8
ALPHA
100
AcDbLine
 10
31.345308
 20
63.513986
 30
0.0
 11
31.34666
 21
63.50925
 31
0.0
  0
LINE
  5
C1C8
100
AcDbEntity
  8
ALPHA
100
AcDbLine
 10
32.848707
 20
52.443721
 30
0.0
 11
32.845237
 21
52.263989
 31
0.0
  0
LINE
  5
C1C9
100
AcDbEntity
  8
ALPHA
100
AcDbLine
 10
32.845237
 20
53.763922
 30
0.0
 11
32.845237
 21
55.669727
 31
0.0
  0
POLYLINE
  5
C1CA
100
AcDbEntity
  8
ALPHA
100
AcDb2dPolyline
 66
     1
 10
0.0
 20
0.0
 30
0.0
  0
VERTEX
  5
C5DE
100
AcDbEntity
  8
ALPHA
100
AcDbVertex
100
AcDb2dVertex
 10
32.845237
 20
53.76398
 30
0.0
  0
VERTEX
  5
C5DF
100
AcDbEntity
  8
ALPHA
100
AcDbVertex
100
AcDb2dVertex
 10
32.848611
 20
53.589956
 30
0.0
  0
VERTEX
  5
C5E0
100
AcDbEntity
  8
ALPHA
100
AcDbVertex
100
AcDb2dVertex
 10
32.851367
 20
53.392518
 30
0.0
  0
VERTEX
  5
C5E1
100
AcDbEntity
  8
ALPHA
100
AcDbVertex
100
AcDb2dVertex
 10
32.853196
 20
53.149094
 30
0.0
  0
VERTEX
  5
C5E2
100
AcDbEntity
  8
ALPHA
100
AcDbVertex
100
AcDb2dVertex
 10
32.853236
 20
52.889563
 30
0.0
  0
VERTEX
  5
C5E3
100
AcDbEntity
  8
ALPHA
100
AcDbVertex
100
AcDb2dVertex
 10
32.851474
 20
52.645233
 30
0.0
  0
VERTEX
  5
C5E4
100
AcDbEntity
  8
ALPHA
100
AcDbVertex
100
AcDb2dVertex
 10
32.848707
 20
52.443721
 30
0.0
  0
SEQEND
  5
C5E5
100
AcDbEntity
  8
ALPHA
  0
LINE
  5
C1CB
100
AcDbEntity
  8
ALPHA
100
AcDbLine
 10
32.884386
 20
55.257303
 30
0.0
 11
32.958317
 21
53.326641
 31
0.0
  0
LINE
  5
C1CC
100
AcDbEntity
  8
ALPHA
100
AcDbLine
 10
32.18385
 20
97.913986
 30
0.0
 11
28.233687
 21
97.913986
 31
0.0
  0
LINE
  5
C1CD
100
AcDbEntity
  8
ALPHA
100
AcDbLine
 10
32.18385
 20
89.713986
 30
0.0
 11
28.233687
 21
89.713986
 31
0.0
  0
LINE
  5
C1CE
100
AcDbEntity
  8
ALPHA
100
AcDbLine
 10
28.298348
 20
84.833098
 30
0.0
 11
28.533415
 21
89.713986
 31
0.0
  0
ARC
  5
C1CF
100
AcDbEntity
  8
ALPHA
100
AcDbCircle
 10
29.720237
 20
84.738986
 30
0.0
 40
1.425
100
AcDbArc
 50
176.213228
 51
262.435196
  0
LINE
  5
C1D0
100
AcDbEntity
  8
ALPHA
100
AcDbLine
 10
30.258577
 20
83.326388
 30
0.0
 11
29.53264
 21
83.326388
 31
0.0
  0
POLYLINE
  5
C1D1
100
AcDbEntity
  8
ALPHA
100
AcDb2dPolyline
 66
     1
 10
0.0
 20
0.0
 30
0.0
  0
VERTEX
  5
C5E6
100
AcDbEntity
  8
ALPHA
100
AcDbVertex
100
AcDb2dVertex
 10
29.545349
 20
83.326388
 30
0.0
  0
VERTEX
  5
C5E7
100
AcDbEntity
  8
ALPHA
100
AcDbVertex
100
AcDb2dVertex
 10
29.639782
 20
83.317099
 30
0.0
  0
VERTEX
  5
C5E8
100
AcDbEntity
  8
ALPHA
100
AcDbVertex
100
AcDb2dVertex
 10
29.734963
 20
83.313986
 30
0.0
  0
SEQEND
  5
C5E9
100
AcDbEntity
  8
ALPHA
  0
POLYLINE
  5
C1D2
100
AcDbEntity
  8
ALPHA
100
AcDb2dPolyline
 66
     1
 10
0.0
 20
0.0
 30
0.0
  0
VERTEX
  5
C5EA
100
AcDbEntity
  8
ALPHA
100
AcDbVertex
100
AcDb2dVertex
 10
30.448629
 20
83.313986
 30
0.0
  0
VERTEX
  5
C5EB
100
AcDbEntity
  8
ALPHA
100
AcDbVertex
100
AcDb2dVertex
 10
30.353251
 20
83.317099
 30
0.0
  0
VERTEX
  5
C5EC
100
AcDbEntity
  8
ALPHA
100
AcDbVertex
100
AcDb2dVertex
 10
30.258577
 20
83.326388
 30
0.0
  0
SEQEND
  5
C5ED
100
AcDbEntity
  8
ALPHA
  0
LINE
  5
C1D3
100
AcDbEntity
  8
ALPHA
100
AcDbLine
 10
31.640993
 20
90.213986
 30
0.0
 11
31.68725
 21
92.613997
 31
0.0
  0
POLYLINE
  5
C1D4
100
AcDbEntity
  8
ALPHA
100
AcDb2dPolyline
 66
     1
 10
0.0
 20
0.0
 30
0.0
  0
VERTEX
  5
C5EE
100
AcDbEntity
  8
ALPHA
100
AcDbVertex
100
AcDb2dVertex
 10
31.914973
 20
95.180619
 30
0.0
  0
VERTEX
  5
C5EF
100
AcDbEntity
  8
ALPHA
100
AcDbVertex
100
AcDb2dVertex
 10
31.914973
 20
92.447352
 30
0.0
  0
VERTEX
  5
C5F0
100
AcDbEntity
  8
ALPHA
100
AcDbVertex
100
AcDb2dVertex
 10
31.854592
 20
89.713986
 30
0.0
  0
SEQEND
  5
C5F1
100
AcDbEntity
  8
ALPHA
  0
LINE
  5
C1D5
100
AcDbEntity
  8
ALPHA
100
AcDbLine
 10
28.495237
 20
90.213986
 30
0.0
 11
28.495237
 21
97.413986
 31
0.0
  0
LINE
  5
C1D6
100
AcDbEntity
  8
ALPHA
100
AcDbLine
 10
31.640993
 20
90.213986
 30
0.0
 11
28.247532
 21
90.213986
 31
0.0
  0
LINE
  5
C1D7
100
AcDbEntity
  8
ALPHA
100
AcDbLine
 10
28.233278
 20
89.713986
 30
0.0
 11
28.247471
 21
90.213986
 31
0.0
  0
LINE
  5
C1D8
100
AcDbEntity
  8
ALPHA
100
AcDbLine
 10
31.640993
 20
97.413986
 30
0.0
 11
28.247532
 21
97.413986
 31
0.0
  0
LINE
  5
C1D9
100
AcDbEntity
  8
ALPHA
100
AcDbLine
 10
28.247471
 20
97.413986
 30
0.0
 11
28.233278
 21
97.913986
 31
0.0
  0
POLYLINE
  5
C1DA
100
AcDbEntity
  8
ALPHA
100
AcDb2dPolyline
 66
     1
 10
0.0
 20
0.0
 30
0.0
  0
VERTEX
  5
C5F2
100
AcDbEntity
  8
ALPHA
100
AcDbVertex
100
AcDb2dVertex
 10
31.68725
 20
92.613997
 30
0.0
  0
VERTEX
  5
C5F3
100
AcDbEntity
  8
ALPHA
100
AcDbVertex
100
AcDb2dVertex
 10
31.68725
 20
95.013974
 30
0.0
  0
VERTEX
  5
C5F4
100
AcDbEntity
  8
ALPHA
100
AcDbVertex
100
AcDb2dVertex
 10
31.640993
 20
97.413986
 30
0.0
  0
SEQEND
  5
C5F5
100
AcDbEntity
  8
ALPHA
  0
LINE
  5
C1DB
100
AcDbEntity
  8
ALPHA
100
AcDbLine
 10
31.854592
 20
97.913986
 30
0.0
 11
31.914973
 21
95.180619
 31
0.0
  0
LINE
  5
C1DC
100
AcDbEntity
  8
ALPHA
100
AcDbLine
 10
36.387207
 20
97.563986
 30
0.0
 11
32.553879
 21
97.563986
 31
0.0
  0
LINE
  5
C1DD
100
AcDbEntity
  8
ALPHA
100
AcDbLine
 10
36.428852
 20
96.063986
 30
0.0
 11
32.590957
 21
96.063986
 31
0.0
  0
LINE
  5
C1DE
100
AcDbEntity
  8
TEXTE
100
AcDbLine
 10
35.96798
 20
92.813986
 30
0.0
 11
37.179952
 21
92.813986
 31
0.0
  0
LINE
  5
C1DF
100
AcDbEntity
  8
TEXTE
100
AcDbLine
 10
37.174821
 20
92.367177
 30
0.0
 11
36.156176
 21
92.367177
 31
0.0
  0
LINE
  5
C1E0
100
AcDbEntity
  8
TEXTE
100
AcDbLine
 10
36.1392
 20
91.399092
 30
0.0
 11
37.016249
 21
91.399092
 31
0.0
  0
LINE
  5
C1E1
100
AcDbEntity
  8
TEXTE
100
AcDbLine
 10
37.005236
 20
90.952284
 30
0.0
 11
36.128496
 21
90.952284
 31
0.0
  0
LINE
  5
C1E2
100
AcDbEntity
  8
TEXTE
100
AcDbLine
 10
36.091092
 20
89.760794
 30
0.0
 11
37.107547
 21
89.760794
 31
0.0
  0
LINE
  5
C1E3
100
AcDbEntity
  8
TEXTE
100
AcDbLine
 10
37.089619
 20
89.313986
 30
0.0
 11
35.881121
 21
89.313986
 31
0.0
  0
LINE
  5
C1E4
100
AcDbEntity
  8
TEXTE
100
AcDbLine
 10
33.440925
 20
92.292709
 30
0.0
 11
33.542587
 21
92.590582
 31
0.0
  0
POLYLINE
  5
C1E5
100
AcDbEntity
  8
TEXTE
100
AcDb2dPolyline
 66
     1
 10
0.0
 20
0.0
 30
0.0
  0
VERTEX
  5
C5F6
100
AcDbEntity
  8
TEXTE
100
AcDbVertex
100
AcDb2dVertex
 10
35.881121
 20
89.313986
 30
0.0
  0
VERTEX
  5
C5F7
100
AcDbEntity
  8
TEXTE
100
AcDbVertex
100
AcDb2dVertex
 10
35.896234
 20
89.703039
 30
0.0
  0
VERTEX
  5
C5F8
100
AcDbEntity
  8
TEXTE
100
AcDbVertex
100
AcDb2dVertex
 10
35.909982
 20
90.092055
 30
0.0
  0
VERTEX
  5
C5F9
100
AcDbEntity
  8
TEXTE
100
AcDbVertex
100
AcDb2dVertex
 10
35.922364
 20
90.481037
 30
0.0
  0
VERTEX
  5
C5FA
100
AcDbEntity
  8
TEXTE
100
AcDbVertex
100
AcDb2dVertex
 10
35.93338
 20
90.869985
 30
0.0
  0
VERTEX
  5
C5FB
100
AcDbEntity
  8
TEXTE
100
AcDbVertex
100
AcDb2dVertex
 10
35.943031
 20
91.258893
 30
0.0
  0
VERTEX
  5
C5FC
100
AcDbEntity
  8
TEXTE
100
AcDbVertex
100
AcDb2dVertex
 10
35.951316
 20
91.647751
 30
0.0
  0
VERTEX
  5
C5FD
100
AcDbEntity
  8
TEXTE
100
AcDbVertex
100
AcDb2dVertex
 10
35.958235
 20
92.036551
 30
0.0
  0
VERTEX
  5
C5FE
100
AcDbEntity
  8
TEXTE
100
AcDbVertex
100
AcDb2dVertex
 10
35.96379
 20
92.425295
 30
0.0
  0
VERTEX
  5
C5FF
100
AcDbEntity
  8
TEXTE
100
AcDbVertex
100
AcDb2dVertex
 10
35.96798
 20
92.813986
 30
0.0
  0
SEQEND
  5
C600
100
AcDbEntity
  8
TEXTE
  0
POLYLINE
  5
C1E6
100
AcDbEntity
  8
TEXTE
100
AcDb2dPolyline
 66
     1
 10
0.0
 20
0.0
 30
0.0
  0
VERTEX
  5
C601
100
AcDbEntity
  8
TEXTE
100
AcDbVertex
100
AcDb2dVertex
 10
34.539781
 20
89.313986
 30
0.0
  0
VERTEX
  5
C602
100
AcDbEntity
  8
TEXTE
100
AcDbVertex
100
AcDb2dVertex
 10
34.554276
 20
89.702976
 30
0.0
  0
VERTEX
  5
C603
100
AcDbEntity
  8
TEXTE
100
AcDbVertex
100
AcDb2dVertex
 10
34.567462
 20
90.091944
 30
0.0
  0
VERTEX
  5
C604
100
AcDbEntity
  8
TEXTE
100
AcDbVertex
100
AcDb2dVertex
 10
34.579338
 20
90.480893
 30
0.0
  0
VERTEX
  5
C605
100
AcDbEntity
  8
TEXTE
100
AcDbVertex
100
AcDb2dVertex
 10
34.589905
 20
90.869824
 30
0.0
  0
VERTEX
  5
C606
100
AcDbEntity
  8
TEXTE
100
AcDbVertex
100
AcDb2dVertex
 10
34.599162
 20
91.25873
 30
0.0
  0
VERTEX
  5
C607
100
AcDbEntity
  8
TEXTE
100
AcDbVertex
100
AcDb2dVertex
 10
34.607109
 20
91.647603
 30
0.0
  0
VERTEX
  5
C608
100
AcDbEntity
  8
TEXTE
100
AcDbVertex
100
AcDb2dVertex
 10
34.613747
 20
92.036436
 30
0.0
  0
VERTEX
  5
C609
100
AcDbEntity
  8
TEXTE
100
AcDbVertex
100
AcDb2dVertex
 10
34.619075
 20
92.425229
 30
0.0
  0
VERTEX
  5
C60A
100
AcDbEntity
  8
TEXTE
100
AcDbVertex
100
AcDb2dVertex
 10
34.623094
 20
92.813986
 30
0.0
  0
SEQEND
  5
C60B
100
AcDbEntity
  8
TEXTE
  0
POLYLINE
  5
C1E7
100
AcDbEntity
  8
ALPHA
100
AcDb2dPolyline
 66
     1
 10
0.0
 20
0.0
 30
0.0
  0
VERTEX
  5
C60C
100
AcDbEntity
  8
ALPHA
100
AcDbVertex
100
AcDb2dVertex
 10
32.18385
 20
97.913986
 30
0.0
  0
VERTEX
  5
C60D
100
AcDbEntity
  8
ALPHA
100
AcDbVertex
100
AcDb2dVertex
 10
32.244195
 20
95.180613
 30
0.0
  0
VERTEX
  5
C60E
100
AcDbEntity
  8
ALPHA
100
AcDbVertex
100
AcDb2dVertex
 10
32.244195
 20
92.447358
 30
0.0
  0
VERTEX
  5
C60F
100
AcDbEntity
  8
ALPHA
100
AcDbVertex
100
AcDb2dVertex
 10
32.18385
 20
89.713986
 30
0.0
  0
SEQEND
  5
C610
100
AcDbEntity
  8
ALPHA
  0
LINE
  5
C1E8
100
AcDbEntity
  8
TEXTE
100
AcDbLine
 10
34.210987
 20
92.590582
 30
0.0
 11
34.31502
 21
92.292709
 31
0.0
  0
LINE
  5
C1E9
100
AcDbEntity
  8
TEXTE
100
AcDbLine
 10
35.468568
 20
92.739518
 30
0.0
 11
35.588691
 21
92.516113
 31
0.0
  0
LINE
  5
C1EA
100
AcDbEntity
  8
TEXTE
100
AcDbLine
 10
34.257054
 20
89.835262
 30
0.0
 11
34.1392
 21
89.53739
 31
0.0
  0
LINE
  5
C1EB
100
AcDbEntity
  8
TEXTE
100
AcDbLine
 10
34.197323
 20
90.505475
 30
0.0
 11
34.207271
 21
90.877838
 31
0.0
  0
LINE
  5
C1EC
100
AcDbEntity
  8
TEXTE
100
AcDbLine
 10
34.223608
 20
91.622496
 30
0.0
 11
34.202056
 21
91.920369
 31
0.0
  0
POLYLINE
  5
C1ED
100
AcDbEntity
  8
TEXTE
100
AcDb2dPolyline
 66
     1
 10
0.0
 20
0.0
 30
0.0
  0
VERTEX
  5
C611
100
AcDbEntity
  8
TEXTE
100
AcDbVertex
100
AcDb2dVertex
 10
34.027644
 20
89.388453
 30
0.0
  0
VERTEX
  5
C612
100
AcDbEntity
  8
TEXTE
100
AcDbVertex
100
AcDb2dVertex
 10
33.994126
 20
89.369868
 30
0.0
  0
VERTEX
  5
C613
100
AcDbEntity
  8
TEXTE
100
AcDbVertex
100
AcDb2dVertex
 10
33.894072
 20
89.313986
 30
0.0
  0
SEQEND
  5
C614
100
AcDbEntity
  8
TEXTE
  0
LINE
  5
C1EE
100
AcDbEntity
  8
TEXTE
100
AcDbLine
 10
33.910294
 20
89.760794
 30
0.0
 11
34.017325
 21
89.835262
 31
0.0
  0
LINE
  5
C1EF
100
AcDbEntity
  8
TEXTE
100
AcDbLine
 10
33.765533
 20
92.367177
 30
0.0
 11
33.663646
 21
92.292709
 31
0.0
  0
LINE
  5
C1F0
100
AcDbEntity
  8
TEXTE
100
AcDbLine
 10
34.1392
 20
89.53739
 30
0.0
 11
34.027644
 21
89.388453
 31
0.0
  0
LINE
  5
C1F1
100
AcDbEntity
  8
TEXTE
100
AcDbLine
 10
34.017325
 20
89.835262
 30
0.0
 11
34.101484
 21
89.984198
 31
0.0
  0
LINE
  5
C1F2
100
AcDbEntity
  8
TEXTE
100
AcDbLine
 10
33.663646
 20
92.292709
 30
0.0
 11
33.586732
 21
92.143773
 31
0.0
  0
LINE
  5
C1F3
100
AcDbEntity
  8
TEXTE
100
AcDbLine
 10
34.101484
 20
89.984198
 30
0.0
 11
34.161785
 21
90.207602
 31
0.0
  0
LINE
  5
C1F4
100
AcDbEntity
  8
TEXTE
100
AcDbLine
 10
33.586732
 20
92.143773
 30
0.0
 11
33.533831
 21
91.920369
 31
0.0
  0
LINE
  5
C1F5
100
AcDbEntity
  8
TEXTE
100
AcDbLine
 10
33.388104
 20
91.994837
 30
0.0
 11
33.440925
 21
92.292709
 31
0.0
  0
LINE
  5
C1F6
100
AcDbEntity
  8
TEXTE
100
AcDbLine
 10
34.161785
 20
90.207602
 30
0.0
 11
34.197323
 21
90.505475
 31
0.0
  0
LINE
  5
C1F7
100
AcDbEntity
  8
TEXTE
100
AcDbLine
 10
33.533831
 20
91.920369
 30
0.0
 11
33.504067
 21
91.622496
 31
0.0
  0
LINE
  5
C1F8
100
AcDbEntity
  8
TEXTE
100
AcDbLine
 10
33.357656
 20
91.622496
 30
0.0
 11
33.388104
 21
91.994837
 31
0.0
  0
LINE
  5
C1F9
100
AcDbEntity
  8
TEXTE
100
AcDbLine
 10
33.332034
 20
90.505475
 30
0.0
 11
33.341731
 21
90.877829
 31
0.0
  0
POLYLINE
  5
C1FA
100
AcDbEntity
  8
TEXTE
100
AcDb2dPolyline
 66
     1
 10
0.0
 20
0.0
 30
0.0
  0
VERTEX
  5
C615
100
AcDbEntity
  8
TEXTE
100
AcDbVertex
100
AcDb2dVertex
 10
33.496651
 20
91.250172
 30
0.0
  0
VERTEX
  5
C616
100
AcDbEntity
  8
TEXTE
100
AcDbVertex
100
AcDb2dVertex
 10
33.488074
 20
90.877829
 30
0.0
  0
VERTEX
  5
C617
100
AcDbEntity
  8
TEXTE
100
AcDbVertex
100
AcDb2dVertex
 10
33.48335
 20
90.691654
 30
0.0
  0
VERTEX
  5
C618
100
AcDbEntity
  8
TEXTE
100
AcDbVertex
100
AcDb2dVertex
 10
33.478336
 20
90.505475
 30
0.0
  0
SEQEND
  5
C619
100
AcDbEntity
  8
TEXTE
  0
LINE
  5
C1FB
100
AcDbEntity
  8
TEXTE
100
AcDbLine
 10
33.341731
 20
90.877829
 30
0.0
 11
33.350272
 21
91.250171
 31
0.0
  0
LINE
  5
C1FC
100
AcDbEntity
  8
TEXTE
100
AcDbLine
 10
33.504067
 20
91.622496
 30
0.0
 11
33.496651
 21
91.250172
 31
0.0
  0
LINE
  5
C1FD
100
AcDbEntity
  8
TEXTE
100
AcDbLine
 10
33.350272
 20
91.250171
 30
0.0
 11
33.357656
 21
91.622496
 31
0.0
  0
LINE
  5
C1FE
100
AcDbEntity
  8
TEXTE
100
AcDbLine
 10
33.345371
 20
90.133135
 30
0.0
 11
33.332034
 21
90.505475
 31
0.0
  0
LINE
  5
C1FF
100
AcDbEntity
  8
TEXTE
100
AcDbLine
 10
33.478336
 20
90.505475
 30
0.0
 11
33.494348
 21
90.207602
 31
0.0
  0
LINE
  5
C200
100
AcDbEntity
  8
TEXTE
100
AcDbLine
 10
33.384438
 20
89.835262
 30
0.0
 11
33.345371
 21
90.133135
 31
0.0
  0
LINE
  5
C201
100
AcDbEntity
  8
TEXTE
100
AcDbLine
 10
33.494348
 20
90.207602
 30
0.0
 11
33.536877
 21
89.984198
 31
0.0
  0
LINE
  5
C202
100
AcDbEntity
  8
TEXTE
100
AcDbLine
 10
34.202056
 20
91.920369
 30
0.0
 11
34.152179
 21
92.143773
 31
0.0
  0
LINE
  5
C203
100
AcDbEntity
  8
TEXTE
100
AcDbLine
 10
33.472204
 20
89.53739
 30
0.0
 11
33.384438
 21
89.835262
 31
0.0
  0
LINE
  5
C204
100
AcDbEntity
  8
TEXTE
100
AcDbLine
 10
33.536877
 20
89.984198
 30
0.0
 11
33.606789
 21
89.835262
 31
0.0
  0
LINE
  5
C205
100
AcDbEntity
  8
TEXTE
100
AcDbLine
 10
34.152179
 20
92.143773
 30
0.0
 11
34.074877
 21
92.292709
 31
0.0
  0
LINE
  5
C206
100
AcDbEntity
  8
TEXTE
100
AcDbLine
 10
33.565998
 20
89.388453
 30
0.0
 11
33.472204
 21
89.53739
 31
0.0
  0
LINE
  5
C207
100
AcDbEntity
  8
TEXTE
100
AcDbLine
 10
33.971145
 20
92.367177
 30
0.0
 11
33.765534
 21
92.367177
 31
0.0
  0
LINE
  5
C208
100
AcDbEntity
  8
TEXTE
100
AcDbLine
 10
33.705052
 20
89.760794
 30
0.0
 11
33.910294
 21
89.760794
 31
0.0
  0
LINE
  5
C209
100
AcDbEntity
  8
TEXTE
100
AcDbLine
 10
33.894072
 20
89.313986
 30
0.0
 11
33.688929
 21
89.313986
 31
0.0
  0
LINE
  5
C20A
100
AcDbEntity
  8
TEXTE
100
AcDbLine
 10
33.606789
 20
89.835262
 30
0.0
 11
33.705052
 21
89.760794
 31
0.0
  0
LINE
  5
C20B
100
AcDbEntity
  8
TEXTE
100
AcDbLine
 10
34.074877
 20
92.292709
 30
0.0
 11
33.971144
 21
92.367177
 31
0.0
  0
POLYLINE
  5
C20C
100
AcDbEntity
  8
TEXTE
100
AcDb2dPolyline
 66
     1
 10
0.0
 20
0.0
 30
0.0
  0
VERTEX
  5
C61A
100
AcDbEntity
  8
TEXTE
100
AcDbVertex
100
AcDb2dVertex
 10
33.688929
 20
89.313986
 30
0.0
  0
VERTEX
  5
C61B
100
AcDbEntity
  8
TEXTE
100
AcDbVertex
100
AcDb2dVertex
 10
33.596606
 20
89.369808
 30
0.0
  0
VERTEX
  5
C61C
100
AcDbEntity
  8
TEXTE
100
AcDbVertex
100
AcDb2dVertex
 10
33.565998
 20
89.388453
 30
0.0
  0
SEQEND
  5
C61D
100
AcDbEntity
  8
TEXTE
  0
LINE
  5
C20D
100
AcDbEntity
  8
TEXTE
100
AcDbLine
 10
35.437316
 20
90.952284
 30
0.0
 11
35.284458
 21
90.877815
 31
0.0
  0
LINE
  5
C20E
100
AcDbEntity
  8
TEXTE
100
AcDbLine
 10
35.371252
 20
91.361893
 30
0.0
 11
35.417411
 21
91.399092
 31
0.0
  0
LINE
  5
C20F
100
AcDbEntity
  8
TEXTE
100
AcDbLine
 10
35.325197
 20
91.324624
 30
0.0
 11
35.371252
 21
91.361893
 31
0.0
  0
LINE
  5
C210
100
AcDbEntity
  8
TEXTE
100
AcDbLine
 10
35.565162
 20
91.175688
 30
0.0
 11
35.437316
 21
90.952284
 31
0.0
  0
LINE
  5
C211
100
AcDbEntity
  8
TEXTE
100
AcDbLine
 10
35.417411
 20
91.399092
 30
0.0
 11
35.481355
 21
91.548028
 31
0.0
  0
LINE
  5
C212
100
AcDbEntity
  8
TEXTE
100
AcDbLine
 10
35.664535
 20
91.47356
 30
0.0
 11
35.565162
 21
91.175688
 31
0.0
  0
LINE
  5
C213
100
AcDbEntity
  8
TEXTE
100
AcDbLine
 10
34.321006
 20
90.133135
 30
0.0
 11
34.257054
 21
89.835262
 31
0.0
  0
LINE
  5
C214
100
AcDbEntity
  8
TEXTE
100
AcDbLine
 10
35.700094
 20
91.696964
 30
0.0
 11
35.664535
 21
91.47356
 31
0.0
  0
LINE
  5
C215
100
AcDbEntity
  8
TEXTE
100
AcDbLine
 10
35.481355
 20
91.548028
 30
0.0
 11
35.5162
 21
91.771433
 31
0.0
  0
POLYLINE
  5
C216
100
AcDbEntity
  8
TEXTE
100
AcDb2dPolyline
 66
     1
 10
0.0
 20
0.0
 30
0.0
  0
VERTEX
  5
C61E
100
AcDbEntity
  8
TEXTE
100
AcDbVertex
100
AcDb2dVertex
 10
34.359398
 20
90.505475
 30
0.0
  0
VERTEX
  5
C61F
100
AcDbEntity
  8
TEXTE
100
AcDbVertex
100
AcDb2dVertex
 10
34.330711
 20
90.226267
 30
0.0
  0
VERTEX
  5
C620
100
AcDbEntity
  8
TEXTE
100
AcDbVertex
100
AcDb2dVertex
 10
34.321006
 20
90.133135
 30
0.0
  0
SEQEND
  5
C621
100
AcDbEntity
  8
TEXTE
  0
LINE
  5
C217
100
AcDbEntity
  8
TEXTE
100
AcDbLine
 10
34.369395
 20
90.877838
 30
0.0
 11
34.359398
 21
90.505475
 31
0.0
  0
POLYLINE
  5
C218
100
AcDbEntity
  8
TEXTE
100
AcDb2dPolyline
 66
     1
 10
0.0
 20
0.0
 30
0.0
  0
VERTEX
  5
C622
100
AcDbEntity
  8
TEXTE
100
AcDbVertex
100
AcDb2dVertex
 10
36.128496
 20
90.952284
 30
0.0
  0
VERTEX
  5
C623
100
AcDbEntity
  8
TEXTE
100
AcDbVertex
100
AcDb2dVertex
 10
36.123158
 20
90.753741
 30
0.0
  0
VERTEX
  5
C624
100
AcDbEntity
  8
TEXTE
100
AcDbVertex
100
AcDb2dVertex
 10
36.117461
 20
90.555182
 30
0.0
  0
VERTEX
  5
C625
100
AcDbEntity
  8
TEXTE
100
AcDbVertex
100
AcDb2dVertex
 10
36.111406
 20
90.356607
 30
0.0
  0
VERTEX
  5
C626
100
AcDbEntity
  8
TEXTE
100
AcDbVertex
100
AcDb2dVertex
 10
36.104993
 20
90.158017
 30
0.0
  0
VERTEX
  5
C627
100
AcDbEntity
  8
TEXTE
100
AcDbVertex
100
AcDb2dVertex
 10
36.098222
 20
89.959413
 30
0.0
  0
VERTEX
  5
C628
100
AcDbEntity
  8
TEXTE
100
AcDbVertex
100
AcDb2dVertex
 10
36.091092
 20
89.760794
 30
0.0
  0
SEQEND
  5
C629
100
AcDbEntity
  8
TEXTE
  0
POLYLINE
  5
C219
100
AcDbEntity
  8
TEXTE
100
AcDb2dPolyline
 66
     1
 10
0.0
 20
0.0
 30
0.0
  0
VERTEX
  5
C62A
100
AcDbEntity
  8
TEXTE
100
AcDbVertex
100
AcDb2dVertex
 10
34.759112
 20
90.877815
 30
0.0
  0
VERTEX
  5
C62B
100
AcDbEntity
  8
TEXTE
100
AcDbVertex
100
AcDb2dVertex
 10
34.752159
 20
90.617224
 30
0.0
  0
VERTEX
  5
C62C
100
AcDbEntity
  8
TEXTE
100
AcDbVertex
100
AcDb2dVertex
 10
34.744615
 20
90.356613
 30
0.0
  0
VERTEX
  5
C62D
100
AcDbEntity
  8
TEXTE
100
AcDbVertex
100
AcDb2dVertex
 10
34.73648
 20
90.095982
 30
0.0
  0
VERTEX
  5
C62E
100
AcDbEntity
  8
TEXTE
100
AcDbVertex
100
AcDb2dVertex
 10
34.727753
 20
89.835332
 30
0.0
  0
VERTEX
  5
C62F
100
AcDbEntity
  8
TEXTE
100
AcDbVertex
100
AcDb2dVertex
 10
34.718435
 20
89.574667
 30
0.0
  0
VERTEX
  5
C630
100
AcDbEntity
  8
TEXTE
100
AcDbVertex
100
AcDb2dVertex
 10
34.708525
 20
89.313986
 30
0.0
  0
SEQEND
  5
C631
100
AcDbEntity
  8
TEXTE
  0
LINE
  5
C21A
100
AcDbEntity
  8
TEXTE
100
AcDbLine
 10
34.3782
 20
91.25018
 30
0.0
 11
34.369395
 21
90.877838
 31
0.0
  0
LINE
  5
C21B
100
AcDbEntity
  8
TEXTE
100
AcDbLine
 10
34.207271
 20
90.877838
 30
0.0
 11
34.216033
 21
91.25018
 31
0.0
  0
LINE
  5
C21C
100
AcDbEntity
  8
TEXTE
100
AcDbLine
 10
36.145805
 20
91.721809
 30
0.0
 11
36.1392
 21
91.399092
 31
0.0
  0
LINE
  5
C21D
100
AcDbEntity
  8
TEXTE
100
AcDbLine
 10
34.385812
 20
91.622496
 30
0.0
 11
34.3782
 21
91.25018
 31
0.0
  0
LINE
  5
C21E
100
AcDbEntity
  8
TEXTE
100
AcDbLine
 10
34.216033
 20
91.25018
 30
0.0
 11
34.223608
 21
91.622496
 31
0.0
  0
LINE
  5
C21F
100
AcDbEntity
  8
TEXTE
100
AcDbLine
 10
34.77712
 20
91.696982
 30
0.0
 11
34.769658
 21
91.324624
 31
0.0
  0
LINE
  5
C220
100
AcDbEntity
  8
TEXTE
100
AcDbLine
 10
36.151463
 20
92.044505
 30
0.0
 11
36.145805
 21
91.721809
 31
0.0
  0
LINE
  5
C221
100
AcDbEntity
  8
TEXTE
100
AcDbLine
 10
35.705344
 20
91.994837
 30
0.0
 11
35.700094
 21
91.696964
 31
0.0
  0
LINE
  5
C222
100
AcDbEntity
  8
TEXTE
100
AcDbLine
 10
35.5162
 20
91.771433
 30
0.0
 11
35.52004
 21
91.994837
 31
0.0
  0
LINE
  5
C223
100
AcDbEntity
  8
TEXTE
100
AcDbLine
 10
34.783376
 20
92.069325
 30
0.0
 11
34.77712
 21
91.696982
 31
0.0
  0
LINE
  5
C224
100
AcDbEntity
  8
TEXTE
100
AcDbLine
 10
36.156175
 20
92.367177
 30
0.0
 11
36.151463
 21
92.044505
 31
0.0
  0
LINE
  5
C225
100
AcDbEntity
  8
TEXTE
100
AcDbLine
 10
34.788425
 20
92.441645
 30
0.0
 11
34.783376
 21
92.069325
 31
0.0
  0
LINE
  5
C226
100
AcDbEntity
  8
TEXTE
100
AcDbLine
 10
35.52004
 20
91.994837
 30
0.0
 11
35.492864
 21
92.218241
 31
0.0
  0
LINE
  5
C227
100
AcDbEntity
  8
TEXTE
100
AcDbLine
 10
35.677645
 20
92.218241
 30
0.0
 11
35.705344
 21
91.994837
 31
0.0
  0
POLYLINE
  5
C228
100
AcDbEntity
  8
TEXTE
100
AcDb2dPolyline
 66
     1
 10
0.0
 20
0.0
 30
0.0
  0
VERTEX
  5
C632
100
AcDbEntity
  8
TEXTE
100
AcDbVertex
100
AcDb2dVertex
 10
34.364992
 20
91.994837
 30
0.0
  0
VERTEX
  5
C633
100
AcDbEntity
  8
TEXTE
100
AcDbVertex
100
AcDb2dVertex
 10
34.380714
 20
91.715536
 30
0.0
  0
VERTEX
  5
C634
100
AcDbEntity
  8
TEXTE
100
AcDbVertex
100
AcDb2dVertex
 10
34.385812
 20
91.622496
 30
0.0
  0
SEQEND
  5
C635
100
AcDbEntity
  8
TEXTE
  0
LINE
  5
C229
100
AcDbEntity
  8
TEXTE
100
AcDbLine
 10
34.31502
 20
92.292709
 30
0.0
 11
34.364992
 21
91.994837
 31
0.0
  0
LINE
  5
C22A
100
AcDbEntity
  8
TEXTE
100
AcDbLine
 10
35.588691
 20
92.516113
 30
0.0
 11
35.677645
 21
92.218241
 31
0.0
  0
LINE
  5
C22B
100
AcDbEntity
  8
TEXTE
100
AcDbLine
 10
35.492864
 20
92.218241
 30
0.0
 11
35.434004
 21
92.367177
 31
0.0
  0
LINE
  5
C22C
100
AcDbEntity
  8
TEXTE
100
AcDbLine
 10
35.434004
 20
92.367177
 30
0.0
 11
35.344288
 21
92.441645
 31
0.0
  0
LINE
  5
C22D
100
AcDbEntity
  8
TEXTE
100
AcDbLine
 10
35.344287
 20
92.441645
 30
0.0
 11
34.788424
 21
92.441645
 31
0.0
  0
LINE
  5
C22E
100
AcDbEntity
  8
TEXTE
100
AcDbLine
 10
34.769658
 20
91.324624
 30
0.0
 11
35.325197
 21
91.324624
 31
0.0
  0
LINE
  5
C22F
100
AcDbEntity
  8
TEXTE
100
AcDbLine
 10
35.284458
 20
90.877815
 30
0.0
 11
34.759112
 21
90.877815
 31
0.0
  0
LINE
  5
C230
100
AcDbEntity
  8
TEXTE
100
AcDbLine
 10
34.708525
 20
89.313986
 30
0.0
 11
34.53978
 21
89.313986
 31
0.0
  0
LINE
  5
C231
100
AcDbEntity
  8
TEXTE
100
AcDbLine
 10
34.106185
 20
92.739518
 30
0.0
 11
34.210987
 21
92.590582
 31
0.0
  0
POLYLINE
  5
C232
100
AcDbEntity
  8
TEXTE
100
AcDb2dPolyline
 66
     1
 10
0.0
 20
0.0
 30
0.0
  0
VERTEX
  5
C636
100
AcDbEntity
  8
TEXTE
100
AcDbVertex
100
AcDb2dVertex
 10
33.643472
 20
92.739518
 30
0.0
  0
VERTEX
  5
C637
100
AcDbEntity
  8
TEXTE
100
AcDbVertex
100
AcDb2dVertex
 10
33.738353
 20
92.795398
 30
0.0
  0
VERTEX
  5
C638
100
AcDbEntity
  8
TEXTE
100
AcDbVertex
100
AcDb2dVertex
 10
33.770146
 20
92.813986
 30
0.0
  0
SEQEND
  5
C639
100
AcDbEntity
  8
TEXTE
  0
LINE
  5
C233
100
AcDbEntity
  8
TEXTE
100
AcDbLine
 10
33.542587
 20
92.590582
 30
0.0
 11
33.643472
 21
92.739518
 31
0.0
  0
POLYLINE
  5
C234
100
AcDbEntity
  8
ALPHA
100
AcDb2dPolyline
 66
     1
 10
0.0
 20
0.0
 30
0.0
  0
VERTEX
  5
C63A
100
AcDbEntity
  8
ALPHA
100
AcDbVertex
100
AcDb2dVertex
 10
32.590957
 20
96.063986
 30
0.0
  0
VERTEX
  5
C63B
100
AcDbEntity
  8
ALPHA
100
AcDbVertex
100
AcDb2dVertex
 10
32.580658
 20
96.563968
 30
0.0
  0
VERTEX
  5
C63C
100
AcDbEntity
  8
ALPHA
100
AcDbVertex
100
AcDb2dVertex
 10
32.568299
 20
97.063967
 30
0.0
  0
VERTEX
  5
C63D
100
AcDbEntity
  8
ALPHA
100
AcDbVertex
100
AcDb2dVertex
 10
32.553879
 20
97.563986
 30
0.0
  0
SEQEND
  5
C63E
100
AcDbEntity
  8
ALPHA
  0
LINE
  5
C235
100
AcDbEntity
  8
TEXTE
100
AcDbLine
 10
33.770146
 20
92.813986
 30
0.0
 11
33.975785
 21
92.813986
 31
0.0
  0
POLYLINE
  5
C236
100
AcDbEntity
  8
TEXTE
100
AcDb2dPolyline
 66
     1
 10
0.0
 20
0.0
 30
0.0
  0
VERTEX
  5
C63F
100
AcDbEntity
  8
TEXTE
100
AcDbVertex
100
AcDb2dVertex
 10
33.975785
 20
92.813986
 30
0.0
  0
VERTEX
  5
C640
100
AcDbEntity
  8
TEXTE
100
AcDbVertex
100
AcDb2dVertex
 10
34.008259
 20
92.795338
 30
0.0
  0
VERTEX
  5
C641
100
AcDbEntity
  8
TEXTE
100
AcDbVertex
100
AcDb2dVertex
 10
34.106185
 20
92.739518
 30
0.0
  0
SEQEND
  5
C642
100
AcDbEntity
  8
TEXTE
  0
LINE
  5
C237
100
AcDbEntity
  8
TEXTE
100
AcDbLine
 10
34.623094
 20
92.813986
 30
0.0
 11
35.318156
 21
92.813986
 31
0.0
  0
LINE
  5
C238
100
AcDbEntity
  8
TEXTE
100
AcDbLine
 10
35.318156
 20
92.813986
 30
0.0
 11
35.468568
 21
92.739518
 31
0.0
  0
POLYLINE
  5
C239
100
AcDbEntity
  8
TEXTE
100
AcDb2dPolyline
 66
     1
 10
0.0
 20
0.0
 30
0.0
  0
VERTEX
  5
C643
100
AcDbEntity
  8
TEXTE
100
AcDbVertex
100
AcDb2dVertex
 10
37.376106
 20
89.313986
 30
0.0
  0
VERTEX
  5
C644
100
AcDbEntity
  8
TEXTE
100
AcDbVertex
100
AcDb2dVertex
 10
37.391976
 20
89.70312
 30
0.0
  0
VERTEX
  5
C645
100
AcDbEntity
  8
TEXTE
100
AcDbVertex
100
AcDb2dVertex
 10
37.406412
 20
90.092197
 30
0.0
  0
VERTEX
  5
C646
100
AcDbEntity
  8
TEXTE
100
AcDbVertex
100
AcDb2dVertex
 10
37.419413
 20
90.481221
 30
0.0
  0
VERTEX
  5
C647
100
AcDbEntity
  8
TEXTE
100
AcDbVertex
100
AcDb2dVertex
 10
37.43098
 20
90.870191
 30
0.0
  0
VERTEX
  5
C648
100
AcDbEntity
  8
TEXTE
100
AcDbVertex
100
AcDb2dVertex
 10
37.441112
 20
91.259101
 30
0.0
  0
VERTEX
  5
C649
100
AcDbEntity
  8
TEXTE
100
AcDbVertex
100
AcDb2dVertex
 10
37.449811
 20
91.64794
 30
0.0
  0
VERTEX
  5
C64A
100
AcDbEntity
  8
TEXTE
100
AcDbVertex
100
AcDb2dVertex
 10
37.457075
 20
92.036699
 30
0.0
  0
VERTEX
  5
C64B
100
AcDbEntity
  8
TEXTE
100
AcDbVertex
100
AcDb2dVertex
 10
37.462907
 20
92.42538
 30
0.0
  0
VERTEX
  5
C64C
100
AcDbEntity
  8
TEXTE
100
AcDbVertex
100
AcDb2dVertex
 10
37.467306
 20
92.813986
 30
0.0
  0
SEQEND
  5
C64D
100
AcDbEntity
  8
TEXTE
  0
POLYLINE
  5
C23A
100
AcDbEntity
  8
TEXTE
100
AcDb2dPolyline
 66
     1
 10
0.0
 20
0.0
 30
0.0
  0
VERTEX
  5
C64E
100
AcDbEntity
  8
TEXTE
100
AcDbVertex
100
AcDb2dVertex
 10
38.695381
 20
89.835262
 30
0.0
  0
VERTEX
  5
C64F
100
AcDbEntity
  8
TEXTE
100
AcDbVertex
100
AcDb2dVertex
 10
38.707888
 20
90.166447
 30
0.0
  0
VERTEX
  5
C650
100
AcDbEntity
  8
TEXTE
100
AcDbVertex
100
AcDb2dVertex
 10
38.719309
 20
90.497581
 30
0.0
  0
VERTEX
  5
C651
100
AcDbEntity
  8
TEXTE
100
AcDbVertex
100
AcDb2dVertex
 10
38.729643
 20
90.828666
 30
0.0
  0
VERTEX
  5
C652
100
AcDbEntity
  8
TEXTE
100
AcDbVertex
100
AcDb2dVertex
 10
38.738891
 20
91.159704
 30
0.0
  0
VERTEX
  5
C653
100
AcDbEntity
  8
TEXTE
100
AcDbVertex
100
AcDb2dVertex
 10
38.747053
 20
91.490687
 30
0.0
  0
VERTEX
  5
C654
100
AcDbEntity
  8
TEXTE
100
AcDbVertex
100
AcDb2dVertex
 10
38.754129
 20
91.82161
 30
0.0
  0
VERTEX
  5
C655
100
AcDbEntity
  8
TEXTE
100
AcDbVertex
100
AcDb2dVertex
 10
38.760119
 20
92.152467
 30
0.0
  0
VERTEX
  5
C656
100
AcDbEntity
  8
TEXTE
100
AcDbVertex
100
AcDb2dVertex
 10
38.765024
 20
92.483258
 30
0.0
  0
VERTEX
  5
C657
100
AcDbEntity
  8
TEXTE
100
AcDbVertex
100
AcDb2dVertex
 10
38.768844
 20
92.813986
 30
0.0
  0
SEQEND
  5
C658
100
AcDbEntity
  8
TEXTE
  0
LINE
  5
C23B
100
AcDbEntity
  8
TEXTE
100
AcDbLine
 10
37.177621
 20
92.590585
 30
0.0
 11
37.174821
 21
92.367177
 31
0.0
  0
POLYLINE
  5
C23C
100
AcDbEntity
  8
TEXTE
100
AcDb2dPolyline
 66
     1
 10
0.0
 20
0.0
 30
0.0
  0
VERTEX
  5
C659
100
AcDbEntity
  8
TEXTE
100
AcDbVertex
100
AcDb2dVertex
 10
39.012896
 20
92.813986
 30
0.0
  0
VERTEX
  5
C65A
100
AcDbEntity
  8
TEXTE
100
AcDbVertex
100
AcDb2dVertex
 10
39.008258
 20
92.425468
 30
0.0
  0
VERTEX
  5
C65B
100
AcDbEntity
  8
TEXTE
100
AcDbVertex
100
AcDb2dVertex
 10
39.00211
 20
92.036854
 30
0.0
  0
VERTEX
  5
C65C
100
AcDbEntity
  8
TEXTE
100
AcDbVertex
100
AcDb2dVertex
 10
38.99445
 20
91.648138
 30
0.0
  0
VERTEX
  5
C65D
100
AcDbEntity
  8
TEXTE
100
AcDbVertex
100
AcDb2dVertex
 10
38.985278
 20
91.259319
 30
0.0
  0
VERTEX
  5
C65E
100
AcDbEntity
  8
TEXTE
100
AcDbVertex
100
AcDb2dVertex
 10
38.974594
 20
90.870407
 30
0.0
  0
VERTEX
  5
C65F
100
AcDbEntity
  8
TEXTE
100
AcDbVertex
100
AcDb2dVertex
 10
38.962397
 20
90.481413
 30
0.0
  0
VERTEX
  5
C660
100
AcDbEntity
  8
TEXTE
100
AcDbVertex
100
AcDb2dVertex
 10
38.948688
 20
90.092346
 30
0.0
  0
VERTEX
  5
C661
100
AcDbEntity
  8
TEXTE
100
AcDbVertex
100
AcDb2dVertex
 10
38.933465
 20
89.703205
 30
0.0
  0
VERTEX
  5
C662
100
AcDbEntity
  8
TEXTE
100
AcDbVertex
100
AcDb2dVertex
 10
38.91673
 20
89.313986
 30
0.0
  0
SEQEND
  5
C663
100
AcDbEntity
  8
TEXTE
  0
POLYLINE
  5
C23D
100
AcDbEntity
  8
TEXTE
100
AcDb2dPolyline
 66
     1
 10
0.0
 20
0.0
 30
0.0
  0
VERTEX
  5
C664
100
AcDbEntity
  8
TEXTE
100
AcDbVertex
100
AcDb2dVertex
 10
37.798908
 20
92.813986
 30
0.0
  0
VERTEX
  5
C665
100
AcDbEntity
  8
TEXTE
100
AcDbVertex
100
AcDb2dVertex
 10
37.950719
 20
92.31358
 30
0.0
  0
VERTEX
  5
C666
100
AcDbEntity
  8
TEXTE
100
AcDbVertex
100
AcDb2dVertex
 10
38.101577
 20
91.814756
 30
0.0
  0
VERTEX
  5
C667
100
AcDbEntity
  8
TEXTE
100
AcDbVertex
100
AcDb2dVertex
 10
38.251477
 20
91.317513
 30
0.0
  0
VERTEX
  5
C668
100
AcDbEntity
  8
TEXTE
100
AcDbVertex
100
AcDb2dVertex
 10
38.400414
 20
90.82185
 30
0.0
  0
VERTEX
  5
C669
100
AcDbEntity
  8
TEXTE
100
AcDbVertex
100
AcDb2dVertex
 10
38.548384
 20
90.327767
 30
0.0
  0
VERTEX
  5
C66A
100
AcDbEntity
  8
TEXTE
100
AcDbVertex
100
AcDb2dVertex
 10
38.695381
 20
89.835262
 30
0.0
  0
SEQEND
  5
C66B
100
AcDbEntity
  8
TEXTE
  0
POLYLINE
  5
C23E
100
AcDbEntity
  8
TEXTE
100
AcDb2dPolyline
 66
     1
 10
0.0
 20
0.0
 30
0.0
  0
VERTEX
  5
C66C
100
AcDbEntity
  8
TEXTE
100
AcDbVertex
100
AcDb2dVertex
 10
38.553556
 20
89.313986
 30
0.0
  0
VERTEX
  5
C66D
100
AcDbEntity
  8
TEXTE
100
AcDbVertex
100
AcDb2dVertex
 10
38.411284
 20
89.818211
 30
0.0
  0
VERTEX
  5
C66E
100
AcDbEntity
  8
TEXTE
100
AcDbVertex
100
AcDb2dVertex
 10
38.26782
 20
90.324291
 30
0.0
  0
VERTEX
  5
C66F
100
AcDbEntity
  8
TEXTE
100
AcDbVertex
100
AcDb2dVertex
 10
38.123169
 20
90.832228
 30
0.0
  0
VERTEX
  5
C670
100
AcDbEntity
  8
TEXTE
100
AcDbVertex
100
AcDb2dVertex
 10
37.977339
 20
91.34202
 30
0.0
  0
VERTEX
  5
C671
100
AcDbEntity
  8
TEXTE
100
AcDbVertex
100
AcDb2dVertex
 10
37.830333
 20
91.85367
 30
0.0
  0
VERTEX
  5
C672
100
AcDbEntity
  8
TEXTE
100
AcDbVertex
100
AcDb2dVertex
 10
37.682157
 20
92.367177
 30
0.0
  0
SEQEND
  5
C673
100
AcDbEntity
  8
TEXTE
  0
LINE
  5
C23F
100
AcDbEntity
  8
TEXTE
100
AcDbLine
 10
37.098818
 20
89.537405
 30
0.0
 11
37.089619
 21
89.313986
 31
0.0
  0
LINE
  5
C240
100
AcDbEntity
  8
TEXTE
100
AcDbLine
 10
37.107548
 20
89.760794
 30
0.0
 11
37.098818
 21
89.537405
 31
0.0
  0
LINE
  5
C241
100
AcDbEntity
  8
TEXTE
100
AcDbLine
 10
37.010976
 20
91.175697
 30
0.0
 11
37.005236
 21
90.952284
 31
0.0
  0
LINE
  5
C242
100
AcDbEntity
  8
TEXTE
100
AcDbLine
 10
37.016249
 20
91.399092
 30
0.0
 11
37.010976
 21
91.175697
 31
0.0
  0
POLYLINE
  5
C243
100
AcDbEntity
  8
TEXTE
100
AcDb2dPolyline
 66
     1
 10
0.0
 20
0.0
 30
0.0
  0
VERTEX
  5
C674
100
AcDbEntity
  8
TEXTE
100
AcDbVertex
100
AcDb2dVertex
 10
37.682157
 20
92.367177
 30
0.0
  0
VERTEX
  5
C675
100
AcDbEntity
  8
TEXTE
100
AcDbVertex
100
AcDb2dVertex
 10
37.676925
 20
92.028166
 30
0.0
  0
VERTEX
  5
C676
100
AcDbEntity
  8
TEXTE
100
AcDbVertex
100
AcDb2dVertex
 10
37.670594
 20
91.689094
 30
0.0
  0
VERTEX
  5
C677
100
AcDbEntity
  8
TEXTE
100
AcDbVertex
100
AcDb2dVertex
 10
37.663165
 20
91.349959
 30
0.0
  0
VERTEX
  5
C678
100
AcDbEntity
  8
TEXTE
100
AcDbVertex
100
AcDb2dVertex
 10
37.654637
 20
91.01076
 30
0.0
  0
VERTEX
  5
C679
100
AcDbEntity
  8
TEXTE
100
AcDbVertex
100
AcDb2dVertex
 10
37.645009
 20
90.671502
 30
0.0
  0
VERTEX
  5
C67A
100
AcDbEntity
  8
TEXTE
100
AcDbVertex
100
AcDb2dVertex
 10
37.634281
 20
90.332193
 30
0.0
  0
VERTEX
  5
C67B
100
AcDbEntity
  8
TEXTE
100
AcDbVertex
100
AcDb2dVertex
 10
37.622455
 20
89.992838
 30
0.0
  0
VERTEX
  5
C67C
100
AcDbEntity
  8
TEXTE
100
AcDbVertex
100
AcDb2dVertex
 10
37.609528
 20
89.653436
 30
0.0
  0
VERTEX
  5
C67D
100
AcDbEntity
  8
TEXTE
100
AcDbVertex
100
AcDb2dVertex
 10
37.595502
 20
89.313986
 30
0.0
  0
SEQEND
  5
C67E
100
AcDbEntity
  8
TEXTE
  0
LINE
  5
C244
100
AcDbEntity
  8
TEXTE
100
AcDbLine
 10
37.595502
 20
89.313986
 30
0.0
 11
37.376106
 21
89.313986
 31
0.0
  0
LINE
  5
C245
100
AcDbEntity
  8
TEXTE
100
AcDbLine
 10
38.91673
 20
89.313986
 30
0.0
 11
38.553557
 21
89.313986
 31
0.0
  0
POLYLINE
  5
C246
100
AcDbEntity
  8
ALPHA
100
AcDb2dPolyline
 66
     1
 10
0.0
 20
0.0
 30
0.0
  0
VERTEX
  5
C67F
100
AcDbEntity
  8
ALPHA
100
AcDbVertex
100
AcDb2dVertex
 10
39.983931
 20
96.813986
 30
0.0
  0
VERTEX
  5
C680
100
AcDbEntity
  8
ALPHA
100
AcDbVertex
100
AcDb2dVertex
 10
38.766358
 20
96.024199
 30
0.0
  0
VERTEX
  5
C681
100
AcDbEntity
  8
ALPHA
100
AcDbVertex
100
AcDb2dVertex
 10
37.587345
 20
95.190717
 30
0.0
  0
VERTEX
  5
C682
100
AcDbEntity
  8
ALPHA
100
AcDbVertex
100
AcDb2dVertex
 10
36.451126
 20
94.313986
 30
0.0
  0
SEQEND
  5
C683
100
AcDbEntity
  8
ALPHA
  0
LINE
  5
C247
100
AcDbEntity
  8
TEXTE
100
AcDbLine
 10
37.179952
 20
92.813986
 30
0.0
 11
37.177621
 21
92.590585
 31
0.0
  0
POLYLINE
  5
C248
100
AcDbEntity
  8
ALPHA
100
AcDb2dPolyline
 66
     1
 10
0.0
 20
0.0
 30
0.0
  0
VERTEX
  5
C684
100
AcDbEntity
  8
ALPHA
100
AcDbVertex
100
AcDb2dVertex
 10
36.451126
 20
94.313986
 30
0.0
  0
VERTEX
  5
C685
100
AcDbEntity
  8
ALPHA
100
AcDbVertex
100
AcDb2dVertex
 10
36.446851
 20
94.897263
 30
0.0
  0
VERTEX
  5
C686
100
AcDbEntity
  8
ALPHA
100
AcDbVertex
100
AcDb2dVertex
 10
36.439427
 20
95.480588
 30
0.0
  0
VERTEX
  5
C687
100
AcDbEntity
  8
ALPHA
100
AcDbVertex
100
AcDb2dVertex
 10
36.428852
 20
96.063986
 30
0.0
  0
SEQEND
  5
C688
100
AcDbEntity
  8
ALPHA
  0
LINE
  5
C249
100
AcDbEntity
  8
ALPHA
100
AcDbLine
 10
36.828809
 20
94.313986
 30
0.0
 11
36.451126
 21
94.313986
 31
0.0
  0
LINE
  5
C24A
100
AcDbEntity
  8
TEXTE
100
AcDbLine
 10
37.467306
 20
92.813986
 30
0.0
 11
37.798907
 21
92.813986
 31
0.0
  0
LINE
  5
C24B
100
AcDbEntity
  8
TEXTE
100
AcDbLine
 10
38.768844
 20
92.813986
 30
0.0
 11
39.012896
 21
92.813986
 31
0.0
  0
ARC
  5
C24C
100
AcDbEntity
  8
ALPHA
100
AcDbCircle
 10
29.720237
 20
102.888986
 30
0.0
 40
1.425
100
AcDbArc
 50
90.0
 51
183.786772
  0
LINE
  5
C24D
100
AcDbEntity
  8
ALPHA
100
AcDbLine
 10
36.689678
 20
99.313986
 30
0.0
 11
36.312329
 21
99.313986
 31
0.0
  0
LINE
  5
C24E
100
AcDbEntity
  8
ALPHA
100
AcDbLine
 10
33.795237
 20
248.936612
 30
0.0
 11
33.795237
 21
214.513986
 31
0.0
  0
ARC
  5
C24F
100
AcDbEntity
  8
ALPHA
100
AcDbCircle
 10
29.745237
 20
213.063986
 30
0.0
 40
1.45
100
AcDbArc
 50
90.0
 51
189.554216
  0
ARC
  5
C250
100
AcDbEntity
  8
ALPHA
100
AcDbCircle
 10
-6.199164
 20
207.013986
 30
0.0
 40
35.0
100
AcDbArc
 50
350.445784
 51
9.554216
  0
ARC
  5
C251
100
AcDbEntity
  8
ALPHA
100
AcDbCircle
 10
29.745237
 20
200.963986
 30
0.0
 40
1.45
100
AcDbArc
 50
170.445784
 51
270.0
  0
ARC
  5
C252
100
AcDbEntity
  8
ALPHA
100
AcDbCircle
 10
66.295237
 20
219.889237
 30
0.0
 40
45.0
100
AcDbArc
 50
92.278622
 51
133.432537
  0
ARC
  5
C253
100
AcDbEntity
  8
ALPHA
100
AcDbCircle
 10
38.795237
 20
248.936612
 30
0.0
 40
5.0
100
AcDbArc
 50
133.432537
 51
180.0
  0
LINE
  5
C254
100
AcDbEntity
  8
ALPHA
100
AcDbLine
 10
64.545843
 20
264.854446
 30
0.0
 11
68.044632
 21
264.854446
 31
0.0
  0
LINE
  5
C255
100
AcDbEntity
  8
ALPHA
100
AcDbLine
 10
64.506084
 20
264.853655
 30
0.0
 11
68.084391
 21
264.853655
 31
0.0
  0
LINE
  5
C256
100
AcDbEntity
  8
ALPHA
100
AcDbLine
 10
64.506084
 20
264.853655
 30
0.0
 11
64.545843
 21
264.854446
 31
0.0
  0
LINE
  5
C257
100
AcDbEntity
  8
ALPHA
100
AcDbLine
 10
68.084391
 20
264.853655
 30
0.0
 11
68.044632
 21
264.854446
 31
0.0
  0
LINE
  5
C258
100
AcDbEntity
  8
ALPHA
100
AcDbLine
 10
101.295237
 20
199.513986
 30
0.0
 11
101.295237
 21
111.296911
 31
0.0
  0
LINE
  5
C259
100
AcDbEntity
  8
ALPHA
100
AcDbLine
 10
103.245237
 20
37.705851
 30
0.0
 11
103.245237
 21
62.72212
 31
0.0
  0
LINE
  5
C25A
100
AcDbEntity
  8
ALPHA
100
AcDbLine
 10
103.036811
 20
37.50556
 30
0.0
 11
103.036811
 21
62.922411
 31
0.0
  0
LINE
  5
C25B
100
AcDbEntity
  8
ALPHA
100
AcDbLine
 10
101.599339
 20
36.213986
 30
0.0
 11
101.599339
 21
64.213986
 31
0.0
  0
LINE
  5
C25C
100
AcDbEntity
  8
ALPHA
100
AcDbLine
 10
101.245237
 20
35.513986
 30
0.0
 11
101.245237
 21
66.013986
 31
0.0
  0
LINE
  5
C25D
100
AcDbEntity
  8
ALPHA
100
AcDbLine
 10
103.245314
 20
37.714062
 30
0.0
 11
101.745237
 21
36.213986
 31
0.0
  0
LINE
  5
C25E
100
AcDbEntity
  8
ALPHA
100
AcDbLine
 10
101.245237
 20
35.513986
 30
0.0
 11
99.245237
 21
33.513986
 31
0.0
  0
LINE
  5
C25F
100
AcDbEntity
  8
ALPHA
100
AcDbLine
 10
101.232324
 20
38.703986
 30
0.0
 11
101.232324
 21
37.863986
 31
0.0
  0
LINE
  5
C260
100
AcDbEntity
  8
ALPHA
100
AcDbLine
 10
101.232324
 20
39.763986
 30
0.0
 11
101.232324
 21
38.923986
 31
0.0
  0
LINE
  5
C261
100
AcDbEntity
  8
ALPHA
100
AcDbLine
 10
101.545237
 20
36.213986
 30
0.0
 11
101.245237
 21
36.513986
 31
0.0
  0
LINE
  5
C262
100
AcDbEntity
  8
ALPHA
100
AcDbLine
 10
101.245237
 20
38.923986
 30
0.0
 11
101.232324
 21
38.923986
 31
0.0
  0
LINE
  5
C263
100
AcDbEntity
  8
ALPHA
100
AcDbLine
 10
101.245237
 20
38.813986
 30
0.0
 11
101.232324
 21
38.813986
 31
0.0
  0
LINE
  5
C264
100
AcDbEntity
  8
ALPHA
100
AcDbLine
 10
101.245237
 20
38.703986
 30
0.0
 11
101.232324
 21
38.703986
 31
0.0
  0
LINE
  5
C265
100
AcDbEntity
  8
ALPHA
100
AcDbLine
 10
101.545237
 20
36.213986
 30
0.0
 11
101.745237
 21
36.213986
 31
0.0
  0
LINE
  5
C266
100
AcDbEntity
  8
ALPHA
100
AcDbLine
 10
101.232324
 20
45.463986
 30
0.0
 11
101.232324
 21
43.563986
 31
0.0
  0
LINE
  5
C267
100
AcDbEntity
  8
ALPHA
100
AcDbLine
 10
101.232324
 20
51.163986
 30
0.0
 11
101.232324
 21
49.263986
 31
0.0
  0
POLYLINE
  5
C268
100
AcDbEntity
  8
ALPHA
100
AcDb2dPolyline
 66
     1
 10
0.0
 20
0.0
 30
0.0
  0
VERTEX
  5
C689
100
AcDbEntity
  8
ALPHA
100
AcDbVertex
100
AcDb2dVertex
 10
93.121241
 20
96.813986
 30
0.0
  0
VERTEX
  5
C68A
100
AcDbEntity
  8
ALPHA
100
AcDbVertex
100
AcDb2dVertex
 10
94.357179
 20
97.601141
 30
0.0
  0
VERTEX
  5
C68B
100
AcDbEntity
  8
ALPHA
100
AcDbVertex
100
AcDb2dVertex
 10
95.552752
 20
98.434566
 30
0.0
  0
VERTEX
  5
C68C
100
AcDbEntity
  8
ALPHA
100
AcDbVertex
100
AcDb2dVertex
 10
96.703607
 20
99.313986
 30
0.0
  0
SEQEND
  5
C68D
100
AcDbEntity
  8
ALPHA
  0
POLYLINE
  5
C269
100
AcDbEntity
  8
ALPHA
100
AcDb2dPolyline
 66
     1
 10
0.0
 20
0.0
 30
0.0
  0
VERTEX
  5
C68E
100
AcDbEntity
  8
ALPHA
100
AcDbVertex
100
AcDb2dVertex
 10
93.548973
 20
96.813986
 30
0.0
  0
VERTEX
  5
C68F
100
AcDbEntity
  8
ALPHA
100
AcDbVertex
100
AcDb2dVertex
 10
94.767675
 20
97.602284
 30
0.0
  0
VERTEX
  5
C690
100
AcDbEntity
  8
ALPHA
100
AcDbVertex
100
AcDb2dVertex
 10
95.946406
 20
98.435715
 30
0.0
  0
VERTEX
  5
C691
100
AcDbEntity
  8
ALPHA
100
AcDbVertex
100
AcDb2dVertex
 10
97.080956
 20
99.313986
 30
0.0
  0
SEQEND
  5
C692
100
AcDbEntity
  8
ALPHA
  0
POLYLINE
  5
C26A
100
AcDbEntity
  8
ALPHA
100
AcDb2dPolyline
 66
     1
 10
0.0
 20
0.0
 30
0.0
  0
VERTEX
  5
C693
100
AcDbEntity
  8
ALPHA
100
AcDbVertex
100
AcDb2dVertex
 10
104.031287
 20
102.613986
 30
0.0
  0
VERTEX
  5
C694
100
AcDbEntity
  8
ALPHA
100
AcDbVertex
100
AcDb2dVertex
 10
103.938008
 20
101.048123
 30
0.0
  0
VERTEX
  5
C695
100
AcDbEntity
  8
ALPHA
100
AcDbVertex
100
AcDb2dVertex
 10
103.862954
 20
99.481375
 30
0.0
  0
VERTEX
  5
C696
100
AcDbEntity
  8
ALPHA
100
AcDbVertex
100
AcDb2dVertex
 10
103.806135
 20
97.913986
 30
0.0
  0
SEQEND
  5
C697
100
AcDbEntity
  8
ALPHA
  0
LINE
  5
C26B
100
AcDbEntity
  8
ALPHA
100
AcDbLine
 10
104.655237
 20
102.413986
 30
0.0
 11
104.655237
 21
97.613986
 31
0.0
  0
LINE
  5
C26C
100
AcDbEntity
  8
ALPHA
100
AcDbLine
 10
104.40945
 20
102.413986
 30
0.0
 11
104.40945
 21
97.613986
 31
0.0
  0
POLYLINE
  5
C26D
100
AcDbEntity
  8
ALPHA
100
AcDb2dPolyline
 66
     1
 10
0.0
 20
0.0
 30
0.0
  0
VERTEX
  5
C698
100
AcDbEntity
  8
ALPHA
100
AcDbVertex
100
AcDb2dVertex
 10
97.080956
 20
99.313986
 30
0.0
  0
VERTEX
  5
C699
100
AcDbEntity
  8
ALPHA
100
AcDbVertex
100
AcDb2dVertex
 10
97.052844
 20
98.730448
 30
0.0
  0
VERTEX
  5
C69A
100
AcDbEntity
  8
ALPHA
100
AcDbVertex
100
AcDb2dVertex
 10
97.027885
 20
98.147123
 30
0.0
  0
VERTEX
  5
C69B
100
AcDbEntity
  8
ALPHA
100
AcDbVertex
100
AcDb2dVertex
 10
97.006079
 20
97.563986
 30
0.0
  0
SEQEND
  5
C69C
100
AcDbEntity
  8
ALPHA
  0
LINE
  5
C26E
100
AcDbEntity
  8
ALPHA
100
AcDbLine
 10
90.616958
 20
83.326388
 30
0.0
 11
83.808188
 21
83.326388
 31
0.0
  0
POLYLINE
  5
C26F
100
AcDbEntity
  8
ALPHA
100
AcDb2dPolyline
 66
     1
 10
0.0
 20
0.0
 30
0.0
  0
VERTEX
  5
C69D
100
AcDbEntity
  8
ALPHA
100
AcDbVertex
100
AcDb2dVertex
 10
83.808188
 20
83.326388
 30
0.0
  0
VERTEX
  5
C69E
100
AcDbEntity
  8
ALPHA
100
AcDbVertex
100
AcDb2dVertex
 10
83.738346
 20
83.317099
 30
0.0
  0
VERTEX
  5
C69F
100
AcDbEntity
  8
ALPHA
100
AcDbVertex
100
AcDb2dVertex
 10
83.667978
 20
83.313986
 30
0.0
  0
SEQEND
  5
C6A0
100
AcDbEntity
  8
ALPHA
  0
LINE
  5
C270
100
AcDbEntity
  8
ALPHA
100
AcDbLine
 10
101.245237
 20
75.663986
 30
0.0
 11
101.245237
 21
75.013986
 31
0.0
  0
LINE
  5
C271
100
AcDbEntity
  8
ALPHA
100
AcDbLine
 10
101.745237
 20
64.213986
 30
0.0
 11
103.245314
 21
62.713909
 31
0.0
  0
LINE
  5
C272
100
AcDbEntity
  8
ALPHA
100
AcDbLine
 10
101.232324
 20
56.863986
 30
0.0
 11
101.232324
 21
54.963986
 31
0.0
  0
LINE
  5
C273
100
AcDbEntity
  8
ALPHA
100
AcDbLine
 10
101.232324
 20
61.503986
 30
0.0
 11
101.232324
 21
60.663986
 31
0.0
  0
LINE
  5
C274
100
AcDbEntity
  8
ALPHA
100
AcDbLine
 10
101.232324
 20
62.563986
 30
0.0
 11
101.232324
 21
61.723986
 31
0.0
  0
LINE
  5
C275
100
AcDbEntity
  8
ALPHA
100
AcDbLine
 10
101.245237
 20
61.723986
 30
0.0
 11
101.232324
 21
61.723986
 31
0.0
  0
LINE
  5
C276
100
AcDbEntity
  8
ALPHA
100
AcDbLine
 10
101.245237
 20
61.613986
 30
0.0
 11
101.232324
 21
61.613986
 31
0.0
  0
LINE
  5
C277
100
AcDbEntity
  8
ALPHA
100
AcDbLine
 10
101.245237
 20
61.503986
 30
0.0
 11
101.232324
 21
61.503986
 31
0.0
  0
ARC
  5
C278
100
AcDbEntity
  8
ALPHA
100
AcDbCircle
 10
96.345237
 20
70.513986
 30
0.0
 40
6.472248
100
AcDbArc
 50
4.43068
 51
31.812037
  0
ARC
  5
C279
100
AcDbEntity
  8
ALPHA
100
AcDbCircle
 10
96.345237
 20
70.513986
 30
0.0
 40
6.472248
100
AcDbArc
 50
328.187963
 51
355.56932
  0
LINE
  5
C27A
100
AcDbEntity
  8
ALPHA
100
AcDbLine
 10
101.724262
 20
74.163108
 30
0.0
 11
101.724262
 21
66.864863
 31
0.0
  0
LINE
  5
C27B
100
AcDbEntity
  8
ALPHA
100
AcDbLine
 10
101.062228
 20
73.23856
 30
0.0
 11
101.062228
 21
67.78942
 31
0.0
  0
POLYLINE
  5
C27C
100
AcDbEntity
  8
ALPHA
100
AcDb2dPolyline
 66
     1
 10
0.0
 20
0.0
 30
0.0
  0
VERTEX
  5
C6A1
100
AcDbEntity
  8
ALPHA
100
AcDbVertex
100
AcDb2dVertex
 10
101.190314
 20
66.462578
 30
0.0
  0
VERTEX
  5
C6A2
100
AcDbEntity
  8
ALPHA
100
AcDbVertex
100
AcDb2dVertex
 10
101.131934
 20
67.000733
 30
0.0
  0
VERTEX
  5
C6A3
100
AcDbEntity
  8
ALPHA
100
AcDbVertex
100
AcDb2dVertex
 10
101.068314
 20
67.700733
 30
0.0
  0
VERTEX
  5
C6A4
100
AcDbEntity
  8
ALPHA
100
AcDbVertex
100
AcDb2dVertex
 10
101.009455
 20
68.558368
 30
0.0
  0
VERTEX
  5
C6A5
100
AcDbEntity
  8
ALPHA
100
AcDbVertex
100
AcDb2dVertex
 10
100.968553
 20
69.520841
 30
0.0
  0
VERTEX
  5
C6A6
100
AcDbEntity
  8
ALPHA
100
AcDbVertex
100
AcDb2dVertex
 10
100.954327
 20
70.513546
 30
0.0
  0
VERTEX
  5
C6A7
100
AcDbEntity
  8
ALPHA
100
AcDbVertex
100
AcDb2dVertex
 10
100.968553
 20
71.50711
 30
0.0
  0
VERTEX
  5
C6A8
100
AcDbEntity
  8
ALPHA
100
AcDbVertex
100
AcDb2dVertex
 10
101.009505
 20
72.47049
 30
0.0
  0
VERTEX
  5
C6A9
100
AcDbEntity
  8
ALPHA
100
AcDbVertex
100
AcDb2dVertex
 10
101.068318
 20
73.327288
 30
0.0
  0
VERTEX
  5
C6AA
100
AcDbEntity
  8
ALPHA
100
AcDbVertex
100
AcDb2dVertex
 10
101.131892
 20
74.026824
 30
0.0
  0
SEQEND
  5
C6AB
100
AcDbEntity
  8
ALPHA
  0
ARC
  5
C27D
100
AcDbEntity
  8
ALPHA
100
AcDbCircle
 10
101.062228
 20
67.313986
 30
0.0
 40
0.8
100
AcDbArc
 50
278.745382
 51
325.847085
  0
LINE
  5
C27E
100
AcDbEntity
  8
ALPHA
100
AcDbLine
 10
101.545237
 20
64.213986
 30
0.0
 11
101.245237
 21
63.913986
 31
0.0
  0
LINE
  5
C27F
100
AcDbEntity
  8
ALPHA
100
AcDbLine
 10
101.845237
 20
67.049884
 30
0.0
 11
101.724262
 21
66.864863
 31
0.0
  0
LINE
  5
C280
100
AcDbEntity
  8
ALPHA
100
AcDbLine
 10
101.845237
 20
67.049884
 30
0.0
 11
101.845237
 21
67.102241
 31
0.0
  0
POLYLINE
  5
C281
100
AcDbEntity
  8
ALPHA
100
AcDb2dPolyline
 66
     1
 10
0.0
 20
0.0
 30
0.0
  0
VERTEX
  5
C6AC
100
AcDbEntity
  8
ALPHA
100
AcDbVertex
100
AcDb2dVertex
 10
101.245237
 20
66.013986
 30
0.0
  0
VERTEX
  5
C6AD
100
AcDbEntity
  8
ALPHA
100
AcDbVertex
100
AcDb2dVertex
 10
101.231071
 20
66.125363
 30
0.0
  0
VERTEX
  5
C6AE
100
AcDbEntity
  8
ALPHA
100
AcDbVertex
100
AcDb2dVertex
 10
101.190314
 20
66.462578
 30
0.0
  0
SEQEND
  5
C6AF
100
AcDbEntity
  8
ALPHA
  0
LINE
  5
C282
100
AcDbEntity
  8
ALPHA
100
AcDbLine
 10
101.545237
 20
64.213986
 30
0.0
 11
101.745237
 21
64.213986
 31
0.0
  0
ARC
  5
C283
100
AcDbEntity
  8
ALPHA
100
AcDbCircle
 10
101.062228
 20
73.713986
 30
0.0
 40
0.8
100
AcDbArc
 50
34.152915
 51
81.254331
  0
POLYLINE
  5
C284
100
AcDbEntity
  8
ALPHA
100
AcDb2dPolyline
 66
     1
 10
0.0
 20
0.0
 30
0.0
  0
VERTEX
  5
C6B0
100
AcDbEntity
  8
ALPHA
100
AcDbVertex
100
AcDb2dVertex
 10
101.131892
 20
74.026824
 30
0.0
  0
VERTEX
  5
C6B1
100
AcDbEntity
  8
ALPHA
100
AcDbVertex
100
AcDb2dVertex
 10
101.190377
 20
74.565936
 30
0.0
  0
VERTEX
  5
C6B2
100
AcDbEntity
  8
ALPHA
100
AcDbVertex
100
AcDb2dVertex
 10
101.231108
 20
74.902898
 30
0.0
  0
VERTEX
  5
C6B3
100
AcDbEntity
  8
ALPHA
100
AcDbVertex
100
AcDb2dVertex
 10
101.245237
 20
75.013986
 30
0.0
  0
SEQEND
  5
C6B4
100
AcDbEntity
  8
ALPHA
  0
LINE
  5
C285
100
AcDbEntity
  8
ALPHA
100
AcDbLine
 10
101.845237
 20
73.92573
 30
0.0
 11
101.845237
 21
73.978087
 31
0.0
  0
LINE
  5
C286
100
AcDbEntity
  8
ALPHA
100
AcDbLine
 10
101.845237
 20
73.978087
 30
0.0
 11
101.724262
 21
74.163108
 31
0.0
  0
POLYLINE
  5
C287
100
AcDbEntity
  8
ALPHA
100
AcDb2dPolyline
 66
     1
 10
0.0
 20
0.0
 30
0.0
  0
VERTEX
  5
C6B5
100
AcDbEntity
  8
ALPHA
100
AcDbVertex
100
AcDb2dVertex
 10
102.462389
 20
71.013986
 30
0.0
  0
VERTEX
  5
C6B6
100
AcDbEntity
  8
ALPHA
100
AcDbVertex
100
AcDb2dVertex
 10
102.47747
 20
70.68106
 30
0.0
  0
VERTEX
  5
C6B7
100
AcDbEntity
  8
ALPHA
100
AcDbVertex
100
AcDb2dVertex
 10
102.47747
 20
70.346911
 30
0.0
  0
VERTEX
  5
C6B8
100
AcDbEntity
  8
ALPHA
100
AcDbVertex
100
AcDb2dVertex
 10
102.462389
 20
70.013986
 30
0.0
  0
SEQEND
  5
C6B9
100
AcDbEntity
  8
ALPHA
  0
LINE
  5
C288
100
AcDbEntity
  8
ALPHA
100
AcDbLine
 10
102.462389
 20
71.013986
 30
0.0
 11
102.798144
 21
71.013986
 31
0.0
  0
LINE
  5
C289
100
AcDbEntity
  8
ALPHA
100
AcDbLine
 10
102.462389
 20
70.013986
 30
0.0
 11
102.798144
 21
70.013986
 31
0.0
  0
LINE
  5
C28A
100
AcDbEntity
  8
TEXTE
100
AcDbLine
 10
97.820538
 20
90.133135
 30
0.0
 11
97.772229
 21
89.835262
 31
0.0
  0
LINE
  5
C28B
100
AcDbEntity
  8
TEXTE
100
AcDbLine
 10
97.77491
 20
91.994837
 30
0.0
 11
97.810716
 21
91.622496
 31
0.0
  0
LINE
  5
C28C
100
AcDbEntity
  8
ALPHA
100
AcDbLine
 10
100.629978
 20
97.563986
 30
0.0
 11
97.006079
 21
97.563986
 31
0.0
  0
LINE
  5
C28D
100
AcDbEntity
  8
ALPHA
100
AcDbLine
 10
100.592899
 20
96.063986
 30
0.0
 11
96.964433
 21
96.063986
 31
0.0
  0
LINE
  5
C28E
100
AcDbEntity
  8
ALPHA
100
AcDbLine
 10
102.870227
 20
83.313986
 30
0.0
 11
90.616958
 21
83.313986
 31
0.0
  0
LINE
  5
C28F
100
AcDbEntity
  8
ALPHA
100
AcDbLine
 10
96.402379
 20
82.663986
 30
0.0
 11
101.545237
 21
82.663986
 31
0.0
  0
LINE
  5
C290
100
AcDbEntity
  8
ALPHA
100
AcDbLine
 10
101.545237
 20
82.163986
 30
0.0
 11
97.036089
 21
82.163986
 31
0.0
  0
LINE
  5
C291
100
AcDbEntity
  8
ALPHA
100
AcDbLine
 10
101.545237
 20
76.163986
 30
0.0
 11
97.036089
 21
76.163986
 31
0.0
  0
LINE
  5
C292
100
AcDbEntity
  8
ALPHA
100
AcDbLine
 10
96.402379
 20
75.663986
 30
0.0
 11
101.545237
 21
75.663986
 31
0.0
  0
LINE
  5
C293
100
AcDbEntity
  8
ALPHA
100
AcDbLine
 10
89.834208
 20
83.313986
 30
0.0
 11
89.827209
 21
83.326388
 31
0.0
  0
LINE
  5
C294
100
AcDbEntity
  8
ALPHA
100
AcDbLine
 10
89.834208
 20
83.313986
 30
0.0
 11
90.511164
 21
83.313986
 31
0.0
  0
POLYLINE
  5
C295
100
AcDbEntity
  8
ALPHA
100
AcDb2dPolyline
 66
     1
 10
0.0
 20
0.0
 30
0.0
  0
VERTEX
  5
C6BA
100
AcDbEntity
  8
ALPHA
100
AcDbVertex
100
AcDb2dVertex
 10
90.511164
 20
83.313986
 30
0.0
  0
VERTEX
  5
C6BB
100
AcDbEntity
  8
ALPHA
100
AcDbVertex
100
AcDb2dVertex
 10
90.564256
 20
83.317099
 30
0.0
  0
VERTEX
  5
C6BC
100
AcDbEntity
  8
ALPHA
100
AcDbVertex
100
AcDb2dVertex
 10
90.616958
 20
83.326388
 30
0.0
  0
SEQEND
  5
C6BD
100
AcDbEntity
  8
ALPHA
  0
LINE
  5
C296
100
AcDbEntity
  8
ALPHA
100
AcDbLine
 10
97.036089
 20
82.163986
 30
0.0
 11
97.036089
 21
76.163986
 31
0.0
  0
LINE
  5
C297
100
AcDbEntity
  8
ALPHA
100
AcDbLine
 10
96.750122
 20
82.663986
 30
0.0
 11
96.750122
 21
75.663986
 31
0.0
  0
LINE
  5
C298
100
AcDbEntity
  8
ALPHA
100
AcDbLine
 10
96.402379
 20
82.663986
 30
0.0
 11
96.402379
 21
75.663986
 31
0.0
  0
LINE
  5
C299
100
AcDbEntity
  8
TEXTE
100
AcDbLine
 10
93.556322
 20
92.739518
 30
0.0
 11
93.766362
 21
92.813986
 31
0.0
  0
LINE
  5
C29A
100
AcDbEntity
  8
TEXTE
100
AcDbLine
 10
93.771971
 20
92.367177
 30
0.0
 11
93.604756
 21
92.292709
 31
0.0
  0
POLYLINE
  5
C29B
100
AcDbEntity
  8
ALPHA
100
AcDb2dPolyline
 66
     1
 10
0.0
 20
0.0
 30
0.0
  0
VERTEX
  5
C6BE
100
AcDbEntity
  8
ALPHA
100
AcDbVertex
100
AcDb2dVertex
 10
96.94216
 20
94.313986
 30
0.0
  0
VERTEX
  5
C6BF
100
AcDbEntity
  8
ALPHA
100
AcDbVertex
100
AcDb2dVertex
 10
95.854903
 20
95.190717
 30
0.0
  0
VERTEX
  5
C6C0
100
AcDbEntity
  8
ALPHA
100
AcDbVertex
100
AcDb2dVertex
 10
94.722438
 20
96.024199
 30
0.0
  0
VERTEX
  5
C6C1
100
AcDbEntity
  8
ALPHA
100
AcDbVertex
100
AcDb2dVertex
 10
93.548973
 20
96.813986
 30
0.0
  0
SEQEND
  5
C6C2
100
AcDbEntity
  8
ALPHA
  0
POLYLINE
  5
C29C
100
AcDbEntity
  8
ALPHA
100
AcDb2dPolyline
 66
     1
 10
0.0
 20
0.0
 30
0.0
  0
VERTEX
  5
C6C3
100
AcDbEntity
  8
ALPHA
100
AcDbVertex
100
AcDb2dVertex
 10
96.564477
 20
94.313986
 30
0.0
  0
VERTEX
  5
C6C4
100
AcDbEntity
  8
ALPHA
100
AcDbVertex
100
AcDb2dVertex
 10
95.461035
 20
95.191855
 30
0.0
  0
VERTEX
  5
C6C5
100
AcDbEntity
  8
ALPHA
100
AcDbVertex
100
AcDb2dVertex
 10
94.311838
 20
96.025332
 30
0.0
  0
VERTEX
  5
C6C6
100
AcDbEntity
  8
ALPHA
100
AcDbVertex
100
AcDb2dVertex
 10
93.121241
 20
96.813986
 30
0.0
  0
SEQEND
  5
C6C7
100
AcDbEntity
  8
ALPHA
  0
LINE
  5
C29D
100
AcDbEntity
  8
TEXTE
100
AcDbLine
 10
93.674509
 20
89.835262
 30
0.0
 11
93.845482
 21
89.760794
 31
0.0
  0
LINE
  5
C29E
100
AcDbEntity
  8
TEXTE
100
AcDbLine
 10
93.865068
 20
89.313986
 30
0.0
 11
93.651584
 21
89.388453
 31
0.0
  0
LINE
  5
C29F
100
AcDbEntity
  8
TEXTE
100
AcDbLine
 10
93.217683
 20
92.292709
 30
0.0
 11
93.386897
 21
92.590582
 31
0.0
  0
LINE
  5
C2A0
100
AcDbEntity
  8
TEXTE
100
AcDbLine
 10
93.604756
 20
92.292709
 30
0.0
 11
93.479487
 21
92.143773
 31
0.0
  0
LINE
  5
C2A1
100
AcDbEntity
  8
TEXTE
100
AcDbLine
 10
93.479487
 20
92.143773
 30
0.0
 11
93.397771
 21
91.920369
 31
0.0
  0
LINE
  5
C2A2
100
AcDbEntity
  8
TEXTE
100
AcDbLine
 10
93.1353
 20
91.994837
 30
0.0
 11
93.217683
 21
92.292709
 31
0.0
  0
LINE
  5
C2A3
100
AcDbEntity
  8
TEXTE
100
AcDbLine
 10
93.397771
 20
91.920369
 30
0.0
 11
93.360977
 21
91.622496
 31
0.0
  0
POLYLINE
  5
C2A4
100
AcDbEntity
  8
TEXTE
100
AcDb2dPolyline
 66
     1
 10
0.0
 20
0.0
 30
0.0
  0
VERTEX
  5
C6C8
100
AcDbEntity
  8
TEXTE
100
AcDbVertex
100
AcDb2dVertex
 10
93.099143
 20
91.622496
 30
0.0
  0
VERTEX
  5
C6C9
100
AcDbEntity
  8
TEXTE
100
AcDbVertex
100
AcDb2dVertex
 10
93.126127
 20
91.901662
 30
0.0
  0
VERTEX
  5
C6CA
100
AcDbEntity
  8
TEXTE
100
AcDbVertex
100
AcDb2dVertex
 10
93.1353
 20
91.994837
 30
0.0
  0
SEQEND
  5
C6CB
100
AcDbEntity
  8
TEXTE
  0
POLYLINE
  5
C2A5
100
AcDbEntity
  8
TEXTE
100
AcDb2dPolyline
 66
     1
 10
0.0
 20
0.0
 30
0.0
  0
VERTEX
  5
C6CC
100
AcDbEntity
  8
TEXTE
100
AcDbVertex
100
AcDb2dVertex
 10
93.360977
 20
91.622496
 30
0.0
  0
VERTEX
  5
C6CD
100
AcDbEntity
  8
TEXTE
100
AcDbVertex
100
AcDb2dVertex
 10
93.365409
 20
91.43639
 30
0.0
  0
VERTEX
  5
C6CE
100
AcDbEntity
  8
TEXTE
100
AcDbVertex
100
AcDb2dVertex
 10
93.370204
 20
91.250257
 30
0.0
  0
VERTEX
  5
C6CF
100
AcDbEntity
  8
TEXTE
100
AcDbVertex
100
AcDb2dVertex
 10
93.375359
 20
91.064098
 30
0.0
  0
VERTEX
  5
C6D0
100
AcDbEntity
  8
TEXTE
100
AcDbVertex
100
AcDb2dVertex
 10
93.380877
 20
90.877914
 30
0.0
  0
VERTEX
  5
C6D1
100
AcDbEntity
  8
TEXTE
100
AcDbVertex
100
AcDb2dVertex
 10
93.386756
 20
90.691706
 30
0.0
  0
VERTEX
  5
C6D2
100
AcDbEntity
  8
TEXTE
100
AcDbVertex
100
AcDb2dVertex
 10
93.392996
 20
90.505475
 30
0.0
  0
SEQEND
  5
C6D3
100
AcDbEntity
  8
TEXTE
  0
LINE
  5
C2A6
100
AcDbEntity
  8
TEXTE
100
AcDbLine
 10
93.17457
 20
90.226325
 30
0.0
 11
93.131486
 21
90.505475
 31
0.0
  0
POLYLINE
  5
C2A7
100
AcDbEntity
  8
TEXTE
100
AcDb2dPolyline
 66
     1
 10
0.0
 20
0.0
 30
0.0
  0
VERTEX
  5
C6D4
100
AcDbEntity
  8
TEXTE
100
AcDbVertex
100
AcDb2dVertex
 10
93.131486
 20
90.505475
 30
0.0
  0
VERTEX
  5
C6D5
100
AcDbEntity
  8
TEXTE
100
AcDbVertex
100
AcDb2dVertex
 10
93.125182
 20
90.691712
 30
0.0
  0
VERTEX
  5
C6D6
100
AcDbEntity
  8
TEXTE
100
AcDbVertex
100
AcDb2dVertex
 10
93.119243
 20
90.877923
 30
0.0
  0
VERTEX
  5
C6D7
100
AcDbEntity
  8
TEXTE
100
AcDbVertex
100
AcDb2dVertex
 10
93.11367
 20
91.064108
 30
0.0
  0
VERTEX
  5
C6D8
100
AcDbEntity
  8
TEXTE
100
AcDbVertex
100
AcDb2dVertex
 10
93.108463
 20
91.250266
 30
0.0
  0
VERTEX
  5
C6D9
100
AcDbEntity
  8
TEXTE
100
AcDbVertex
100
AcDb2dVertex
 10
93.10362
 20
91.436396
 30
0.0
  0
VERTEX
  5
C6DA
100
AcDbEntity
  8
TEXTE
100
AcDbVertex
100
AcDb2dVertex
 10
93.099143
 20
91.622496
 30
0.0
  0
SEQEND
  5
C6DB
100
AcDbEntity
  8
TEXTE
  0
LINE
  5
C2A8
100
AcDbEntity
  8
TEXTE
100
AcDbLine
 10
93.189111
 20
90.133135
 30
0.0
 11
93.17457
 21
90.226325
 31
0.0
  0
LINE
  5
C2A9
100
AcDbEntity
  8
TEXTE
100
AcDbLine
 10
93.392996
 20
90.505475
 30
0.0
 11
93.446785
 21
90.207602
 31
0.0
  0
LINE
  5
C2AA
100
AcDbEntity
  8
TEXTE
100
AcDbLine
 10
93.288471
 20
89.835262
 30
0.0
 11
93.189111
 21
90.133135
 31
0.0
  0
LINE
  5
C2AB
100
AcDbEntity
  8
TEXTE
100
AcDbLine
 10
93.446785
 20
90.207602
 30
0.0
 11
93.541084
 21
89.984198
 31
0.0
  0
LINE
  5
C2AC
100
AcDbEntity
  8
TEXTE
100
AcDbLine
 10
93.47426
 20
89.53739
 30
0.0
 11
93.288471
 21
89.835262
 31
0.0
  0
LINE
  5
C2AD
100
AcDbEntity
  8
TEXTE
100
AcDbLine
 10
93.541084
 20
89.984198
 30
0.0
 11
93.674509
 21
89.835262
 31
0.0
  0
POLYLINE
  5
C2AE
100
AcDbEntity
  8
TEXTE
100
AcDb2dPolyline
 66
     1
 10
0.0
 20
0.0
 30
0.0
  0
VERTEX
  5
C6DC
100
AcDbEntity
  8
TEXTE
100
AcDbVertex
100
AcDb2dVertex
 10
93.651584
 20
89.388453
 30
0.0
  0
VERTEX
  5
C6DD
100
AcDbEntity
  8
TEXTE
100
AcDbVertex
100
AcDb2dVertex
 10
93.607293
 20
89.425821
 30
0.0
  0
VERTEX
  5
C6DE
100
AcDbEntity
  8
TEXTE
100
AcDbVertex
100
AcDb2dVertex
 10
93.47426
 20
89.53739
 30
0.0
  0
SEQEND
  5
C6DF
100
AcDbEntity
  8
TEXTE
  0
POLYLINE
  5
C2AF
100
AcDbEntity
  8
TEXTE
100
AcDb2dPolyline
 66
     1
 10
0.0
 20
0.0
 30
0.0
  0
VERTEX
  5
C6E0
100
AcDbEntity
  8
TEXTE
100
AcDbVertex
100
AcDb2dVertex
 10
93.386897
 20
92.590582
 30
0.0
  0
VERTEX
  5
C6E1
100
AcDbEntity
  8
TEXTE
100
AcDbVertex
100
AcDb2dVertex
 10
93.429297
 20
92.627687
 30
0.0
  0
VERTEX
  5
C6E2
100
AcDbEntity
  8
TEXTE
100
AcDbVertex
100
AcDb2dVertex
 10
93.556322
 20
92.739518
 30
0.0
  0
SEQEND
  5
C6E3
100
AcDbEntity
  8
TEXTE
  0
LINE
  5
C2B0
100
AcDbEntity
  8
ALPHA
100
AcDbLine
 10
93.121241
 20
96.813986
 30
0.0
 11
93.548973
 21
96.813986
 31
0.0
  0
LINE
  5
C2B1
100
AcDbEntity
  8
TEXTE
100
AcDbLine
 10
96.658331
 20
92.292709
 30
0.0
 11
96.784339
 21
92.590582
 31
0.0
  0
POLYLINE
  5
C2B2
100
AcDbEntity
  8
TEXTE
100
AcDb2dPolyline
 66
     1
 10
0.0
 20
0.0
 30
0.0
  0
VERTEX
  5
C6E4
100
AcDbEntity
  8
TEXTE
100
AcDbVertex
100
AcDb2dVertex
 10
95.22433
 20
92.813986
 30
0.0
  0
VERTEX
  5
C6E5
100
AcDbEntity
  8
TEXTE
100
AcDbVertex
100
AcDb2dVertex
 10
95.228187
 20
92.474965
 30
0.0
  0
VERTEX
  5
C6E6
100
AcDbEntity
  8
TEXTE
100
AcDbVertex
100
AcDb2dVertex
 10
95.233162
 20
92.135886
 30
0.0
  0
VERTEX
  5
C6E7
100
AcDbEntity
  8
TEXTE
100
AcDbVertex
100
AcDb2dVertex
 10
95.239256
 20
91.796746
 30
0.0
  0
VERTEX
  5
C6E8
100
AcDbEntity
  8
TEXTE
100
AcDbVertex
100
AcDb2dVertex
 10
95.24647
 20
91.457543
 30
0.0
  0
VERTEX
  5
C6E9
100
AcDbEntity
  8
TEXTE
100
AcDbVertex
100
AcDb2dVertex
 10
95.254803
 20
91.118285
 30
0.0
  0
VERTEX
  5
C6EA
100
AcDbEntity
  8
TEXTE
100
AcDbVertex
100
AcDb2dVertex
 10
95.264256
 20
90.778978
 30
0.0
  0
VERTEX
  5
C6EB
100
AcDbEntity
  8
TEXTE
100
AcDbVertex
100
AcDb2dVertex
 10
95.274829
 20
90.439628
 30
0.0
  0
VERTEX
  5
C6EC
100
AcDbEntity
  8
TEXTE
100
AcDbVertex
100
AcDb2dVertex
 10
95.286522
 20
90.100234
 30
0.0
  0
VERTEX
  5
C6ED
100
AcDbEntity
  8
TEXTE
100
AcDbVertex
100
AcDb2dVertex
 10
95.299335
 20
89.760794
 30
0.0
  0
SEQEND
  5
C6EE
100
AcDbEntity
  8
TEXTE
  0
POLYLINE
  5
C2B3
100
AcDbEntity
  8
TEXTE
100
AcDb2dPolyline
 66
     1
 10
0.0
 20
0.0
 30
0.0
  0
VERTEX
  5
C6EF
100
AcDbEntity
  8
TEXTE
100
AcDbVertex
100
AcDb2dVertex
 10
95.09384
 20
89.313986
 30
0.0
  0
VERTEX
  5
C6F0
100
AcDbEntity
  8
TEXTE
100
AcDbVertex
100
AcDb2dVertex
 10
95.077424
 20
89.703181
 30
0.0
  0
VERTEX
  5
C6F1
100
AcDbEntity
  8
TEXTE
100
AcDbVertex
100
AcDb2dVertex
 10
95.062492
 20
90.092305
 30
0.0
  0
VERTEX
  5
C6F2
100
AcDbEntity
  8
TEXTE
100
AcDbVertex
100
AcDb2dVertex
 10
95.049044
 20
90.481359
 30
0.0
  0
VERTEX
  5
C6F3
100
AcDbEntity
  8
TEXTE
100
AcDbVertex
100
AcDb2dVertex
 10
95.03708
 20
90.870347
 30
0.0
  0
VERTEX
  5
C6F4
100
AcDbEntity
  8
TEXTE
100
AcDbVertex
100
AcDb2dVertex
 10
95.0266
 20
91.259258
 30
0.0
  0
VERTEX
  5
C6F5
100
AcDbEntity
  8
TEXTE
100
AcDbVertex
100
AcDb2dVertex
 10
95.017603
 20
91.648082
 30
0.0
  0
VERTEX
  5
C6F6
100
AcDbEntity
  8
TEXTE
100
AcDbVertex
100
AcDb2dVertex
 10
95.010089
 20
92.03681
 30
0.0
  0
VERTEX
  5
C6F7
100
AcDbEntity
  8
TEXTE
100
AcDbVertex
100
AcDb2dVertex
 10
95.004058
 20
92.425443
 30
0.0
  0
VERTEX
  5
C6F8
100
AcDbEntity
  8
TEXTE
100
AcDbVertex
100
AcDb2dVertex
 10
94.999508
 20
92.813986
 30
0.0
  0
SEQEND
  5
C6F9
100
AcDbEntity
  8
TEXTE
  0
LINE
  5
C2B4
100
AcDbEntity
  8
TEXTE
100
AcDbLine
 10
97.58994
 20
92.590582
 30
0.0
 11
97.711884
 21
92.292709
 31
0.0
  0
POLYLINE
  5
C2B5
100
AcDbEntity
  8
TEXTE
100
AcDb2dPolyline
 66
     1
 10
0.0
 20
0.0
 30
0.0
  0
VERTEX
  5
C6FA
100
AcDbEntity
  8
TEXTE
100
AcDbVertex
100
AcDb2dVertex
 10
94.49986
 20
92.590582
 30
0.0
  0
VERTEX
  5
C6FB
100
AcDbEntity
  8
TEXTE
100
AcDbVertex
100
AcDb2dVertex
 10
94.620459
 20
92.367357
 30
0.0
  0
VERTEX
  5
C6FC
100
AcDbEntity
  8
TEXTE
100
AcDbVertex
100
AcDb2dVertex
 10
94.66064
 20
92.292709
 30
0.0
  0
SEQEND
  5
C6FD
100
AcDbEntity
  8
TEXTE
  0
LINE
  5
C2B6
100
AcDbEntity
  8
TEXTE
100
AcDbLine
 10
95.299335
 20
89.760794
 30
0.0
 11
96.359153
 21
89.760794
 31
0.0
  0
LINE
  5
C2B7
100
AcDbEntity
  8
TEXTE
100
AcDbLine
 10
96.377047
 20
89.313986
 30
0.0
 11
95.09384
 21
89.313986
 31
0.0
  0
POLYLINE
  5
C2B8
100
AcDbEntity
  8
TEXTE
100
AcDb2dPolyline
 66
     1
 10
0.0
 20
0.0
 30
0.0
  0
VERTEX
  5
C6FE
100
AcDbEntity
  8
TEXTE
100
AcDbVertex
100
AcDb2dVertex
 10
94.431904
 20
89.388453
 30
0.0
  0
VERTEX
  5
C6FF
100
AcDbEntity
  8
TEXTE
100
AcDbVertex
100
AcDb2dVertex
 10
94.284059
 20
89.332547
 30
0.0
  0
VERTEX
  5
C700
100
AcDbEntity
  8
TEXTE
100
AcDbVertex
100
AcDb2dVertex
 10
94.234582
 20
89.313986
 30
0.0
  0
SEQEND
  5
C701
100
AcDbEntity
  8
TEXTE
  0
LINE
  5
C2B9
100
AcDbEntity
  8
TEXTE
100
AcDbLine
 10
94.215264
 20
89.760794
 30
0.0
 11
94.373157
 21
89.835262
 31
0.0
  0
POLYLINE
  5
C2BA
100
AcDbEntity
  8
TEXTE
100
AcDb2dPolyline
 66
     1
 10
0.0
 20
0.0
 30
0.0
  0
VERTEX
  5
C702
100
AcDbEntity
  8
TEXTE
100
AcDbVertex
100
AcDb2dVertex
 10
94.583666
 20
89.53739
 30
0.0
  0
VERTEX
  5
C703
100
AcDbEntity
  8
TEXTE
100
AcDbVertex
100
AcDb2dVertex
 10
94.469893
 20
89.425574
 30
0.0
  0
VERTEX
  5
C704
100
AcDbEntity
  8
TEXTE
100
AcDbVertex
100
AcDb2dVertex
 10
94.431904
 20
89.388453
 30
0.0
  0
SEQEND
  5
C705
100
AcDbEntity
  8
TEXTE
  0
LINE
  5
C2BB
100
AcDbEntity
  8
TEXTE
100
AcDbLine
 10
94.373157
 20
89.835262
 30
0.0
 11
94.486667
 21
89.984198
 31
0.0
  0
LINE
  5
C2BC
100
AcDbEntity
  8
TEXTE
100
AcDbLine
 10
94.727712
 20
89.835262
 30
0.0
 11
94.583666
 21
89.53739
 31
0.0
  0
LINE
  5
C2BD
100
AcDbEntity
  8
TEXTE
100
AcDbLine
 10
94.486667
 20
89.984198
 30
0.0
 11
94.517895
 21
90.207602
 31
0.0
  0
LINE
  5
C2BE
100
AcDbEntity
  8
TEXTE
100
AcDbLine
 10
94.752486
 20
90.207602
 30
0.0
 11
94.727712
 21
89.835262
 31
0.0
  0
LINE
  5
C2BF
100
AcDbEntity
  8
TEXTE
100
AcDbLine
 10
94.66064
 20
92.292709
 30
0.0
 11
94.705803
 21
91.920369
 31
0.0
  0
LINE
  5
C2C0
100
AcDbEntity
  8
TEXTE
100
AcDbLine
 10
94.470809
 20
91.920369
 30
0.0
 11
94.427213
 21
92.143773
 31
0.0
  0
LINE
  5
C2C1
100
AcDbEntity
  8
TEXTE
100
AcDbLine
 10
94.427213
 20
92.143773
 30
0.0
 11
94.305206
 21
92.292709
 31
0.0
  0
LINE
  5
C2C2
100
AcDbEntity
  8
TEXTE
100
AcDbLine
 10
94.305206
 20
92.292709
 30
0.0
 11
94.142764
 21
92.367177
 31
0.0
  0
LINE
  5
C2C3
100
AcDbEntity
  8
TEXTE
100
AcDbLine
 10
94.142764
 20
92.367177
 30
0.0
 11
93.771971
 21
92.367177
 31
0.0
  0
LINE
  5
C2C4
100
AcDbEntity
  8
TEXTE
100
AcDbLine
 10
94.705803
 20
91.920369
 30
0.0
 11
94.470809
 21
91.920369
 31
0.0
  0
LINE
  5
C2C5
100
AcDbEntity
  8
TEXTE
100
AcDbLine
 10
94.517895
 20
90.207602
 30
0.0
 11
94.752486
 21
90.207602
 31
0.0
  0
LINE
  5
C2C6
100
AcDbEntity
  8
TEXTE
100
AcDbLine
 10
93.845482
 20
89.760794
 30
0.0
 11
94.215264
 21
89.760794
 31
0.0
  0
LINE
  5
C2C7
100
AcDbEntity
  8
TEXTE
100
AcDbLine
 10
94.234581
 20
89.313986
 30
0.0
 11
93.865068
 21
89.313986
 31
0.0
  0
POLYLINE
  5
C2C8
100
AcDbEntity
  8
TEXTE
100
AcDb2dPolyline
 66
     1
 10
0.0
 20
0.0
 30
0.0
  0
VERTEX
  5
C706
100
AcDbEntity
  8
TEXTE
100
AcDbVertex
100
AcDb2dVertex
 10
97.551573
 20
89.388453
 30
0.0
  0
VERTEX
  5
C707
100
AcDbEntity
  8
TEXTE
100
AcDbVertex
100
AcDb2dVertex
 10
97.440419
 20
89.332564
 30
0.0
  0
VERTEX
  5
C708
100
AcDbEntity
  8
TEXTE
100
AcDbVertex
100
AcDb2dVertex
 10
97.403188
 20
89.313986
 30
0.0
  0
SEQEND
  5
C709
100
AcDbEntity
  8
TEXTE
  0
LINE
  5
C2C9
100
AcDbEntity
  8
TEXTE
100
AcDbLine
 10
97.385907
 20
89.760794
 30
0.0
 11
97.504569
 21
89.835262
 31
0.0
  0
LINE
  5
C2CA
100
AcDbEntity
  8
TEXTE
100
AcDbLine
 10
97.073278
 20
92.367177
 30
0.0
 11
96.948077
 21
92.292709
 31
0.0
  0
POLYLINE
  5
C2CB
100
AcDbEntity
  8
TEXTE
100
AcDb2dPolyline
 66
     1
 10
0.0
 20
0.0
 30
0.0
  0
VERTEX
  5
C70A
100
AcDbEntity
  8
TEXTE
100
AcDbVertex
100
AcDb2dVertex
 10
97.665206
 20
89.53739
 30
0.0
  0
VERTEX
  5
C70B
100
AcDbEntity
  8
TEXTE
100
AcDbVertex
100
AcDb2dVertex
 10
97.580048
 20
89.425624
 30
0.0
  0
VERTEX
  5
C70C
100
AcDbEntity
  8
TEXTE
100
AcDbVertex
100
AcDb2dVertex
 10
97.551573
 20
89.388453
 30
0.0
  0
SEQEND
  5
C70D
100
AcDbEntity
  8
TEXTE
  0
LINE
  5
C2CC
100
AcDbEntity
  8
TEXTE
100
AcDbLine
 10
96.948077
 20
92.292709
 30
0.0
 11
96.854575
 21
92.143773
 31
0.0
  0
LINE
  5
C2CD
100
AcDbEntity
  8
TEXTE
100
AcDbLine
 10
97.504569
 20
89.835262
 30
0.0
 11
97.589394
 21
89.984198
 31
0.0
  0
LINE
  5
C2CE
100
AcDbEntity
  8
TEXTE
100
AcDbLine
 10
97.772229
 20
89.835262
 30
0.0
 11
97.665206
 21
89.53739
 31
0.0
  0
LINE
  5
C2CF
100
AcDbEntity
  8
TEXTE
100
AcDbLine
 10
96.854575
 20
92.143773
 30
0.0
 11
96.793961
 21
91.920369
 31
0.0
  0
LINE
  5
C2D0
100
AcDbEntity
  8
TEXTE
100
AcDbLine
 10
97.589394
 20
89.984198
 30
0.0
 11
97.641529
 21
90.207602
 31
0.0
  0
LINE
  5
C2D1
100
AcDbEntity
  8
TEXTE
100
AcDbLine
 10
96.597454
 20
91.994837
 30
0.0
 11
96.658331
 21
92.292709
 31
0.0
  0
LINE
  5
C2D2
100
AcDbEntity
  8
TEXTE
100
AcDbLine
 10
96.793961
 20
91.920369
 30
0.0
 11
96.767284
 21
91.622496
 31
0.0
  0
POLYLINE
  5
C2D3
100
AcDbEntity
  8
TEXTE
100
AcDb2dPolyline
 66
     1
 10
0.0
 20
0.0
 30
0.0
  0
VERTEX
  5
C70E
100
AcDbEntity
  8
TEXTE
100
AcDbVertex
100
AcDb2dVertex
 10
96.571493
 20
91.622496
 30
0.0
  0
VERTEX
  5
C70F
100
AcDbEntity
  8
TEXTE
100
AcDbVertex
100
AcDb2dVertex
 10
96.590847
 20
91.90169
 30
0.0
  0
VERTEX
  5
C710
100
AcDbEntity
  8
TEXTE
100
AcDbVertex
100
AcDb2dVertex
 10
96.597454
 20
91.994837
 30
0.0
  0
SEQEND
  5
C711
100
AcDbEntity
  8
TEXTE
  0
LINE
  5
C2D4
100
AcDbEntity
  8
TEXTE
100
AcDbLine
 10
97.641529
 20
90.207602
 30
0.0
 11
97.661967
 21
90.505475
 31
0.0
  0
LINE
  5
C2D5
100
AcDbEntity
  8
TEXTE
100
AcDbLine
 10
97.642384
 20
91.250196
 30
0.0
 11
97.634456
 21
91.622496
 31
0.0
  0
LINE
  5
C2D6
100
AcDbEntity
  8
TEXTE
100
AcDbLine
 10
96.767284
 20
91.622496
 30
0.0
 11
96.775446
 21
91.250205
 31
0.0
  0
LINE
  5
C2D7
100
AcDbEntity
  8
TEXTE
100
AcDbLine
 10
96.579709
 20
91.25021
 30
0.0
 11
96.571493
 21
91.622496
 31
0.0
  0
LINE
  5
C2D8
100
AcDbEntity
  8
TEXTE
100
AcDbLine
 10
97.651554
 20
90.877853
 30
0.0
 11
97.642384
 21
91.250196
 31
0.0
  0
LINE
  5
C2D9
100
AcDbEntity
  8
TEXTE
100
AcDbLine
 10
96.775446
 20
91.250205
 30
0.0
 11
96.784887
 21
90.877862
 31
0.0
  0
LINE
  5
C2DA
100
AcDbEntity
  8
TEXTE
100
AcDbLine
 10
96.589213
 20
90.877867
 30
0.0
 11
96.579709
 21
91.25021
 31
0.0
  0
LINE
  5
C2DB
100
AcDbEntity
  8
TEXTE
100
AcDbLine
 10
97.661967
 20
90.505475
 30
0.0
 11
97.651554
 21
90.877853
 31
0.0
  0
LINE
  5
C2DC
100
AcDbEntity
  8
TEXTE
100
AcDbLine
 10
96.784887
 20
90.877862
 30
0.0
 11
96.795607
 21
90.505475
 31
0.0
  0
LINE
  5
C2DD
100
AcDbEntity
  8
TEXTE
100
AcDbLine
 10
96.600005
 20
90.505475
 30
0.0
 11
96.589213
 21
90.877867
 31
0.0
  0
POLYLINE
  5
C2DE
100
AcDbEntity
  8
TEXTE
100
AcDb2dPolyline
 66
     1
 10
0.0
 20
0.0
 30
0.0
  0
VERTEX
  5
C712
100
AcDbEntity
  8
TEXTE
100
AcDbVertex
100
AcDb2dVertex
 10
96.359153
 20
89.760794
 30
0.0
  0
VERTEX
  5
C713
100
AcDbEntity
  8
TEXTE
100
AcDbVertex
100
AcDb2dVertex
 10
96.363451
 20
89.649103
 30
0.0
  0
VERTEX
  5
C714
100
AcDbEntity
  8
TEXTE
100
AcDbVertex
100
AcDb2dVertex
 10
96.377047
 20
89.313986
 30
0.0
  0
SEQEND
  5
C715
100
AcDbEntity
  8
TEXTE
  0
LINE
  5
C2DF
100
AcDbEntity
  8
TEXTE
100
AcDbLine
 10
97.634456
 20
91.622496
 30
0.0
 11
97.599305
 21
91.920369
 31
0.0
  0
POLYLINE
  5
C2E0
100
AcDbEntity
  8
TEXTE
100
AcDb2dPolyline
 66
     1
 10
0.0
 20
0.0
 30
0.0
  0
VERTEX
  5
C716
100
AcDbEntity
  8
TEXTE
100
AcDbVertex
100
AcDb2dVertex
 10
96.64492
 20
90.133135
 30
0.0
  0
VERTEX
  5
C717
100
AcDbEntity
  8
TEXTE
100
AcDbVertex
100
AcDb2dVertex
 10
96.611117
 20
90.412457
 30
0.0
  0
VERTEX
  5
C718
100
AcDbEntity
  8
TEXTE
100
AcDbVertex
100
AcDb2dVertex
 10
96.600005
 20
90.505475
 30
0.0
  0
SEQEND
  5
C719
100
AcDbEntity
  8
TEXTE
  0
LINE
  5
C2E1
100
AcDbEntity
  8
TEXTE
100
AcDbLine
 10
96.795607
 20
90.505475
 30
0.0
 11
96.83734
 21
90.207602
 31
0.0
  0
LINE
  5
C2E2
100
AcDbEntity
  8
TEXTE
100
AcDbLine
 10
97.711884
 20
92.292709
 30
0.0
 11
97.77491
 21
91.994837
 31
0.0
  0
LINE
  5
C2E3
100
AcDbEntity
  8
TEXTE
100
AcDbLine
 10
96.720846
 20
89.835262
 30
0.0
 11
96.64492
 21
90.133135
 31
0.0
  0
LINE
  5
C2E4
100
AcDbEntity
  8
TEXTE
100
AcDbLine
 10
97.599305
 20
91.920369
 30
0.0
 11
97.536051
 21
92.143773
 31
0.0
  0
LINE
  5
C2E5
100
AcDbEntity
  8
TEXTE
100
AcDbLine
 10
96.83734
 20
90.207602
 30
0.0
 11
96.909151
 21
89.984198
 31
0.0
  0
LINE
  5
C2E6
100
AcDbEntity
  8
TEXTE
100
AcDbLine
 10
96.861665
 20
89.53739
 30
0.0
 11
96.720846
 21
89.835262
 31
0.0
  0
LINE
  5
C2E7
100
AcDbEntity
  8
TEXTE
100
AcDbLine
 10
97.536051
 20
92.143773
 30
0.0
 11
97.443686
 21
92.292709
 31
0.0
  0
LINE
  5
C2E8
100
AcDbEntity
  8
TEXTE
100
AcDbLine
 10
96.909151
 20
89.984198
 30
0.0
 11
97.00998
 21
89.835262
 31
0.0
  0
LINE
  5
C2E9
100
AcDbEntity
  8
TEXTE
100
AcDbLine
 10
96.995462
 20
89.388453
 30
0.0
 11
96.861665
 21
89.53739
 31
0.0
  0
LINE
  5
C2EA
100
AcDbEntity
  8
TEXTE
100
AcDbLine
 10
97.443686
 20
92.292709
 30
0.0
 11
97.321072
 21
92.367177
 31
0.0
  0
LINE
  5
C2EB
100
AcDbEntity
  8
TEXTE
100
AcDbLine
 10
97.00998
 20
89.835262
 30
0.0
 11
97.138653
 21
89.760794
 31
0.0
  0
LINE
  5
C2EC
100
AcDbEntity
  8
TEXTE
100
AcDbLine
 10
97.156078
 20
89.313986
 30
0.0
 11
96.995462
 21
89.388453
 31
0.0
  0
LINE
  5
C2ED
100
AcDbEntity
  8
TEXTE
100
AcDbLine
 10
97.321072
 20
92.367177
 30
0.0
 11
97.073277
 21
92.367177
 31
0.0
  0
LINE
  5
C2EE
100
AcDbEntity
  8
TEXTE
100
AcDbLine
 10
97.138653
 20
89.760794
 30
0.0
 11
97.385907
 21
89.760794
 31
0.0
  0
LINE
  5
C2EF
100
AcDbEntity
  8
TEXTE
100
AcDbLine
 10
97.403188
 20
89.313986
 30
0.0
 11
97.156078
 21
89.313986
 31
0.0
  0
POLYLINE
  5
C2F0
100
AcDbEntity
  8
TEXTE
100
AcDb2dPolyline
 66
     1
 10
0.0
 20
0.0
 30
0.0
  0
VERTEX
  5
C71A
100
AcDbEntity
  8
TEXTE
100
AcDbVertex
100
AcDb2dVertex
 10
94.339386
 20
92.739518
 30
0.0
  0
VERTEX
  5
C71B
100
AcDbEntity
  8
TEXTE
100
AcDbVertex
100
AcDb2dVertex
 10
94.459786
 20
92.627935
 30
0.0
  0
VERTEX
  5
C71C
100
AcDbEntity
  8
TEXTE
100
AcDbVertex
100
AcDb2dVertex
 10
94.49986
 20
92.590582
 30
0.0
  0
SEQEND
  5
C71D
100
AcDbEntity
  8
TEXTE
  0
POLYLINE
  5
C2F1
100
AcDbEntity
  8
TEXTE
100
AcDb2dPolyline
 66
     1
 10
0.0
 20
0.0
 30
0.0
  0
VERTEX
  5
C71E
100
AcDbEntity
  8
TEXTE
100
AcDbVertex
100
AcDb2dVertex
 10
94.137232
 20
92.813986
 30
0.0
  0
VERTEX
  5
C71F
100
AcDbEntity
  8
TEXTE
100
AcDbVertex
100
AcDb2dVertex
 10
94.288995
 20
92.758192
 30
0.0
  0
VERTEX
  5
C720
100
AcDbEntity
  8
TEXTE
100
AcDbVertex
100
AcDb2dVertex
 10
94.339386
 20
92.739518
 30
0.0
  0
SEQEND
  5
C721
100
AcDbEntity
  8
TEXTE
  0
LINE
  5
C2F2
100
AcDbEntity
  8
TEXTE
100
AcDbLine
 10
94.999508
 20
92.813986
 30
0.0
 11
95.22433
 21
92.813986
 31
0.0
  0
LINE
  5
C2F3
100
AcDbEntity
  8
TEXTE
100
AcDbLine
 10
93.766362
 20
92.813986
 30
0.0
 11
94.137232
 21
92.813986
 31
0.0
  0
POLYLINE
  5
C2F4
100
AcDbEntity
  8
TEXTE
100
AcDb2dPolyline
 66
     1
 10
0.0
 20
0.0
 30
0.0
  0
VERTEX
  5
C722
100
AcDbEntity
  8
TEXTE
100
AcDbVertex
100
AcDb2dVertex
 10
96.910961
 20
92.739518
 30
0.0
  0
VERTEX
  5
C723
100
AcDbEntity
  8
TEXTE
100
AcDbVertex
100
AcDb2dVertex
 10
96.95043
 20
92.758094
 30
0.0
  0
VERTEX
  5
C724
100
AcDbEntity
  8
TEXTE
100
AcDbVertex
100
AcDb2dVertex
 10
97.068291
 20
92.813986
 30
0.0
  0
SEQEND
  5
C725
100
AcDbEntity
  8
TEXTE
  0
LINE
  5
C2F5
100
AcDbEntity
  8
TEXTE
100
AcDbLine
 10
96.784339
 20
92.590582
 30
0.0
 11
96.910961
 21
92.739518
 31
0.0
  0
POLYLINE
  5
C2F6
100
AcDbEntity
  8
ALPHA
100
AcDb2dPolyline
 66
     1
 10
0.0
 20
0.0
 30
0.0
  0
VERTEX
  5
C726
100
AcDbEntity
  8
ALPHA
100
AcDbVertex
100
AcDb2dVertex
 10
96.964433
 20
96.063986
 30
0.0
  0
VERTEX
  5
C727
100
AcDbEntity
  8
ALPHA
100
AcDbVertex
100
AcDb2dVertex
 10
96.953858
 20
95.480588
 30
0.0
  0
VERTEX
  5
C728
100
AcDbEntity
  8
ALPHA
100
AcDbVertex
100
AcDb2dVertex
 10
96.946434
 20
94.897263
 30
0.0
  0
VERTEX
  5
C729
100
AcDbEntity
  8
ALPHA
100
AcDbVertex
100
AcDb2dVertex
 10
96.94216
 20
94.313986
 30
0.0
  0
SEQEND
  5
C72A
100
AcDbEntity
  8
ALPHA
  0
POLYLINE
  5
C2F7
100
AcDbEntity
  8
TEXTE
100
AcDb2dPolyline
 66
     1
 10
0.0
 20
0.0
 30
0.0
  0
VERTEX
  5
C72B
100
AcDbEntity
  8
TEXTE
100
AcDbVertex
100
AcDb2dVertex
 10
97.468636
 20
92.739518
 30
0.0
  0
VERTEX
  5
C72C
100
AcDbEntity
  8
TEXTE
100
AcDbVertex
100
AcDb2dVertex
 10
97.55968
 20
92.627884
 30
0.0
  0
VERTEX
  5
C72D
100
AcDbEntity
  8
TEXTE
100
AcDbVertex
100
AcDb2dVertex
 10
97.58994
 20
92.590582
 30
0.0
  0
SEQEND
  5
C72E
100
AcDbEntity
  8
TEXTE
  0
POLYLINE
  5
C2F8
100
AcDbEntity
  8
TEXTE
100
AcDb2dPolyline
 66
     1
 10
0.0
 20
0.0
 30
0.0
  0
VERTEX
  5
C72F
100
AcDbEntity
  8
TEXTE
100
AcDbVertex
100
AcDb2dVertex
 10
97.316127
 20
92.813986
 30
0.0
  0
VERTEX
  5
C730
100
AcDbEntity
  8
TEXTE
100
AcDbVertex
100
AcDb2dVertex
 10
97.430644
 20
92.758174
 30
0.0
  0
VERTEX
  5
C731
100
AcDbEntity
  8
TEXTE
100
AcDbVertex
100
AcDb2dVertex
 10
97.468636
 20
92.739518
 30
0.0
  0
SEQEND
  5
C732
100
AcDbEntity
  8
TEXTE
  0
LINE
  5
C2F9
100
AcDbEntity
  8
ALPHA
100
AcDbLine
 10
96.564477
 20
94.313986
 30
0.0
 11
96.94216
 21
94.313986
 31
0.0
  0
LINE
  5
C2FA
100
AcDbEntity
  8
TEXTE
100
AcDbLine
 10
97.068291
 20
92.813986
 30
0.0
 11
97.316127
 21
92.813986
 31
0.0
  0
LINE
  5
C2FB
100
AcDbEntity
  8
ALPHA
100
AcDbLine
 10
104.499881
 20
85.213986
 30
0.0
 11
104.541776
 21
90.013986
 31
0.0
  0
POLYLINE
  5
C2FC
100
AcDbEntity
  8
ALPHA
100
AcDb2dPolyline
 66
     1
 10
0.0
 20
0.0
 30
0.0
  0
VERTEX
  5
C733
100
AcDbEntity
  8
ALPHA
100
AcDbVertex
100
AcDb2dVertex
 10
103.993365
 20
89.713986
 30
0.0
  0
VERTEX
  5
C734
100
AcDbEntity
  8
ALPHA
100
AcDbVertex
100
AcDb2dVertex
 10
104.088007
 20
88.133496
 30
0.0
  0
VERTEX
  5
C735
100
AcDbEntity
  8
ALPHA
100
AcDbVertex
100
AcDb2dVertex
 10
104.183501
 20
86.566828
 30
0.0
  0
VERTEX
  5
C736
100
AcDbEntity
  8
ALPHA
100
AcDbVertex
100
AcDb2dVertex
 10
104.25963
 20
85.3384
 30
0.0
  0
SEQEND
  5
C737
100
AcDbEntity
  8
ALPHA
  0
LINE
  5
C2FD
100
AcDbEntity
  8
ALPHA
100
AcDbLine
 10
101.245237
 20
82.163986
 30
0.0
 11
101.245237
 21
76.163986
 31
0.0
  0
LINE
  5
C2FE
100
AcDbEntity
  8
ALPHA
100
AcDbLine
 10
101.545237
 20
76.163986
 30
0.0
 11
101.545237
 21
75.663986
 31
0.0
  0
LINE
  5
C2FF
100
AcDbEntity
  8
ALPHA
100
AcDbLine
 10
101.545237
 20
82.663986
 30
0.0
 11
101.545237
 21
82.163986
 31
0.0
  0
LINE
  5
C300
100
AcDbEntity
  8
ALPHA
100
AcDbLine
 10
101.245237
 20
83.313986
 30
0.0
 11
101.245237
 21
82.663986
 31
0.0
  0
ARC
  5
C301
100
AcDbEntity
  8
ALPHA
100
AcDbCircle
 10
102.870237
 20
84.738986
 30
0.0
 40
1.425
100
AcDbArc
 50
270.0
 51
3.786772
  0
ARC
  5
C302
100
AcDbEntity
  8
ALPHA
100
AcDbCircle
 10
239.979612
 20
93.813986
 30
0.0
 40
135.984375
100
AcDbArc
 50
183.572981
 51
183.786772
  0
LINE
  5
C303
100
AcDbEntity
  8
ALPHA
100
AcDbLine
 10
104.499881
 20
85.213986
 30
0.0
 11
104.298166
 21
85.013986
 31
0.0
  0
LINE
  5
C304
100
AcDbEntity
  8
ALPHA
100
AcDbLine
 10
104.298166
 20
85.013986
 30
0.0
 11
104.279923
 21
85.013986
 31
0.0
  0
LINE
  5
C305
100
AcDbEntity
  8
ALPHA
100
AcDbLine
 10
100.95114
 20
97.913986
 30
0.0
 11
104.108871
 21
97.913986
 31
0.0
  0
LINE
  5
C306
100
AcDbEntity
  8
ALPHA
100
AcDbLine
 10
104.4552
 20
97.413986
 30
0.0
 11
101.476544
 21
97.413986
 31
0.0
  0
LINE
  5
C307
100
AcDbEntity
  8
ALPHA
100
AcDbLine
 10
104.343552
 20
90.213986
 30
0.0
 11
101.476544
 21
90.213986
 31
0.0
  0
LINE
  5
C308
100
AcDbEntity
  8
ALPHA
100
AcDbLine
 10
100.95114
 20
89.713986
 30
0.0
 11
104.294307
 21
89.713986
 31
0.0
  0
LINE
  5
C309
100
AcDbEntity
  8
TEXTE
100
AcDbLine
 10
98.142604
 20
92.292709
 30
0.0
 11
98.25053
 21
92.590582
 31
0.0
  0
POLYLINE
  5
C30A
100
AcDbEntity
  8
ALPHA
100
AcDb2dPolyline
 66
     1
 10
0.0
 20
0.0
 30
0.0
  0
VERTEX
  5
C738
100
AcDbEntity
  8
ALPHA
100
AcDbVertex
100
AcDb2dVertex
 10
101.476544
 20
97.413986
 30
0.0
  0
VERTEX
  5
C739
100
AcDbEntity
  8
ALPHA
100
AcDbVertex
100
AcDb2dVertex
 10
101.430287
 20
95.013974
 30
0.0
  0
VERTEX
  5
C73A
100
AcDbEntity
  8
ALPHA
100
AcDbVertex
100
AcDb2dVertex
 10
101.430287
 20
92.613997
 30
0.0
  0
VERTEX
  5
C73B
100
AcDbEntity
  8
ALPHA
100
AcDbVertex
100
AcDb2dVertex
 10
101.476544
 20
90.213986
 30
0.0
  0
SEQEND
  5
C73C
100
AcDbEntity
  8
ALPHA
  0
LINE
  5
C30B
100
AcDbEntity
  8
ALPHA
100
AcDbLine
 10
101.220017
 20
92.447352
 30
0.0
 11
101.220017
 21
95.180619
 31
0.0
  0
POLYLINE
  5
C30C
100
AcDbEntity
  8
ALPHA
100
AcDb2dPolyline
 66
     1
 10
0.0
 20
0.0
 30
0.0
  0
VERTEX
  5
C73D
100
AcDbEntity
  8
ALPHA
100
AcDbVertex
100
AcDb2dVertex
 10
100.890795
 20
92.447358
 30
0.0
  0
VERTEX
  5
C73E
100
AcDbEntity
  8
ALPHA
100
AcDbVertex
100
AcDb2dVertex
 10
100.890795
 20
95.180613
 30
0.0
  0
VERTEX
  5
C73F
100
AcDbEntity
  8
ALPHA
100
AcDbVertex
100
AcDb2dVertex
 10
100.95114
 20
97.913986
 30
0.0
  0
SEQEND
  5
C740
100
AcDbEntity
  8
ALPHA
  0
LINE
  5
C30D
100
AcDbEntity
  8
TEXTE
100
AcDbLine
 10
100.054946
 20
92.813986
 30
0.0
 11
100.059475
 21
92.367177
 31
0.0
  0
POLYLINE
  5
C30E
100
AcDbEntity
  8
TEXTE
100
AcDb2dPolyline
 66
     1
 10
0.0
 20
0.0
 30
0.0
  0
VERTEX
  5
C741
100
AcDbEntity
  8
TEXTE
100
AcDbVertex
100
AcDb2dVertex
 10
99.298324
 20
89.313986
 30
0.0
  0
VERTEX
  5
C742
100
AcDbEntity
  8
TEXTE
100
AcDbVertex
100
AcDb2dVertex
 10
99.284082
 20
89.70295
 30
0.0
  0
VERTEX
  5
C743
100
AcDbEntity
  8
TEXTE
100
AcDbVertex
100
AcDb2dVertex
 10
99.271127
 20
90.091899
 30
0.0
  0
VERTEX
  5
C744
100
AcDbEntity
  8
TEXTE
100
AcDbVertex
100
AcDb2dVertex
 10
99.259459
 20
90.480836
 30
0.0
  0
VERTEX
  5
C745
100
AcDbEntity
  8
TEXTE
100
AcDbVertex
100
AcDb2dVertex
 10
99.249077
 20
90.86976
 30
0.0
  0
VERTEX
  5
C746
100
AcDbEntity
  8
TEXTE
100
AcDbVertex
100
AcDb2dVertex
 10
99.239982
 20
91.258666
 30
0.0
  0
VERTEX
  5
C747
100
AcDbEntity
  8
TEXTE
100
AcDbVertex
100
AcDb2dVertex
 10
99.232173
 20
91.647544
 30
0.0
  0
VERTEX
  5
C748
100
AcDbEntity
  8
TEXTE
100
AcDbVertex
100
AcDb2dVertex
 10
99.225652
 20
92.03639
 30
0.0
  0
VERTEX
  5
C749
100
AcDbEntity
  8
TEXTE
100
AcDbVertex
100
AcDb2dVertex
 10
99.220416
 20
92.425203
 30
0.0
  0
VERTEX
  5
C74A
100
AcDbEntity
  8
TEXTE
100
AcDbVertex
100
AcDb2dVertex
 10
99.216467
 20
92.813986
 30
0.0
  0
SEQEND
  5
C74B
100
AcDbEntity
  8
TEXTE
  0
LINE
  5
C30F
100
AcDbEntity
  8
TEXTE
100
AcDbLine
 10
98.734056
 20
92.739518
 30
0.0
 11
98.840457
 21
92.516113
 31
0.0
  0
LINE
  5
C310
100
AcDbEntity
  8
TEXTE
100
AcDbLine
 10
100.059475
 20
92.367177
 30
0.0
 11
99.367692
 21
92.367177
 31
0.0
  0
LINE
  5
C311
100
AcDbEntity
  8
TEXTE
100
AcDbLine
 10
99.383517
 20
91.399092
 30
0.0
 11
99.986633
 21
91.399092
 31
0.0
  0
LINE
  5
C312
100
AcDbEntity
  8
TEXTE
100
AcDbLine
 10
99.996426
 20
90.952284
 30
0.0
 11
99.393496
 21
90.952284
 31
0.0
  0
LINE
  5
C313
100
AcDbEntity
  8
TEXTE
100
AcDbLine
 10
99.42837
 20
89.760794
 30
0.0
 11
100.118858
 21
89.760794
 31
0.0
  0
LINE
  5
C314
100
AcDbEntity
  8
TEXTE
100
AcDbLine
 10
100.13469
 20
89.313986
 30
0.0
 11
99.298324
 21
89.313986
 31
0.0
  0
POLYLINE
  5
C315
100
AcDbEntity
  8
TEXTE
100
AcDb2dPolyline
 66
     1
 10
0.0
 20
0.0
 30
0.0
  0
VERTEX
  5
C74C
100
AcDbEntity
  8
TEXTE
100
AcDbVertex
100
AcDb2dVertex
 10
98.83973
 20
89.388453
 30
0.0
  0
VERTEX
  5
C74D
100
AcDbEntity
  8
TEXTE
100
AcDbVertex
100
AcDb2dVertex
 10
98.743579
 20
89.33257
 30
0.0
  0
VERTEX
  5
C74E
100
AcDbEntity
  8
TEXTE
100
AcDbVertex
100
AcDb2dVertex
 10
98.711355
 20
89.313986
 30
0.0
  0
SEQEND
  5
C74F
100
AcDbEntity
  8
TEXTE
  0
LINE
  5
C316
100
AcDbEntity
  8
TEXTE
100
AcDbLine
 10
98.694799
 20
89.760794
 30
0.0
 11
98.797429
 21
89.835262
 31
0.0
  0
LINE
  5
C317
100
AcDbEntity
  8
TEXTE
100
AcDbLine
 10
98.472056
 20
92.367177
 30
0.0
 11
98.391569
 21
92.292709
 31
0.0
  0
LINE
  5
C318
100
AcDbEntity
  8
TEXTE
100
AcDbLine
 10
98.937686
 20
89.53739
 30
0.0
 11
98.83973
 21
89.388453
 31
0.0
  0
LINE
  5
C319
100
AcDbEntity
  8
TEXTE
100
AcDbLine
 10
98.391569
 20
92.292709
 30
0.0
 11
98.311435
 21
92.143773
 31
0.0
  0
LINE
  5
C31A
100
AcDbEntity
  8
TEXTE
100
AcDbLine
 10
98.797429
 20
89.835262
 30
0.0
 11
98.870475
 21
89.984198
 31
0.0
  0
LINE
  5
C31B
100
AcDbEntity
  8
TEXTE
100
AcDbLine
 10
99.0294
 20
89.835262
 30
0.0
 11
98.937686
 21
89.53739
 31
0.0
  0
LINE
  5
C31C
100
AcDbEntity
  8
TEXTE
100
AcDbLine
 10
98.870475
 20
89.984198
 30
0.0
 11
98.914968
 21
90.207602
 31
0.0
  0
LINE
  5
C31D
100
AcDbEntity
  8
TEXTE
100
AcDbLine
 10
99.070299
 20
90.133135
 30
0.0
 11
99.0294
 21
89.835262
 31
0.0
  0
LINE
  5
C31E
100
AcDbEntity
  8
TEXTE
100
AcDbLine
 10
98.311435
 20
92.143773
 30
0.0
 11
98.287351
 21
91.920369
 31
0.0
  0
LINE
  5
C31F
100
AcDbEntity
  8
TEXTE
100
AcDbLine
 10
98.118892
 20
91.994837
 30
0.0
 11
98.142604
 21
92.292709
 31
0.0
  0
LINE
  5
C320
100
AcDbEntity
  8
TEXTE
100
AcDbLine
 10
97.838066
 20
90.505475
 30
0.0
 11
97.820538
 21
90.133135
 31
0.0
  0
LINE
  5
C321
100
AcDbEntity
  8
TEXTE
100
AcDbLine
 10
99.367692
 20
92.367177
 30
0.0
 11
99.372085
 21
92.044492
 31
0.0
  0
LINE
  5
C322
100
AcDbEntity
  8
TEXTE
100
AcDbLine
 10
99.372085
 20
92.044492
 30
0.0
 11
99.37736
 21
91.721796
 31
0.0
  0
LINE
  5
C323
100
AcDbEntity
  8
TEXTE
100
AcDbLine
 10
98.124059
 20
91.696964
 30
0.0
 11
98.118892
 21
91.994837
 31
0.0
  0
LINE
  5
C324
100
AcDbEntity
  8
TEXTE
100
AcDbLine
 10
98.287351
 20
91.920369
 30
0.0
 11
98.28992
 21
91.771433
 31
0.0
  0
LINE
  5
C325
100
AcDbEntity
  8
TEXTE
100
AcDbLine
 10
99.37736
 20
91.721796
 30
0.0
 11
99.383517
 21
91.399092
 31
0.0
  0
LINE
  5
C326
100
AcDbEntity
  8
TEXTE
100
AcDbLine
 10
97.810716
 20
91.622496
 30
0.0
 11
97.818598
 21
91.250192
 31
0.0
  0
LINE
  5
C327
100
AcDbEntity
  8
TEXTE
100
AcDbLine
 10
97.818598
 20
91.250192
 30
0.0
 11
97.827715
 21
90.87785
 31
0.0
  0
LINE
  5
C328
100
AcDbEntity
  8
TEXTE
100
AcDbLine
 10
99.393496
 20
90.952284
 30
0.0
 11
99.403785
 21
90.555148
 31
0.0
  0
LINE
  5
C329
100
AcDbEntity
  8
TEXTE
100
AcDbLine
 10
97.827715
 20
90.87785
 30
0.0
 11
97.838066
 21
90.505475
 31
0.0
  0
LINE
  5
C32A
100
AcDbEntity
  8
TEXTE
100
AcDbLine
 10
99.403785
 20
90.555148
 30
0.0
 11
99.415409
 21
90.157983
 31
0.0
  0
LINE
  5
C32B
100
AcDbEntity
  8
TEXTE
100
AcDbLine
 10
99.059163
 20
90.505475
 30
0.0
 11
99.070299
 21
90.133135
 31
0.0
  0
LINE
  5
C32C
100
AcDbEntity
  8
TEXTE
100
AcDbLine
 10
98.914968
 20
90.207602
 30
0.0
 11
98.908254
 21
90.431007
 31
0.0
  0
LINE
  5
C32D
100
AcDbEntity
  8
TEXTE
100
AcDbLine
 10
99.415409
 20
90.157983
 30
0.0
 11
99.42837
 21
89.760794
 31
0.0
  0
LINE
  5
C32E
100
AcDbEntity
  8
TEXTE
100
AcDbLine
 10
98.158089
 20
91.399092
 30
0.0
 11
98.124059
 21
91.696964
 31
0.0
  0
LINE
  5
C32F
100
AcDbEntity
  8
TEXTE
100
AcDbLine
 10
98.112585
 20
89.984198
 30
0.0
 11
98.074588
 21
90.282071
 31
0.0
  0
LINE
  5
C330
100
AcDbEntity
  8
TEXTE
100
AcDbLine
 10
98.921387
 20
92.218241
 30
0.0
 11
98.950238
 21
91.994837
 31
0.0
  0
LINE
  5
C331
100
AcDbEntity
  8
TEXTE
100
AcDbLine
 10
98.28992
 20
91.771433
 30
0.0
 11
98.321703
 21
91.548028
 31
0.0
  0
LINE
  5
C332
100
AcDbEntity
  8
TEXTE
100
AcDbLine
 10
98.243179
 20
90.282071
 30
0.0
 11
98.278121
 21
90.058666
 31
0.0
  0
LINE
  5
C333
100
AcDbEntity
  8
TEXTE
100
AcDbLine
 10
98.79557
 20
91.994837
 30
0.0
 11
98.767265
 21
92.143773
 31
0.0
  0
LINE
  5
C334
100
AcDbEntity
  8
TEXTE
100
AcDbLine
 10
99.000398
 20
90.803347
 30
0.0
 11
99.059163
 21
90.505475
 31
0.0
  0
LINE
  5
C335
100
AcDbEntity
  8
TEXTE
100
AcDbLine
 10
98.908254
 20
90.431007
 30
0.0
 11
98.850298
 21
90.654411
 31
0.0
  0
LINE
  5
C336
100
AcDbEntity
  8
TEXTE
100
AcDbLine
 10
98.210147
 20
89.611858
 30
0.0
 11
98.112585
 21
89.984198
 31
0.0
  0
LINE
  5
C337
100
AcDbEntity
  8
TEXTE
100
AcDbLine
 10
98.840457
 20
92.516113
 30
0.0
 11
98.921387
 21
92.218241
 31
0.0
  0
LINE
  5
C338
100
AcDbEntity
  8
TEXTE
100
AcDbLine
 10
98.767265
 20
92.143773
 30
0.0
 11
98.712833
 21
92.292709
 31
0.0
  0
LINE
  5
C339
100
AcDbEntity
  8
TEXTE
100
AcDbLine
 10
98.890685
 20
91.10122
 30
0.0
 11
99.000398
 21
90.803347
 31
0.0
  0
LINE
  5
C33A
100
AcDbEntity
  8
TEXTE
100
AcDbLine
 10
98.276245
 20
91.10122
 30
0.0
 11
98.158089
 21
91.399092
 31
0.0
  0
LINE
  5
C33B
100
AcDbEntity
  8
TEXTE
100
AcDbLine
 10
98.278121
 20
90.058666
 30
0.0
 11
98.368531
 21
89.835262
 31
0.0
  0
LINE
  5
C33C
100
AcDbEntity
  8
TEXTE
100
AcDbLine
 10
98.850298
 20
90.654411
 30
0.0
 11
98.768212
 21
90.803347
 31
0.0
  0
LINE
  5
C33D
100
AcDbEntity
  8
TEXTE
100
AcDbLine
 10
98.321703
 20
91.548028
 30
0.0
 11
98.40693
 21
91.399092
 31
0.0
  0
LINE
  5
C33E
100
AcDbEntity
  8
TEXTE
100
AcDbLine
 10
98.357463
 20
89.388453
 30
0.0
 11
98.210147
 21
89.611858
 31
0.0
  0
POLYLINE
  5
C33F
100
AcDbEntity
  8
TEXTE
100
AcDb2dPolyline
 66
     1
 10
0.0
 20
0.0
 30
0.0
  0
VERTEX
  5
C750
100
AcDbEntity
  8
TEXTE
100
AcDbVertex
100
AcDb2dVertex
 10
98.78359
 20
91.250156
 30
0.0
  0
VERTEX
  5
C751
100
AcDbEntity
  8
TEXTE
100
AcDbVertex
100
AcDb2dVertex
 10
98.863976
 20
91.138513
 30
0.0
  0
VERTEX
  5
C752
100
AcDbEntity
  8
TEXTE
100
AcDbVertex
100
AcDb2dVertex
 10
98.890685
 20
91.10122
 30
0.0
  0
SEQEND
  5
C753
100
AcDbEntity
  8
TEXTE
  0
LINE
  5
C340
100
AcDbEntity
  8
TEXTE
100
AcDbLine
 10
98.389929
 20
90.952284
 30
0.0
 11
98.276245
 21
91.10122
 31
0.0
  0
LINE
  5
C341
100
AcDbEntity
  8
TEXTE
100
AcDbLine
 10
98.712833
 20
92.292709
 30
0.0
 11
98.632688
 21
92.367177
 31
0.0
  0
LINE
  5
C342
100
AcDbEntity
  8
TEXTE
100
AcDbLine
 10
98.40693
 20
91.399092
 30
0.0
 11
98.48993
 21
91.324624
 31
0.0
  0
LINE
  5
C343
100
AcDbEntity
  8
TEXTE
100
AcDbLine
 10
98.768212
 20
90.803347
 30
0.0
 11
98.660973
 21
90.877815
 31
0.0
  0
LINE
  5
C344
100
AcDbEntity
  8
TEXTE
100
AcDbLine
 10
98.500488
 20
90.877815
 30
0.0
 11
98.389929
 21
90.952284
 31
0.0
  0
LINE
  5
C345
100
AcDbEntity
  8
TEXTE
100
AcDbLine
 10
98.368531
 20
89.835262
 30
0.0
 11
98.480382
 21
89.760794
 31
0.0
  0
POLYLINE
  5
C346
100
AcDbEntity
  8
TEXTE
100
AcDb2dPolyline
 66
     1
 10
0.0
 20
0.0
 30
0.0
  0
VERTEX
  5
C754
100
AcDbEntity
  8
TEXTE
100
AcDbVertex
100
AcDb2dVertex
 10
98.650469
 20
91.324624
 30
0.0
  0
VERTEX
  5
C755
100
AcDbEntity
  8
TEXTE
100
AcDbVertex
100
AcDb2dVertex
 10
98.75044
 20
91.268807
 30
0.0
  0
VERTEX
  5
C756
100
AcDbEntity
  8
TEXTE
100
AcDbVertex
100
AcDb2dVertex
 10
98.78359
 20
91.250156
 30
0.0
  0
SEQEND
  5
C757
100
AcDbEntity
  8
TEXTE
  0
POLYLINE
  5
C347
100
AcDbEntity
  8
TEXTE
100
AcDb2dPolyline
 66
     1
 10
0.0
 20
0.0
 30
0.0
  0
VERTEX
  5
C758
100
AcDbEntity
  8
TEXTE
100
AcDbVertex
100
AcDb2dVertex
 10
98.497053
 20
89.313986
 30
0.0
  0
VERTEX
  5
C759
100
AcDbEntity
  8
TEXTE
100
AcDbVertex
100
AcDb2dVertex
 10
98.462286
 20
89.332638
 30
0.0
  0
VERTEX
  5
C75A
100
AcDbEntity
  8
TEXTE
100
AcDbVertex
100
AcDb2dVertex
 10
98.357463
 20
89.388453
 30
0.0
  0
SEQEND
  5
C75B
100
AcDbEntity
  8
TEXTE
  0
LINE
  5
C348
100
AcDbEntity
  8
TEXTE
100
AcDbLine
 10
98.632688
 20
92.367177
 30
0.0
 11
98.472056
 21
92.367177
 31
0.0
  0
LINE
  5
C349
100
AcDbEntity
  8
TEXTE
100
AcDbLine
 10
98.950238
 20
91.994837
 30
0.0
 11
98.79557
 21
91.994837
 31
0.0
  0
LINE
  5
C34A
100
AcDbEntity
  8
TEXTE
100
AcDbLine
 10
98.48993
 20
91.324624
 30
0.0
 11
98.650469
 21
91.324624
 31
0.0
  0
LINE
  5
C34B
100
AcDbEntity
  8
TEXTE
100
AcDbLine
 10
98.660973
 20
90.877815
 30
0.0
 11
98.500488
 21
90.877815
 31
0.0
  0
LINE
  5
C34C
100
AcDbEntity
  8
TEXTE
100
AcDbLine
 10
98.074588
 20
90.282071
 30
0.0
 11
98.243179
 21
90.282071
 31
0.0
  0
LINE
  5
C34D
100
AcDbEntity
  8
TEXTE
100
AcDbLine
 10
98.480382
 20
89.760794
 30
0.0
 11
98.694799
 21
89.760794
 31
0.0
  0
LINE
  5
C34E
100
AcDbEntity
  8
TEXTE
100
AcDbLine
 10
98.711355
 20
89.313986
 30
0.0
 11
98.497053
 21
89.313986
 31
0.0
  0
LINE
  5
C34F
100
AcDbEntity
  8
TEXTE
100
AcDbLine
 10
99.986633
 20
91.399092
 30
0.0
 11
99.996426
 21
90.952284
 31
0.0
  0
LINE
  5
C350
100
AcDbEntity
  8
ALPHA
100
AcDbLine
 10
101.280397
 20
89.713986
 30
0.0
 11
101.220017
 21
92.447352
 31
0.0
  0
LINE
  5
C351
100
AcDbEntity
  8
ALPHA
100
AcDbLine
 10
100.95114
 20
89.713986
 30
0.0
 11
100.890795
 21
92.447358
 31
0.0
  0
LINE
  5
C352
100
AcDbEntity
  8
TEXTE
100
AcDbLine
 10
100.118858
 20
89.760794
 30
0.0
 11
100.13469
 21
89.313986
 31
0.0
  0
LINE
  5
C353
100
AcDbEntity
  8
TEXTE
100
AcDbLine
 10
99.216467
 20
92.813986
 30
0.0
 11
100.054946
 21
92.813986
 31
0.0
  0
LINE
  5
C354
100
AcDbEntity
  8
TEXTE
100
AcDbLine
 10
98.359181
 20
92.739518
 30
0.0
 11
98.467294
 21
92.813986
 31
0.0
  0
LINE
  5
C355
100
AcDbEntity
  8
TEXTE
100
AcDbLine
 10
98.25053
 20
92.590582
 30
0.0
 11
98.359181
 21
92.739518
 31
0.0
  0
POLYLINE
  5
C356
100
AcDbEntity
  8
TEXTE
100
AcDb2dPolyline
 66
     1
 10
0.0
 20
0.0
 30
0.0
  0
VERTEX
  5
C75C
100
AcDbEntity
  8
TEXTE
100
AcDbVertex
100
AcDb2dVertex
 10
98.601383
 20
92.813986
 30
0.0
  0
VERTEX
  5
C75D
100
AcDbEntity
  8
TEXTE
100
AcDbVertex
100
AcDb2dVertex
 10
98.701018
 20
92.758168
 30
0.0
  0
VERTEX
  5
C75E
100
AcDbEntity
  8
TEXTE
100
AcDbVertex
100
AcDb2dVertex
 10
98.734056
 20
92.739518
 30
0.0
  0
SEQEND
  5
C75F
100
AcDbEntity
  8
TEXTE
  0
LINE
  5
C357
100
AcDbEntity
  8
TEXTE
100
AcDbLine
 10
98.467294
 20
92.813986
 30
0.0
 11
98.601383
 21
92.813986
 31
0.0
  0
POLYLINE
  5
C358
100
AcDbEntity
  8
ALPHA
100
AcDb2dPolyline
 66
     1
 10
0.0
 20
0.0
 30
0.0
  0
VERTEX
  5
C760
100
AcDbEntity
  8
ALPHA
100
AcDbVertex
100
AcDb2dVertex
 10
100.629978
 20
97.563986
 30
0.0
  0
VERTEX
  5
C761
100
AcDbEntity
  8
ALPHA
100
AcDbVertex
100
AcDb2dVertex
 10
100.615558
 20
97.063967
 30
0.0
  0
VERTEX
  5
C762
100
AcDbEntity
  8
ALPHA
100
AcDbVertex
100
AcDb2dVertex
 10
100.603198
 20
96.563968
 30
0.0
  0
VERTEX
  5
C763
100
AcDbEntity
  8
ALPHA
100
AcDbVertex
100
AcDb2dVertex
 10
100.592899
 20
96.063986
 30
0.0
  0
SEQEND
  5
C764
100
AcDbEntity
  8
ALPHA
  0
LINE
  5
C359
100
AcDbEntity
  8
ALPHA
100
AcDbLine
 10
101.220017
 20
95.180619
 30
0.0
 11
101.280397
 21
97.913986
 31
0.0
  0
LINE
  5
C35A
100
AcDbEntity
  8
ALPHA
100
AcDbLine
 10
104.095237
 20
90.213986
 30
0.0
 11
104.095237
 21
97.413986
 31
0.0
  0
LINE
  5
C35B
100
AcDbEntity
  8
ALPHA
100
AcDbLine
 10
104.264831
 20
90.213986
 30
0.0
 11
104.294307
 21
89.713986
 31
0.0
  0
LINE
  5
C35C
100
AcDbEntity
  8
ALPHA
100
AcDbLine
 10
104.541776
 20
90.013986
 30
0.0
 11
104.343552
 21
90.213986
 31
0.0
  0
LINE
  5
C35D
100
AcDbEntity
  8
ALPHA
100
AcDbLine
 10
104.207751
 20
97.413986
 30
0.0
 11
104.40945
 21
97.613986
 31
0.0
  0
LINE
  5
C35E
100
AcDbEntity
  8
ALPHA
100
AcDbLine
 10
104.655237
 20
97.613986
 30
0.0
 11
104.455237
 21
97.413986
 31
0.0
  0
POLYLINE
  5
C35F
100
AcDbEntity
  8
ALPHA
100
AcDb2dPolyline
 66
     1
 10
0.0
 20
0.0
 30
0.0
  0
VERTEX
  5
C765
100
AcDbEntity
  8
ALPHA
100
AcDbVertex
100
AcDb2dVertex
 10
104.108871
 20
97.913986
 30
0.0
  0
VERTEX
  5
C766
100
AcDbEntity
  8
ALPHA
100
AcDbVertex
100
AcDb2dVertex
 10
104.101481
 20
97.663991
 30
0.0
  0
VERTEX
  5
C767
100
AcDbEntity
  8
ALPHA
100
AcDbVertex
100
AcDb2dVertex
 10
104.094556
 20
97.413986
 30
0.0
  0
SEQEND
  5
C768
100
AcDbEntity
  8
ALPHA
  0
LINE
  5
C360
100
AcDbEntity
  8
ALPHA
100
AcDbLine
 10
104.655237
 20
97.613986
 30
0.0
 11
104.40945
 21
97.613986
 31
0.0
  0
LINE
  5
C361
100
AcDbEntity
  8
ALPHA
100
AcDbLine
 10
96.703607
 20
99.313986
 30
0.0
 11
97.080956
 21
99.313986
 31
0.0
  0
LINE
  5
C362
100
AcDbEntity
  8
ALPHA
100
AcDbLine
 10
101.5765
 20
110.163986
 30
0.0
 11
101.5765
 21
109.013986
 31
0.0
  0
LINE
  5
C363
100
AcDbEntity
  8
ALPHA
100
AcDbLine
 10
101.276339
 20
110.163986
 30
0.0
 11
101.276339
 21
109.013986
 31
0.0
  0
LINE
  5
C364
100
AcDbEntity
  8
ALPHA
100
AcDbLine
 10
101.595237
 20
109.013986
 30
0.0
 11
101.595237
 21
106.013986
 31
0.0
  0
LINE
  5
C365
100
AcDbEntity
  8
ALPHA
100
AcDbLine
 10
101.563353
 20
109.013986
 30
0.0
 11
101.563353
 21
106.013986
 31
0.0
  0
LINE
  5
C366
100
AcDbEntity
  8
ALPHA
100
AcDbLine
 10
101.295237
 20
106.013986
 30
0.0
 11
101.295237
 21
104.313986
 31
0.0
  0
LINE
  5
C367
100
AcDbEntity
  8
ALPHA
100
AcDbLine
 10
101.26308
 20
109.013986
 30
0.0
 11
101.26308
 21
106.013986
 31
0.0
  0
LINE
  5
C368
100
AcDbEntity
  8
ALPHA
100
AcDbLine
 10
101.26308
 20
109.013986
 30
0.0
 11
101.563353
 21
109.013986
 31
0.0
  0
LINE
  5
C369
100
AcDbEntity
  8
ALPHA
100
AcDbLine
 10
101.595237
 20
109.013986
 30
0.0
 11
101.587269
 21
109.013986
 31
0.0
  0
LINE
  5
C36A
100
AcDbEntity
  8
ALPHA
100
AcDbLine
 10
101.26308
 20
106.013986
 30
0.0
 11
101.595237
 21
106.013986
 31
0.0
  0
ARC
  5
C36B
100
AcDbEntity
  8
ALPHA
100
AcDbCircle
 10
102.870237
 20
102.888986
 30
0.0
 40
1.425
100
AcDbArc
 50
356.213228
 51
90.0
  0
LINE
  5
C36C
100
AcDbEntity
  8
ALPHA
100
AcDbLine
 10
104.280275
 20
102.613986
 30
0.0
 11
104.292126
 21
102.794874
 31
0.0
  0
LINE
  5
C36D
100
AcDbEntity
  8
ALPHA
100
AcDbLine
 10
104.455237
 20
102.613986
 30
0.0
 11
104.655237
 21
102.413986
 31
0.0
  0
LINE
  5
C36E
100
AcDbEntity
  8
ALPHA
100
AcDbLine
 10
104.207751
 20
102.613986
 30
0.0
 11
104.40945
 21
102.413986
 31
0.0
  0
LINE
  5
C36F
100
AcDbEntity
  8
ALPHA
100
AcDbLine
 10
104.4552
 20
102.613986
 30
0.0
 11
104.031287
 21
102.613986
 31
0.0
  0
LINE
  5
C370
100
AcDbEntity
  8
ALPHA
100
AcDbLine
 10
104.655237
 20
102.413986
 30
0.0
 11
104.40945
 21
102.413986
 31
0.0
  0
LINE
  5
C371
100
AcDbEntity
  8
ALPHA
100
AcDbLine
 10
101.290486
 20
111.158947
 30
0.0
 11
101.295237
 21
111.314152
 31
0.0
  0
LINE
  5
C372
100
AcDbEntity
  8
ALPHA
100
AcDbLine
 10
101.590526
 20
111.158933
 30
0.0
 11
101.595237
 21
111.314154
 31
0.0
  0
POLYLINE
  5
C373
100
AcDbEntity
  8
ALPHA
100
AcDb2dPolyline
 66
     1
 10
0.0
 20
0.0
 30
0.0
  0
VERTEX
  5
C769
100
AcDbEntity
  8
ALPHA
100
AcDbVertex
100
AcDb2dVertex
 10
101.278543
 20
110.55665
 30
0.0
  0
VERTEX
  5
C76A
100
AcDbEntity
  8
ALPHA
100
AcDbVertex
100
AcDb2dVertex
 10
101.284175
 20
110.904453
 30
0.0
  0
VERTEX
  5
C76B
100
AcDbEntity
  8
ALPHA
100
AcDbVertex
100
AcDb2dVertex
 10
101.290486
 20
111.158947
 30
0.0
  0
SEQEND
  5
C76C
100
AcDbEntity
  8
ALPHA
  0
POLYLINE
  5
C374
100
AcDbEntity
  8
ALPHA
100
AcDb2dPolyline
 66
     1
 10
0.0
 20
0.0
 30
0.0
  0
VERTEX
  5
C76D
100
AcDbEntity
  8
ALPHA
100
AcDbVertex
100
AcDb2dVertex
 10
101.578685
 20
110.556638
 30
0.0
  0
VERTEX
  5
C76E
100
AcDbEntity
  8
ALPHA
100
AcDbVertex
100
AcDb2dVertex
 10
101.584269
 20
110.904414
 30
0.0
  0
VERTEX
  5
C76F
100
AcDbEntity
  8
ALPHA
100
AcDbVertex
100
AcDb2dVertex
 10
101.590526
 20
111.158933
 30
0.0
  0
SEQEND
  5
C770
100
AcDbEntity
  8
ALPHA
  0
LINE
  5
C375
100
AcDbEntity
  8
ALPHA
100
AcDbLine
 10
101.5765
 20
110.163986
 30
0.0
 11
101.578685
 21
110.556638
 31
0.0
  0
LINE
  5
C376
100
AcDbEntity
  8
ALPHA
100
AcDbLine
 10
101.276339
 20
110.163986
 30
0.0
 11
101.278543
 21
110.55665
 31
0.0
  0
LINE
  5
C377
100
AcDbEntity
  8
ALPHA
100
AcDbLine
 10
101.594685
 20
111.313986
 30
0.0
 11
101.29468
 21
111.313986
 31
0.0
  0
LINE
  5
C378
100
AcDbEntity
  8
ALPHA
100
AcDbLine
 10
101.276339
 20
110.163986
 30
0.0
 11
101.5765
 21
110.163986
 31
0.0
  0
LINE
  5
C379
100
AcDbEntity
  8
ALPHA
100
AcDbLine
 10
98.795237
 20
248.936612
 30
0.0
 11
98.795237
 21
214.513986
 31
0.0
  0
ARC
  5
C37A
100
AcDbEntity
  8
ALPHA
100
AcDbCircle
 10
102.845237
 20
213.063986
 30
0.0
 40
1.45
100
AcDbArc
 50
350.445784
 51
90.0
  0
ARC
  5
C37B
100
AcDbEntity
  8
ALPHA
100
AcDbCircle
 10
138.789639
 20
207.013986
 30
0.0
 40
35.0
100
AcDbArc
 50
170.445784
 51
189.554216
  0
ARC
  5
C37C
100
AcDbEntity
  8
ALPHA
100
AcDbCircle
 10
102.845237
 20
200.963986
 30
0.0
 40
1.45
100
AcDbArc
 50
270.0
 51
9.554216
  0
ARC
  5
C37D
100
AcDbEntity
  8
ALPHA
100
AcDbCircle
 10
93.795237
 20
248.936612
 30
0.0
 40
5.0
100
AcDbArc
 50
0.0
 51
46.567463
  0
LINE
  5
C37E
100
AcDbEntity
  8
AXE
100
AcDbLine
 10
21.295237
 20
149.163986
 30
0.0
 11
114.584703
 21
149.163986
 31
0.0
  0
TEXT
  5
C37F
100
AcDbEntity
  8
AXE
100
AcDbText
 10
108.187819
 20
150.163986
 30
0.0
 40
8.0
  1
Z
 72
     2
 11
114.664009
 21
150.163986
 31
0.0
100
AcDbText
  0
LINE
  5
C380
100
AcDbEntity
  8
AXE
100
AcDbLine
 10
66.295237
 20
18.521947
 30
0.0
 11
66.295237
 21
269.854446
 31
0.0
  0
TEXT
  5
C381
100
AcDbEntity
  8
AXE
100
AcDbText
 10
58.819047
 20
18.521947
 30
0.0
 40
8.0
  1
Y
 72
     2
 11
65.295237
 21
18.521947
 31
0.0
100
AcDbText
  0
VIEWPORT
  5
494D
102
{ACAD_XDICTIONARY
360
C3EA
102
}
100
AcDbEntity
 67
     1
  8
0
100
AcDbViewport
 10
6.0
 20
4.5
 30
0.0
 40
13.37404
 41
9.064748
 68
    -1
 69
     1
1001
ACAD
1000
MVIEW
1002
{
1070
    16
1010
0.0
1020
0.0
1030
0.0
1010
0.0
1020
0.0
1030
1.0
1040
0.0
1040
9.064748
1040
6.0
1040
4.5
1040
50.0
1040
0.0
1040
0.0
1070
     0
1070
   100
1070
     1
1070
     1
1070
     0
1070
     0
1070
     0
1070
     0
1040
0.0
1040
0.0
1040
0.0
1040
10.0
1040
10.0
1040
10.0
1040
10.0
1070
     0
1002
{
1002
}
1002
}
  0
ENDSEC
  0
SECTION
  2
OBJECTS
  0
DICTIONARY
  5
7CF4
102
{ACAD_XDICTIONARY
360
C3EC
102
}
100
AcDbDictionary
  3
ACAD_GROUP
350
7CF5
  3
ACAD_LAYOUT
350
7D01
  3
ACAD_MLINESTYLE
350
7CFE
  3
ACAD_PLOTSETTINGS
350
7D00
  3
ACAD_PLOTSTYLENAME
350
7CF6
  3
ACDBHEADERROUNDTRIPXREC
350
C3C9
  3
ACDBVARIABLEDICTIONARY
350
8048
  0
DICTIONARY
  5
C3C3
100
AcDbDictionary
  3
ACAD_XREC_ROUNDTRIP
360
C3C4
  0
DICTIONARY
  5
C3C5
100
AcDbDictionary
  3
ACAD_XREC_ROUNDTRIP
360
C3C6
  0
DICTIONARY
  5
C3F8
100
AcDbDictionary
  3
ACAD_XREC_ROUNDTRIP
360
C3F9
  0
DICTIONARY
  5
C3F4
100
AcDbDictionary
  3
ACAD_XREC_ROUNDTRIP
360
C3F5
  0
DICTIONARY
  5
C3F6
100
AcDbDictionary
  3
ACAD_XREC_ROUNDTRIP
360
C3F7
  0
DICTIONARY
  5
800F
100
AcDbDictionary
  3
ACAD_LAYOUTSELFREF
360
C3F3
  3
ACAD_XREC_ROUNDTRIP
360
C3C1
  0
DICTIONARY
  5
8011
100
AcDbDictionary
  3
ACAD_LAYOUTSELFREF
360
C3F2
  3
ACAD_XREC_ROUNDTRIP
360
C3C2
  0
DICTIONARY
  5
C3EA
100
AcDbDictionary
  3
ACAD_XREC_ROUNDTRIP
360
C3EB
  0
DICTIONARY
  5
C3EC
100
AcDbDictionary
  3
ACAD_XREC_ROUNDTRIP
360
C3ED
  0
DICTIONARY
  5
7CF5
102
{ACAD_REACTORS
330
7CF4
102
}
100
AcDbDictionary
  0
DICTIONARY
  5
7D01
102
{ACAD_XDICTIONARY
360
C3F0
102
}
102
{ACAD_REACTORS
330
7CF4
102
}
100
AcDbDictionary
  3
MODEL
350
7D09
  3
PRÉSENTATION1
350
7D05
  0
DICTIONARY
  5
7CFE
102
{ACAD_XDICTIONARY
360
C3EE
102
}
102
{ACAD_REACTORS
330
7CF4
102
}
100
AcDbDictionary
  3
STANDARD
350
7CFF
  0
DICTIONARY
  5
7D00
102
{ACAD_REACTORS
330
7CF4
102
}
100
AcDbDictionary
  0
ACAD_ZOMBIE_OBJECT
  5
7CF6
102
{ACAD_REACTORS
330
7CF4
102
}
100
AcDbZombieObject
 90
      499
 91
      500
 93
       86
310
405010041939BDC9B585B0
350
7CF7
340
7CF7
 94
        0
  0
DICTIONARY
  5
C3C9
102
{ACAD_REACTORS
330
7CF4
102
}
100
AcDbDictionary
  3
CEPSNTYPE
350
C3D3
  3
DIMSTYLEDATA
350
C3D7
  3
FINGERPRINTGUID
350
C3D4
  3
HYPERLINKBASE
350
C3CC
  3
INSUNITS
350
C3D2
  3
LAYOUTDICT
350
C3CE
  3
LWETCUNION
350
C3D1
  3
PLOTSETDICT
350
C3CF
  3
PLOTSTYLNAMDICT
350
C3D0
  3
PSVPSCALE
350
C3D6
  3
PUCSBASE
350
C3DA
  3
PUCSORGBACK
350
C3E0
  3
PUCSORGBOTTOM
350
C3DC
  3
PUCSORGFRONT
350
C3DF
  3
PUCSORGLEFT
350
C3DD
  3
PUCSORGRIGHT
350
C3DE
  3
PUCSORGTOP
350
C3DB
  3
PUCSORTHOREF
350
C3D8
  3
PUCSORTHOVIEW
350
C3D9
  3
STYLESHEET
350
C3CD
  3
TSTACKALIGN
350
C3CA
  3
TSTACKSIZE
350
C3CB
  3
UCSBASE
350
C3E3
  3
UCSORGBACK
350
C3E9
  3
UCSORGBOTTOM
350
C3E5
  3
UCSORGFRONT
350
C3E8
  3
UCSORGLEFT
350
C3E6
  3
UCSORGRIGHT
350
C3E7
  3
UCSORGTOP
350
C3E4
  3
UCSORTHOREF
350
C3E1
  3
UCSORTHOVIEW
350
C3E2
  3
VERSIONGUID
350
C3D5
  0
DICTIONARY
  5
8048
102
{ACAD_REACTORS
330
7CF4
102
}
100
AcDbDictionary
  3
DIMASSOC
350
804A
  3
HIDETEXT
350
8049
  0
XRECORD
  5
C3C4
102
{ACAD_REACTORS
330
C3C3
102
}
100
AcDbXrecord
102
EXTNAMES
  1
BYBLOCK
  2
ByBlock
  0
XRECORD
  5
C3C6
102
{ACAD_REACTORS
330
C3C5
102
}
100
AcDbXrecord
102
EXTNAMES
  1
BYLAYER
  2
ByLayer
  0
XRECORD
  5
C3F9
102
{ACAD_REACTORS
330
C3F8
102
}
100
AcDbXrecord
102
PLOTBIT
280
     0
  0
XRECORD
  5
C3F5
102
{ACAD_REACTORS
330
C3F4
102
}
100
AcDbXrecord
102
ACADR14ROUNDTRIP
1000
DSTYLE
1002
{
1070
   279
 70
     2
1070
   341
340
7D0C
1070
   342
340
7D0C
1002
}
  0
XRECORD
  5
C3F7
102
{ACAD_REACTORS
330
C3F6
102
}
100
AcDbXrecord
102
ACADR14ROUNDTRIP
1000
DSTYLE
1002
{
1070
   279
 70
     2
1002
}
  0
XRECORD
  5
C3F3
102
{ACAD_REACTORS
330
800F
102
}
100
AcDbXrecord
340
7D06
  0
XRECORD
  5
C3C1
102
{ACAD_REACTORS
330
800F
102
}
100
AcDbXrecord
102
EXTNAMES
  1
*MODEL_SPACE
  2
*Model_Space
  0
XRECORD
  5
C3F2
102
{ACAD_REACTORS
330
8011
102
}
100
AcDbXrecord
340
7D02
  0
XRECORD
  5
C3C2
102
{ACAD_REACTORS
330
8011
102
}
100
AcDbXrecord
102
EXTNAMES
  1
*PAPER_SPACE
  2
*Paper_Space
  0
XRECORD
  5
C3EB
102
{ACAD_REACTORS
330
C3EA
102
}
100
AcDbXrecord
102
UCS
 74
     0
 71
     0
 10
0.0
 20
0.0
 30
0.0
 10
0.0
 20
0.0
 30
0.0
 10
0.0
 20
0.0
 30
0.0
146
0.0
 79
     0
102
VIEW
281
     0
102
NEWVIEWCONTROL
280
     4
  0
XRECORD
  5
C3ED
102
{ACAD_REACTORS
330
C3EC
102
}
100
AcDbXrecord
102
EXTNAMES
  1
ACDBVARIABLEDICTIONARY
  2
AcDbVariableDictionary
  0
DICTIONARY
  5
C3F0
100
AcDbDictionary
  3
ACAD_XREC_ROUNDTRIP
360
C3F1
  0
ACAD_ZOMBIE_OBJECT
  5
7D09
102
{ACAD_REACTORS
330
7D01
102
}
100
AcDbZombieObject
 90
      499
 91
      502
 93
      428
310
A2C01AAAAAAAAA5A69054D6F64656C901A800000000000000000000000000000000000000000000A1000000000000008902A6A6AAAA4
330
7D06
330
0
340
0
340
0
 94
        0
  0
ACAD_ZOMBIE_OBJECT
  5
7D05
102
{ACAD_REACTORS
330
7D01
102
}
100
AcDbZombieObject
 90
      499
 91
      502
 93
     1484
310
9154850204C617365724A65742035303030204E2050532C00800000040B87E17400000003838A84550000000000444F1640000000000611C510000000080253F6A40000000101FA3DC901024134A901416AA5910690D5072E973656E746174696F6E31406A800000000000000000000000000000000000000000000A100000
310
0000000008902A6A6A10232D5E076BC5510408CB5781DAF154410232D5E076BC5510408CB5781DAF15C410232D5E076BC5710408CB5781DAF15C44
330
7D02
330
494D
340
0
340
0
 94
        0
  0
DICTIONARY
  5
C3EE
100
AcDbDictionary
  3
ACAD_XREC_ROUNDTRIP
360
C3EF
  0
MLINESTYLE
  5
7CFF
102
{ACAD_REACTORS
330
7CFE
102
}
100
AcDbMlineStyle
  2
STANDARD
 70
     0
  3

 62
   256
 51
90.0
 52
90.0
 71
     2
 49
0.5
 62
   256
  6
BYLAYER
 49
-0.5
 62
   256
  6
BYLAYER
  0
ACAD_ZOMBIE_OBJECT
  5
7CF7
102
{ACAD_REACTORS
330
7CF6
102
}
100
AcDbZombieObject
 90
      499
 91
      501
 93
        0
 94
        0
  0
XRECORD
  5
C3D3
102
{ACAD_REACTORS
330
C3C9
102
}
100
AcDbXrecord
 90
        0
  0
XRECORD
  5
C3D7
102
{ACAD_REACTORS
330
C3C9
102
}
100
AcDbXrecord
1000
DSTYLE
1002
{
1070
   279
 70
     2
1070
   341
340
7D0C
1070
   342
340
7D0C
1002
}
  0
XRECORD
  5
C3D4
102
{ACAD_REACTORS
330
C3C9
102
}
100
AcDbXrecord
  1
{20110D97-5561-4CA7-8FED-06A9B97BF164}
  0
XRECORD
  5
C3CC
102
{ACAD_REACTORS
330
C3C9
102
}
100
AcDbXrecord
  1

  0
XRECORD
  5
C3D2
102
{ACAD_REACTORS
330
C3C9
102
}
100
AcDbXrecord
 90
        0
  0
XRECORD
  5
C3CE
102
{ACAD_REACTORS
330
C3C9
102
}
100
AcDbXrecord
340
7D01
  0
XRECORD
  5
C3D1
102
{ACAD_REACTORS
330
C3C9
102
}
100
AcDbXrecord
 90
    14877
  0
XRECORD
  5
C3CF
102
{ACAD_REACTORS
330
C3C9
102
}
100
AcDbXrecord
340
7D00
  0
XRECORD
  5
C3D0
102
{ACAD_REACTORS
330
C3C9
102
}
100
AcDbXrecord
340
7CF6
  0
XRECORD
  5
C3D6
102
{ACAD_REACTORS
330
C3C9
102
}
100
AcDbXrecord
 40
0.0
  0
XRECORD
  5
C3DA
102
{ACAD_REACTORS
330
C3C9
102
}
100
AcDbXrecord
340
0
  0
XRECORD
  5
C3E0
102
{ACAD_REACTORS
330
C3C9
102
}
100
AcDbXrecord
 10
0.0
 20
0.0
 30
0.0
  0
XRECORD
  5
C3DC
102
{ACAD_REACTORS
330
C3C9
102
}
100
AcDbXrecord
 10
0.0
 20
0.0
 30
0.0
  0
XRECORD
  5
C3DF
102
{ACAD_REACTORS
330
C3C9
102
}
100
AcDbXrecord
 10
0.0
 20
0.0
 30
0.0
  0
XRECORD
  5
C3DD
102
{ACAD_REACTORS
330
C3C9
102
}
100
AcDbXrecord
 10
0.0
 20
0.0
 30
0.0
  0
XRECORD
  5
C3DE
102
{ACAD_REACTORS
330
C3C9
102
}
100
AcDbXrecord
 10
0.0
 20
0.0
 30
0.0
  0
XRECORD
  5
C3DB
102
{ACAD_REACTORS
330
C3C9
102
}
100
AcDbXrecord
 10
0.0
 20
0.0
 30
0.0
  0
XRECORD
  5
C3D8
102
{ACAD_REACTORS
330
C3C9
102
}
100
AcDbXrecord
340
0
  0
XRECORD
  5
C3D9
102
{ACAD_REACTORS
330
C3C9
102
}
100
AcDbXrecord
 70
     0
  0
XRECORD
  5
C3CD
102
{ACAD_REACTORS
330
C3C9
102
}
100
AcDbXrecord
  1

  0
XRECORD
  5
C3CA
102
{ACAD_REACTORS
330
C3C9
102
}
100
AcDbXrecord
 90
        1
  0
XRECORD
  5
C3CB
102
{ACAD_REACTORS
330
C3C9
102
}
100
AcDbXrecord
 90
       70
  0
XRECORD
  5
C3E3
102
{ACAD_REACTORS
330
C3C9
102
}
100
AcDbXrecord
340
0
  0
XRECORD
  5
C3E9
102
{ACAD_REACTORS
330
C3C9
102
}
100
AcDbXrecord
 10
0.0
 20
0.0
 30
0.0
  0
XRECORD
  5
C3E5
102
{ACAD_REACTORS
330
C3C9
102
}
100
AcDbXrecord
 10
0.0
 20
0.0
 30
0.0
  0
XRECORD
  5
C3E8
102
{ACAD_REACTORS
330
C3C9
102
}
100
AcDbXrecord
 10
0.0
 20
0.0
 30
0.0
  0
XRECORD
  5
C3E6
102
{ACAD_REACTORS
330
C3C9
102
}
100
AcDbXrecord
 10
0.0
 20
0.0
 30
0.0
  0
XRECORD
  5
C3E7
102
{ACAD_REACTORS
330
C3C9
102
}
100
AcDbXrecord
 10
0.0
 20
0.0
 30
0.0
  0
XRECORD
  5
C3E4
102
{ACAD_REACTORS
330
C3C9
102
}
100
AcDbXrecord
 10
0.0
 20
0.0
 30
0.0
  0
XRECORD
  5
C3E1
102
{ACAD_REACTORS
330
C3C9
102
}
100
AcDbXrecord
340
0
  0
XRECORD
  5
C3E2
102
{ACAD_REACTORS
330
C3C9
102
}
100
AcDbXrecord
 70
     0
  0
XRECORD
  5
C3D5
102
{ACAD_REACTORS
330
C3C9
102
}
100
AcDbXrecord
  1
{4AAE1193-4ADD-4A91-949E-8AC133F256FC}
  0
DICTIONARYVAR
  5
804A
102
{ACAD_REACTORS
330
8048
102
}
100
DictionaryVariables
280
     0
  1
2
  0
DICTIONARYVAR
  5
8049
102
{ACAD_REACTORS
330
8048
102
}
100
DictionaryVariables
280
     0
  1
1
  0
XRECORD
  5
C3F1
102
{ACAD_REACTORS
330
C3F0
102
}
100
AcDbXrecord
102
EXTNAMES
  1
MODEL
  2
Model
  1
PRÉSENTATION1
  2
Présentation1
  0
XRECORD
  5
C3EF
102
{ACAD_REACTORS
330
C3EE
102
}
100
AcDbXrecord
102
EXTNAMES
  1
STANDARD
  2
Standard
  0
ENDSEC
  0
EOF
