999
DXF file: C:\Users\sesa63760\Dev\_Creo\CAD\MCADID0004552_3D-CAD\drw0001_3.dxf
999
Pro/ENGINEER 2019471 by Parametric Technology Corporation
  0
SECTION
  2
HEADER
  9
$ACADVER
  1
AC1024
  9
$DWGCODEPAGE
  3
ANSI_1252
  9
$EXTMAX
 10
39.0817356558
 20
55.2727404274
 30
0.0
  9
$EXTMIN
 10
0.0
 20
0.0
 30
0.0
  9
$LIMMIN
 10
0.0
 20
0.0
  9
$LIMMAX
 10
39.0817356558
 20
55.2727404274
  9
$VIEWCTR
 10
19.5408678279
 20
27.6363702137
  9
$VIEWSIZE
 40
55.2727404274
  9
$CLAYER
  8
0
  9
$LTSCALE
 40
3.6029638205
  9
$CELTYPE
  6
BYLAYER
  9
$DIMSCALE
 40
1.0
  9
$DIMASZ
 40
0.4652587578
  9
$DIMEXO
 40
1.0
  9
$DIMDLI
 40
2.4893204578
  9
$DIMEXE
 40
1.0
  9
$DIMCEN
 40
0.5895758979
  9
$DIMLFAC
 40
1.0
  9
$DIMBLK
  1
_FILLED
  9
$DIMALT
 70
0
  9
$DIMALTF
 40
0.0393700787
  9
$DIMTXT
 40
0.6513622609
  9
$DIMTOL
 70
1
  9
$DIMLIM
 70
0
  9
$DIMTFAC
 40
1.0
  9
$DIMTP
 40
0.01
  9
$DIMTM
 40
0.01
  9
$DIMGAP
 40
0.625
  9
$DIMDSEP
 70
46
  9
$AUNITS
 70
0
  9
$PDMODE
 70
3
  9
$PDSIZE
 40
0.3125
  9
$HANDSEED
  5
2CD
  9
$TILEMODE
 70
1
  9
$MEASUREMENT
 70
1
  9
$INSUNITS
 70
4
  0
ENDSEC
  0
SECTION
  2
CLASSES
  0
CLASS
  1
ACDBDICTIONARYWDFLT
  2
AcDbDictionaryWithDefault
  3
AutoCAD 2000
 90
0
 91
1
280
0
281
0
  0
CLASS
  1
ACDBPLACEHOLDER
  2
AcDbPlaceHolder
  3
AutoCAD 2000
 90
0
 91
1
280
0
281
0
  0
CLASS
  1
LAYOUT
  2
AcDbLayout
  3
AutoCAD 2000
 90
0
 91
0
280
0
281
0
  0
ENDSEC
  0
SECTION
  2
TABLES
  0
TABLE
  2
VPORT
  5
8
100
AcDbSymbolTable
 70
2
  0
VPORT
  5
1F4
100
AcDbSymbolTableRecord
100
AcDbViewportTableRecord
  2
*ACTIVE
 70
0
 10
0.0
 20
0.0
 11
1.0
 21
1.0
 12
19.5408678279
 22
27.6363702137
 13
0.0
 23
0.0
 14
1.0
 24
1.0
 15
0.0
 25
0.0
 16
0.0
 26
0.0
 36
1.0
 17
0.0
 27
0.0
 37
0.0
 40
55.2727404274
 41
0.7070707071
 42
50.0
 43
0.0
 44
0.0
 50
0.0
 51
0.0
 71
0
 72
100
 73
1
 74
1
 75
0
 76
0
 77
0
 78
0
  0
ENDTAB
  0
TABLE
  2
LTYPE
  5
5
100
AcDbSymbolTable
 70
6
  0
LTYPE
  5
14
100
AcDbSymbolTableRecord
100
AcDbLinetypeTableRecord
  2
BYBLOCK
 70
0
  3

 72
65
 73
0
 40
0.0
  0
LTYPE
  5
15
100
AcDbSymbolTableRecord
100
AcDbLinetypeTableRecord
  2
BYLAYER
 70
0
  3

 72
65
 73
0
 40
0.0
  0
LTYPE
  5
16
100
AcDbSymbolTableRecord
100
AcDbLinetypeTableRecord
  2
CONTINUOUS
 70
64
  3
Solid line
 72
65
 73
0
 40
0.0
  0
LTYPE
  5
1F5
100
AcDbSymbolTableRecord
100
AcDbLinetypeTableRecord
  2
CENTER
 70
64
  3
____ _ ____ _ ____ _ ____ _ ____ _ ____ _ ____
 72
65
 73
4
 40
0.6
 49
0.375
 74
0
 49
-0.075
 74
0
 49
0.075
 74
0
 49
-0.075
 74
0
  0
LTYPE
  5
1F6
100
AcDbSymbolTableRecord
100
AcDbLinetypeTableRecord
  2
HIDDEN
 70
64
  3
- - - - - - - - - - - - - - - - - - - -
 72
65
 73
2
 40
0.2
 49
0.1
 74
0
 49
-0.1
 74
0
  0
LTYPE
  5
1F7
100
AcDbSymbolTableRecord
100
AcDbLinetypeTableRecord
  2
PHANTOM
 70
64
  3
_____ _ _ _____ _ _ _____ _ _ _____
 72
65
 73
6
 40
0.8
 49
0.45
 74
0
 49
-0.05
 74
0
 49
0.1
 74
0
 49
-0.05
 74
0
 49
0.1
 74
0
 49
-0.05
 74
0
  0
LTYPE
  5
1F8
100
AcDbSymbolTableRecord
100
AcDbLinetypeTableRecord
  2
DOT
 70
64
  3
. . . . . . . . . . . . . . . . . . . .
 72
65
 73
2
 40
0.2
 49
0.1
 74
0
 49
-0.1
 74
0
  0
LTYPE
  5
1F9
100
AcDbSymbolTableRecord
100
AcDbLinetypeTableRecord
  2
DASHED
 70
64
  3
- - - - - - - - - - - - - - - - - - - -
 72
65
 73
2
 40
0.2
 49
0.1
 74
0
 49
-0.1
 74
0
  0
ENDTAB
  0
TABLE
  2
LAYER
  5
2
100
AcDbSymbolTable
 70
36
  0
LAYER
  5
10
100
AcDbSymbolTableRecord
100
AcDbLayerTableRecord
  2
0
 70
0
 62
7
  6
CONTINUOUS
370
-3
390
F
  0
LAYER
  5
1FA
100
AcDbSymbolTableRecord
100
AcDbLayerTableRecord
  2
DEFAULT_1
 70
0
 62
7
  6
CENTER
370
-3
390
F
  0
LAYER
  5
1FB
100
AcDbSymbolTableRecord
100
AcDbLayerTableRecord
  2
DEFAULT_2
 70
0
 62
7
  6
HIDDEN
370
-3
390
F
  0
LAYER
  5
1FC
100
AcDbSymbolTableRecord
100
AcDbLayerTableRecord
  2
DEFAULT_3
 70
0
 62
7
  6
PHANTOM
370
-3
390
F
  0
LAYER
  5
1FD
100
AcDbSymbolTableRecord
100
AcDbLayerTableRecord
  2
00_COMPONENTS
 70
0
 62
7
  6
CONTINUOUS
370
-3
390
F
  0
LAYER
  5
1FE
100
AcDbSymbolTableRecord
100
AcDbLayerTableRecord
  2
01_1_DEFAULT_DATUMS
 70
0
 62
7
  6
CONTINUOUS
370
-3
390
F
  0
LAYER
  5
1FF
100
AcDbSymbolTableRecord
100
AcDbLayerTableRecord
  2
01_PLANES
 70
0
 62
7
  6
CONTINUOUS
370
-3
390
F
  0
LAYER
  5
200
100
AcDbSymbolTableRecord
100
AcDbLayerTableRecord
  2
02_COORD_SYS
 70
0
 62
7
  6
CONTINUOUS
370
-3
390
F
  0
LAYER
  5
201
100
AcDbSymbolTableRecord
100
AcDbLayerTableRecord
  2
03_AXES
 70
0
 62
7
  6
CONTINUOUS
370
-3
390
F
  0
LAYER
  5
202
100
AcDbSymbolTableRecord
100
AcDbLayerTableRecord
  2
04_POINTS
 70
0
 62
7
  6
CONTINUOUS
370
-3
390
F
  0
LAYER
  5
203
100
AcDbSymbolTableRecord
100
AcDbLayerTableRecord
  2
05_CURVES
 70
0
 62
7
  6
CONTINUOUS
370
-3
390
F
  0
LAYER
  5
204
100
AcDbSymbolTableRecord
100
AcDbLayerTableRecord
  2
06_SURFS
 70
0
 62
7
  6
CONTINUOUS
370
-3
390
F
  0
LAYER
  5
205
100
AcDbSymbolTableRecord
100
AcDbLayerTableRecord
  2
07_COSMETICS
 70
0
 62
7
  6
CONTINUOUS
370
-3
390
F
  0
LAYER
  5
206
100
AcDbSymbolTableRecord
100
AcDbLayerTableRecord
  2
10_NOTES
 70
0
 62
7
  6
CONTINUOUS
370
-3
390
F
  0
LAYER
  5
207
100
AcDbSymbolTableRecord
100
AcDbLayerTableRecord
  2
11_NOTES_PUB
 70
0
 62
7
  6
CONTINUOUS
370
-3
390
F
  0
LAYER
  5
208
100
AcDbSymbolTableRecord
100
AcDbLayerTableRecord
  2
13_REF_GTOL
 70
0
 62
7
  6
CONTINUOUS
370
-3
390
F
  0
LAYER
  5
209
100
AcDbSymbolTableRecord
100
AcDbLayerTableRecord
  2
16_MISC
 70
0
 62
7
  6
CONTINUOUS
370
-3
390
F
  0
LAYER
  5
20A
100
AcDbSymbolTableRecord
100
AcDbLayerTableRecord
  2
17_NO_PRINT
 70
0
 62
7
  6
CONTINUOUS
370
-3
390
F
  0
LAYER
  5
20B
100
AcDbSymbolTableRecord
100
AcDbLayerTableRecord
  2
18_DATUM_CAMS_JOINTS
 70
0
 62
7
  6
CONTINUOUS
370
-3
390
F
  0
LAYER
  5
20C
100
AcDbSymbolTableRecord
100
AcDbLayerTableRecord
  2
19_DATUM_FUNCTIONAL
 70
0
 62
7
  6
CONTINUOUS
370
-3
390
F
  0
LAYER
  5
20D
100
AcDbSymbolTableRecord
100
AcDbLayerTableRecord
  2
20_DATUM_KINEMATIC_SCHEME
 70
0
 62
7
  6
CONTINUOUS
370
-3
390
F
  0
ENDTAB
  0
TABLE
  2
STYLE
  5
3
100
AcDbSymbolTable
 70
1
  0
STYLE
  5
11
100
AcDbSymbolTableRecord
100
AcDbTextStyleTableRecord
  2
STANDARD
 70
0
 40
0.0
 41
1.0
 50
0.0
 71
0
 42
0.2
  3
ARIAL.TTF
  4

  0
STYLE
  5
20E
100
AcDbSymbolTableRecord
100
AcDbTextStyleTableRecord
  2
TEXTSTYLE_1
 70
0
 40
0.0
 41
0.8
 50
0.0
 71
0
 42
0.2
  3
gdt
  4

  0
ENDTAB
  0
TABLE
  2
VIEW
  5
6
100
AcDbSymbolTable
 70
0
  0
ENDTAB
  0
TABLE
  2
UCS
  5
7
100
AcDbSymbolTable
 70
0
  0
ENDTAB
  0
TABLE
  2
APPID
  5
9
100
AcDbSymbolTable
 70
1
  0
APPID
  5
20F
100
AcDbSymbolTableRecord
100
AcDbRegAppTableRecord
  2
ACAD
 70
0
  0
ENDTAB
  0
TABLE
  2
BLOCK_RECORD
  5
1
100
AcDbSymbolTable
 70
0
  0
BLOCK_RECORD
  5
210
100
AcDbSymbolTableRecord
100
AcDbBlockTableRecord
  2
*Model_Space
  0
BLOCK_RECORD
  5
211
100
AcDbSymbolTableRecord
100
AcDbBlockTableRecord
  2
*Paper_Space
  0
BLOCK_RECORD
  5
212
100
AcDbSymbolTableRecord
100
AcDbBlockTableRecord
  2
_FILLED
  0
ENDTAB
  0
TABLE
  2
DIMSTYLE
  5
A
100
AcDbSymbolTable
 70
1
100
AcDbDimStyleTable
 71
0
  0
DIMSTYLE
105
213
100
AcDbSymbolTableRecord
100
AcDbDimStyleTableRecord
  2
STANDARD
 70
0
  3

  4

 40
1.0
 41
0.4652587578
 42
1.0
 43
0.38
 44
1.0
 45
0.0
 46
0.0
 47
0.01
 48
0.01
140
0.6513622609
141
0.09
142
0.0
143
25.4
144
1.0
145
0.0
146
1.0
147
0.625
 71
1
 72
0
 73
0
 74
0
 75
0
 76
0
 77
1
 78
8
 79
2
170
0
171
1
172
0
173
0
174
0
175
0
176
0
177
0
178
0
270
2
179
2
271
2
272
2
273
2
274
2
275
0
280
0
281
0
282
0
283
1
284
8
285
0
286
0
287
3
288
0
340
11
278
46
341
212
342
212
343
212
344
212
  0
ENDTAB
  0
ENDSEC
  0
SECTION
  2
BLOCKS
  0
BLOCK
  5
20
100
AcDbEntity
  8
0
100
AcDbBlockBegin
  2
*Model_Space
 70
0
 10
0.0
 20
0.0
 30
0.0
  3
*Model_Space
  1

  0
ENDBLK
  5
21
100
AcDbEntity
  8
0
100
AcDbBlockEnd
  0
BLOCK
  5
1C
100
AcDbEntity
  8
0
100
AcDbBlockBegin
  2
*Paper_Space
 70
0
 10
0.0
 20
0.0
 30
0.0
  3
*Paper_Space
  1

  0
ENDBLK
  5
1D
100
AcDbEntity
  8
0
100
AcDbBlockEnd
  0
BLOCK
  5
214
100
AcDbEntity
  8
0
100
AcDbBlockBegin
  2
_FILLED
 70
64
 10
0.0
 20
0.0
  3
_FILLED
  1

  0
SOLID
  5
215
100
AcDbEntity
  8
0
  6
BYBLOCK
 62
0
100
AcDbTrace
 10
0.0
 20
0.0
 11
-1.0
 21
0.25
 12
-1.0
 22
-0.25
 13
-1.0
 23
-0.25
  0
ENDBLK
  5
216
100
AcDbEntity
  8
0
  6
BYBLOCK
 62
0
100
AcDbBlockEnd
  0
ENDSEC
  0
SECTION
  2
ENTITIES
  0
LWPOLYLINE
  5
217
100
AcDbEntity
  8
0
100
AcDbPolyline
 62
7
  6
BYLAYER
 90
13
 70
0
 10
6.196879194
 20
24.9022190072
 10
5.9365432021
 20
28.0100419425
 10
6.3729014542
 20
31.0972778971
 10
7.4825383104
 20
34.0110667013
 10
9.2122176279
 20
36.6046994094
 10
11.472880175
 20
38.750885907
 10
14.1541374182
 20
40.3405215917
 10
17.1202341807
 20
41.2966090973
 10
20.2246839194
 20
41.5703205889
 10
23.3117630947
 20
41.1486071673
 10
26.2287159731
 20
40.0534466164
 10
28.8289724993
 20
38.3378379978
 10
30.9850676202
 20
36.0897171485
  0
LINE
  5
218
100
AcDbEntity
  8
0
100
AcDbLine
 62
7
  6
BYLAYER
 10
5.9848815237
 20
26.3871326039
 11
6.0586326079
 21
29.4971092945
  0
LWPOLYLINE
  5
219
100
AcDbEntity
  8
0
100
AcDbPolyline
 62
7
  6
BYLAYER
 90
5
 70
0
 10
5.9376142594
 20
27.1853539656
 10
6.188949314
 20
30.2856775459
 10
7.1201384664
 20
33.2510872107
 10
8.6837655844
 20
35.9381191213
 10
10.8045981902
 20
38.2115197282
  0
LWPOLYLINE
  5
21A
100
AcDbEntity
  8
0
100
AcDbPolyline
 62
7
  6
BYLAYER
 90
3
 70
0
 10
5.9491941706
 20
28.33096793
 10
6.4565556848
 20
31.4098221315
 10
7.6309467688
 20
34.2895370481
  0
LWPOLYLINE
  5
21B
100
AcDbEntity
  8
0
100
AcDbPolyline
 62
7
  6
BYLAYER
 90
19
 70
0
 10
5.9823462191
 20
28.8047954609
 10
6.5925038326
 20
31.8616597564
 10
7.8671621304
 20
34.7061857693
 10
9.7397732325
 20
37.1972018237
 10
12.1187823495
 20
39.2103689259
 10
14.8844625927
 20
40.6452601541
 10
17.899321689
 20
41.4317812009
 10
21.0130402934
 20
41.5287522627
 10
24.0707719299
 20
40.9345546843
 10
26.9197646951
 20
39.6756507937
 10
29.4191331099
 20
37.8180136759
 10
31.4438160478
 20
35.4519027017
 10
32.8936347649
 20
32.6966935359
 10
33.6971529469
 20
29.6887880312
 10
33.8131107918
 20
26.5781748998
 10
33.2384737575
 20
23.5191581404
 10
31.9988977904
 20
20.6644522209
 10
30.1594102772
 20
18.1547438431
 10
27.8089121876
 20
16.1158618355
  0
LWPOLYLINE
  5
21C
100
AcDbEntity
  8
0
100
AcDbPolyline
 62
7
  6
BYLAYER
 90
50
 70
0
 10
5.9817168225
 20
28.8065699139
 10
6.5906149102
 20
31.852923117
 10
7.8564159535
 20
34.689515336
 10
9.7192897119
 20
37.1747028866
 10
12.0840213685
 20
39.1873167787
 10
14.835469331
 20
40.6264164156
 10
17.8361321191
 20
41.4220795411
 10
20.9382471576
 20
41.5352111156
 10
23.9879112486
 20
40.9593898435
 10
26.8352639909
 20
39.7254682777
 10
29.3383268161
 20
37.8919612211
 10
31.3755721222
 20
35.5524379924
 10
32.8444596591
 20
32.8203432581
 10
33.674635656
 20
29.8322823441
 10
33.824317112
 20
26.7348679283
 10
33.2864419381
 20
23.6815442145
 10
32.0889467946
 20
20.8221066655
 10
30.289171113
 20
18.2987239616
 10
27.978463948
 20
16.2336263855
 10
25.2686343797
 20
14.7308604441
 10
22.2951423308
 20
13.861595946
 10
19.20336351
 20
13.6704350612
 10
16.1458578798
 20
14.1653333335
 10
13.2722240905
 20
15.3220935377
 10
10.7247454339
 20
17.0850396778
 10
8.6273287047
 20
19.3659891951
 10
7.0860778016
 20
22.0546547829
 10
6.174269539
 20
25.0170252155
 10
5.9400331148
 20
28.1082848402
 10
6.3929214285
 20
31.175427583
 10
7.5121923952
 20
34.0674834061
 10
9.2427221384
 20
36.6410673275
 10
11.4986084956
 20
38.7702270476
 10
14.1699789922
 20
40.3475274854
 10
17.123735312
 20
41.2976650369
 10
20.2150242715
 20
41.5701888677
 10
23.290650343
 20
41.1543722231
 10
26.1986633978
 20
40.0682177473
 10
28.7950421139
 20
38.3663881621
 10
30.9518978948
 20
36.1326022978
 10
32.5608130505
 20
33.4766083062
 10
33.544371621
 20
30.5305236271
 10
33.8504548413
 20
27.4393817056
 10
33.4669834824
 20
24.3564750981
 10
32.4097479531
 20
21.4346726623
 10
30.7329594876
 20
18.8185290308
 10
28.5183990259
 20
16.6377246639
 10
25.8758336673
 20
15.001382388
 10
22.9364136561
 20
13.9890186932
 10
19.845467062
 20
13.6538613966
  0
LWPOLYLINE
  5
21D
100
AcDbEntity
  8
0
100
AcDbPolyline
 62
7
  6
BYLAYER
 90
25
 70
0
 10
6.0248718156
 20
29.2289680395
 10
6.7303123568
 20
32.2705602613
 10
8.0787537031
 20
35.040022733
 10
9.9969348058
 20
37.4533607819
 10
12.3932518412
 20
39.3902731783
 10
15.1621843903
 20
40.7417962408
 10
18.1612760206
 20
41.4595040888
 10
21.2433176151
 20
41.509069856
 10
24.2576585488
 20
40.8679039287
 10
27.0618008117
 20
39.5831600963
 10
29.5202762727
 20
37.7222493413
 10
31.4999950201
 20
35.3599811044
 10
32.9150845518
 20
32.6188850751
 10
33.7038239646
 20
29.6374904758
 10
33.8080585029
 20
26.5570026831
 10
33.231236785
 20
23.5265035457
 10
32.0137346778
 20
20.692583698
 10
30.1982796949
 20
18.2017356815
 10
27.8755559319
 20
16.17219618
 10
25.1699153992
 20
14.6921991575
 10
22.2059459414
 20
13.8485896648
 10
19.1258023918
 20
13.6834677962
 10
16.0822827604
 20
14.1870009667
 10
13.2276198054
 20
15.3473195387
 10
10.7029211921
 20
17.1138174311
  0
LWPOLYLINE
  5
21E
100
AcDbEntity
  8
0
100
AcDbPolyline
 62
7
  6
BYLAYER
 90
14
 70
0
 10
6.0586326079
 20
29.4971092945
 10
6.8214125749
 20
32.5211022838
 10
8.2356322125
 20
35.2965391904
 10
10.2289969187
 20
37.6905757872
 10
12.7048988167
 20
39.5821806135
 10
15.5383374667
 20
40.8782462507
 10
18.5894263924
 20
41.5135753848
 10
21.7053105107
 20
41.455647565
 10
24.7316364536
 20
40.708864211
 10
27.5161827751
 20
39.307698511
 10
29.9217304768
 20
37.3246943044
 10
31.8262262967
 20
34.8559697793
 10
33.1362977715
 20
32.0265907378
 10
33.7853448808
 20
28.9761293675
  0
LWPOLYLINE
  5
21F
100
AcDbEntity
  8
0
100
AcDbPolyline
 62
7
  6
BYLAYER
 90
22
 70
0
 10
6.1842178394
 20
30.2591693166
 10
7.1041764447
 20
33.2166503092
 10
8.6538969946
 20
35.8963513243
 10
10.7533265134
 20
38.1684833817
 10
13.3007710699
 20
39.9203158245
 10
16.1696891676
 20
41.0691709186
 10
19.2214418795
 20
41.558254175
 10
22.3072201621
 20
41.3634779889
 10
25.2766549934
 20
40.4942553796
 10
27.982343394
 20
38.990200545
 10
30.2923899885
 20
36.9266725462
 10
32.0900364039
 20
34.4021527107
 10
33.2880332983
 20
31.5422728732
 10
33.8246347196
 20
28.4865614715
 10
33.6729856051
 20
25.3866300376
 10
32.8401423801
 20
22.3949476079
 10
31.364859974
 20
19.6610982057
 10
29.3216273247
 20
17.3191309946
 10
26.8087903091
 20
15.4879704293
 10
23.9525926857
 20
14.2568614984
 10
20.8930903495
 20
13.6893775722
 10
17.783249736
 20
13.8136078851
  0
LINE
  5
220
100
AcDbEntity
  8
0
100
AcDbLine
 62
7
  6
BYLAYER
 10
6.1877051086
 20
30.2779019994
 11
7.1146093114
 21
33.2401893998
  0
LWPOLYLINE
  5
221
100
AcDbEntity
  8
0
100
AcDbPolyline
 62
7
  6
BYLAYER
 90
4
 70
0
 10
6.4552119927
 20
31.4029987068
 10
7.6291319393
 20
34.2866328849
 10
9.4131756297
 20
36.8391401384
 10
11.7192906262
 20
38.9319299809
  0
LWPOLYLINE
  5
222
100
AcDbEntity
  8
0
100
AcDbPolyline
 62
7
  6
BYLAYER
 90
7
 70
0
 10
6.7276766524
 20
32.2619891771
 10
8.0848447931
 20
35.0639941078
 10
10.0296039889
 20
37.4944821134
 10
12.4634259612
 20
39.4346629974
 10
15.2671025056
 20
40.7856967867
 10
18.2994806221
 20
41.4835745779
 10
21.4110435671
 20
41.4911342953
  0
LWPOLYLINE
  5
223
100
AcDbEntity
  8
0
100
AcDbPolyline
 62
7
  6
BYLAYER
 90
23
 70
0
 10
6.8193277155
 20
32.5135587063
 10
8.2288460483
 20
35.2876250459
 10
10.2188712105
 20
37.6797890378
 10
12.6888235967
 20
39.5733377144
 10
15.5179267441
 20
40.8711287126
 10
18.5642053145
 20
41.5113132622
 10
21.6772009839
 20
41.4594953906
 10
24.7013902758
 20
40.7194188803
 10
27.4871335868
 20
39.3273918065
 10
29.8943569396
 20
37.3517371222
 10
31.8052175619
 20
34.8919637138
 10
33.1216111417
 20
32.0688138508
 10
33.7808998687
 20
29.0241049233
 10
33.7471873981
 20
25.9084793847
 10
33.0240620381
 20
22.8777615765
 10
31.6462703184
 20
20.0823230208
 10
29.6822927602
 20
17.6626367556
 10
27.230627152
 20
15.7376251102
 10
24.4121556163
 20
14.406016407
 10
21.3685239301
 20
13.7312782451
 10
18.2506177504
 20
13.7504136422
 10
15.2144761027
 20
14.4600029069
 10
12.4110864385
 20
15.8265983528
  0
LWPOLYLINE
  5
224
100
AcDbEntity
  8
0
100
AcDbPolyline
 62
7
  6
BYLAYER
 90
28
 70
0
 10
7.3141329998
 20
33.6717410213
 10
8.9452932139
 20
36.2656866124
 10
11.0952085678
 20
38.4473493287
 10
13.6646337474
 20
40.109033278
 10
16.5394638022
 20
41.1585100538
 10
19.5763244755
 20
41.5641468777
 10
22.6296053763
 20
41.3036377854
 10
25.5474983122
 20
40.3703803656
 10
28.1967485025
 20
38.8258593188
 10
30.4513781438
 20
36.74557144
 10
32.185777884
 20
34.216819038
 10
33.3291994598
 20
31.368440969
 10
33.8326583968
 20
28.3392456683
 10
33.6505695116
 20
25.2755698525
 10
32.801543426
 20
22.3234439661
 10
31.3363305058
 20
19.6216965874
 10
29.3100345006
 20
17.3132663376
 10
26.8234270111
 20
15.5059493373
 10
24.0043925851
 20
14.2753523815
 10
20.9851183475
 20
13.6982321824
 10
17.9109156547
 20
13.8032961054
 10
14.9294708175
 20
14.5685253292
 10
12.1913166229
 20
15.9702365652
 10
9.8317437228
 20
17.9462661962
 10
7.9525637563
 20
20.3865025787
 10
6.6549072884
 20
23.17761789
 10
6.0119421313
 20
26.1888806893
 10
6.0350749501
 20
29.2703122084
  0
LWPOLYLINE
  5
225
100
AcDbEntity
  8
0
100
AcDbPolyline
 62
7
  6
BYLAYER
 90
48
 70
0
 10
7.6855972724
 20
34.3898633826
 10
9.4890251015
 20
36.9237540846
 10
11.8077246175
 20
38.9962572896
 10
14.5280908131
 20
40.5024507103
 10
17.5134054486
 20
41.3707015696
 10
20.6167470228
 20
41.5551337438
 10
23.6834795463
 20
41.0495680951
 10
26.5620498149
 20
39.8775242969
 10
29.1093948479
 20
38.098049654
 10
31.2004805259
 20
35.7998543559
 10
32.730097634
 20
33.0959134871
 10
33.6253803038
 20
30.1215267202
 10
33.8390668297
 20
27.0230119357
 10
33.3640600427
 20
23.9543087831
 10
32.2215648932
 20
21.0670646838
 10
30.4699806789
 20
18.5040567406
 10
28.1956174344
 20
16.3914308159
 10
25.5107833127
 20
14.8346113195
 10
22.5490815903
 20
13.9081648953
 10
19.4562241193
 20
13.6605678485
 10
16.3853468143
 20
14.1003973068
 10
13.4881992201
 20
15.2087781307
 10
10.907299528
 20
16.9282713673
 10
8.7700770075
 20
19.175193818
 10
7.1821412294
 20
21.8380034936
 10
6.2202237219
 20
24.7850515801
 10
5.9338147636
 20
27.8712503234
 10
6.3336313571
 20
30.9443826493
 10
7.4030207129
 20
33.85262751
 10
9.0859441586
 20
36.4535974076
 10
11.3014969783
 20
38.6185372368
 10
13.939390351
 20
40.2417388672
 10
16.8705678726
 20
41.2437686383
 10
19.9509419516
 20
41.5738021693
 10
23.0290954565
 20
41.2176299686
 10
25.952644262
 20
40.1894085082
 10
28.5785524858
 20
38.5427030434
 10
30.7757610318
 20
36.3556896975
 10
32.4370610811
 20
33.7379512508
 10
33.4795073561
 20
30.817324581
 10
33.8511376572
 20
27.7383704872
 10
33.534679669
 20
24.6525644803
 10
32.543106016
 20
21.7130273242
 10
30.927966539
 20
19.063732657
 10
28.7659487673
 20
16.8375215656
 10
26.1660118751
 20
15.1426152643
 10
23.2549446572
 20
14.0646731854
 10
20.177488291
 20
13.6564224182
  0
LWPOLYLINE
  5
226
100
AcDbEntity
  8
0
100
AcDbPolyline
 62
7
  6
BYLAYER
 90
13
 70
0
 10
8.4837494017
 20
35.6610990696
 10
10.5548145338
 20
37.9928425041
 10
13.0914251205
 20
39.8058623869
 10
15.9667362452
 20
41.0117003048
 10
19.0377927331
 20
41.5477350186
 10
22.1509976783
 20
41.390678967
 10
25.1512145078
 20
40.5452317538
 10
27.8890644725
 20
39.0566045695
 10
30.2281678451
 20
36.9972062174
 10
32.051684984
 20
34.4708085273
 10
33.2701882423
 20
31.6031892122
 10
33.8209804747
 20
28.5370393706
 10
33.679839948
 20
25.4253078791
  0
LWPOLYLINE
  5
227
100
AcDbEntity
  8
0
100
AcDbPolyline
 62
7
  6
BYLAYER
 90
39
 70
0
 10
8.6745335678
 20
35.9243533199
 10
10.7887363384
 20
38.199093541
 10
13.3551726083
 20
39.9492841792
 10
16.2452069141
 20
41.0898912679
 10
19.317167276
 20
41.5625217447
 10
22.4178982239
 20
41.3435988912
 10
25.3945389724
 20
40.4443562516
 10
28.0980238649
 20
38.9070733901
 10
30.3955771201
 20
36.8100833965
 10
32.1709538357
 20
34.2548388633
 10
33.337262357
 20
31.3699690482
 10
33.8353408034
 20
28.2974127678
 10
33.6398075714
 20
25.1907106809
 10
32.7614891675
 20
22.2035956086
 10
31.2413918629
 20
19.4858205487
 10
29.1576044235
 20
17.1713888434
 10
26.6112531638
 20
15.3771979937
 10
23.7306970558
 20
14.1916302495
 10
20.6583172074
 20
13.6742072639
 10
17.5476410109
 20
13.8518250089
 10
14.5531384087
 20
14.7138098425
 10
11.8249528889
 20
16.2201252704
 10
9.497927012
 20
18.2930454359
 10
7.6893320495
 20
20.8314853071
 10
6.4887156276
 20
23.7076976061
 10
5.9556906124
 20
26.7788511435
 10
6.1184387007
 20
29.891607731
 10
6.9663890293
 20
32.891139631
 10
8.4601790038
 20
35.6270501772
 10
10.5227486243
 20
37.9640419163
 10
13.0529362822
 20
39.7846821651
 10
15.9237491234
 20
40.9983958715
 10
18.9922537329
 20
41.5457070514
 10
22.1053179441
 20
41.3972786703
 10
25.1081996933
 20
40.5634590581
 10
27.8504545047
 20
39.0830619982
 10
30.1963727901
 20
37.0322375511
 10
32.0287299564
 20
34.5120480819
 10
33.2558966392
 20
31.6487780537
  0
LINE
  5
228
100
AcDbEntity
  8
0
100
AcDbLine
 62
7
  6
BYLAYER
 10
9.4128843085
 20
36.8386472541
 11
11.7159021066
 21
38.9299395006
  0
LWPOLYLINE
  5
229
100
AcDbEntity
  8
0
100
AcDbPolyline
 62
7
  6
BYLAYER
 90
3
 70
0
 10
10.7959444588
 20
38.2049978618
 10
13.3754504528
 20
39.9608189593
 10
16.2707420079
 20
41.0962656688
  0
LWPOLYLINE
  5
22A
100
AcDbEntity
  8
0
100
AcDbPolyline
 62
7
  6
BYLAYER
 90
14
 70
0
 10
11.7159021066
 20
38.9299395006
 10
14.4318207114
 20
40.4629603777
 10
17.4169875236
 20
41.3528178434
 10
20.5253447214
 20
41.5602536391
 10
23.6026220468
 20
41.0717628102
 10
26.4951909809
 20
39.9136584621
 10
29.0593690154
 20
38.1422811029
 10
31.1661939023
 20
35.8458973443
 10
32.7124079267
 20
33.1393208571
 10
33.6180007172
 20
30.1565595134
 10
33.8408775782
 20
27.0470111004
 10
33.3664742818
 20
23.9653481367
 10
32.2209684874
 20
21.0654361545
 10
30.45950577
 20
18.4917567229
  0
LWPOLYLINE
  5
22B
100
AcDbEntity
  8
0
100
AcDbPolyline
 62
7
  6
BYLAYER
 90
4
 70
0
 10
13.3695824843
 20
39.9570864563
 10
16.2673873528
 20
41.0955771496
 10
19.3461526777
 20
41.5638817969
 10
22.4520341652
 20
41.3370869836
  0
LWPOLYLINE
  5
22C
100
AcDbEntity
  8
0
100
AcDbPolyline
 62
7
  6
BYLAYER
 90
49
 70
0
 10
13.7156678739
 20
40.1344081141
 10
16.6330331456
 20
41.1884252415
 10
19.7103137609
 20
41.5731903988
 10
22.7963660665
 20
41.2687864434
 10
25.7383603059
 20
40.29064264
 10
28.3921890436
 20
38.6882785285
 10
30.6255850558
 20
36.5391868536
 10
32.3309738519
 20
33.9515924775
 10
33.4217585104
 20
31.0513044586
 10
33.8473211045
 20
27.9827262518
 10
33.5847748652
 20
24.8961896438
 10
32.6485360144
 20
21.9437801544
 10
31.0843960216
 20
19.2699567855
 10
28.9682187834
 20
17.0073431431
 10
26.4053415451
 20
15.2656348156
 10
23.5203684668
 20
14.133686351
 10
20.4565776454
 20
13.6644117083
 10
17.3642620584
 20
13.8842686625
 10
14.3961818981
 20
14.7803560421
 10
11.6986575796
 20
16.3101001159
 10
9.4054832355
 20
18.3980222457
 10
7.6287111431
 20
20.9407423055
 10
6.4585733518
 20
23.8138720537
 10
5.9501222284
 20
26.8747404303
 10
6.1321067959
 20
29.9726781776
 10
6.9927594692
 20
32.954566202
 10
8.4920733956
 20
35.6727143257
 10
10.5549331858
 20
37.9926315355
 10
13.0798357638
 20
39.8000310815
 10
15.9423723348
 20
41.0036906849
 10
19.0005336131
 20
41.5463249944
 10
22.1032283571
 20
41.3975612821
 10
25.0970439116
 20
40.5678433423
 10
27.8330580557
 20
39.0951237351
 10
30.1761862321
 20
37.0541491131
 10
32.0100859566
 20
34.544767212
 10
33.2428401467
 20
31.6915085793
 10
33.8149441635
 20
28.6357325327
 10
33.6949711646
 20
25.5289837916
 10
32.8918768731
 20
22.5249250846
 10
31.442079756
 20
19.7735543829
 10
29.4198971258
 20
17.4104966925
 10
26.9237963488
 20
15.5539205024
 10
24.0784711024
 20
14.2962447322
 10
21.0246908593
 20
13.6990745606
 10
17.914458082
 20
13.7944725759
 10
14.9016668323
 20
14.5750366453
 10
12.1372237522
 20
16.0054004279
 10
9.7572750839
 20
18.0117637356
  0
LWPOLYLINE
  5
22D
100
AcDbEntity
  8
0
100
AcDbPolyline
 62
7
  6
BYLAYER
 90
23
 70
0
 10
14.424920105
 20
40.4592679757
 10
17.4058522795
 20
41.3515848243
 10
20.5105503747
 20
41.5601476389
 10
23.5851324822
 20
41.0773057961
 10
26.4759610269
 20
39.9235309397
 10
29.0403379016
 20
38.1589854939
 10
31.1495955103
 20
35.8689070083
 10
32.6991929659
 20
33.1685029941
 10
33.6122291597
 20
30.1911769997
 10
33.8415838997
 20
27.0854835014
 10
33.3780520423
 20
24.005384192
 10
32.2414170908
 20
21.1051896825
 10
30.4911829503
 20
18.5280605565
 10
28.2116858258
 20
16.4038779167
 10
25.5182438883
 20
14.8375027226
 10
22.5437138489
 20
13.9074716556
 10
19.4370478345
 20
13.6610660015
 10
16.3522920498
 20
14.1089675961
 10
13.444305442
 20
15.2317219881
 10
10.8567311567
 20
16.9705217885
 10
8.7204194357
 20
19.2416178543
 10
7.1405013966
 20
21.9296528279
 10
6.1968790634
 20
24.9022196672
  0
LINE
  5
22E
100
AcDbEntity
  8
0
100
AcDbLine
 62
7
  6
BYLAYER
 10
25.0692976069
 20
14.6494662224
 11
22.0666947362
 21
13.8236126429
  0
LWPOLYLINE
  5
22F
100
AcDbEntity
  8
0
100
AcDbPolyline
 62
7
  6
BYLAYER
 90
17
 70
0
 10
23.9715788904
 20
14.2633357884
 10
20.915785531
 20
13.6905444019
 10
17.8092575385
 20
13.8098255185
 10
14.8064958647
 20
14.6122389571
 10
12.0560352931
 20
16.0595882929
 10
9.6944940147
 20
18.0791475301
 10
7.8376528137
 20
20.5704286654
 10
6.579194347
 20
23.4107291789
 10
5.978433789
 20
26.4582846665
 10
6.068129161
 20
29.5628636301
 10
6.8403218828
 20
32.5705685503
 10
8.2591100114
 20
35.3325449987
 10
10.252440362
 20
37.7123960634
 10
12.7221051443
 20
39.593000309
 10
15.5460445875
 20
40.8803958298
 10
18.5840166207
 20
41.5134092534
 10
21.6862743579
 20
41.458014618
  0
LINE
  5
230
100
AcDbEntity
  8
0
100
AcDbLine
 62
7
  6
BYLAYER
 10
23.2688321114
 20
14.0680404653
 11
20.1857216776
 21
13.6562980751
  0
LWPOLYLINE
  5
231
100
AcDbEntity
  8
0
100
AcDbPolyline
 62
7
  6
BYLAYER
 90
3
 70
0
 10
22.066594047
 20
13.8237059535
 10
18.9556545596
 20
13.6848640884
 10
15.8919225782
 20
14.2386674884
  0
LWPOLYLINE
  5
232
100
AcDbEntity
  8
0
100
AcDbPolyline
 62
7
  6
BYLAYER
 90
23
 70
0
 10
20.5734551378
 20
13.6700075758
 10
17.460941222
 20
13.8664645684
 10
14.4705686418
 20
14.7491344926
 10
11.7501371063
 20
16.2725226272
 10
9.4370048194
 20
18.3625322418
 10
7.6440863274
 20
20.9124645773
 10
6.4631899034
 20
23.7971769807
 10
5.9506553843
 20
26.8711226031
 10
6.1333875983
 20
29.9822534423
 10
7.0015468941
 20
32.9746102863
 10
8.5110762379
 20
35.7002866954
 10
10.5881337269
 20
38.0220272326
 10
13.1271063894
 20
39.8265801806
 10
16.0034902541
 20
41.0215758479
 10
19.0723520894
 20
41.5504852637
 10
22.1820840018
 20
41.3849873052
 10
25.1771522742
 20
40.5348591365
 10
27.9095146446
 20
39.0424339723
 10
30.2420999423
 20
36.9812677724
 10
32.0610728737
 20
34.4555740596
 10
33.2735347605
 20
31.5892470304
 10
33.8224484085
 20
28.5263979875
 10
33.6779999671
 20
25.4181805308
  0
LWPOLYLINE
  5
233
100
AcDbEntity
  8
0
100
AcDbPolyline
 62
7
  6
BYLAYER
 90
3
 70
0
 10
20.1857216776
 20
13.6562980751
 10
17.0851574205
 20
13.9380532658
 10
14.1317354045
 20
14.8973292725
  0
LWPOLYLINE
  5
234
100
AcDbEntity
  8
0
100
AcDbPolyline
 62
7
  6
BYLAYER
 90
3
 70
0
 10
19.8562794158
 20
13.6531438907
 10
16.7563164503
 20
14.009498366
 10
13.8226707837
 20
15.0418139775
  0
LINE
  5
235
100
AcDbEntity
  8
0
100
AcDbLine
 62
7
  6
BYLAYER
 10
18.9595598874
 20
13.6848075882
 11
15.8988711102
 21
14.2360073604
  0
LWPOLYLINE
  5
236
100
AcDbEntity
  8
0
100
AcDbPolyline
 62
7
  6
BYLAYER
 90
80
 70
0
 10
17.7905156275
 20
13.8118602334
 10
14.7768051403
 20
14.6236805867
 10
12.0246816243
 20
16.0813665675
 10
9.6625592575
 20
18.1123863751
 10
7.8105389682
 20
20.61840143
 10
6.5591228523
 20
23.4726584092
 10
5.97285158
 20
26.5345236504
 10
6.0805074152
 20
29.6503669228
 10
6.8766935574
 20
32.6654566728
 10
8.3234682742
 20
35.4282434223
 10
10.3465552201
 20
37.8021787626
 10
12.8474967141
 20
39.6665243031
 10
15.6994241813
 20
40.9302662691
 10
18.7612537382
 20
41.528427424
 10
21.8792377112
 20
41.4319038061
 10
24.8982907327
 20
40.6459410388
 10
27.6665989385
 20
39.2082976388
 10
30.0475586579
 20
37.1930976219
 10
31.9201557519
 20
34.6987868421
 10
33.1933231918
 20
31.8519739502
 10
33.8019878278
 20
28.7935968145
 10
33.7168197621
 20
25.6772194789
 10
32.9428858726
 20
22.6574836005
 10
31.5176030966
 20
19.8861118678
 10
29.5146440746
 20
17.4993271136
 10
27.03186237
 20
15.6179665925
 10
24.1952615432
 20
14.3330780681
 10
21.144841697
 20
13.7097640693
 10
18.0335332792
 20
13.7777003485
 10
15.0150642866
 20
14.5323644217
 10
12.240430518
 20
15.9371180291
 10
9.8453943374
 20
17.9192757959
 10
7.9503474977
 20
20.382332893
 10
6.6463898858
 20
23.2014939517
 10
5.9990031788
 20
26.2383382778
 10
6.038446907
 20
29.3413465273
 10
6.761499276
 20
32.357944539
 10
8.1328766127
 20
35.1384214463
 10
10.0817721126
 20
37.5475010232
 10
12.513756294
 20
39.4651457949
 10
15.3061889792
 20
40.800097552
 10
18.322790598
 20
41.4857642164
 10
21.4143240914
 20
41.4909206647
 10
24.4304208392
 20
40.8160783723
 10
27.2237867527
 20
39.4933355447
 10
29.6595419395
 20
37.5884600676
 10
31.6159973666
 20
35.1914191917
 10
32.998475577
 20
32.4212770684
 10
33.7354215792
 20
29.4124613259
 10
33.7912984755
 20
26.3137669633
 10
33.1615215284
 20
23.2772734744
 10
31.8757245884
 20
20.453908223
 10
29.997887625
 20
17.9821922292
 10
27.618198086
 20
15.9870563711
 10
24.8557889821
 20
14.5653981292
 10
21.8455578565
 20
13.7910089735
 10
18.7377018881
 20
13.701071493
 10
15.685539592
 20
14.3018557055
 10
12.8417696297
 20
15.5644150395
 10
10.3466143235
 20
17.4254626947
 10
8.3265614029
 20
19.7948604998
 10
6.88016449
 20
22.5530443774
 10
6.0824525233
 20
25.5647051478
 10
5.9716319464
 20
28.6786270762
 10
6.5547518941
 20
31.740544523
 10
7.8033031298
 20
34.5968514564
 10
9.6541013364
 20
37.1060977953
 10
12.0170525038
 20
39.141053891
 10
14.7722388125
 20
40.6022531949
 10
17.7839497926
 20
41.414069807
 10
20.9007014847
 20
41.537814904
 10
23.9674954459
 20
40.9661562048
 10
26.8304719861
 20
39.7273394117
 10
29.3477026033
 20
37.8845351734
 10
31.3915769921
 20
35.5278422321
 10
32.8624985054
 20
32.7770307043
 10
33.684545073
 20
29.7680045889
 10
33.8188131082
 20
26.6520324412
 10
33.2578729703
 20
23.5841456973
 10
32.0298110404
 20
20.7182982461
  0
LWPOLYLINE
  5
237
100
AcDbEntity
  8
0
100
AcDbPolyline
 62
7
  6
BYLAYER
 90
3
 70
0
 10
17.0896211152
 20
13.9377115129
 10
14.1331446331
 20
14.8957604199
 10
11.4621539992
 20
16.4848233728
  0
LWPOLYLINE
  5
238
100
AcDbEntity
  8
0
100
AcDbPolyline
 62
7
  6
BYLAYER
 90
4
 70
0
 10
16.7631973678
 20
14.0084896007
 10
13.8256601337
 20
15.0401431824
 10
11.1890500997
 20
16.697367578
 10
8.9861055741
 20
18.8984970878
  0
LWPOLYLINE
  5
239
100
AcDbEntity
  8
0
100
AcDbPolyline
 62
7
  6
BYLAYER
 90
8
 70
0
 10
15.8988711102
 20
14.2360073604
 10
13.0269655053
 20
15.4573380609
 10
10.5043781296
 20
17.2810467017
 10
8.447621912
 20
19.6171856353
 10
6.9612421178
 20
22.3515172854
 10
6.1160665239
 20
25.3461839894
 10
5.9565166981
 20
28.4536628651
 10
6.4882620089
 20
31.5187188311
  0
LWPOLYLINE
  5
23A
100
AcDbEntity
  8
0
100
AcDbPolyline
 62
7
  6
BYLAYER
 90
63
 70
0
 10
14.7853530311
 20
14.6211143559
 10
12.0338500623
 20
16.074242659
 10
9.6734726224
 20
18.1016793291
 10
7.8205472967
 20
20.6004768175
 10
6.5670510006
 20
23.4475507195
 10
5.9757577308
 20
26.5009629573
 10
6.0739297293
 20
29.6093386165
 10
6.8592045308
 20
32.6180516877
 10
8.2891730066
 20
35.3786953058
 10
10.2957374162
 20
37.753235982
 10
12.7767325168
 20
39.6254294301
 10
15.610611971
 20
40.9017447105
 10
18.6559563549
 20
41.5192998134
 10
21.762298273
 20
41.4487248284
 10
24.7752700174
 20
40.6917400286
 10
27.5466416453
 20
39.2888833011
 10
29.937861269
 20
37.3068327183
 10
31.8325557795
 20
34.8466085012
 10
33.1355297295
 20
32.0281457037
 10
33.783661256
 20
28.9921973344
 10
33.7451201614
 20
25.8882593438
 10
33.0210109521
 20
22.8703648694
 10
31.6494699932
 20
20.0866882597
 10
29.6958778494
 20
17.6761801454
 10
27.2596287259
 20
15.7556522015
 10
24.4590409195
 20
14.4219805134
 10
21.4339934335
 20
13.7387617205
 10
18.3329650004
 20
13.7405669448
 10
15.3095616141
 20
14.42695413
 10
12.512035203
 20
15.7627024949
 10
10.0795836992
 20
17.6835961557
 10
8.1298290791
 20
20.0924241948
 10
6.7612317844
 20
22.8724283692
 10
6.0382594708
 20
25.8848338475
 10
5.9983594895
 20
28.9822596743
 10
6.6420253674
 20
32.011939396
 10
7.9377809079
 20
34.8256349916
 10
9.8230660784
 20
37.2839527954
 10
12.2037507796
 20
39.2674416383
 10
14.9644962218
 20
40.6755118044
 10
17.9678716147
 20
41.4415203794
 10
21.0668830953
 20
41.5244698365
 10
24.1082406011
 20
40.9222929923
 10
26.9421675776
 20
39.6630820203
 10
29.4281430137
 20
37.8088993098
 10
31.4445612803
 20
35.4516972088
 10
32.8894828042
 20
32.7064651985
 10
33.6941957057
 20
29.7098212574
 10
33.8153854264
 20
26.608910146
 10
33.2498215843
 20
23.557268497
 10
32.0229080594
 20
20.7057856064
 10
30.1962777224
 20
18.1956405934
 10
27.8597967832
 20
16.1504797273
 10
25.1283785487
 20
14.6732300905
 10
22.1377644804
 20
13.8347613121
 10
19.035360863
 20
13.6800450845
 10
15.9748673101
 20
14.2136579093
 10
13.1081988174
 20
15.4123606209
 10
10.5770892326
 20
17.2149452455
 10
8.5070692154
 20
19.5333936174
 10
7.0017692169
 20
22.2527390594
 10
6.1342041361
 20
25.2381035402
 10
5.9504390008
 20
28.3417323254
  0
LINE
  5
23B
100
AcDbEntity
  8
0
100
AcDbLine
 62
7
  6
BYLAYER
 10
14.7799422104
 20
14.6222960805
 11
12.0328332167
 21
16.0753131178
  0
LWPOLYLINE
  5
23C
100
AcDbEntity
  8
0
100
AcDbPolyline
 62
7
  6
BYLAYER
 90
3
 70
0
 10
13.0371498322
 20
15.4523799127
 10
10.5150156054
 20
17.2702913435
 10
8.4590732169
 20
19.6022100916
  0
LWPOLYLINE
  5
23D
100
AcDbEntity
  8
0
100
AcDbPolyline
 62
7
  6
BYLAYER
 90
13
 70
0
 10
12.4110870066
 20
15.8265979922
 10
9.9809562985
 20
17.781285427
 10
8.0461880693
 20
20.2263020452
 10
6.7013314696
 20
23.0392755385
 10
6.0159163052
 20
26.0804804344
 10
6.0207055086
 20
29.1976407924
 10
6.7185834724
 20
32.2355756768
 10
8.0716900998
 20
35.0428761199
 10
10.0143651518
 20
37.4797880599
 10
12.4486682777
 20
39.4245421153
 10
15.2533404455
 20
40.7816731915
 10
18.2889236516
 20
41.4815885675
 10
21.4038348452
 20
41.4926239102
  0
LWPOLYLINE
  5
23E
100
AcDbEntity
  8
0
100
AcDbPolyline
 62
7
  6
BYLAYER
 90
3
 70
0
 10
11.4637840653
 20
16.4846946737
 10
9.2117266318
 20
18.6222505049
 10
7.4864859187
 20
21.2091145869
  0
LINE
  5
23F
100
AcDbEntity
  8
0
100
AcDbLine
 62
7
  6
BYLAYER
 10
11.4621539992
 20
16.4848233728
 11
9.2106346935
 21
18.624801441
  0
LINE
  5
240
100
AcDbEntity
  8
0
100
AcDbLine
 62
7
  6
BYLAYER
 10
11.1895566265
 20
16.6971006818
 11
8.9882592065
 21
18.8952098481
  0
LWPOLYLINE
  5
241
100
AcDbEntity
  8
0
100
AcDbPolyline
 62
7
  6
BYLAYER
 90
5
 70
0
 10
10.2640656842
 20
17.5040347848
 10
8.2598838838
 20
19.8935103625
 10
6.8368692314
 20
22.6677604708
 10
6.0640012983
 20
25.6883786701
 10
5.9817168225
 20
28.8065699139
  0
LWPOLYLINE
  5
242
100
AcDbEntity
  8
0
100
AcDbPolyline
 62
7
  6
BYLAYER
 90
3
 70
0
 10
9.7572750839
 20
18.0117637356
 10
7.8775419216
 20
20.5024186973
 10
6.6020164536
 20
23.3387873615
  0
LWPOLYLINE
  5
243
100
AcDbEntity
  8
0
100
AcDbPolyline
 62
7
  6
BYLAYER
 90
29
 70
0
 10
9.6750679593
 20
18.0995729549
 10
7.8231812447
 20
20.5950380808
 10
6.5701718993
 20
23.438354748
 10
5.976232805
 20
26.4877566908
 10
6.0717048005
 20
29.5926292455
 10
6.8513992371
 20
32.5986214563
 10
8.2751365766
 20
35.3577228947
 10
10.2735822086
 20
37.7327090401
 10
12.7460640844
 20
39.607113806
 10
15.5704149622
 20
40.8892086794
 10
18.6069474696
 20
41.5149760626
 10
21.7052203108
 20
41.4562507863
 10
24.7128986769
 20
40.7155799377
 10
27.481513456
 20
39.3306379492
 10
29.8762179382
 20
37.3715354439
 10
31.778904293
 20
34.9339962526
 10
33.0980695137
 20
32.1396141925
 10
33.7703133955
 20
29.1255384559
 10
33.7628455384
 20
26.0398941585
 10
33.0791829381
 20
23.032549889
 10
31.7513387923
 20
20.2487207759
 10
29.8433077375
 20
17.8233197907
 10
27.4475714525
 20
15.8744107325
 10
24.6795894939
 20
14.5001439143
 10
21.6753810401
 20
13.7676897617
 10
18.5815583489
 20
13.7145353697
 10
15.5506911497
 20
14.3454712805
 10
12.731586011
 20
15.6288334281
 10
10.2639510748
 20
17.5039152356
  0
LWPOLYLINE
  5
244
100
AcDbEntity
  8
0
100
AcDbPolyline
 62
7
  6
BYLAYER
 90
14
 70
0
 10
8.9882592065
 20
18.8952098481
 10
7.3243965472
 20
21.5329983022
 10
6.2897767375
 20
24.4711319028
 10
5.930746058
 20
27.5656449582
 10
6.2683294071
 20
30.6631111017
 10
7.2837498111
 20
33.6087998365
 10
8.9277528823
 20
36.2564479708
 10
11.1184771634
 20
38.4729354161
 10
13.7462901708
 20
40.1495191117
 10
16.6812525077
 20
41.1997379538
 10
19.7762010637
 20
41.5742494546
 10
22.8773594368
 20
41.2509510569
 10
25.8297670167
 20
40.2484728719
 10
28.4864208769
 20
38.6148367468
  0
LWPOLYLINE
  5
245
100
AcDbEntity
  8
0
100
AcDbPolyline
 62
7
  6
BYLAYER
 90
4
 70
0
 10
7.8815566174
 20
20.4967400663
 10
6.6028680249
 20
23.3354703454
 10
5.9847254916
 20
26.3876834732
 10
6.0595279475
 20
29.5009358392
  0
LWPOLYLINE
  5
246
100
AcDbEntity
  8
0
100
AcDbPolyline
 62
7
  6
BYLAYER
 90
3
 70
0
 10
7.4895481107
 20
21.2044185083
 10
6.3801073661
 20
24.1011820683
 10
5.937943159
 20
27.1701747168
  0
LWPOLYLINE
  5
247
100
AcDbEntity
  8
0
100
AcDbPolyline
 62
7
  6
BYLAYER
 90
3
 70
0
 10
7.4864859187
 20
21.2091145869
 10
6.3764503892
 20
24.1145120044
 10
5.9376142594
 20
27.1853539656
  0
LWPOLYLINE
  5
248
100
AcDbEntity
  8
0
100
AcDbPolyline
 62
7
  6
BYLAYER
 90
23
 70
0
 10
7.328421634
 20
21.5262863072
 10
6.2915522386
 20
24.4600701854
 10
5.9315746321
 20
27.5508734521
 10
6.2636473999
 20
30.6453716437
 10
7.2748284987
 20
33.5891105722
 10
8.9119980996
 20
36.236623572
 10
11.0963057973
 20
38.4552328235
 10
13.717788421
 20
40.134894387
 10
16.6469582892
 20
41.1922822305
 10
19.7377400898
 20
41.5730755649
 10
22.8368056082
 20
41.2605592431
 10
25.7890620395
 20
40.2669551118
 10
28.4486129621
 20
38.6447026749
 10
30.6816125293
 20
36.47169279
 10
32.3776917052
 20
33.8579835199
 10
33.4519175505
 20
30.9324364643
 10
33.8497889497
 20
27.841516242
 10
33.5531116981
 20
24.7385633422
 10
32.5737521969
 20
21.7792021774
 10
30.9634306929
 20
19.1097771304
 10
28.7994043397
 20
16.8650733522
 10
26.1917571432
 20
15.1557316286
 10
23.2688348742
 20
14.0680266451
  0
LWPOLYLINE
  5
249
100
AcDbEntity
  8
0
100
AcDbPolyline
 62
7
  6
BYLAYER
 90
14
 70
0
 10
6.9693953148
 20
22.3300855917
 10
6.1207536131
 20
25.3200121323
 10
5.9546965663
 20
28.4229013954
 10
6.4782982816
 20
31.4856097042
 10
7.6673064378
 20
34.3556766587
 10
9.4599641462
 20
36.8923843752
 10
11.7700685548
 20
38.968407839
 10
14.480683018
 20
40.4833796931
 10
17.4592526658
 20
41.3606461911
 10
20.5573134082
 20
41.558324246
 10
23.6223231857
 20
41.0667639454
 10
26.5020626267
 20
39.9095595738
 10
29.0555180235
 20
38.1460841399
 10
31.1547803525
 20
35.8613151565
  0
LINE
  5
24A
100
AcDbEntity
  8
0
100
AcDbLine
 62
7
  6
BYLAYER
 10
6.3776420747
 20
24.1117240625
 11
5.9375205006
 21
27.1877799883
  0
LWPOLYLINE
  5
24B
100
AcDbEntity
  8
0
100
AcDbPolyline
 62
7
  6
BYLAYER
 90
17
 70
0
 10
17.1997395351
 20
37.1760689567
 10
18.5260901684
 20
37.7200639549
 10
19.9450889422
 20
37.8974763136
 10
21.3579408545
 20
37.6921459218
 10
22.6660002776
 20
37.127732651
 10
23.7760970099
 20
36.2392652106
 10
24.6156037112
 20
35.0951063697
 10
25.1246544116
 20
33.7742943374
 10
25.2721559398
 20
32.36851378
 10
25.0500836219
 20
30.9739171359
 10
24.4703304693
 20
29.685110543
 10
23.5760068512
 20
28.5880710366
 10
22.4216542035
 20
27.7635545245
 10
21.0899129485
 20
27.2651063579
 10
19.6715298306
 20
27.1360205654
 10
18.265248144
 20
27.3822133069
 10
16.9718631963
 20
27.9913547778
  0
LWPOLYLINE
  5
24C
100
AcDbEntity
  8
0
100
AcDbPolyline
 62
7
  6
BYLAYER
 90
65
 70
0
 10
15.230565431
 20
35.2048136612
 10
16.252225759
 20
36.4811133471
 10
17.6142317013
 20
37.3898679767
 10
19.1854277748
 20
37.8511735838
 10
20.8236063213
 20
37.8141444019
 10
22.3759126965
 20
37.2902662014
 10
23.696227611
 20
36.3197755293
 10
24.6671467988
 20
34.9998715902
 10
25.1913782893
 20
33.4478569916
 10
25.2293207026
 20
31.8104047838
 10
24.769005452
 20
30.2397741621
 10
23.8620449823
 20
28.877730702
 10
22.5865634387
 20
27.855639646
 10
21.0651369159
 20
27.2595244779
 10
19.4372690822
 20
27.1512785748
 10
17.8513877119
 20
27.5317421856
 10
16.4565212767
 20
28.3706591808
 10
15.3742749686
 20
29.5854415955
 10
14.7078999627
 20
31.0655863737
 10
14.5108362379
 20
32.6757937424
 10
14.8028062108
 20
34.2674067408
 10
15.5528794321
 20
35.6998518677
 10
16.6911108064
 20
36.8417162854
 10
18.114741701
 20
37.5945642015
 10
19.6934581568
 20
37.8931951946
 10
21.2886516183
 20
37.7114445329
 10
22.753378784
 20
37.0734754941
 10
23.9606305887
 20
36.0360764249
 10
24.8173274253
 20
34.6865163989
 10
25.2379971335
 20
33.1279411627
 10
25.1827107262
 20
31.5190837892
 10
24.6495749839
 20
29.9994705208
 10
23.6977067882
 20
28.7059266718
 10
22.4037393796
 20
27.7546281631
 10
20.8839822387
 20
27.2221784651
 10
19.2751877081
 20
27.1675693312
 10
17.7168499665
 20
27.5888415213
 10
16.3677401043
 20
28.4459822538
 10
15.3308851411
 20
29.653446147
 10
14.6934543292
 20
31.1182154496
 10
14.5121683871
 20
32.713301726
 10
14.8111790752
 20
34.2917925562
 10
15.5642733335
 20
35.7151210323
 10
16.7062659618
 20
36.8530218441
 10
18.1387175811
 20
37.6027883244
 10
19.7302492232
 20
37.8944974017
 10
21.3403119592
 20
37.6972509705
 10
22.8202856734
 20
37.0307687725
 10
24.0349023166
 20
35.9484935433
 10
24.8736812681
 20
34.5536552629
 10
25.2540521888
 20
32.9678408772
 10
25.1457613101
 20
31.3400539654
 10
24.5496453563
 20
29.8187008543
 10
23.5275851901
 20
28.5432706886
 10
22.1655869268
 20
27.6363301618
 10
20.5950014907
 20
27.1760048301
 10
18.9575774085
 20
27.2139136978
 10
17.4055697099
 20
27.7380999384
 10
16.0856458503
 20
28.7089775508
 10
15.1151185348
 20
30.0292635963
 10
14.5911936791
 20
31.5815656944
 10
14.5541234919
 20
33.219761592
 10
15.0154059746
 20
34.7909975414
 10
15.9241642495
 20
36.153048481
 10
17.2004996579
 20
37.1747478881
  0
LINE
  5
24D
100
AcDbEntity
  8
0
100
AcDbLine
 62
7
  6
BYLAYER
 10
10.3809020526
 20
29.063393961
 11
10.5223234089
 21
29.2048153172
  0
LINE
  5
24E
100
AcDbEntity
  8
0
100
AcDbLine
 62
7
  6
BYLAYER
 10
7.0990987365
 20
31.9271039284
 11
24.2047671317
 21
14.8214355299
  0
LINE
  5
24F
100
AcDbEntity
  8
0
100
AcDbLine
 62
7
  6
BYLAYER
 10
21.3410117633
 20
18.1032842503
 11
10.3809474503
 21
29.0633485633
  0
LINE
  5
250
100
AcDbEntity
  8
0
100
AcDbLine
 62
7
  6
BYLAYER
 10
24.7201988501
 20
15.0069398759
 11
7.284603076
 21
32.4425356501
  0
LINE
  5
251
100
AcDbEntity
  8
0
100
AcDbLine
 62
7
  6
BYLAYER
 10
20.5734549523
 20
13.6700075668
 11
20.6242251554
 21
12.6318598942
  0
LINE
  5
252
100
AcDbEntity
  8
0
100
AcDbLine
 62
7
  6
BYLAYER
 10
12.4110868498
 20
15.8265980918
 11
11.8541515949
 21
14.9490154317
  0
LINE
  5
253
100
AcDbEntity
  8
0
100
AcDbLine
 62
7
  6
BYLAYER
 10
28.4864204931
 20
38.6148370466
 11
29.12632785
 21
39.4338868142
  0
LINE
  5
254
100
AcDbEntity
  8
0
100
AcDbLine
 62
7
  6
BYLAYER
 10
10.2640655498
 20
17.504034913
 11
9.5475425951
 21
16.7516129224
  0
LINE
  5
255
100
AcDbEntity
  8
0
100
AcDbLine
 62
7
  6
BYLAYER
 10
33.2558966392
 20
31.6487780536
 11
34.2498599753
 21
31.9489199749
  0
LINE
  5
256
100
AcDbEntity
  8
0
100
AcDbLine
 62
7
  6
BYLAYER
 10
6.196879158
 20
24.9022191894
 11
5.177288459
 21
24.7003312166
  0
LINE
  5
257
100
AcDbEntity
  8
0
100
AcDbLine
 62
7
  6
BYLAYER
 10
33.7853448333
 20
28.9761298522
 11
34.8200067255
 21
29.0775756392
  0
LINE
  5
258
100
AcDbEntity
  8
0
100
AcDbLine
 62
7
  6
BYLAYER
 10
32.9337395679
 20
20.2047888676
 11
32.0298446879
 21
20.7182786546
  0
LINE
  5
259
100
AcDbEntity
  8
0
100
AcDbLine
 62
7
  6
BYLAYER
 10
7.6344182472
 20
36.2602322241
 11
8.4837495089
 21
35.6610992213
  0
LINE
  5
25A
100
AcDbEntity
  8
0
100
AcDbLine
 62
7
  6
BYLAYER
 10
30.4595060883
 20
18.4917570916
 11
31.2463155451
 21
17.8125965198
  0
LINE
  5
25B
100
AcDbEntity
  8
0
100
AcDbLine
 62
7
  6
BYLAYER
 10
23.2688319371
 20
14.068040422
 11
23.5202815509
 21
13.0595154536
  0
LINE
  5
25C
100
AcDbEntity
  8
0
100
AcDbLine
 62
7
  6
BYLAYER
 10
17.8520981765
 20
41.4245460012
 11
17.7002580012
 21
42.45278163
  0
LINE
  5
25D
100
AcDbEntity
  8
0
100
AcDbLine
 62
7
  6
BYLAYER
 10
16.8917882103
 20
37.7095099345
 11
17.1997395351
 21
37.1760689567
  0
LINE
  5
25E
100
AcDbEntity
  8
0
100
AcDbLine
 62
7
  6
BYLAYER
 10
15.6683381458
 20
31.9388250595
 11
16.3289882596
 21
31.9388250595
  0
LINE
  5
25F
100
AcDbEntity
  8
0
100
AcDbLine
 62
7
  6
BYLAYER
 10
15.2302402501
 20
35.2049960171
 11
14.6957549582
 21
35.5135585343
  0
LINE
  5
260
100
AcDbEntity
  8
0
100
AcDbLine
 62
7
  6
BYLAYER
 10
16.3289882596
 20
33.0888250595
 11
15.6683381458
 21
33.0888250595
  0
LINE
  5
261
100
AcDbEntity
  8
0
100
AcDbLine
 62
7
  6
BYLAYER
 10
21.341057161
 20
18.1032388526
 11
21.4824785172
 21
18.2446602088
  0
LWPOLYLINE
  5
262
100
AcDbEntity
  8
0
100
AcDbPolyline
 62
7
  6
BYLAYER
 90
61
 70
0
 10
18.519458189
 20
37.7190513512
 10
20.1408820481
 20
37.8907564532
 10
21.7393501837
 20
37.569729162
 10
23.1690586862
 20
36.7838172089
 10
24.2973852138
 20
35.6063083381
 10
25.0215832678
 20
34.1442450741
 10
25.2742450606
 20
32.533186648
 10
25.0331732989
 20
30.9199954554
 10
24.3202700786
 20
29.4545166963
 10
23.2019793365
 20
28.2689621923
 10
21.781488447
 20
27.4739332471
 10
20.1887194866
 20
27.1388109101
 10
18.571104532
 20
27.295736083
 10
17.0739184968
 20
27.9267544051
 10
15.8361232822
 20
28.9747189528
 10
14.9655815298
 20
30.3421896009
 10
14.5436941384
 20
31.9039914
 10
14.6028639826
 20
33.5195468725
 10
15.139167337
 20
35.0408678547
 10
16.0994397569
 20
36.3350369397
 10
17.3975829546
 20
37.2836053229
 10
18.915298168
 20
37.8080103797
 10
20.5163730627
 20
37.8598455059
 10
22.060050204
 20
37.4411470017
 10
23.408449905
 20
36.5883367241
 10
24.4475574383
 20
35.3813938673
 10
25.0853336782
 20
33.9263087881
 10
25.2723578811
 20
32.3518635272
 10
24.9926154647
 20
30.7961530471
 10
24.2760172901
 20
29.3905520876
 10
23.18305432
 20
28.254892579
 10
21.8066630697
 20
27.4829326121
 10
20.262233342
 20
27.14386919
 10
18.681040613
 20
27.268665228
 10
17.2024934915
 20
27.8507923371
 10
15.9552355838
 20
28.8420109628
 10
15.0518329283
 20
30.1574012524
 10
14.5728943716
 20
31.6840305771
 10
14.5643248333
 20
33.2861576526
 10
15.0293174582
 20
34.8236404746
 10
15.9285745742
 20
36.1566829706
 10
17.1848064937
 20
37.1667823371
 10
18.6851852402
 20
37.7597420973
 10
20.2975926196
 20
37.881470033
 10
21.8742737602
 20
37.5181132735
 10
23.2745784102
 20
36.7009261906
 10
24.3680558993
 20
35.5028139617
 10
25.0563924946
 20
34.0309341531
 10
25.2733251947
 20
32.4200056401
 10
24.9997451289
 20
30.8154629816
 10
24.257822095
 20
29.3662404088
 10
23.1161354683
 20
28.2032184716
 10
21.6778761044
 20
27.4364101069
 10
20.0751694856
 20
27.1335877705
 10
18.455714558
 20
27.3264365799
 10
16.9670209908
 20
27.9939664025
 10
15.7484505669
 20
29.0779584049
 10
14.9083368112
 20
30.4764149403
 10
14.5282748296
 20
32.0618960074
 10
14.6376137011
 20
33.6885203315
 10
15.2302402517
 20
35.2049960184
  0
LWPOLYLINE
  5
263
100
AcDbEntity
  8
0
100
AcDbPolyline
 62
7
  6
BYLAYER
 90
3
 70
0
 10
33.5588904404
 20
30.4599782132
 10
33.8495352252
 20
27.3595351534
 10
33.4460555924
 20
24.2724076786
  0
LWPOLYLINE
  5
264
100
AcDbEntity
  8
0
100
AcDbPolyline
 62
7
  6
BYLAYER
 90
16
 70
0
 10
33.7853448153
 20
28.9761300371
 10
33.7411679537
 20
25.8577351566
 10
33.0056308282
 20
22.8278144479
 10
31.6169538641
 20
20.0362135743
 10
29.6424354136
 20
17.6237463612
 10
27.1831310027
 20
15.70840476
 10
24.3595490683
 20
14.3880006274
 10
21.314310508
 20
13.7259164681
 10
18.1979675051
 20
13.7564524996
 10
15.1667737425
 20
14.4773993895
 10
12.3706112557
 20
15.8519778975
 10
9.9501787777
 20
17.8131391743
 10
8.023751988
 20
20.2609286561
 10
6.6896722917
 20
23.0755032502
 10
6.011481127
 20
26.1148641827
 10
6.0248718156
 20
29.2289680395
  0
LINE
  5
265
100
AcDbEntity
  8
0
100
AcDbLine
 62
7
  6
BYLAYER
 10
33.8494008836
 20
27.3634385788
 11
33.4483731104
 21
24.2794778616
  0
LWPOLYLINE
  5
266
100
AcDbEntity
  8
0
100
AcDbPolyline
 62
7
  6
BYLAYER
 90
3
 70
0
 10
33.679839948
 20
25.4253078791
 10
32.8496954149
 20
22.4196421003
 10
31.3778999427
 20
19.6790398204
  0
LWPOLYLINE
  5
267
100
AcDbEntity
  8
0
100
AcDbPolyline
 62
7
  6
BYLAYER
 90
67
 70
0
 10
33.4483731104
 20
24.2794778616
 10
32.3687924386
 20
21.3513391941
 10
30.6704888681
 20
18.742675694
 10
28.4376110312
 20
16.5742551117
 10
25.7791531084
 20
14.9560783791
 10
22.8293482583
 20
13.9656230297
 10
19.7333732578
 20
13.6544640568
 10
16.6460009117
 20
14.0358472584
 10
13.7197945605
 20
15.0914983176
 10
11.1008319417
 20
16.7689931241
 10
8.9175350833
 20
18.9836831268
 10
7.2802505883
 20
21.627224377
 10
6.2672043685
 20
24.5665611022
 10
5.9313948595
 20
27.6571882435
 10
6.2865477545
 20
30.7449562752
 10
7.3165747984
 20
33.6773439959
 10
8.9694877745
 20
36.3085747755
 10
11.1627902891
 20
38.5094302956
 10
13.7887815802
 20
40.1693081399
 10
16.7158829855
 20
41.2088200741
 10
19.8002600313
 20
41.5736132215
 10
22.888503546
 20
41.24907897
 10
25.8281112974
 20
40.2489890123
 10
28.4736238468
 20
38.6246982971
 10
30.6948297072
 20
36.45625162
 10
32.3809441038
 20
33.8506730955
 10
33.4509629255
 20
30.9377639328
 10
33.8493497509
 20
27.8606939675
 10
33.560057038
 20
24.7719973004
 10
32.5945244616
 20
21.8241643546
 10
31.0031604196
 20
19.1623490534
 10
28.8633233139
 20
16.9179164386
 10
26.2812629645
 20
15.201798798
 10
23.3847226975
 20
14.0970670674
 10
20.3161994633
 20
13.6602399439
 10
17.2272050868
 20
13.9094574046
 10
14.2701928471
 20
14.8355029645
 10
11.5901177274
 20
16.3893604499
 10
9.3195332939
 20
18.4965113916
 10
7.5694090593
 20
21.0519624559
 10
6.425388227
 20
23.9306916304
 10
5.945273146
 20
26.9912661039
 10
6.150653036
 20
30.0831436463
 10
7.034832255
 20
33.0534305176
 10
8.5512967674
 20
35.7566449505
 10
10.628365988
 20
38.0580654298
 10
13.1618250896
 20
39.8452580355
 10
16.0280416717
 20
41.0291317133
 10
19.0851658626
 20
41.5507245375
 10
22.1827467408
 20
41.3853852698
 10
25.1672126379
 20
40.5385911329
 10
27.8922436027
 20
39.0547973453
 10
30.2214109743
 20
37.0041106251
 10
32.041300109
 20
34.4900734832
 10
33.2601602365
 20
31.6351389021
 10
33.8182566434
 20
28.5812995522
 10
33.6880216755
 20
25.478902898
 10
32.8741648982
 20
22.4821464501
 10
31.4189744849
 20
19.7382034371
 10
29.3915374564
 20
17.3848347002
 10
26.8945338962
 20
15.5365012199
 10
24.0495565042
 20
14.2871893785
 10
20.9986728043
 20
13.6973286253
 10
17.8921914713
 20
13.7971256846
 10
14.8848337225
 20
14.5823435456
 10
12.1246269342
 20
16.0128430173
 10
9.7503382709
 20
18.020088544
  0
LINE
  5
268
100
AcDbEntity
  8
0
100
AcDbLine
 62
7
  6
BYLAYER
 10
32.8506306507
 20
22.4229736667
 11
31.3780369528
 21
19.6790483879
  0
LWPOLYLINE
  5
269
100
AcDbEntity
  8
0
100
AcDbPolyline
 62
7
  6
BYLAYER
 90
17
 70
0
 10
32.3732471654
 20
21.3617535667
 10
30.6807117476
 20
18.7538258668
 10
28.4520093027
 20
16.5864242971
 10
25.8001609338
 20
14.9652687757
 10
22.8552599066
 20
13.9715830124
 10
19.7641869157
 20
13.6541487887
 10
16.6795572367
 20
14.0275127996
 10
13.7548339732
 20
15.0748993334
 10
11.133583821
 20
16.7414992667
 10
8.9471907755
 20
18.9474324596
 10
7.3016146972
 20
21.580804795
 10
6.2798930933
 20
24.5129641733
 10
5.9311114847
 20
27.5976697292
 10
6.2723599078
 20
30.6830329135
 10
7.2875081275
 20
33.6158635082
 10
8.9241425056
 20
36.252415799
 10
11.1036353072
 20
38.4607823359
  0
LWPOLYLINE
  5
26A
100
AcDbEntity
  8
0
100
AcDbPolyline
 62
7
  6
BYLAYER
 90
67
 70
0
 10
32.0298446307
 20
20.718278554
 10
30.1988095312
 20
18.1980274381
 10
27.8536291986
 20
16.1464168457
 10
25.1116359304
 20
14.6662925713
 10
22.1095344678
 20
13.8302344424
 10
18.9965345486
 20
13.6824326947
 10
15.9279424804
 20
14.2274042257
 10
13.0569489969
 20
15.4409550786
 10
10.5263807731
 20
17.26054942
 10
8.4624422572
 20
19.5965200273
 10
6.9689024987
 20
22.3324062425
 10
6.1183902403
 20
25.3312803308
 10
5.9560737914
 20
28.444133421
 10
6.487015329
 20
31.5155864508
 10
7.6872190431
 20
34.3923175008
 10
9.4952304177
 20
36.9310441004
 10
11.8212729406
 20
39.0056938138
 10
14.5497213625
 20
40.5115346989
 10
17.5438244452
 20
41.3759777345
 10
20.6548710863
 20
41.5531045312
 10
23.7275809438
 20
41.03713924
 10
26.6089606009
 20
39.8518969294
 10
29.1552586458
 20
38.0576194226
 10
31.2408225045
 20
35.7438923877
 10
32.7600660128
 20
33.025338326
 10
33.6402764827
 20
30.0383516007
 10
33.8349951057
 20
26.9309025302
 10
33.3374126552
 20
23.8581047899
 10
32.1710296607
 20
20.9722650255
 10
30.3946123158
 20
18.4174819885
 10
28.0972951633
 20
16.319057169
 10
25.3923040449
 20
14.7831699706
 10
22.4154676199
 20
13.8829973898
 10
19.3136106452
 20
13.6655100682
 10
16.2414567635
 20
14.1389128719
 10
13.3505522476
 20
15.2802984301
 10
10.7850182095
 20
17.0327485388
 10
8.670067657
 20
19.3079404612
 10
7.112297955
 20
21.9944615442
 10
6.1857132843
 20
24.957446024
 10
5.9380125822
 20
28.0514189596
 10
6.3791452112
 20
31.12249726
 10
7.4872642644
 20
34.0198112301
 10
9.2076965387
 20
36.5995211071
 10
11.4534947667
 20
38.7362638971
 10
14.1153736434
 20
40.3229489765
 10
17.0600316307
 20
41.2844610958
 10
20.1434970819
 20
41.5719265695
 10
23.2131745936
 20
41.1733035326
 10
26.1188565284
 20
40.1087181782
 10
28.7170753584
 20
38.4302354654
 10
30.882234054
 20
36.2226555264
 10
32.5064573806
 20
33.5928005612
 10
33.5131925147
 20
30.6719295873
 10
33.8518779367
 20
27.6021326603
 10
33.5078341168
 20
24.5336045563
 10
32.4977141928
 20
21.6150016583
 10
30.869088821
 20
18.9895635935
 10
28.7027321785
 20
16.7846775368
 10
26.1023796468
 20
15.1114035261
 10
23.1968916664
 20
14.0500206191
 10
20.1275337422
 20
13.6554108686
 10
17.0457512938
 20
13.9465686194
 10
14.1024862842
 20
14.9098539489
 10
11.4438850052
 20
16.4997199009
 10
9.1995237732
 20
18.6366163175
 10
7.4827612118
 20
21.2177616103
  0
LWPOLYLINE
  5
26B
100
AcDbEntity
  8
0
100
AcDbPolyline
 62
7
  6
BYLAYER
 90
3
 70
0
 10
31.3778999427
 20
19.6790398204
 10
29.3330806448
 20
17.3304369174
 10
26.8192223546
 20
15.4936820735
  0
LWPOLYLINE
  5
26C
100
AcDbEntity
  8
0
100
AcDbPolyline
 62
7
  6
BYLAYER
 90
23
 70
0
 10
30.4595062097
 20
18.4917572321
 10
28.1707871572
 20
16.3732428175
 10
25.4693630608
 20
14.8164055701
 10
22.4901054854
 20
13.8969038315
 10
19.3813981
 20
13.6631099944
 10
16.2983772217
 20
14.1232120464
 10
13.3949804178
 20
15.2573941363
 10
10.8154616732
 20
17.0060840372
 10
8.6884839683
 20
19.2839101945
 10
7.1202029599
 20
21.9761944892
 10
6.1873457384
 20
24.9490328856
 10
5.9383860097
 20
28.0542971237
 10
6.3825047113
 20
31.1374046635
 10
7.5007330028
 20
34.0444932878
 10
9.2340587854
 20
36.6316229455
 10
11.4984396526
 20
38.7694726665
 10
14.1795361665
 20
40.3521518327
 10
17.1445989669
 20
41.3016462158
 10
20.2458339393
 20
41.5694183584
 10
23.3292695398
 20
41.1448996263
 10
26.2411203331
 20
40.0462552696
 10
28.8376910053
 20
38.3315625283
 10
30.9889601584
 20
36.0834695274
  0
LINE
  5
26D
100
AcDbEntity
  8
0
100
AcDbLine
 62
7
  6
BYLAYER
 10
29.335814751
 20
17.3332260822
 11
26.8259405879
 21
15.4968795286
  0
LWPOLYLINE
  5
26E
100
AcDbEntity
  8
0
100
AcDbPolyline
 62
7
  6
BYLAYER
 90
3
 70
0
 10
27.8153424995
 20
16.1194445317
 10
25.0662400234
 20
14.6478459806
 10
22.066594047
 20
13.8237059535
  0
LWPOLYLINE
  5
26F
100
AcDbEntity
  8
0
100
AcDbPolyline
 62
7
  6
BYLAYER
 90
4
 70
0
 10
26.8259405879
 20
15.4968795286
 10
23.9609650282
 20
14.2593798213
 10
20.900660992
 20
13.6902581466
 10
17.7905156275
 20
13.8118602334
  0
LWPOLYLINE
  5
270
100
AcDbEntity
  8
0
100
AcDbPolyline
 62
7
  6
BYLAYER
 90
13
 70
0
 10
17.8520979927
 20
41.4245459742
 10
20.9689279675
 20
41.5327547257
 10
24.0311621863
 20
40.9461066597
 10
26.8872668218
 20
39.6954566452
 10
29.3933086523
 20
37.8411439665
 10
31.4265000529
 20
35.4783396237
 10
32.8832591318
 20
32.7226300961
 10
33.6933120563
 20
29.7133697912
 10
33.8150451188
 20
26.5992555958
 10
33.2430320581
 20
23.5364625726
 10
32.0066865018
 20
20.6764904762
 10
30.1661041516
 20
18.1631453852
 10
27.8153424995
 20
16.1194445317
  0
LWPOLYLINE
  5
271
100
AcDbEntity
  8
0
100
AcDbPolyline
 62
7
  6
BYLAYER
 90
3
 70
0
 10
19.3455948439
 20
41.563752861
 10
22.448255926
 20
41.33816818
 10
25.4313770572
 20
40.4285775062
  0
LWPOLYLINE
  5
272
100
AcDbEntity
  8
0
100
AcDbPolyline
 62
7
  6
BYLAYER
 90
3
 70
0
 10
21.4038348452
 20
41.4926239102
 10
24.4464646412
 20
40.810296537
 10
27.2556918884
 20
39.474135977
  0
LINE
  5
273
100
AcDbEntity
  8
0
100
AcDbLine
 62
7
  6
BYLAYER
 10
24.4430913662
 20
40.81106791
 11
27.2556766382
 21
39.474272405
  0
LWPOLYLINE
  5
274
100
AcDbEntity
  8
0
100
AcDbPolyline
 62
7
  6
BYLAYER
 90
49
 70
0
 10
24.69957576
 20
40.7206191775
 10
27.4747374126
 20
39.3348161487
 10
29.8755263667
 20
37.3716776896
 10
31.7832875706
 20
34.9269225301
 10
33.1038000768
 20
32.1218660021
 10
33.7735452387
 20
29.0950162977
 10
33.757427059
 20
25.9955981298
 10
33.0596334665
 20
22.976147898
 10
31.7115529116
 20
20.186137041
 10
29.7828512016
 20
17.7618050822
 10
27.366611223
 20
15.8233977137
 10
24.5829107383
 20
14.46535626
 10
21.5679415839
 20
13.7541415784
 10
18.4700632693
 20
13.7262750005
 10
15.441356876
 20
14.3811224787
 10
12.6320978313
 20
15.6897250192
 10
10.1794123115
 20
17.5848151565
 10
8.2061052671
 20
19.9758007437
 10
6.8081804469
 20
22.7431602481
 10
6.0557125705
 20
25.7515728654
 10
5.9863091809
 20
28.8520971053
 10
6.60237874
 20
31.8922949062
 10
7.8760685682
 20
34.7210421948
 10
9.7420254864
 20
37.2000828445
 10
12.1109649459
 20
39.2046931573
 10
14.8638872509
 20
40.6378009677
 10
17.8662498232
 20
41.4265280796
 10
20.9688570147
 20
41.5325233132
 10
24.0189470721
 20
40.9504779636
 10
26.8646646517
 20
39.7075767131
 10
29.3665929351
 20
37.8671535924
 10
31.3985413744
 20
35.5176790009
 10
32.8622767061
 20
32.7774523109
 10
33.6825834325
 20
29.7804916317
 10
33.8204340252
 20
26.676168151
 10
33.2679033542
 20
23.6175907721
 10
32.0517851211
 20
20.7572019591
 10
30.2334122043
 20
18.2355774454
 10
27.9008564607
 20
16.1799838659
 10
25.1715721561
 20
14.689904559
 10
22.1792984872
 20
13.842407828
 10
19.073501938
 20
13.6772048213
 10
16.0076618236
 20
14.2044795422
 10
13.1346965218
 20
15.3976662315
 10
10.5962961491
 20
17.1973077332
 10
8.5205033986
 20
19.5154391288
 10
7.0080862067
 20
22.2355100137
 10
6.1375014341
 20
25.223848724
 10
5.9491941706
 20
28.33096793
  0
LWPOLYLINE
  5
275
100
AcDbEntity
  8
0
100
AcDbPolyline
 62
7
  6
BYLAYER
 90
23
 70
0
 10
25.4239443306
 20
40.4310283786
 10
28.1258441699
 20
38.887680315
 10
30.4179399755
 20
36.7831743092
 10
32.1885714096
 20
34.22367129
 10
33.3466119861
 20
31.3345489116
 10
33.8372222364
 20
28.2606343116
 10
33.6333971063
 20
25.1538864226
 10
32.746473195
 20
22.1694601645
 10
31.220025091
 20
19.4550428506
 10
29.1291367604
 20
17.1472036684
 10
26.578954882
 20
15.3587837159
 10
23.6948699489
 20
14.1818719501
 10
20.6215898832
 20
13.6721036536
 10
17.51133082
 20
13.8579734665
 10
14.5195557799
 20
14.7282853814
 10
11.7947594023
 20
16.2409887369
 10
9.4739017618
 20
18.3208226926
 10
7.6709516165
 20
20.8635977246
 10
6.4786143569
 20
23.7437531709
 10
5.9533624469
 20
26.8167119828
 10
6.1247839981
 20
29.929961051
 10
6.9818409312
 20
32.9278146904
 10
8.4837497896
 20
35.6610996193
  0
LWPOLYLINE
  5
276
100
AcDbEntity
  8
0
100
AcDbPolyline
 62
7
  6
BYLAYER
 90
13
 70
0
 10
25.4313770572
 20
40.4285775062
 10
28.1344161696
 20
38.8804667987
 10
30.4282192085
 20
36.7725337595
 10
32.1966184807
 20
34.207183288
 10
33.3527239678
 20
31.3138148666
 10
33.8382496144
 20
28.23533284
 10
33.6281807306
 20
25.1259984201
 10
32.7344536078
 20
22.1397656897
 10
31.1989362603
 20
19.426990356
 10
29.100789037
 20
17.1211838469
 10
26.5419776475
 20
15.3395583582
 10
23.651979806
 20
14.1692654435
 10
20.5734544658
 20
13.670007543
  0
LWPOLYLINE
  5
277
100
AcDbEntity
  8
0
100
AcDbPolyline
 62
7
  6
BYLAYER
 90
3
 70
0
 10
27.2556918884
 20
39.474135977
 10
29.7013798341
 20
37.5464866236
 10
31.6587432437
 20
35.1253545863
  0
LWPOLYLINE
  5
278
100
AcDbEntity
  8
0
100
AcDbPolyline
 62
7
  6
BYLAYER
 90
110
 70
0
 10
28.4864203468
 20
38.6148371611
 10
30.7142089449
 20
36.4323394663
 10
32.4011514877
 20
33.8101916403
 10
33.4650915143
 20
30.8794083376
 10
33.8504658738
 20
27.785833097
 10
33.5415179807
 20
24.6840170429
 10
32.5505202139
 20
21.728681962
 10
30.9299269055
 20
19.0668197094
 10
28.7587225309
 20
16.8311100403
 10
26.1462626202
 20
15.133183876
 10
23.222543245
 20
14.0562178866
 10
20.1331478914
 20
13.6558639385
 10
17.0320260622
 20
13.9488433298
 10
14.0737829078
 20
14.9237260002
 10
11.4050693621
 20
16.5286017416
 10
9.159157456
 20
18.6858457824
 10
7.4473968439
 20
21.2864279223
 10
6.3541933915
 20
24.2015682629
 10
5.9352463175
 20
27.2860201792
 10
6.2086331133
 20
30.3865122233
 10
7.1637225986
 20
33.3485551907
 10
8.7495263526
 20
36.0257882598
 10
10.8898464364
 20
38.2843079186
 10
13.4761756793
 20
40.0129554238
 10
16.3810835717
 20
41.1258763129
 10
19.4597349947
 20
41.5673051748
 10
22.5596040008
 20
41.3174069448
 10
25.5263645885
 20
40.3860947127
 10
28.2138587464
 20
38.8229766175
 10
30.4875443377
 20
36.7028120049
 10
32.2363066045
 20
34.1333226528
 10
33.3726637806
 20
31.2404787538
 10
33.8407172356
 20
28.1686026682
 10
33.6184824197
 20
25.0694168674
 10
32.7152183797
 20
22.0970207308
 10
31.1786556044
 20
19.3974869681
 10
29.0821607897
 20
17.105944847
 10
26.5323183517
 20
15.3336937282
 10
23.6535704342
 20
14.1699566089
 10
20.5895854944
 20
13.6709042414
 10
17.4912359031
 20
13.8610259794
 10
14.5123169484
 20
14.7316941522
 10
11.7989631264
 20
16.2375796412
 10
9.4867653541
 20
18.3065922307
 10
7.6875404657
 20
20.8337501553
 10
6.4922690681
 20
23.6961439995
 10
5.9576388179
 20
26.750955075
 10
6.1109264121
 20
29.8481931212
 10
6.9441867047
 20
32.8344571231
 10
8.4149988906
 20
35.5633926717
 10
10.4524239642
 20
37.8991049494
 10
12.9536212579
 20
39.7288611351
 10
15.7971621518
 20
40.9600219487
 10
18.8412882629
 20
41.5349758184
 10
21.9369652935
 20
41.423519626
 10
24.9315850637
 20
40.6326230398
 10
27.6786241334
 20
39.2009660714
 10
30.0419112968
 20
37.1978434137
 10
31.9067362268
 20
34.7231079497
 10
33.1782635712
 20
31.8968745549
 10
33.7966434407
 20
28.8596654372
 10
33.72810787
 20
25.7603016887
 10
32.9780803283
 20
22.7519913463
 10
31.5819360008
 20
19.9829598555
 10
29.608527602
 20
17.5905287312
 10
27.1556381085
 20
15.6916665711
 10
24.3430994443
 20
14.3825740368
 10
21.3107230445
 20
13.7252072187
 10
18.2075939052
 20
13.7556409758
 10
15.1872231606
 20
14.4696016044
 10
12.3990789923
 20
15.8343446458
 10
9.9811612192
 20
17.7814142431
 10
8.0525785503
 20
20.2150113824
 10
6.7105216986
 20
23.0153319834
 10
6.0191447455
 20
26.0433346761
 10
6.0161649303
 20
29.1495923018
 10
6.6986451003
 20
32.180365182
 10
8.0359528214
 20
34.9850549147
 10
9.960029528
 20
37.4250868583
 10
12.3768299924
 20
39.3793798867
 10
15.1664624678
 20
40.7500433649
 10
18.1906431879
 20
41.4707383245
 10
21.2995435511
 20
41.5026725178
 10
24.3392467958
 20
40.8472845869
 10
27.1581549942
 20
39.5336221538
 10
29.6171746742
 20
37.6292885561
 10
31.5934683157
 20
35.2268611001
 10
32.988636077
 20
32.4463699531
 10
33.7342697714
 20
29.4254071296
 10
33.7909198034
 20
26.314227372
 10
33.1584617793
 20
23.2669026062
 10
31.8648480626
 20
20.4358869499
 10
29.9771400218
 20
17.9607692277
 10
27.5867588268
 20
15.9658995898
 10
24.8138812451
 20
14.5500662552
 10
21.7955081611
 20
13.7835617906
 10
18.6823185081
 20
13.7061932812
 10
15.6285398387
 20
14.3196338874
 10
12.7873321189
 20
15.596585687
 10
10.298778266
 20
17.4706224529
 10
8.2884845183
 20
19.8511640038
 10
6.8555533796
 20
22.6179074092
 10
6.0719377497
 20
25.6343180718
 10
5.9775861897
 20
28.7493120131
 10
6.5756426613
 20
31.8085051333
 10
7.8391111151
 20
34.6581737109
 10
9.7022374355
 20
37.157718818
 10
12.0749804603
 20
39.1805375561
 10
14.8369849218
 20
40.6272595004
 10
17.8520986583
 20
41.4245460724
  0
LINE
  5
279
100
AcDbEntity
  8
0
100
AcDbLine
 62
7
  6
BYLAYER
 10
29.6984604387
 20
37.5490812156
 11
31.6552214218
 21
35.1319086039
  0
LWPOLYLINE
  5
27A
100
AcDbEntity
  8
0
100
AcDbPolyline
 62
7
  6
BYLAYER
 90
3
 70
0
 10
30.9850676202
 20
36.0897171485
 10
32.5892023079
 20
33.4157839737
 10
33.5588904404
 20
30.4599782132
  0
LWPOLYLINE
  5
27B
100
AcDbEntity
  8
0
100
AcDbPolyline
 62
7
  6
BYLAYER
 90
17
 70
0
 10
31.6552214218
 20
35.1319086039
 10
33.031197121
 20
32.3308050074
 10
33.7491344903
 20
29.3019560167
 10
33.7796074647
 20
26.1895835047
 10
33.1181209815
 20
23.1484767822
 10
31.8011378007
 20
20.3292737468
 10
29.891425506
 20
17.8726744589
 10
27.4861262143
 20
15.8998955895
 10
24.703684333
 20
14.508816891
 10
21.6828019902
 20
13.7690710593
 10
18.5733416251
 20
13.7152824185
 10
15.5298600507
 20
14.3526447688
 10
12.7026586311
 20
15.6460492535
 10
10.2329326209
 20
17.5342223353
 10
8.2417782751
 20
19.9207992495
 10
6.828552381
 20
22.6889477332
 10
6.0629701818
 20
25.7004889696
  0
LINE
  5
27C
100
AcDbEntity
  8
0
100
AcDbLine
 62
7
  6
BYLAYER
 10
32.5874346381
 20
33.4187587584
 11
33.5589787209
 21
30.4600833403
  0
LWPOLYLINE
  5
27D
100
AcDbEntity
  8
0
100
AcDbPolyline
 62
7
  6
BYLAYER
 90
49
 70
0
 10
32.6988108617
 20
33.1706447639
 10
33.6090570154
 20
30.2052739317
 10
33.8430383664
 20
27.1128714774
 10
33.3882448828
 20
24.0453735575
 10
32.2675531075
 20
21.1546737549
 10
30.5374630757
 20
18.5822884422
 10
28.28183624
 20
16.4565414317
 10
25.6140232462
 20
14.8795920252
 10
22.6639131933
 20
13.9317880158
 10
19.5782098127
 20
13.656632824
 10
16.5081834288
 20
14.069642222
 10
13.6050337632
 20
15.148987856
 10
11.0108104508
 20
16.8418761365
 10
8.8542728292
 20
19.0660551053
 10
7.2398398254
 20
21.710954671
 10
6.2501730225
 20
24.6477789096
 10
5.9311241057
 20
27.7308359439
 10
6.3017774854
 20
30.8087197691
 10
7.3417850923
 20
33.7294827871
 10
9.0014763038
 20
36.3490589862
 10
11.1989267801
 20
38.5375010797
 10
13.825406089
 20
40.1879406607
 10
16.7522666767
 20
41.2163297414
 10
19.8343185171
 20
41.5746511284
 10
22.919667848
 20
41.2415502797
 10
25.8559532227
 20
40.236260564
 10
28.4976151107
 20
38.6059557023
 10
30.7139924321
 20
36.4322312617
 10
32.3958932816
 20
33.8220520189
 10
33.4582816282
 20
30.9041344289
 10
33.8508776324
 20
27.823116614
 10
33.5507255996
 20
24.7313931345
 10
32.5757510283
 20
21.781683315
 10
30.971135985
 20
19.1208776098
 10
28.8181367344
 20
16.8802479471
 10
26.2221651112
 20
15.1711203751
 10
23.3120931191
 20
14.0792189516
 10
20.2320180999
 20
13.6570719049
 10
17.1348390435
 20
13.9286656333
 10
14.1735977413
 20
14.8775487168
 10
11.4963340537
 20
16.4600188006
 10
9.2348806857
 20
18.5952220468
 10
7.5024549409
 20
21.1790361417
 10
6.3852741461
 20
24.0824016324
 10
5.9379933755
 20
27.1617077067
 10
6.1852116539
 20
30.2635671221
 10
7.112017996
 20
33.2346311378
 10
8.6757165288
 20
35.9259009111
 10
10.7959444588
 20
38.2049978618
  0
LWPOLYLINE
  5
27E
100
AcDbEntity
  8
0
100
AcDbPolyline
 62
7
  6
BYLAYER
 90
67
 70
0
 10
32.8199367286
 20
32.8820659999
 10
33.66344277
 20
29.9025850438
 10
33.8288129293
 20
26.8122615859
 10
33.3107711913
 20
23.7630624499
 10
32.1342303048
 20
20.9045925591
 10
30.3590474602
 20
18.3767149895
 10
28.0735702906
 20
16.3017990702
 10
25.3894040292
 20
14.7816008204
 10
22.4379810804
 20
13.8873721053
 10
19.3611111432
 20
13.6631002918
 10
16.3081021315
 20
14.12119674
 10
13.4279837249
 20
15.2392679211
 10
10.8632489893
 20
16.9654371774
 10
8.7400736732
 20
19.2149638318
 10
7.1630705169
 20
21.8783671672
 10
6.2123526632
 20
24.8256740582
 10
5.9339643312
 20
27.9114622174
 10
6.3436696082
 20
30.9842708171
 10
7.4223462688
 20
33.8917457216
 10
9.1162754876
 20
36.4908559869
 10
11.3439828399
 20
38.6518092051
 10
13.9945880905
 20
40.2677442609
 10
16.937586273
 20
41.2586962257
 10
20.0276401325
 20
41.5735522054
 10
23.1113716101
 20
41.1981309827
 10
26.0362504495
 20
40.14958624
 10
28.6566505847
 20
38.4795363039
 10
30.8435398865
 20
36.2717284892
 10
32.4871920555
 20
33.6342441189
 10
33.5068419264
 20
30.6987895507
 10
33.8524392571
 20
27.6106064806
 10
33.5054266169
 20
24.522974385
 10
32.4851036964
 20
21.5887511636
 10
30.8412640606
 20
18.9532163125
 10
28.6556920109
 20
16.7473432746
 10
26.0377568236
 20
15.0786781065
 10
23.1163349188
 20
14.0308288075
 10
20.0369486263
 20
13.6541129649
 10
16.9513121599
 20
13.965983976
 10
14.0122514568
 20
14.9517843992
 10
11.3640209296
 20
16.5601830695
 10
9.1367544993
 20
18.7121784661
 10
7.4400295544
 20
21.3009087997
 10
6.3549578758
 20
24.1978161563
 10
5.9353997067
 20
27.2608672894
 10
6.1995894014
 20
30.3390940643
 10
7.1330291422
 20
33.2821273915
 10
8.689867756
 20
35.9454520171
 10
10.7919669608
 20
38.201576655
 10
13.3389319221
 20
39.9412923244
 10
16.2079053281
 20
41.0794583328
 10
19.2591889267
 20
41.5604295576
 10
22.3434753331
 20
41.3573172236
 10
25.3092187456
 20
40.4802333432
 10
28.0109495023
 20
38.9708342673
 10
30.3141936832
 20
36.9014055955
 10
32.1061438757
 20
34.3743664571
 10
33.2967676679
 20
31.5125584743
 10
33.8263615783
 20
28.4573876758
 10
33.6691844174
 20
25.3592914818
 10
32.830332921
 20
22.3715169594
 10
31.3521444585
 20
19.6420082289
 10
29.3068194374
 20
17.3056365838
 10
26.7945110097
 20
15.4795677944
 10
23.9405150537
 20
14.2531330121
 10
20.8852047342
 20
13.6885147906
 10
17.7805040296
 20
13.813970881
  0
LWPOLYLINE
  5
27F
100
AcDbEntity
  8
0
100
AcDbPolyline
 62
7
  6
BYLAYER
 90
66
 70
0
 10
33.0267273921
 20
32.3412129501
 10
33.7481097464
 20
29.3170485156
 10
33.7807242124
 20
26.2084024358
 10
33.1259529618
 20
23.1700279352
 10
31.814690928
 20
20.352148354
 10
29.912903515
 20
17.8947714277
 10
27.5153028924
 20
15.9184485302
 10
24.7398687141
 20
14.5227444638
 10
21.7252986041
 20
13.7738287473
 10
18.6200444831
 20
13.7117590677
 10
15.5782089128
 20
14.3361042044
 10
12.7502224115
 20
15.6182765813
 10
10.2758388334
 20
17.4929719926
 10
8.2768372148
 20
19.8678212498
 10
6.8530298758
 20
22.6255003223
 10
6.0723679488
 20
25.6289228741
 10
5.9761518743
 20
28.7301829568
 10
6.5654678861
 20
31.7759084884
 10
7.8140504486
 20
34.6154531381
 10
9.6575672022
 20
37.1092747417
 10
12.0062099642
 20
39.1341840675
 10
14.743410908
 20
40.5901464288
 10
17.7339300726
 20
41.4069529182
 10
20.8304353302
 20
41.5422598454
 10
23.8803678096
 20
40.9927987713
 10
26.7329012016
 20
39.7826190276
 10
29.2485554754
 20
37.9746479806
 10
31.3026814185
 20
35.6559834144
 10
32.7950846851
 20
32.9419462982
 10
33.6527308231
 20
29.9653192763
 10
33.8318947748
 20
26.8725006789
 10
33.3257807046
 20
23.8154209965
 10
32.1559721134
 20
20.9455908884
 10
30.3829575765
 20
18.4032588213
 10
28.0912220925
 20
16.315508539
 10
25.395454741
 20
14.7840677743
 10
22.4273916377
 20
13.8855379774
 10
19.3339593376
 20
13.6647575506
 10
16.2672962591
 20
14.1315786445
 10
13.3797066514
 20
15.2655642081
 10
10.8124740698
 20
17.008192865
 10
8.6945348391
 20
19.2763793838
 10
7.1286583418
 20
21.956008091
 10
6.1942081412
 20
24.9162571169
 10
5.9367778044
 20
28.0099823788
 10
6.3691320745
 20
31.0848638289
 10
7.471536823
 20
33.9878994526
 10
9.1875441105
 20
36.5767450229
 10
11.4349535386
 20
38.7210388878
 10
14.1004056403
 20
40.3168861636
 10
17.0537165653
 20
41.2826143956
 10
20.1475999404
 20
41.5719459011
 10
23.2295167941
 20
41.1694856766
 10
26.1458977914
 20
40.0945486567
 10
28.7533389302
 20
38.4015274045
 10
30.9204232243
 20
36.1721716852
 10
32.5420484912
 20
33.5189358024
 10
33.5347053073
 20
30.5716345174
 10
33.8514285308
 20
27.4776159917
 10
33.4745488874
 20
24.3896788205
 10
32.4231303927
 20
21.4618565496
 10
30.7496376896
 20
18.8385746053
 10
28.5356758225
 20
16.6520198812
 10
25.8927335604
 20
15.0085334712
 10
22.9504903818
 20
13.9930083992
 10
19.8562794158
 20
13.6531438907
  0
LWPOLYLINE
  5
280
100
AcDbEntity
  8
0
100
AcDbPolyline
 62
7
  6
BYLAYER
 90
46
 70
0
 10
33.2505301882
 20
31.6471737115
 10
33.809297158
 20
28.6147707811
 10
33.6967675709
 20
25.5357205138
 10
32.8983075577
 20
22.5585983826
 10
31.4672549513
 20
19.8252114808
 10
29.4796562602
 20
17.4672920084
 10
27.0173158061
 20
15.6139171442
 10
24.2057392876
 20
14.3453898762
 10
21.1869199505
 20
13.7145510617
 10
18.1051024875
 20
13.771594078
 10
15.1092185536
 20
14.5072245082
 10
12.3432713323
 20
15.872139148
 10
9.9508779694
 20
17.8152934637
 10
8.0464981646
 20
20.2416884498
 10
6.7108400169
 20
23.0218092367
 10
6.0231298484
 20
26.0258852437
 10
6.0200053766
 20
29.1097684788
 10
6.6828685292
 20
32.1216509622
 10
7.9910172736
 20
34.9114003352
 10
9.889021321
 20
37.3408668145
 10
12.267498764
 20
39.3029188036
 10
15.015436881
 20
40.6950376869
 10
18.0061464102
 20
41.4385893495
 10
21.0875011997
 20
41.5171680492
 10
24.1089626909
 20
40.9224094106
 10
26.9216652528
 20
39.6667857739
 10
29.39572048
 20
37.8304048804
 10
31.4099154016
 20
35.502677956
 10
32.8528251957
 20
32.7833393556
 10
33.6699613079
 20
29.814154795
 10
33.82488814
 20
26.7413633381
 10
33.2900369491
 20
23.7118418347
 10
32.1063464449
 20
20.8708240923
 10
30.3389998673
 20
18.35453667
 10
28.0565283457
 20
16.2953540513
 10
25.3770497564
 20
14.78543716
 10
22.4378768153
 20
13.8887337647
 10
19.3743921207
 20
13.666109102
 10
16.3353133272
 20
14.122849957
 10
13.4678997857
 20
15.2214065048
 10
10.9150295293
 20
16.924592096
 10
8.799896958
 20
19.15039705
 10
7.2135362189
 20
21.7766018477
 10
6.2428241897
 20
24.6848893562
 10
5.9399753031
 20
27.7374202153
 10
6.2997187129
 20
30.7816680606
  0
ARC
  5
281
100
AcDbEntity
  8
0
100
AcDbCircle
 62
7
  6
BYLAYER
 10
13.5989275206
 20
21.9853012011
 40
5.5788519547
100
AcDbArc
 50
214.7328528897
 51
217.2991090105
  0
CIRCLE
  5
282
100
AcDbEntity
  8
0
100
AcDbCircle
 62
7
  6
BYLAYER
 10
10.8914882596
 20
30.0138250595
 40
1.0331646234
  0
CIRCLE
  5
283
100
AcDbEntity
  8
0
100
AcDbCircle
 62
7
  6
BYLAYER
 10
10.8914882596
 20
30.0138250595
 40
1.0
  0
ARC
  5
284
100
AcDbEntity
  8
0
100
AcDbCircle
 62
7
  6
BYLAYER
 10
16.3289882596
 20
32.5138250595
 40
0.575
100
AcDbArc
 50
270.0
 51
90.0
  0
CIRCLE
  5
285
100
AcDbEntity
  8
0
100
AcDbCircle
 62
7
  6
BYLAYER
 10
17.8408785941
 20
30.4632153941
 40
0.5
  0
CIRCLE
  5
286
100
AcDbEntity
  8
0
100
AcDbCircle
 62
7
  6
BYLAYER
 10
17.8408785941
 20
34.564434725
 40
0.5
  0
ARC
  5
287
100
AcDbEntity
  8
0
100
AcDbCircle
 62
7
  6
BYLAYER
 10
19.8914882596
 20
27.6138250595
 40
15.0
100
AcDbArc
 50
0.0
 51
180.0
  0
ARC
  5
288
100
AcDbEntity
  8
0
100
AcDbCircle
 62
7
  6
BYLAYER
 10
19.8914882596
 20
27.6138250595
 40
15.0
100
AcDbArc
 50
180.0
 51
360.0
  0
ARC
  5
289
100
AcDbEntity
  8
0
100
AcDbCircle
 62
7
  6
BYLAYER
 10
19.8914882596
 20
27.6138250595
 40
14.4
100
AcDbArc
 50
96.8615612368
 51
307.4789394371
  0
CIRCLE
  5
28A
100
AcDbEntity
  8
0
100
AcDbCircle
 62
7
  6
BYLAYER
 10
19.8914882596
 20
27.6138250595
 40
13.5
  0
CIRCLE
  5
28B
100
AcDbEntity
  8
0
100
AcDbCircle
 62
7
  6
BYLAYER
 10
19.8914882596
 20
27.6138250595
 40
11.5
  0
CIRCLE
  5
28C
100
AcDbEntity
  8
0
100
AcDbCircle
 62
7
  6
BYLAYER
 10
21.942097925
 20
30.4632153941
 40
0.5
  0
CIRCLE
  5
28D
100
AcDbEntity
  8
0
100
AcDbCircle
 62
7
  6
BYLAYER
 10
19.8914882596
 20
32.5138250595
 40
6.0
  0
CIRCLE
  5
28E
100
AcDbEntity
  8
0
100
AcDbCircle
 62
7
  6
BYLAYER
 10
19.8914882596
 20
32.5138250595
 40
5.675
  0
CIRCLE
  5
28F
100
AcDbEntity
  8
0
100
AcDbCircle
 62
7
  6
BYLAYER
 10
19.8914882596
 20
32.5138250595
 40
5.175
  0
CIRCLE
  5
290
100
AcDbEntity
  8
0
100
AcDbCircle
 62
7
  6
BYLAYER
 10
19.8914882596
 20
32.5138250595
 40
4.975
  0
CIRCLE
  5
291
100
AcDbEntity
  8
0
100
AcDbCircle
 62
7
  6
BYLAYER
 10
19.8914882596
 20
32.5138250595
 40
4.2642964366
  0
ARC
  5
292
100
AcDbEntity
  8
0
100
AcDbCircle
 62
7
  6
BYLAYER
 10
19.8914882596
 20
32.5138250595
 40
4.2621147196
100
AcDbArc
 50
172.2466100756
 51
187.7533899244
  0
ARC
  5
293
100
AcDbEntity
  8
0
100
AcDbCircle
 62
7
  6
BYLAYER
 10
19.8914882596
 20
32.5138250595
 40
4.1875
100
AcDbArc
 50
187.8924158583
 51
172.1075841417
  0
CIRCLE
  5
294
100
AcDbEntity
  8
0
100
AcDbCircle
 62
7
  6
BYLAYER
 10
19.8914882596
 20
32.5138250595
 40
0.5
  0
CIRCLE
  5
295
100
AcDbEntity
  8
0
100
AcDbCircle
 62
7
  6
BYLAYER
 10
21.942097925
 20
34.564434725
 40
0.5
  0
CIRCLE
  5
296
100
AcDbEntity
  8
0
100
AcDbCircle
 62
7
  6
BYLAYER
 10
28.8914882596
 20
30.0138250595
 40
1.0331646234
  0
CIRCLE
  5
297
100
AcDbEntity
  8
0
100
AcDbCircle
 62
7
  6
BYLAYER
 10
28.8914882596
 20
30.0138250595
 40
1.0
  0
SPLINE
  5
298
100
AcDbEntity
  8
0
100
AcDbSpline
 62
7
  6
BYLAYER
 70
0
 71
3
 72
20
 73
16
 74
0
 42
0.0000001
 43
0.0000001
 44
0.0000000001
 40
0.0
 40
0.0
 40
0.0
 40
0.0
 40
0.0774512554
 40
0.1547849185
 40
0.2321604188
 40
0.3093558075
 40
0.3866422661
 40
0.4637337219
 40
0.5407037802
 40
0.6175666923
 40
0.6942462783
 40
0.7708349795
 40
0.8472621033
 40
0.9237176021
 40
1.0
 40
1.0
 40
1.0
 40
1.0
 10
5.1547492567
 20
27.6138250595
 30
0.0
 10
5.1623639882
 20
26.7780122574
 30
0.0
 10
5.3237758115
 20
25.10564808
 30
0.0
 10
5.9850099727
 20
22.6771496865
 30
0.0
 10
7.0489744162
 20
20.3981455961
 30
0.0
 10
8.4845118349
 20
18.3339156039
 30
0.0
 10
10.2485322404
 20
16.5463504104
 30
0.0
 10
12.2894202198
 20
15.0871003426
 30
0.0
 10
14.5450075669
 20
13.9989806014
 30
0.0
 10
16.9487805006
 20
13.3125106526
 30
0.0
 10
19.4302661771
 20
13.0462507809
 30
0.0
 10
21.9160798865
 20
13.2065194941
 30
0.0
 10
24.3359876249
 20
13.7877269138
 30
0.0
 10
26.6175763362
 20
14.771655473
 30
0.0
 10
28.0055809992
 20
15.6784031393
 30
0.0
 10
28.6534529492
 20
16.186315498
 30
0.0
  0
SPLINE
  5
299
100
AcDbEntity
  8
0
100
AcDbSpline
 62
7
  6
BYLAYER
 70
0
 71
3
 72
18
 73
14
 74
0
 42
0.0000001
 43
0.0000001
 44
0.0000000001
 40
0.0
 40
0.0
 40
0.0
 40
0.0
 40
0.0904945085
 40
0.1809433218
 40
0.2715239994
 40
0.3621296549
 40
0.4526451822
 40
0.5433725023
 40
0.6343542461
 40
0.7253658069
 40
0.8165562872
 40
0.9080859371
 40
1.0
 40
1.0
 40
1.0
 40
1.0
 10
5.1547446626
 20
27.6138250595
 30
0.0
 10
5.1476455239
 20
28.3930450475
 30
0.0
 10
5.2591269352
 20
29.9548542663
 30
0.0
 10
5.7876284536
 20
32.2416958093
 30
0.0
 10
6.6692673415
 20
34.4190423176
 30
0.0
 10
7.8861012829
 20
36.428994873
 30
0.0
 10
9.406631026
 20
38.2216031654
 30
0.0
 10
11.1905268144
 20
39.757036207
 30
0.0
 10
13.1959155732
 20
40.9976864141
 30
0.0
 10
15.3756181205
 20
41.9084454938
 30
0.0
 10
17.6772716296
 20
42.4619323675
 30
0.0
 10
20.0439813363
 20
42.6470525153
 30
0.0
 10
21.6266940485
 20
42.525282907
 30
0.0
 10
22.4083768576
 20
42.4011599034
 30
0.0
  0
SPLINE
  5
29A
100
AcDbEntity
  8
0
100
AcDbSpline
 62
7
  6
BYLAYER
 70
0
 71
3
 72
13
 73
9
 74
0
 42
0.0000001
 43
0.0000001
 44
0.0000000001
 40
0.0
 40
0.0
 40
0.0
 40
0.0
 40
0.1574574831
 40
0.3195723267
 40
0.4843191766
 40
0.6635948746
 40
0.8388994127
 40
1.0
 40
1.0
 40
1.0
 40
1.0
 10
33.8983530899
 20
27.9526330148
 30
0.0
 10
33.9370968473
 20
27.2526982863
 30
0.0
 10
33.9036620667
 20
25.8239958143
 30
0.0
 10
33.5326780544
 20
23.6917861269
 30
0.0
 10
32.8013888945
 20
21.5506002801
 30
0.0
 10
31.7072794694
 20
19.5013771598
 30
0.0
 10
30.3020240744
 20
17.6732934713
 30
0.0
 10
29.2095578897
 20
16.63926099
 30
0.0
 10
28.6534529492
 20
16.186315498
 30
0.0
  0
SPLINE
  5
29B
100
AcDbEntity
  8
0
100
AcDbSpline
 62
7
  6
BYLAYER
 70
0
 71
3
 72
17
 73
13
 74
0
 42
0.0000001
 43
0.0000001
 44
0.0000000001
 40
0.0
 40
0.0
 40
0.0
 40
0.0
 40
0.0994183986
 40
0.1999346814
 40
0.3003638799
 40
0.3998271097
 40
0.4993399629
 40
0.599037967
 40
0.6988898656
 40
0.7984260335
 40
0.8990315941
 40
1.0
 40
1.0
 40
1.0
 40
1.0
 10
5.1450780981
 20
27.6138250595
 30
0.0
 10
5.136142483
 20
26.7890222155
 30
0.0
 10
5.2605869821
 20
25.1256534776
 30
0.0
 10
5.860235348
 20
22.6950579554
 30
0.0
 10
6.8653781468
 20
20.4010025089
 30
0.0
 10
8.2320746343
 20
18.3132292906
 30
0.0
 10
9.9207992997
 20
16.4839346127
 30
0.0
 10
11.8946811924
 20
14.9610751562
 30
0.0
 10
14.095294661
 20
13.789719592
 30
0.0
 10
16.4656385533
 20
12.9939568337
 30
0.0
 10
18.9436968353
 20
12.5988960604
 30
0.0
 10
20.6255200854
 20
12.6161271443
 30
0.0
 10
21.4594152092
 20
12.6959966291
 30
0.0
  0
SPLINE
  5
29C
100
AcDbEntity
  8
0
100
AcDbSpline
 62
7
  6
BYLAYER
 70
0
 71
3
 72
25
 73
21
 74
0
 42
0.0000001
 43
0.0000001
 44
0.0000000001
 40
0.0
 40
0.0
 40
0.0
 40
0.0
 40
0.0552552156
 40
0.11105958
 40
0.1666879954
 40
0.2217124943
 40
0.2774130281
 40
0.3336630916
 40
0.389452156
 40
0.4447436383
 40
0.5000012229
 40
0.555473197
 40
0.6106878472
 40
0.6661501647
 40
0.7218958553
 40
0.7772386903
 40
0.8323225583
 40
0.8881431086
 40
0.9442756286
 40
1.0
 40
1.0
 40
1.0
 40
1.0
 10
34.1624174739
 20
27.6138250595
 30
0.0
 10
34.1719141021
 20
28.4521864577
 30
0.0
 10
34.0392093658
 20
30.1426719664
 30
0.0
 10
33.3961925662
 20
32.601857119
 30
0.0
 10
32.3339873383
 20
34.9078402509
 30
0.0
 10
30.8878727168
 20
36.9924273629
 30
0.0
 10
29.0891516373
 20
38.795761846
 30
0.0
 10
26.9913962532
 20
40.2604615926
 30
0.0
 10
24.6761446208
 20
41.3337358958
 30
0.0
 10
22.2240310342
 20
41.9842502175
 30
0.0
 10
19.7007784898
 20
42.1944595047
 30
0.0
 10
17.1805586424
 20
41.9667476351
 30
0.0
 10
14.7336611277
 20
41.3099362443
 30
0.0
 10
12.4326117587
 20
40.2387695898
 30
0.0
 10
10.3526684835
 20
38.7807550055
 30
0.0
 10
8.5578716519
 20
36.9923623187
 30
0.0
 10
7.0920687079
 20
34.9244273519
 30
0.0
 10
5.9983871819
 20
32.6232861428
 30
0.0
 10
5.3219839496
 20
30.1580581599
 30
0.0
 10
5.1542377686
 20
28.4593093644
 30
0.0
 10
5.1450780981
 20
27.6138250595
 30
0.0
  0
SPLINE
  5
29D
100
AcDbEntity
  8
0
100
AcDbSpline
 62
7
  6
BYLAYER
 70
0
 71
3
 72
17
 73
13
 74
0
 42
0.0000001
 43
0.0000001
 44
0.0000000001
 40
0.0
 40
0.0
 40
0.0
 40
0.0
 40
0.100283853
 40
0.200972366
 40
0.3007669146
 40
0.4006870712
 40
0.5009541406
 40
0.6016244602
 40
0.7016652063
 40
0.8019002311
 40
0.9014312014
 40
1.0
 40
1.0
 40
1.0
 40
1.0
 10
17.8412687535
 20
13.7536788417
 30
0.0
 10
18.6422140108
 20
13.6269708623
 30
0.0
 10
20.2729417518
 20
13.5145355965
 30
0.0
 10
22.7038465237
 20
13.7627393011
 30
0.0
 10
25.0529539845
 20
14.4283983113
 30
0.0
 10
27.2481923865
 20
15.4881891188
 30
0.0
 10
29.2365736104
 20
16.9102709804
 30
0.0
 10
30.9545068909
 20
18.6512822898
 30
0.0
 10
32.3463074925
 20
20.6622430159
 30
0.0
 10
33.3681977808
 20
22.8738955329
 30
0.0
 10
33.9992519251
 20
25.2134838503
 30
0.0
 10
34.1533895236
 20
26.8168384999
 30
0.0
 10
34.1624174739
 20
27.6138250595
 30
0.0
  0
SPLINE
  5
29E
100
AcDbEntity
  8
0
100
AcDbSpline
 62
7
  6
BYLAYER
 70
0
 71
3
 72
83
 73
79
 74
0
 42
0.0000001
 43
0.0000001
 44
0.0000000001
 40
0.0
 40
0.0
 40
0.0
 40
0.0
 40
0.0136243668
 40
0.027241027
 40
0.0408505703
 40
0.0544537708
 40
0.0680516629
 40
0.0873551345
 40
0.1003930826
 40
0.1134306085
 40
0.1264678106
 40
0.1395048281
 40
0.1525417112
 40
0.1655785155
 40
0.1786154051
 40
0.1916525501
 40
0.2046899965
 40
0.2177277573
 40
0.2307659125
 40
0.2438045012
 40
0.2568433784
 40
0.2698822986
 40
0.2829210822
 40
0.2959596348
 40
0.3089978264
 40
0.322035582
 40
0.335072979
 40
0.3481101388
 40
0.3611470989
 40
0.3741839075
 40
0.3872207267
 40
0.4002577304
 40
0.4132949751
 40
0.4263324919
 40
0.4393703875
 40
0.4524087376
 40
0.4654474465
 40
0.4784863313
 40
0.4915252231
 40
0.5045639733
 40
0.5176024053
 40
0.530640407
 40
0.5436780275
 40
0.5567153667
 40
0.5697524466
 40
0.5827893059
 40
0.5958261018
 40
0.6088630088
 40
0.6219000892
 40
0.6349373872
 40
0.64797503
 40
0.6610131232
 40
0.6740516123
 40
0.6870903682
 40
0.700129281
 40
0.7131681771
 40
0.7262068267
 40
0.7392450746
 40
0.752282936
 40
0.7653204851
 40
0.7783577247
 40
0.7913946802
 40
0.8044315012
 40
0.8174683588
 40
0.8305053174
 40
0.8435424293
 40
0.8565798373
 40
0.8696176712
 40
0.8826559114
 40
0.895694475
 40
0.9087333116
 40
0.921772284
 40
0.9348111103
 40
0.9478495816
 40
0.9608876728
 40
0.9739254385
 40
0.9869628731
 40
1.0
 40
1.0
 40
1.0
 40
1.0
 10
35.5408716358
 20
27.6317124974
 30
0.0
 10
35.5411474767
 20
27.415764587
 30
0.0
 10
35.5332754099
 20
26.9834200224
 30
0.0
 10
35.4903638582
 20
26.3392542336
 30
0.0
 10
35.4355091873
 20
25.6869947267
 30
0.0
 10
35.2991267089
 20
25.0777586366
 30
0.0
 10
35.3473469435
 20
24.2209790245
 30
0.0
 10
34.3170705031
 20
24.129332436
 30
0.0
 10
34.3026111165
 20
23.3101108802
 30
0.0
 10
34.0721996861
 20
22.7486978213
 30
0.0
 10
33.8694503455
 20
22.1588049823
 30
0.0
 10
33.6290712007
 20
21.588060456
 30
0.0
 10
33.3690997733
 20
21.0249099367
 30
0.0
 10
33.0852407202
 20
20.4736554016
 30
0.0
 10
32.7791803415
 20
19.9343557281
 30
0.0
 10
32.4511159318
 20
19.4081493871
 30
0.0
 10
32.1016722404
 20
18.8958722532
 30
0.0
 10
31.7313608502
 20
18.3984490436
 30
0.0
 10
31.3407302177
 20
17.91679397
 30
0.0
 10
30.9304338782
 20
17.4517527424
 30
0.0
 10
30.5011273921
 20
17.0041825203
 30
0.0
 10
30.0535101784
 20
16.5749201959
 30
0.0
 10
29.5884045684
 20
16.1646814301
 30
0.0
 10
29.1067005062
 20
15.7740869972
 30
0.0
 10
28.6092815941
 20
15.40374136
 30
0.0
 10
28.0970222732
 20
15.0542430021
 30
0.0
 10
27.5707928653
 20
14.7261876108
 30
0.0
 10
27.031528859
 20
14.4200583825
 30
0.0
 10
26.4801570699
 20
14.1363365163
 30
0.0
 10
25.9176003573
 20
13.8755051573
 30
0.0
 10
25.3447827384
 20
13.6380518527
 30
0.0
 10
24.7626808608
 20
13.4243472854
 30
0.0
 10
24.1722698386
 20
13.234765075
 30
0.0
 10
23.5745291578
 20
13.0696836653
 30
0.0
 10
22.9704486939
 20
12.9294858792
 30
0.0
 10
22.3610598229
 20
12.8144315157
 30
0.0
 10
21.7474026709
 20
12.7247744145
 30
0.0
 10
21.1305295701
 20
12.6607927174
 30
0.0
 10
20.511522707
 20
12.6226344417
 30
0.0
 10
19.8914742818
 20
12.6102177826
 30
0.0
 10
19.2714582886
 20
12.6234769254
 30
0.0
 10
18.6525374761
 20
12.6623387315
 30
0.0
 10
18.0357680673
 20
12.7267313792
 30
0.0
 10
17.4221873136
 20
12.8164531192
 30
0.0
 10
16.8128230171
 20
12.9313057273
 30
0.0
 10
16.2086997152
 20
13.0710947911
 30
0.0
 10
15.6108442562
 20
13.2356287888
 30
0.0
 10
15.0202519525
 20
13.4245919952
 30
0.0
 10
14.4379175201
 20
13.6376725627
 30
0.0
 10
13.8648408618
 20
13.874560475
 30
0.0
 10
13.3020319994
 20
14.1349443027
 30
0.0
 10
12.7504561141
 20
14.4183897591
 30
0.0
 10
12.2110849492
 20
14.7244601259
 30
0.0
 10
11.6848991264
 20
15.0527095466
 30
0.0
 10
11.172899278
 20
15.4026860729
 30
0.0
 10
10.6759140548
 20
15.7736690133
 30
0.0
 10
10.1947483415
 20
16.1649335179
 30
0.0
 10
9.7301975089
 20
16.5757622372
 30
0.0
 10
9.2830495311
 20
17.0054409672
 30
0.0
 10
8.8539964264
 20
17.4531653712
 30
0.0
 10
8.4437234326
 20
17.918140025
 30
0.0
 10
8.0529143588
 20
18.3995752017
 30
0.0
 10
7.6822555606
 20
18.8966828387
 30
0.0
 10
7.3323313344
 20
19.4085972145
 30
0.0
 10
7.0037272039
 20
19.9344571591
 30
0.0
 10
6.6970334063
 20
20.4734010358
 30
0.0
 10
6.4128470251
 20
21.0245613298
 30
0.0
 10
6.151654183
 20
21.5870026321
 30
0.0
 10
5.9139452173
 20
22.1597854978
 30
0.0
 10
5.7002112367
 20
22.7419586383
 30
0.0
 10
5.5109607485
 20
23.3325583742
 30
0.0
 10
5.3465231601
 20
23.9305447438
 30
0.0
 10
5.2070704933
 20
24.5348388118
 30
0.0
 10
5.0927901193
 20
25.144380458
 30
0.0
 10
5.0038578532
 20
25.7581143258
 30
0.0
 10
4.9403225891
 20
26.3749794926
 30
0.0
 10
4.9022172852
 20
26.9939101022
 30
0.0
 10
4.8938267616
 20
27.4072479864
 30
0.0
 10
4.8938660803
 20
27.613888235
 30
0.0
  0
SPLINE
  5
29F
100
AcDbEntity
  8
0
100
AcDbSpline
 62
7
  6
BYLAYER
 70
0
 71
3
 72
44
 73
40
 74
0
 42
0.0000001
 43
0.0000001
 44
0.0000000001
 40
0.0
 40
0.0
 40
0.0
 40
0.0
 40
0.0261638092
 40
0.0530041225
 40
0.0800105467
 40
0.1066549017
 40
0.1333782325
 40
0.1601865314
 40
0.1868723413
 40
0.2135113851
 40
0.2401580019
 40
0.2669170841
 40
0.2938700071
 40
0.3209338451
 40
0.3480440581
 40
0.3750586486
 40
0.4019929239
 40
0.4290394595
 40
0.45608396
 40
0.4830349829
 40
0.5099855796
 40
0.5370274467
 40
0.5641757159
 40
0.5914051344
 40
0.6186170535
 40
0.6461181992
 40
0.6737689034
 40
0.7013685498
 40
0.7286267494
 40
0.7555298779
 40
0.7824283745
 40
0.8094823554
 40
0.8366913965
 40
0.8638688744
 40
0.8908122021
 40
0.9177997659
 40
0.94543994
 40
0.9730208545
 40
1.0
 40
1.0
 40
1.0
 40
1.0
 10
34.8909951987
 20
27.6138102219
 30
0.0
 10
34.8988649478
 20
26.7754845822
 30
0.0
 10
34.7672602302
 20
25.072152302
 30
0.0
 10
34.1277701659
 20
22.5769145356
 30
0.0
 10
33.0722173531
 20
20.2102547309
 30
0.0
 10
31.6386832553
 20
18.055852363
 30
0.0
 10
29.8577656169
 20
16.185742335
 30
0.0
 10
27.7776890724
 20
14.6542995392
 30
0.0
 10
25.4756249054
 20
13.4910741768
 30
0.0
 10
23.0175576657
 20
12.7249501714
 30
0.0
 10
20.4612624051
 20
12.3912470928
 30
0.0
 10
17.8763670955
 20
12.5065832015
 30
0.0
 10
15.3341845056
 20
13.0522836872
 30
0.0
 10
12.9069102239
 20
14.0174321176
 30
0.0
 10
10.6807926113
 20
15.3898426967
 30
0.0
 10
8.7334137075
 20
17.1278847565
 30
0.0
 10
7.1037666099
 20
19.1627804959
 30
0.0
 10
5.8321960181
 20
21.4405699866
 30
0.0
 10
4.9701303838
 20
23.9043522852
 30
0.0
 10
4.5515289551
 20
26.4769371836
 30
0.0
 10
4.5641591781
 20
29.0821903542
 30
0.0
 10
5.0065637709
 20
31.6566547521
 30
0.0
 10
5.8852576575
 20
34.1274155186
 30
0.0
 10
7.1857684044
 20
36.4103499767
 30
0.0
 10
8.8546657295
 20
38.4527602279
 30
0.0
 10
10.8500913746
 20
40.1993557808
 30
0.0
 10
13.1287859873
 20
41.5825221735
 30
0.0
 10
15.6088113627
 20
42.5366425577
 30
0.0
 10
18.1883158677
 20
43.0580597773
 30
0.0
 10
20.7958531776
 20
43.1496843973
 30
0.0
 10
23.3766071328
 20
42.8049576216
 30
0.0
 10
25.8681065552
 20
42.0164582816
 30
0.0
 10
28.2024725588
 20
40.8240532722
 30
0.0
 10
30.3077516199
 20
39.2680452938
 30
0.0
 10
32.1204383856
 20
37.3878710177
 30
0.0
 10
33.5900653526
 20
35.2111979857
 30
0.0
 10
34.6861992777
 20
32.8023550494
 30
0.0
 10
35.3691824833
 20
30.2464940763
 30
0.0
 10
35.5342268244
 20
28.4961752222
 30
0.0
 10
35.5408716358
 20
27.6317124974
 30
0.0
  0
SPLINE
  5
2A0
100
AcDbEntity
  8
0
100
AcDbSpline
 62
7
  6
BYLAYER
 70
0
 71
3
 72
252
 73
248
 74
0
 42
0.0000001
 43
0.0000001
 44
0.0000000001
 40
0.0
 40
0.0
 40
0.0
 40
0.0
 40
0.0040814265
 40
0.0081628312
 40
0.0122443739
 40
0.0163261357
 40
0.0204080814
 40
0.0244900057
 40
0.028571706
 40
0.0326531631
 40
0.0367344856
 40
0.0408158326
 40
0.0448973455
 40
0.048979106
 40
0.0530610552
 40
0.0571429669
 40
0.061224652
 40
0.0653061181
 40
0.0693874748
 40
0.0734688828
 40
0.0775504655
 40
0.0816322882
 40
0.0857142522
 40
0.0897961237
 40
0.0938777482
 40
0.0979591716
 40
0.1020405123
 40
0.1061219378
 40
0.1102035568
 40
0.1142854185
 40
0.1183673818
 40
0.1224492151
 40
0.1265307942
 40
0.1306121947
 40
0.134693539
 40
0.1387749976
 40
0.1428566618
 40
0.1469385619
 40
0.1510205149
 40
0.1551023045
 40
0.1591838385
 40
0.1632652192
 40
0.1673465711
 40
0.1714280658
 40
0.1755097753
 40
0.1795917077
 40
0.1836736409
 40
0.1877553844
 40
0.1918368764
 40
0.1959182427
 40
0.1999996075
 40
0.2040811416
 40
0.2081628959
 40
0.2122448529
 40
0.2163267584
 40
0.2204084548
 40
0.2244899089
 40
0.2285712665
 40
0.2326526499
 40
0.2367342266
 40
0.2408160245
 40
0.244897997
 40
0.2489798675
 40
0.253061517
 40
0.2571429376
 40
0.2612242922
 40
0.2653056993
 40
0.2693873208
 40
0.2734691595
 40
0.2775511368
 40
0.2816329667
 40
0.2857145704
 40
0.2897959624
 40
0.2938773196
 40
0.2979587552
 40
0.3020404232
 40
0.306122299
 40
0.3102042704
 40
0.3142860554
 40
0.3183676154
 40
0.3224489843
 40
0.3265303497
 40
0.3306118182
 40
0.3346935333
 40
0.3387754409
 40
0.3428573968
 40
0.3469391342
 40
0.3510206535
 40
0.3551020047
 40
0.3591833839
 40
0.3632648892
 40
0.3673466512
 40
0.3714285837
 40
0.3755105155
 40
0.3795922042
 40
0.3836736863
 40
0.3877550257
 40
0.3918364238
 40
0.3959179693
 40
0.3999997769
 40
0.4040817258
 40
0.4081636259
 40
0.4122452659
 40
0.416326715
 40
0.4204080485
 40
0.4244894705
 40
0.428571059
 40
0.4326529097
 40
0.4367348647
 40
0.4408167268
 40
0.4448983193
 40
0.44897974
 40
0.4530610734
 40
0.4571425241
 40
0.4612241575
 40
0.4653060475
 40
0.4693879981
 40
0.4734698174
 40
0.4775513645
 40
0.4816327619
 40
0.485714101
 40
0.4897955847
 40
0.4938772642
 40
0.4979591884
 40
0.5020411248
 40
0.5061228981
 40
0.5102044028
 40
0.5142857821
 40
0.5183671328
 40
0.5224486532
 40
0.526530379
 40
0.5306123308
 40
0.5346942444
 40
0.5387759699
 40
0.5428574359
 40
0.5469388025
 40
0.5510201704
 40
0.5551017308
 40
0.5591835022
 40
0.5632654731
 40
0.5673473564
 40
0.5714290335
 40
0.5755104651
 40
0.5795918247
 40
0.5836732151
 40
0.5877548181
 40
0.5918366332
 40
0.595918613
 40
0.6000004597
 40
0.6040820891
 40
0.608163491
 40
0.6122448492
 40
0.6163262672
 40
0.6204079148
 40
0.6244897703
 40
0.6285717482
 40
0.6326535532
 40
0.6367351366
 40
0.640816514
 40
0.6448978765
 40
0.6489793266
 40
0.6530610198
 40
0.6571429113
 40
0.6612248771
 40
0.665306637
 40
0.6693881769
 40
0.6734695354
 40
0.6775509076
 40
0.6816323942
 40
0.6857141332
 40
0.6897960546
 40
0.6938779992
 40
0.6979597122
 40
0.7020412118
 40
0.706122557
 40
0.7102039444
 40
0.7142854709
 40
0.7183672551
 40
0.7224491987
 40
0.726531114
 40
0.7306127795
 40
0.7346942428
 40
0.7387755804
 40
0.7428569881
 40
0.7469385577
 40
0.7510203852
 40
0.7551023415
 40
0.7591842205
 40
0.7632658392
 40
0.7673472705
 40
0.7714286066
 40
0.7755100395
 40
0.7795916545
 40
0.7836735222
 40
0.7877554803
 40
0.7918373175
 40
0.795918891
 40
0.8000002951
 40
0.8040816355
 40
0.8081630979
 40
0.8122447599
 40
0.8163266632
 40
0.8204086132
 40
0.8244904046
 40
0.8285719355
 40
0.8326533179
 40
0.8367346685
 40
0.8408161648
 40
0.8448978745
 40
0.8489798077
 40
0.8530617403
 40
0.8571434833
 40
0.8612249748
 40
0.8653063406
 40
0.8693877068
 40
0.8734692405
 40
0.8775509976
 40
0.8816329533
 40
0.88571486
 40
0.8897965531
 40
0.8938780078
 40
0.897959361
 40
0.902040746
 40
0.9061223178
 40
0.9102041188
 40
0.9142860872
 40
0.9183679637
 40
0.9224496135
 40
0.9265310465
 40
0.9306124061
 40
0.9346938303
 40
0.9387754568
 40
0.9428573094
 40
0.9469392805
 40
0.9510211062
 40
0.9551026825
 40
0.9591840535
 40
0.9632653716
 40
0.9673467842
 40
0.971428419
 40
0.9755102895
 40
0.9795922559
 40
0.9836740744
 40
0.9877556664
 40
0.9918370873
 40
0.9959184778
 40
1.0
 40
1.0
 40
1.0
 40
1.0
 10
9.1622391044
 20
18.605716487
 30
0.0
 10
9.4268528477
 20
18.2908496657
 30
0.0
 10
9.9841827397
 20
17.6841515027
 30
0.0
 10
10.8961953362
 20
16.8508359903
 30
0.0
 10
11.877874881
 20
16.1006146358
 30
0.0
 10
12.9215532139
 20
15.43928917
 30
0.0
 10
14.0195809374
 20
14.8726136676
 30
0.0
 10
15.1635333029
 20
14.4055281392
 30
0.0
 10
16.3443401517
 20
14.0417745844
 30
0.0
 10
17.5524502241
 20
13.7831336587
 30
0.0
 10
18.7785533681
 20
13.6315112077
 30
0.0
 10
20.0132169645
 20
13.5875568702
 30
0.0
 10
21.2470318631
 20
13.6520016541
 30
0.0
 10
22.4705173402
 20
13.8243709517
 30
0.0
 10
23.6740582849
 20
14.1041590665
 30
0.0
 10
24.8480084279
 20
14.4896842745
 30
0.0
 10
25.9831311117
 20
14.9776415022
 30
0.0
 10
27.0709807903
 20
15.5633152433
 30
0.0
 10
28.103226741
 20
16.2421462431
 30
0.0
 10
29.0722338896
 20
17.0085637247
 30
0.0
 10
29.9703298532
 20
17.857049868
 30
0.0
 10
30.7905648658
 20
18.7811107641
 30
0.0
 10
31.5258776653
 20
19.7741494232
 30
0.0
 10
32.1701022299
 20
20.8285368414
 30
0.0
 10
32.7185525138
 20
21.9356772801
 30
0.0
 10
33.1677644928
 20
23.0865922442
 30
0.0
 10
33.5143294802
 20
24.2724349081
 30
0.0
 10
33.7559791974
 20
25.4840404043
 30
0.0
 10
33.8903976056
 20
26.7122356249
 30
0.0
 10
33.9164561865
 20
27.9475597036
 30
0.0
 10
33.8329542681
 20
29.1803797264
 30
0.0
 10
33.6403716591
 20
30.4008871368
 30
0.0
 10
33.3408113766
 20
31.5995472964
 30
0.0
 10
32.9373608404
 20
32.7672821209
 30
0.0
 10
32.4331268633
 20
33.8951475134
 30
0.0
 10
31.8322604431
 20
34.9746685968
 30
0.0
 10
31.1389123741
 20
35.9973285311
 30
0.0
 10
30.3583302469
 20
36.9551530313
 30
0.0
 10
29.4957970923
 20
37.8399432214
 30
0.0
 10
28.558259321
 20
38.644748485
 30
0.0
 10
27.5534744362
 20
39.3637034735
 30
0.0
 10
26.4896187995
 20
39.9918516488
 30
0.0
 10
25.3748274471
 20
40.5243721641
 30
0.0
 10
24.2177251705
 20
40.9574385166
 30
0.0
 10
23.0269922455
 20
41.2872162103
 30
0.0
 10
21.811798775
 20
41.5109776997
 30
0.0
 10
20.5815086026
 20
41.625845949
 30
0.0
 10
19.3459449954
 20
41.6313567426
 30
0.0
 10
18.114775115
 20
41.528016755
 30
0.0
 10
16.8974255996
 20
41.3172926087
 30
0.0
 10
15.7032113989
 20
41.0007482363
 30
0.0
 10
14.541202729
 20
40.5809910631
 30
0.0
 10
13.4205181539
 20
40.0607045672
 30
0.0
 10
12.349960274
 20
39.4437009989
 30
0.0
 10
11.3385447838
 20
38.7338902803
 30
0.0
 10
10.393871977
 20
37.937523879
 30
0.0
 10
9.5230002106
 20
37.0611600457
 30
0.0
 10
8.7321846481
 20
36.1119787563
 30
0.0
 10
8.0275269095
 20
35.0971782589
 30
0.0
 10
7.414309973
 20
34.0245855443
 30
0.0
 10
6.897762237
 20
32.9021575961
 30
0.0
 10
6.4822162337
 20
31.7384884722
 30
0.0
 10
6.1719012234
 20
30.5424643916
 30
0.0
 10
5.9683353861
 20
29.3238067829
 30
0.0
 10
5.8727239047
 20
28.092033537
 30
0.0
 10
5.8852307989
 20
26.8566501122
 30
0.0
 10
6.0058707971
 20
25.6270861991
 30
0.0
 10
6.2336718444
 20
24.4127436928
 30
0.0
 10
6.5674631836
 20
23.2230868826
 30
0.0
 10
7.0050865175
 20
22.0675355337
 30
0.0
 10
7.5437712461
 20
20.9555296368
 30
0.0
 10
8.1782971688
 20
19.8953861653
 30
0.0
 10
8.9034814418
 20
18.8951396139
 30
0.0
 10
9.7133478159
 20
17.9621636732
 30
0.0
 10
10.6018209612
 20
17.1036653035
 30
0.0
 10
11.5621148862
 20
16.3262411103
 30
0.0
 10
12.5871930181
 20
15.6363517492
 30
0.0
 10
13.6693497114
 20
15.0399033531
 30
0.0
 10
14.8001887519
 20
14.5420025202
 30
0.0
 10
15.9703821905
 20
14.1455939759
 30
0.0
 10
17.1708093135
 20
13.8534608548
 30
0.0
 10
18.3921685765
 20
13.6674150833
 30
0.0
 10
19.6251673519
 20
13.5890335178
 30
0.0
 10
20.8603539665
 20
13.6190231928
 30
0.0
 10
22.0881639036
 20
13.7577490072
 30
0.0
 10
23.2988512804
 20
14.0048173188
 30
0.0
 10
24.4827873181
 20
14.358311271
 30
0.0
 10
25.630973778
 20
14.8145224065
 30
0.0
 10
26.7346737779
 20
15.3696787714
 30
0.0
 10
27.7856020242
 20
16.0192092551
 30
0.0
 10
28.7756450926
 20
16.7583117776
 30
0.0
 10
29.6970885117
 20
17.5814524611
 30
0.0
 10
30.5423837138
 20
18.482708909
 30
0.0
 10
31.3043031699
 20
19.4554733737
 30
0.0
 10
31.9770457822
 20
20.4918317757
 30
0.0
 10
32.5560748088
 20
21.5832334723
 30
0.0
 10
33.0371860422
 20
22.721158554
 30
0.0
 10
33.4169569774
 20
23.896797611
 30
0.0
 10
33.6922967873
 20
25.1012376421
 30
0.0
 10
33.8608436124
 20
26.3252654836
 30
0.0
 10
33.9206456425
 20
27.5594574519
 30
0.0
 10
33.8705192908
 20
28.7940655601
 30
0.0
 10
33.711470953
 20
30.0193346178
 30
0.0
 10
33.4454410129
 20
31.2258315939
 30
0.0
 10
33.0747459996
 20
32.4043562098
 30
0.0
 10
32.6024039065
 20
33.545961917
 30
0.0
 10
32.0318180472
 20
34.6418408648
 30
0.0
 10
31.3671116066
 20
35.6834027822
 30
0.0
 10
30.6128677666
 20
36.6621435792
 30
0.0
 10
29.7746405168
 20
37.5699516929
 30
0.0
 10
28.8596348662
 20
38.4001967283
 30
0.0
 10
27.8753354403
 20
39.1468820794
 30
0.0
 10
26.8294551872
 20
39.8045048833
 30
0.0
 10
25.7300413939
 20
40.3681371654
 30
0.0
 10
24.5853926738
 20
40.8332501594
 30
0.0
 10
23.4042093551
 20
41.1959133113
 30
0.0
 10
22.1955054144
 20
41.4525358158
 30
0.0
 10
20.9688326693
 20
41.6007896255
 30
0.0
 10
19.7339479902
 20
41.6403698766
 30
0.0
 10
18.5004095562
 20
41.5714650144
 30
0.0
 10
17.2776464416
 20
41.3948678044
 30
0.0
 10
16.0749918633
 20
41.1119566516
 30
0.0
 10
14.9017184178
 20
40.7246416998
 30
0.0
 10
13.7670362133
 20
40.2355148146
 30
0.0
 10
12.6801947361
 20
39.6476449388
 30
0.0
 10
11.649832318
 20
38.9657216912
 30
0.0
 10
10.6835497529
 20
38.1958044527
 30
0.0
 10
9.7885362923
 20
37.3441589957
 30
0.0
 10
8.9714650666
 20
36.4174775715
 30
0.0
 10
8.2386148838
 20
35.4228043579
 30
0.0
 10
7.5958329485
 20
34.3676038427
 30
0.0
 10
7.0485276462
 20
33.2597988581
 30
0.0
 10
6.6017761762
 20
32.1077503084
 30
0.0
 10
6.2588285653
 20
30.9207322522
 30
0.0
 10
6.0215947969
 20
29.7082283851
 30
0.0
 10
5.8915498576
 20
28.4796415995
 30
0.0
 10
5.8694615025
 20
27.2443812423
 30
0.0
 10
5.9556306264
 20
26.0118843583
 30
0.0
 10
6.1496840201
 20
24.7916410458
 30
0.0
 10
6.4506937126
 20
23.5932301655
 30
0.0
 10
6.8570266492
 20
22.4263213839
 30
0.0
 10
7.3649116757
 20
21.2999836629
 30
0.0
 10
7.9697473573
 20
20.2226753152
 30
0.0
 10
8.6666232515
 20
19.202531418
 30
0.0
 10
9.4500512401
 20
18.2472235149
 30
0.0
 10
10.3142055069
 20
17.3641935487
 30
0.0
 10
11.2526435898
 20
16.5604409368
 30
0.0
 10
12.2585053716
 20
15.8427705749
 30
0.0
 10
13.3241515956
 20
15.2173482081
 30
0.0
 10
14.4407777339
 20
14.6884902244
 30
0.0
 10
15.5994575177
 20
14.2597041683
 30
0.0
 10
16.7912136631
 20
13.9340603225
 30
0.0
 10
18.0069060862
 20
13.7138670664
 30
0.0
 10
19.2372801774
 20
13.6011025333
 30
0.0
 10
20.472877176
 20
13.5969214502
 30
0.0
 10
21.7040272026
 20
13.7021988504
 30
0.0
 10
22.9209279006
 20
13.9163803088
 30
0.0
 10
24.1141169216
 20
14.237018053
 30
0.0
 10
25.2745380245
 20
14.6610451137
 30
0.0
 10
26.3933508503
 20
15.1850549906
 30
0.0
 10
27.4620900472
 20
15.804904648
 30
0.0
 10
28.4723728577
 20
16.5161693382
 30
0.0
 10
29.416232882
 20
17.313588064
 30
0.0
 10
30.2856285903
 20
18.1916324421
 30
0.0
 10
31.0737074736
 20
19.1432700812
 30
0.0
 10
31.7748332053
 20
20.160569666
 30
0.0
 10
32.3840914461
 20
21.2353550484
 30
0.0
 10
32.8968942211
 20
22.3593516888
 30
0.0
 10
33.3094570046
 20
23.523927043
 30
0.0
 10
33.618183828
 20
24.7202923192
 30
0.0
 10
33.820401944
 20
25.9392604935
 30
0.0
 10
33.9134835207
 20
27.1713871359
 30
0.0
 10
33.8971384017
 20
28.4068523972
 30
0.0
 10
33.772102012
 20
29.6360033254
 30
0.0
 10
33.5399207111
 20
30.849443891
 30
0.0
 10
33.2023806998
 20
32.0378937948
 30
0.0
 10
32.762170759
 20
33.1923148223
 30
0.0
 10
32.2221858218
 20
34.3036438677
 30
0.0
 10
31.586328612
 20
35.3631168744
 30
0.0
 10
30.8587309322
 20
36.3618079055
 30
0.0
 10
30.045794673
 20
37.2922565921
 30
0.0
 10
29.1542063657
 20
38.1475284231
 30
0.0
 10
28.1912200986
 20
38.921475912
 30
0.0
 10
27.1641526787
 20
39.6081306459
 30
0.0
 10
26.0808995702
 20
40.202324002
 30
0.0
 10
24.9495222365
 20
40.6989681688
 30
0.0
 10
23.7786772887
 20
41.0938535172
 30
0.0
 10
22.5773530196
 20
41.382949906
 30
0.0
 10
21.355292582
 20
41.564961861
 30
0.0
 10
20.1220281158
 20
41.6388188768
 30
0.0
 10
18.8870555434
 20
41.6045316516
 30
0.0
 10
17.659811147
 20
41.4622173903
 30
0.0
 10
16.4496715052
 20
41.2130260567
 30
0.0
 10
15.2660987272
 20
40.8582594452
 30
0.0
 10
14.1184715246
 20
40.4002519651
 30
0.0
 10
13.0161789421
 20
39.8419728645
 30
0.0
 10
11.9674000288
 20
39.1888376434
 30
0.0
 10
10.9801160883
 20
38.4461089851
 30
0.0
 10
10.0615549094
 20
37.6199258845
 30
0.0
 10
9.2188746712
 20
36.7164350685
 30
0.0
 10
8.4585045011
 20
35.742574991
 30
0.0
 10
7.7868554085
 20
34.7054523594
 30
0.0
 10
7.2096469926
 20
33.6129103065
 30
0.0
 10
6.7318417596
 20
32.4734413294
 30
0.0
 10
6.3561317377
 20
31.2964405506
 30
0.0
 10
6.0852473171
 20
30.0910444037
 30
0.0
 10
5.9207414352
 20
28.8665950736
 30
0.0
 10
5.8641527306
 20
27.6324030272
 30
0.0
 10
5.9159153611
 20
26.3979316074
 30
0.0
 10
6.0763586005
 20
25.1727693424
 30
0.0
 10
6.3447996446
 20
23.9666400364
 30
0.0
 10
6.7191939263
 20
22.7891528015
 30
0.0
 10
7.1955681618
 20
21.6491854855
 30
0.0
 10
7.7701381186
 20
20.5554698079
 30
0.0
 10
8.4380698978
 20
19.5161358052
 30
0.0
 10
9.1945576193
 20
18.5393105606
 30
0.0
 10
10.0338146956
 20
17.6325140301
 30
0.0
 10
10.9499108806
 20
16.8033239226
 30
0.0
 10
11.9359890312
 20
16.0587156712
 30
0.0
 10
12.9840912039
 20
15.4044316183
 30
0.0
 10
14.0855208601
 20
14.8447156712
 30
0.0
 10
15.2317705156
 20
14.3837974796
 30
0.0
 10
16.413913187
 20
14.0247720523
 30
0.0
 10
17.6230357227
 20
13.7707784036
 30
0.0
 10
18.8498480336
 20
13.6238220917
 30
0.0
 10
20.0849062715
 20
13.5859193792
 30
0.0
 10
21.3184370349
 20
13.6578280401
 30
0.0
 10
22.5406947415
 20
13.8385380193
 30
0.0
 10
23.7423268789
 20
14.1257512198
 30
0.0
 10
24.914115262
 20
14.5172222858
 30
0.0
 10
26.0472442993
 20
15.0095709547
 30
0.0
 10
27.1328551032
 20
15.5994691508
 30
0.0
 10
28.1625448238
 20
16.2824355723
 30
0.0
 10
29.1277215846
 20
17.0539592865
 30
0.0
 10
30.020575542
 20
17.908090916
 30
0.0
 10
30.8344480782
 20
18.8376744243
 30
0.0
 10
31.5636762181
 20
19.8349651961
 30
0.0
 10
32.2026748753
 20
20.8923140201
 30
0.0
 10
32.7468909486
 20
22.0014612446
 30
0.0
 10
33.1916822754
 20
23.1541522891
 30
0.0
 10
33.533530393
 20
24.3415277103
 30
0.0
 10
33.7686989143
 20
25.5545872387
 30
0.0
 10
33.8953843039
 20
26.7836812032
 30
0.0
 10
33.9131314492
 20
28.0190737794
 30
0.0
 10
33.8225691268
 20
29.2512457506
 30
0.0
 10
33.6243425678
 20
30.4706217218
 30
0.0
 10
33.4216357328
 20
31.2691347135
 30
0.0
 10
33.3029502277
 20
31.6629408048
 30
0.0
  0
SPLINE
  5
2A1
100
AcDbEntity
  8
0
100
AcDbSpline
 62
7
  6
BYLAYER
 70
0
 71
3
 72
17
 73
13
 74
0
 42
0.0000001
 43
0.0000001
 44
0.0000000001
 40
0.0
 40
0.0
 40
0.0
 40
0.0
 40
0.1006507272
 40
0.2010146487
 40
0.3007627684
 40
0.4011321811
 40
0.5024715031
 40
0.6030527915
 40
0.7020177727
 40
0.8019341981
 40
0.9018834972
 40
1.0
 40
1.0
 40
1.0
 40
1.0
 10
31.4392515901
 20
18.0404681737
 30
0.0
 10
30.871671169
 20
17.405428493
 30
0.0
 10
29.6268800934
 20
16.2317123146
 30
0.0
 10
27.4935936798
 20
14.8217687537
 30
0.0
 10
25.1519785056
 20
13.7985658838
 30
0.0
 10
22.6611838797
 20
13.1913384092
 30
0.0
 10
20.0949977185
 20
13.0265419807
 30
0.0
 10
17.5519767126
 20
13.3166948248
 30
0.0
 10
15.1109179581
 20
14.0436746834
 30
0.0
 10
12.8402640118
 20
15.1870483582
 30
0.0
 10
10.8141085364
 20
16.7097313077
 30
0.0
 10
9.668514549
 20
17.9475137528
 30
0.0
 10
9.1610620243
 20
18.6046627226
 30
0.0
  0
SPLINE
  5
2A2
100
AcDbEntity
  8
0
100
AcDbSpline
 62
7
  6
BYLAYER
 70
0
 71
3
 72
319
 73
315
 74
0
 42
0.0000001
 43
0.0000001
 44
0.0000000001
 40
0.0
 40
0.0
 40
0.0
 40
0.0
 40
0.0014848912
 40
0.0029697088
 40
0.0044544553
 40
0.0059391586
 40
0.0099229425
 40
0.0139072745
 40
0.0178916416
 40
0.0218755358
 40
0.0258594106
 40
0.0298437456
 40
0.0338280745
 40
0.035820647
 40
0.037813109
 40
0.0417969666
 40
0.045781301
 40
0.049765636
 40
0.0537494959
 40
0.0557419603
 40
0.0577345359
 40
0.0617188704
 40
0.0657032051
 40
0.069687065
 40
0.0736709248
 40
0.0776552594
 40
0.0816395938
 40
0.0836321693
 40
0.0856246336
 40
0.0896084932
 40
0.0935928277
 40
0.0975771623
 40
0.101561022
 40
0.1035534864
 40
0.105546062
 40
0.1075387675
 40
0.1095315545
 40
0.113515889
 40
0.1174997487
 40
0.1214836083
 40
0.1254679428
 40
0.1294522773
 40
0.133436137
 40
0.1354286014
 40
0.137421177
 40
0.1394138825
 40
0.1414066695
 40
0.145391004
 40
0.1493748637
 40
0.1533587233
 40
0.1573430578
 40
0.1613273924
 40
0.163319968
 40
0.1653124324
 40
0.169296292
 40
0.1732806266
 40
0.1772649611
 40
0.1812488207
 40
0.1832412851
 40
0.1852338607
 40
0.1872265662
 40
0.1892193532
 40
0.1932036877
 40
0.1971875474
 40
0.2011714071
 40
0.2051557416
 40
0.2091400761
 40
0.2131239357
 40
0.2151164001
 40
0.2171089758
 40
0.2191016812
 40
0.2210944682
 40
0.2250788028
 40
0.2290626624
 40
0.2330465221
 40
0.2370308566
 40
0.2410151911
 40
0.2430077667
 40
0.2450002311
 40
0.2489840908
 40
0.2529684253
 40
0.2569527598
 40
0.2609366195
 40
0.2629290838
 40
0.2649216595
 40
0.2669143649
 40
0.268907152
 40
0.2728914865
 40
0.2768753461
 40
0.2808592058
 40
0.2848435403
 40
0.2888278748
 40
0.2928117345
 40
0.2948041989
 40
0.2967967745
 40
0.29878948
 40
0.300782267
 40
0.3047666015
 40
0.3087504612
 40
0.3127343208
 40
0.3167186553
 40
0.3207029898
 40
0.3226955655
 40
0.3246880299
 40
0.3286718895
 40
0.332656224
 40
0.3366405585
 40
0.3406244182
 40
0.3426168826
 40
0.3446094582
 40
0.3466021637
 40
0.3485949507
 40
0.3525792852
 40
0.3565631449
 40
0.3605470045
 40
0.3645313391
 40
0.3685156736
 40
0.3724995332
 40
0.3744919976
 40
0.3764845732
 40
0.3784772787
 40
0.3804700657
 40
0.3844544002
 40
0.3884382599
 40
0.3924221196
 40
0.3964064541
 40
0.4003907886
 40
0.4023833642
 40
0.4043758286
 40
0.4083596883
 40
0.4123440228
 40
0.4163283573
 40
0.4203122169
 40
0.4223046813
 40
0.424297257
 40
0.4262899624
 40
0.4282827495
 40
0.432267084
 40
0.4362509436
 40
0.4402348033
 40
0.4442191378
 40
0.4482034723
 40
0.452187332
 40
0.4541797963
 40
0.456172372
 40
0.4581650774
 40
0.4601578645
 40
0.464142199
 40
0.4681260586
 40
0.4721099183
 40
0.4760942528
 40
0.4800785873
 40
0.482071163
 40
0.4840636273
 40
0.488047487
 40
0.4920318215
 40
0.496016156
 40
0.5000000157
 40
0.5039838753
 40
0.5079682099
 40
0.5119525444
 40
0.515936404
 40
0.5179288684
 40
0.5199214441
 40
0.5239057786
 40
0.5278901131
 40
0.5318739727
 40
0.5358578324
 40
0.5398421669
 40
0.5418349539
 40
0.5438276594
 40
0.545820235
 40
0.5478126994
 40
0.5517965591
 40
0.5557808936
 40
0.5597652281
 40
0.5637490878
 40
0.5677329474
 40
0.5717172819
 40
0.573710069
 40
0.5757027744
 40
0.57769535
 40
0.5796878144
 40
0.5836716741
 40
0.5876560086
 40
0.5916403431
 40
0.5956242028
 40
0.5976166671
 40
0.5996092428
 40
0.6035935773
 40
0.6075779118
 40
0.6115617715
 40
0.6155456311
 40
0.6195299656
 40
0.6215227527
 40
0.6235154581
 40
0.6255080338
 40
0.6275004982
 40
0.6314843578
 40
0.6354686923
 40
0.6394530268
 40
0.6434368865
 40
0.6474207462
 40
0.6514050807
 40
0.6533978677
 40
0.6553905731
 40
0.6573831488
 40
0.6593756132
 40
0.6633594728
 40
0.6673438073
 40
0.6713281418
 40
0.6753120015
 40
0.6773044659
 40
0.6792970415
 40
0.683281376
 40
0.6872657106
 40
0.6912495702
 40
0.6952334299
 40
0.6992177644
 40
0.7012105514
 40
0.7032032569
 40
0.7051958325
 40
0.7071882969
 40
0.7111721566
 40
0.7151564911
 40
0.7191408256
 40
0.7231246852
 40
0.7271085449
 40
0.7310928794
 40
0.7330856664
 40
0.7350783719
 40
0.7370709475
 40
0.7390634119
 40
0.7430472716
 40
0.7470316061
 40
0.7510159406
 40
0.7549998003
 40
0.7569922646
 40
0.7589848403
 40
0.7629691748
 40
0.7669535093
 40
0.770937369
 40
0.7749212286
 40
0.7789055631
 40
0.7808983502
 40
0.7828910556
 40
0.7848836313
 40
0.7868760956
 40
0.7908599553
 40
0.7948442898
 40
0.7988286243
 40
0.802812484
 40
0.8067963436
 40
0.8107806781
 40
0.8127734652
 40
0.8147661706
 40
0.8167587463
 40
0.8187512107
 40
0.8227350703
 40
0.8267194048
 40
0.8307037393
 40
0.834687599
 40
0.8366800634
 40
0.838672639
 40
0.8426569735
 40
0.846641308
 40
0.8506251677
 40
0.8546090274
 40
0.8585933619
 40
0.8605861489
 40
0.8625788543
 40
0.86457143
 40
0.8665638944
 40
0.870547754
 40
0.8745320886
 40
0.8785164231
 40
0.8825002827
 40
0.8864841424
 40
0.8904684769
 40
0.8924612639
 40
0.8944539693
 40
0.896446545
 40
0.8984390094
 40
0.9024228691
 40
0.9064072037
 40
0.9103915382
 40
0.9143753977
 40
0.9163678621
 40
0.9183604376
 40
0.922344772
 40
0.9263291065
 40
0.9303129664
 40
0.9342968263
 40
0.938281161
 40
0.9422654955
 40
0.9442580711
 40
0.9462505355
 40
0.9502343954
 40
0.9542187304
 40
0.9582030648
 40
0.9621869224
 40
0.9641793843
 40
0.9661719569
 40
0.9701562857
 40
0.9741406207
 40
0.9781244956
 40
0.9821083897
 40
0.9860927569
 40
0.9900770889
 40
0.9940608728
 40
0.9955455683
 40
0.9970303069
 40
0.9985151166
 40
1.0
 40
1.0
 40
1.0
 40
1.0
 10
33.3040745456
 20
31.6633181161
 30
0.0
 10
33.2553826644
 20
31.8247667629
 30
0.0
 10
33.1522030168
 20
32.1459053
 30
0.0
 10
32.9801954435
 20
32.6217168232
 30
0.0
 10
32.7911070134
 20
33.0909916773
 30
0.0
 10
32.4695515821
 20
33.8122825309
 30
0.0
 10
31.9666335229
 20
34.7627713947
 30
0.0
 10
31.2178667318
 20
35.8972929055
 30
0.0
 10
30.3635460678
 20
36.9547338019
 30
0.0
 10
29.4111473063
 20
37.9247543207
 30
0.0
 10
28.3683212507
 20
38.7968597567
 30
0.0
 10
27.2462462177
 20
39.5641864112
 30
0.0
 10
26.2538195808
 20
40.1109732527
 30
0.0
 10
25.4313370132
 20
40.4892305433
 30
0.0
 10
24.5914767402
 20
40.8270289745
 30
0.0
 10
23.5120270125
 20
41.1714290197
 30
0.0
 10
22.1831325591
 20
41.4576482886
 30
0.0
 10
20.8328926907
 20
41.6149219884
 30
0.0
 10
19.7000428193
 20
41.6367354593
 30
0.0
 10
18.7961293754
 20
41.587591276
 30
0.0
 10
17.8956289127
 20
41.4945459827
 30
0.0
 10
16.7799433681
 20
41.2967235817
 30
0.0
 10
15.4704586795
 20
40.931905413
 30
0.0
 10
14.2022385044
 20
40.4423716948
 30
0.0
 10
12.9880522165
 20
39.8309984251
 30
0.0
 10
11.8386033833
 20
39.1053196482
 30
0.0
 10
10.9430263516
 20
38.4111801758
 30
0.0
 10
10.2695614274
 20
37.8061979893
 30
0.0
 10
9.6263443656
 20
37.1692157211
 30
0.0
 10
8.8820365061
 20
36.3149148865
 30
0.0
 10
8.0921977244
 20
35.2085519933
 30
0.0
 10
7.4122627437
 20
34.0314517656
 30
0.0
 10
6.9429005908
 20
33.000171112
 30
0.0
 10
6.629486387
 20
32.1509246333
 30
0.0
 10
6.42562819
 20
31.5031477198
 30
0.0
 10
6.2533243997
 20
30.8462370932
 30
0.0
 10
6.0660780746
 20
29.9604860382
 30
0.0
 10
5.9122690576
 20
28.8379179505
 30
0.0
 10
5.8586327113
 20
27.4796149015
 30
0.0
 10
5.9382479256
 20
26.1225273174
 30
0.0
 10
6.1485034543
 20
24.7794721729
 30
0.0
 10
6.4867649476
 20
23.4628766159
 30
0.0
 10
6.8733581584
 20
22.3977979843
 30
0.0
 10
7.2439216338
 20
21.5718862999
 30
0.0
 10
7.5517181595
 20
20.9665479872
 30
0.0
 10
7.8884443052
 20
20.3767720314
 30
0.0
 10
8.3746692645
 20
19.6130959288
 30
0.0
 10
9.0505310537
 20
18.703684331
 30
0.0
 10
9.962929345
 20
17.6960229095
 30
0.0
 10
10.9696673215
 20
16.7824861002
 30
0.0
 10
12.0598145406
 20
15.9704457598
 30
0.0
 10
13.0293340754
 20
15.3839971028
 30
0.0
 10
13.8358589284
 20
14.9728086551
 30
0.0
 10
14.6613822634
 20
14.6013440879
 30
0.0
 10
15.7260326298
 20
14.2136022792
 30
0.0
 10
17.0422760896
 20
13.8739151744
 30
0.0
 10
18.3850552648
 20
13.6622064677
 30
0.0
 10
19.5161054274
 20
13.5946334237
 30
0.0
 10
20.4212517709
 20
13.6072081622
 30
0.0
 10
21.0990212504
 20
13.649653679
 30
0.0
 10
21.773979709
 20
13.7248284414
 30
0.0
 10
22.6678715864
 20
13.8682628585
 30
0.0
 10
23.7707618973
 20
14.1279728815
 30
0.0
 10
25.0576679025
 20
14.5658506918
 30
0.0
 10
26.2955725147
 20
15.1276491184
 30
0.0
 10
27.4734522905
 20
15.8063270565
 30
0.0
 10
28.580655894
 20
16.5949618747
 30
0.0
 10
29.4357690324
 20
17.3383516246
 30
0.0
 10
30.0734374735
 20
17.9808672724
 30
0.0
 10
30.5278027959
 20
18.4855704797
 30
0.0
 10
30.9572523313
 20
19.0116819429
 30
0.0
 10
31.4952910204
 20
19.7397823961
 30
0.0
 10
32.101215647
 20
20.6972133124
 30
0.0
 10
32.7138626772
 20
21.9106859324
 30
0.0
 10
33.2047787493
 20
23.1783894727
 30
0.0
 10
33.5710105346
 20
24.487474937
 30
0.0
 10
33.7700407735
 20
25.6029466397
 30
0.0
 10
33.8640606078
 20
26.503345745
 30
0.0
 10
33.9141833683
 20
27.4072054743
 30
0.0
 10
33.8935969054
 20
28.5400780665
 30
0.0
 10
33.737785225
 20
29.8904879653
 30
0.0
 10
33.453005246
 20
31.2196895503
 30
0.0
 10
33.1097684014
 20
32.2995178029
 30
0.0
 10
32.7728834066
 20
33.1397299948
 30
0.0
 10
32.4898005113
 20
33.7570120726
 30
0.0
 10
32.1771827771
 20
34.359913655
 30
0.0
 10
31.7222156353
 20
35.1426147604
 30
0.0
 10
31.0836569973
 20
36.0785951019
 30
0.0
 10
30.2127202622
 20
37.1223063869
 30
0.0
 10
29.2437368448
 20
38.0757718754
 30
0.0
 10
28.187237745
 20
38.9312332492
 30
0.0
 10
27.0535097274
 20
39.6812369013
 30
0.0
 10
26.0525634979
 20
40.2122297875
 30
0.0
 10
25.2238693797
 20
40.5765283699
 30
0.0
 10
24.5896356905
 20
40.8192644429
 30
0.0
 10
23.9443730406
 20
41.0310574732
 30
0.0
 10
23.0715960825
 20
41.271632373
 30
0.0
 10
21.9604098822
 20
41.4931811056
 30
0.0
 10
20.6078574927
 20
41.6290274031
 30
0.0
 10
19.2484225954
 20
41.6317870747
 30
0.0
 10
17.8951574417
 20
41.5033195798
 30
0.0
 10
16.7826453336
 20
41.2883615257
 30
0.0
 10
15.9085722622
 20
41.0526614114
 30
0.0
 10
15.0470384066
 20
40.7747511435
 30
0.0
 10
13.997178312
 20
40.3485846334
 30
0.0
 10
12.7928772046
 20
39.7180745088
 30
0.0
 10
11.6546972009
 20
38.9748230243
 30
0.0
 10
10.7702443389
 20
38.2665972683
 30
0.0
 10
10.1071318319
 20
37.6503750436
 30
0.0
 10
9.6327422602
 20
37.1644453949
 30
0.0
 10
9.1823829103
 20
36.6561181168
 30
0.0
 10
8.6153605714
 20
35.9503548507
 30
0.0
 10
7.9712404621
 20
35.0181930522
 30
0.0
 10
7.3100558829
 20
33.8304645499
 30
0.0
 10
6.7683139897
 20
32.5836522055
 30
0.0
 10
6.3494722663
 20
31.2903710603
 30
0.0
 10
6.0567915589
 20
29.9628987631
 30
0.0
 10
5.9208047092
 20
28.8380190468
 30
0.0
 10
5.8785086348
 20
27.9337743672
 30
0.0
 10
5.8798062697
 20
27.2546782843
 30
0.0
 10
5.9139434096
 20
26.5764048654
 30
0.0
 10
6.0029482482
 20
25.6754642238
 30
0.0
 10
6.1953514285
 20
24.5588624018
 30
0.0
 10
6.5544408927
 20
23.2477914886
 30
0.0
 10
7.0402060285
 20
21.9781052719
 30
0.0
 10
7.6462228204
 20
20.7613168263
 30
0.0
 10
8.2464729822
 20
19.8002809795
 30
0.0
 10
8.7804278636
 20
19.0692197901
 30
0.0
 10
9.3492710633
 20
18.3650237127
 30
0.0
 10
10.1241258088
 20
17.5383289467
 30
0.0
 10
11.1451633729
 20
16.6409068234
 30
0.0
 10
12.2476647615
 20
15.8456916464
 30
0.0
 10
13.2263336458
 20
15.2746856905
 30
0.0
 10
14.0396294828
 20
14.8771961828
 30
0.0
 10
14.6635358928
 20
14.6090285474
 30
0.0
 10
15.2997127137
 20
14.3713329053
 30
0.0
 10
16.1620550552
 20
14.0956849296
 30
0.0
 10
17.2633795143
 20
13.8294129449
 30
0.0
 10
18.6093419787
 20
13.6390210138
 30
0.0
 10
19.9675379486
 20
13.581323457
 30
0.0
 10
21.3249524075
 20
13.6550153612
 30
0.0
 10
22.6689558472
 20
13.8587294995
 30
0.0
 10
23.7676013493
 20
14.1359024786
 30
0.0
 10
24.6266829329
 20
14.4212552974
 30
0.0
 10
25.2599843409
 20
14.6664134103
 30
0.0
 10
25.8807212831
 20
14.9419235258
 30
0.0
 10
26.6895530288
 20
15.3486262527
 30
0.0
 10
27.6625078427
 20
15.929296161
 30
0.0
 10
28.7570736731
 20
16.7353841388
 30
0.0
 10
29.7675123213
 20
17.6448260474
 30
0.0
 10
30.6853868494
 20
18.6474909266
 30
0.0
 10
31.3666513413
 20
19.5529017442
 30
0.0
 10
31.8571064199
 20
20.3138302969
 30
0.0
 10
32.3099568494
 20
21.0976673254
 30
0.0
 10
32.8031255548
 20
22.1177730519
 30
0.0
 10
33.2738647075
 20
23.3930193706
 30
0.0
 10
33.6199606229
 20
24.7076407235
 30
0.0
 10
33.8375297343
 20
26.0495258688
 30
0.0
 10
33.9226599937
 20
27.4062664116
 30
0.0
 10
33.8764171709
 20
28.7648956051
 30
0.0
 10
33.6999050962
 20
30.1127427814
 30
0.0
 10
33.4449948427
 20
31.2167590077
 30
0.0
 10
33.1770559547
 20
32.0814455123
 30
0.0
 10
32.8673715792
 20
32.9321240849
 30
0.0
 10
32.4036293562
 20
33.9659679837
 30
0.0
 10
31.7307035004
 20
35.1470697159
 30
0.0
 10
30.9468603935
 20
36.2577725703
 30
0.0
 10
30.0580828112
 20
37.2863281567
 30
0.0
 10
29.2379530984
 20
38.0681247201
 30
0.0
 10
28.539325722
 20
38.6439160798
 30
0.0
 10
27.9950533458
 20
39.0501029279
 30
0.0
 10
27.4318042983
 20
39.4294756789
 30
0.0
 10
26.6572909351
 20
39.8980655301
 30
0.0
 10
25.6473547402
 20
40.411753842
 30
0.0
 10
24.3818832151
 20
40.9081674954
 30
0.0
 10
23.0745277126
 20
41.2807612421
 30
0.0
 10
21.7373009825
 20
41.5254037836
 30
0.0
 10
20.3826055081
 20
41.6379391767
 30
0.0
 10
19.2496575149
 20
41.6222810021
 30
0.0
 10
18.3476755424
 20
41.5445337067
 30
0.0
 10
17.6746470139
 20
41.4536889737
 30
0.0
 10
17.0068329443
 20
41.330411005
 30
0.0
 10
16.1256848307
 20
41.122983839
 30
0.0
 10
15.0448309885
 20
40.7829903708
 30
0.0
 10
13.7935487435
 20
40.2517943307
 30
0.0
 10
12.599062099
 20
39.6028830649
 30
0.0
 10
11.6603100109
 20
38.9684001024
 30
0.0
 10
10.949589349
 20
38.4077301085
 30
0.0
 10
10.266938083
 20
37.8131331635
 30
0.0
 10
9.4686884773
 20
37.0089641996
 30
0.0
 10
8.6081539419
 20
35.9566758423
 30
0.0
 10
7.8531633097
 20
34.826162684
 30
0.0
 10
7.2125316594
 20
33.6272284607
 30
0.0
 10
6.7775283662
 20
32.5810015506
 30
0.0
 10
6.4911333098
 20
31.7221687539
 30
0.0
 10
6.3075740429
 20
31.0683138995
 30
0.0
 10
6.1558559382
 20
30.4063812818
 30
0.0
 10
5.9967668776
 20
29.5152370346
 30
0.0
 10
5.8801589551
 20
28.3881836233
 30
0.0
 10
5.8714668648
 20
27.0288568989
 30
0.0
 10
5.9933756062
 20
25.6749208706
 30
0.0
 10
6.2454254618
 20
24.3390705155
 30
0.0
 10
6.6270397121
 20
23.0343733832
 30
0.0
 10
7.0486339748
 20
21.9826725648
 30
0.0
 10
7.4452046511
 20
21.1688250243
 30
0.0
 10
7.7717531357
 20
20.5733535699
 30
0.0
 10
8.1266968365
 20
19.9943992898
 30
0.0
 10
8.6368074615
 20
19.2465790056
 30
0.0
 10
9.3423747466
 20
18.3600039142
 30
0.0
 10
10.2876039925
 20
17.3830606392
 30
0.0
 10
11.3222888689
 20
16.5014079972
 30
0.0
 10
12.2516427123
 20
15.8532370734
 30
0.0
 10
13.030196293
 20
15.3913615238
 30
0.0
 10
13.830329078
 20
14.9678691337
 30
0.0
 10
14.8675709078
 20
14.5117775399
 30
0.0
 10
16.1587447682
 20
14.0866886835
 30
0.0
 10
17.4850082317
 20
13.7881990164
 30
0.0
 10
18.8340453641
 20
13.6210134958
 30
0.0
 10
19.9667016587
 20
13.5908749661
 30
0.0
 10
20.8710885534
 20
13.6321090005
 30
0.0
 10
21.5472384375
 20
13.6956818666
 30
0.0
 10
22.2194888223
 20
13.7918722705
 30
0.0
 10
23.1082991601
 20
13.963521861
 30
0.0
 10
24.2020119057
 20
14.2595610977
 30
0.0
 10
25.4737282324
 20
14.7397509358
 30
0.0
 10
26.6934988296
 20
15.3398877538
 30
0.0
 10
27.8496412298
 20
16.054982189
 30
0.0
 10
28.9301672919
 20
16.8798018494
 30
0.0
 10
29.7602223739
 20
17.6510507682
 30
0.0
 10
30.3772895424
 20
18.313503959
 30
0.0
 10
30.8157104638
 20
18.8321630584
 30
0.0
 10
31.2285164833
 20
19.3713886879
 30
0.0
 10
31.7431774173
 20
20.1160846998
 30
0.0
 10
32.3171189318
 20
21.0930349159
 30
0.0
 10
32.8893045585
 20
22.3261124067
 30
0.0
 10
33.3404255024
 20
23.6084439038
 30
0.0
 10
33.6114865992
 20
24.7086029808
 30
0.0
 10
33.7628581867
 20
25.6011058344
 30
0.0
 10
33.870656875
 20
26.4999593936
 30
0.0
 10
33.923703746
 20
27.6318057547
 30
0.0
 10
33.8565989748
 20
28.9894977018
 30
0.0
 10
33.6587402989
 20
30.3344597087
 30
0.0
 10
33.3301609789
 20
31.6535077797
 30
0.0
 10
32.9514113515
 20
32.7213876102
 30
0.0
 10
32.5880528328
 20
33.5505959603
 30
0.0
 10
32.2858345999
 20
34.1587771133
 30
0.0
 10
31.9545767865
 20
34.7516020745
 30
0.0
 10
31.4751031943
 20
35.5194252787
 30
0.0
 10
30.8059370518
 20
36.4337903444
 30
0.0
 10
29.9009690319
 20
37.4481263731
 30
0.0
 10
28.9027204066
 20
38.3708962209
 30
0.0
 10
27.8200441207
 20
39.1929895009
 30
0.0
 10
26.6621297317
 20
39.9050978569
 30
0.0
 10
25.6441853226
 20
40.4026976095
 30
0.0
 10
24.8042849151
 20
40.7406079913
 30
0.0
 10
24.1627544657
 20
40.9634506448
 30
0.0
 10
23.5112317359
 20
41.155000173
 30
0.0
 10
22.6313647779
 20
41.3677962336
 30
0.0
 10
21.5134512358
 20
41.5524848876
 30
0.0
 10
20.1571372442
 20
41.6435279879
 30
0.0
 10
18.7983461165
 20
41.603894088
 30
0.0
 10
17.674249384
 20
41.4616596027
 30
0.0
 10
16.7869434202
 20
41.2823196245
 30
0.0
 10
15.9093630476
 20
41.0600338447
 30
0.0
 10
14.8340098804
 20
40.7029544119
 30
0.0
 10
13.5910472063
 20
40.1526142769
 30
0.0
 10
12.4069346109
 20
39.4848207333
 30
0.0
 10
11.2939641322
 20
38.7043408195
 30
0.0
 10
10.4334191717
 20
37.9672648511
 30
0.0
 10
9.7900859234
 20
37.330289002
 30
0.0
 10
9.3310636628
 20
36.8297705312
 30
0.0
 10
8.8968042858
 20
36.3076671243
 30
0.0
 10
8.3524700592
 20
35.5843776597
 30
0.0
 10
7.7395173686
 20
34.6314160649
 30
0.0
 10
7.1179721242
 20
33.4224800832
 30
0.0
 10
6.6153897317
 20
32.1593825227
 30
0.0
 10
6.2370922915
 20
30.8536580725
 30
0.0
 10
5.9884657401
 20
29.5172266793
 30
0.0
 10
5.8897492304
 20
28.3884789769
 30
0.0
 10
5.876105548
 20
27.4832552655
 30
0.0
 10
5.8985899154
 20
26.8044956463
 30
0.0
 10
5.9538681026
 20
26.1276519301
 30
0.0
 10
6.0713444796
 20
25.2300733288
 30
0.0
 10
6.3005640006
 20
24.1204341854
 30
0.0
 10
6.7028173709
 20
22.821947085
 30
0.0
 10
7.2279151121
 20
21.5680904286
 30
0.0
 10
7.7644573743
 20
20.5701192333
 30
0.0
 10
8.2505676122
 20
19.8064626121
 30
0.0
 10
8.7732636037
 20
19.0673094814
 30
0.0
 10
9.4927994106
 20
18.1920060772
 30
0.0
 10
10.4529106554
 20
17.2297022244
 30
0.0
 10
11.5014748007
 20
16.3645208273
 30
0.0
 10
12.6297234258
 20
15.6061800637
 30
0.0
 10
13.8258416571
 20
14.9603134965
 30
0.0
 10
14.8699744398
 20
14.5202286538
 30
0.0
 10
15.7274828396
 20
14.2299910715
 30
0.0
 10
16.5980456308
 20
13.9818074874
 30
0.0
 10
17.7075761931
 20
13.7520976924
 30
0.0
 10
19.0591054809
 20
13.6063194249
 30
0.0
 10
20.418387498
 20
13.5910113905
 30
0.0
 10
21.5473135156
 20
13.6877024068
 30
0.0
 10
22.4411414534
 20
13.8310365472
 30
0.0
 10
23.3269871326
 20
14.0176741228
 30
0.0
 10
24.4158911301
 20
14.3310023278
 30
0.0
 10
25.6800819414
 20
14.8306663816
 30
0.0
 10
26.8902067454
 20
15.4500628885
 30
0.0
 10
28.0338443712
 20
16.1849752564
 30
0.0
 10
29.1012090571
 20
17.0268646041
 30
0.0
 10
30.0827200461
 20
17.9673043651
 30
0.0
 10
30.7837190654
 20
18.7827515504
 30
0.0
 10
31.2570835337
 20
19.4148762648
 30
0.0
 10
31.5454387287
 20
19.8305947984
 30
0.0
 10
31.8185858902
 20
20.2564716976
 30
0.0
 10
31.9903485026
 20
20.5467687904
 30
0.0
 10
32.0735987358
 20
20.6934168829
 30
0.0
  0
SPLINE
  5
2A3
100
AcDbEntity
  8
0
100
AcDbSpline
 62
7
  6
BYLAYER
 70
0
 71
3
 72
319
 73
315
 74
0
 42
0.0000001
 43
0.0000001
 44
0.0000000001
 40
0.0
 40
0.0
 40
0.0
 40
0.0
 40
0.0031252909
 40
0.0062507442
 40
0.0093760172
 40
0.0125009599
 40
0.0165628762
 40
0.0206253
 40
0.0246877173
 40
0.0287496114
 40
0.032811509
 40
0.0368739323
 40
0.0409363561
 40
0.0449982561
 40
0.0490601558
 40
0.0531225791
 40
0.0571850027
 40
0.0612469028
 40
0.0653088029
 40
0.0693712262
 40
0.0714030963
 40
0.0734348764
 40
0.0754665133
 40
0.0774980276
 40
0.0815599273
 40
0.0856223507
 40
0.0896847741
 40
0.093746674
 40
0.0957781884
 40
0.0978098254
 40
0.0998416056
 40
0.1018734757
 40
0.105935899
 40
0.1099977988
 40
0.1140596986
 40
0.118122122
 40
0.1221845453
 40
0.1262464452
 40
0.1282779595
 40
0.1303095966
 40
0.1323413768
 40
0.1343732469
 40
0.1384356702
 40
0.14249757
 40
0.1465594698
 40
0.1506218932
 40
0.1526537633
 40
0.1546855435
 40
0.1567171805
 40
0.1587486949
 40
0.1628105947
 40
0.1668730181
 40
0.1709354414
 40
0.1749973412
 40
0.1770288556
 40
0.1790604927
 40
0.1810922728
 40
0.183124143
 40
0.1871865663
 40
0.1912484661
 40
0.1953103659
 40
0.1993727893
 40
0.2034352126
 40
0.2074971124
 40
0.2095286268
 40
0.2115602639
 40
0.213592044
 40
0.2156239142
 40
0.2196863375
 40
0.2237482373
 40
0.2278101371
 40
0.2318725605
 40
0.2339044306
 40
0.2359362108
 40
0.2379678478
 40
0.2399993622
 40
0.244061262
 40
0.2481236854
 40
0.2521861087
 40
0.2562480085
 40
0.2582795229
 40
0.26031116
 40
0.2623429401
 40
0.2643748102
 40
0.2684372336
 40
0.2724991334
 40
0.2765610332
 40
0.2806234566
 40
0.2846858799
 40
0.2887477797
 40
0.2907792941
 40
0.2928109312
 40
0.2948427113
 40
0.2968745814
 40
0.3009370048
 40
0.3049989046
 40
0.3090608044
 40
0.3131232278
 40
0.3151550979
 40
0.317186878
 40
0.3192185151
 40
0.3212500295
 40
0.3253119293
 40
0.3293743526
 40
0.333436776
 40
0.3374986758
 40
0.3395301902
 40
0.3415618272
 40
0.3435936074
 40
0.3456254775
 40
0.3496879009
 40
0.3537498007
 40
0.3578117005
 40
0.3618741238
 40
0.3659365472
 40
0.369998447
 40
0.3720299614
 40
0.3740615984
 40
0.3760933786
 40
0.3781252487
 40
0.3821876721
 40
0.3862495719
 40
0.3903114717
 40
0.394373895
 40
0.3964057652
 40
0.3984375453
 40
0.4004691824
 40
0.4025006968
 40
0.4065625966
 40
0.4106250199
 40
0.4146874433
 40
0.4187493431
 40
0.4207808575
 40
0.4228124945
 40
0.4248442747
 40
0.4268761448
 40
0.4309385681
 40
0.435000468
 40
0.4390623678
 40
0.4431247911
 40
0.4471872145
 40
0.4512491143
 40
0.4532806287
 40
0.4553122657
 40
0.4573440459
 40
0.459375916
 40
0.4634383393
 40
0.4675002392
 40
0.471562139
 40
0.4756245623
 40
0.4776564324
 40
0.4796882126
 40
0.4817198497
 40
0.483751364
 40
0.4878132638
 40
0.4918756872
 40
0.4959381105
 40
0.5000000104
 40
0.5040619102
 40
0.5081243335
 40
0.5121867569
 40
0.5162486567
 40
0.5182801711
 40
0.5203118081
 40
0.5223435883
 40
0.5243754584
 40
0.5284378817
 40
0.5324997816
 40
0.5365616814
 40
0.5406241047
 40
0.5426559748
 40
0.544687755
 40
0.5467193921
 40
0.5487509064
 40
0.5528128062
 40
0.5568752296
 40
0.5609376529
 40
0.5649995528
 40
0.5690614526
 40
0.5731238759
 40
0.575155746
 40
0.5771875262
 40
0.5792191633
 40
0.5812506776
 40
0.5853125775
 40
0.5893750008
 40
0.5934374241
 40
0.597499324
 40
0.5995308383
 40
0.6015624754
 40
0.6035942556
 40
0.6056261257
 40
0.609688549
 40
0.6137504488
 40
0.6178123487
 40
0.621874772
 40
0.6239066421
 40
0.6259384223
 40
0.6279700593
 40
0.6300015737
 40
0.6340634735
 40
0.6381258969
 40
0.6421883202
 40
0.64625022
 40
0.6503121199
 40
0.6543745432
 40
0.6564064133
 40
0.6584381935
 40
0.6604698305
 40
0.6625013449
 40
0.6665632447
 40
0.6706256681
 40
0.6746880914
 40
0.6787499912
 40
0.6807815056
 40
0.6828131427
 40
0.6848449228
 40
0.686876793
 40
0.6909392163
 40
0.6950011161
 40
0.6990630159
 40
0.7031254393
 40
0.7051573094
 40
0.7071890896
 40
0.7092207266
 40
0.711252241
 40
0.7153141408
 40
0.7193765642
 40
0.7234389875
 40
0.7275008873
 40
0.7315627871
 40
0.7356252105
 40
0.7376570806
 40
0.7396888608
 40
0.7417204978
 40
0.7437520122
 40
0.747813912
 40
0.7518763354
 40
0.7559387587
 40
0.7600006585
 40
0.7620321729
 40
0.76406381
 40
0.7660955901
 40
0.7681274602
 40
0.7721898836
 40
0.7762517834
 40
0.7803136832
 40
0.7843761066
 40
0.7864079767
 40
0.7884397568
 40
0.7904713939
 40
0.7925029083
 40
0.7965648081
 40
0.8006272314
 40
0.8046896548
 40
0.8087515546
 40
0.8128134544
 40
0.8168758778
 40
0.8189077479
 40
0.820939528
 40
0.8229711651
 40
0.8250026795
 40
0.8290645793
 40
0.8331270026
 40
0.837189426
 40
0.8412513258
 40
0.8432828402
 40
0.8453144772
 40
0.8473462574
 40
0.8493781275
 40
0.8534405509
 40
0.8575024507
 40
0.8615643505
 40
0.8656267738
 40
0.867658644
 40
0.8696904241
 40
0.8717220612
 40
0.8737535756
 40
0.8778154754
 40
0.8818778987
 40
0.8859403221
 40
0.8900022219
 40
0.8940641217
 40
0.898126545
 40
0.9001584151
 40
0.9021901953
 40
0.9042218324
 40
0.9062533468
 40
0.9103152466
 40
0.91437767
 40
0.9184400934
 40
0.9225019931
 40
0.9245335074
 40
0.9265651444
 40
0.9285969244
 40
0.9306287945
 40
0.9346912179
 40
0.9387531179
 40
0.942815018
 40
0.9468774416
 40
0.9509398649
 40
0.9550017646
 40
0.9590636646
 40
0.9631260884
 40
0.9671885117
 40
0.9712504093
 40
0.9753123034
 40
0.9793747207
 40
0.9834371445
 40
0.9874990608
 40
0.9906239983
 40
0.9937492662
 40
0.9968747143
 40
1.0
 40
1.0
 40
1.0
 40
1.0
 10
6.1474806724
 20
24.892441967
 30
0.0
 10
6.2166156957
 20
24.5442478986
 30
0.0
 10
6.3813176232
 20
23.8531083451
 30
0.0
 10
6.7058554449
 20
22.8379937489
 30
0.0
 10
7.1060670891
 20
21.8502833342
 30
0.0
 10
7.6274836911
 20
20.8005336403
 30
0.0
 10
8.2958194335
 20
19.7092901211
 30
0.0
 10
9.132581607
 20
18.6042560026
 30
0.0
 10
10.073526449
 20
17.5864290488
 30
0.0
 10
11.1100708367
 20
16.666144114
 30
0.0
 10
12.2333508548
 20
15.8539876725
 30
0.0
 10
13.4310951168
 20
15.1563184422
 30
0.0
 10
14.6913888221
 20
14.5792616282
 30
0.0
 10
16.0023612503
 20
14.1290290838
 30
0.0
 10
17.3517475286
 20
13.8119899345
 30
0.0
 10
18.7257767817
 20
13.6292854903
 30
0.0
 10
20.1110878747
 20
13.581978235
 30
0.0
 10
21.4943556088
 20
13.6712365941
 30
0.0
 10
22.861726698
 20
13.8981865894
 30
0.0
 10
23.977315573
 20
14.1986192743
 30
0.0
 10
24.8485932422
 20
14.5035130025
 30
0.0
 10
25.490169843
 20
14.7640455973
 30
0.0
 10
26.1180869649
 20
15.0558758924
 30
0.0
 10
26.9347664224
 20
15.485911593
 30
0.0
 10
27.9138131287
 20
16.0993385122
 30
0.0
 10
29.0102430384
 20
16.9473172923
 30
0.0
 10
30.0184051576
 20
17.8985458393
 30
0.0
 10
30.7766151879
 20
18.7702927466
 30
0.0
 10
31.3284162361
 20
19.5101655193
 30
0.0
 10
31.714339886
 20
20.0850636128
 30
0.0
 10
32.0714706571
 20
20.6783219139
 30
0.0
 10
32.5081422364
 20
21.4915887626
 30
0.0
 10
32.9783982959
 20
22.5468882654
 30
0.0
 10
33.4152182357
 20
23.862335235
 30
0.0
 10
33.7184940359
 20
25.2148921742
 30
0.0
 10
33.8871804345
 20
26.5907220767
 30
0.0
 10
33.9203732481
 20
27.9763947688
 30
0.0
 10
33.8342187227
 20
29.1285273631
 30
0.0
 10
33.6965787986
 20
30.0411886498
 30
0.0
 10
33.5594929632
 20
30.7199024941
 30
0.0
 10
33.3891029299
 20
31.3910693145
 30
0.0
 10
33.1183086867
 20
32.2735409854
 30
0.0
 10
32.6991304685
 20
33.3501469144
 30
0.0
 10
32.0715318315
 20
34.5860145083
 30
0.0
 10
31.3236540127
 20
35.753031014
 30
0.0
 10
30.6075647225
 20
36.659676943
 30
0.0
 10
29.9837368255
 20
37.340062507
 30
0.0
 10
29.4912732249
 20
37.8268656432
 30
0.0
 10
28.9754368393
 20
38.2887722644
 30
0.0
 10
28.2581472845
 20
38.8696266174
 30
0.0
 10
27.3082928528
 20
39.5273512178
 30
0.0
 10
26.0966033049
 20
40.2004299711
 30
0.0
 10
24.8248494337
 20
40.7516728059
 30
0.0
 10
23.7247204238
 20
41.104576824
 30
0.0
 10
22.8271868406
 20
41.3198198573
 30
0.0
 10
22.1466791381
 20
41.4477031744
 30
0.0
 10
21.4606562836
 20
41.541886191
 30
0.0
 10
20.5410884699
 20
41.6223851021
 30
0.0
 10
19.3858633468
 20
41.6382824906
 30
0.0
 10
18.0047691641
 20
41.5208462871
 30
0.0
 10
16.6422464532
 20
41.2660554789
 30
0.0
 10
15.3114227162
 20
40.8784071791
 30
0.0
 10
14.0249959582
 20
40.3623676786
 30
0.0
 10
13.0002493054
 20
39.8287700661
 30
0.0
 10
12.2158667996
 20
39.3423140494
 30
0.0
 10
11.6462468245
 20
38.9486414795
 30
0.0
 10
11.0966979735
 20
38.5273414387
 30
0.0
 10
10.3925767197
 20
37.9304335461
 30
0.0
 10
9.5685859461
 20
37.1206002852
 30
0.0
 10
8.680450849
 20
36.0564269868
 30
0.0
 10
7.9030258995
 20
34.9088821273
 30
0.0
 10
7.3523248792
 20
33.8932448404
 30
0.0
 10
6.9731510318
 20
33.051631536
 30
0.0
 10
6.7200525658
 20
32.4070860699
 30
0.0
 10
6.4990509948
 20
31.7508824361
 30
0.0
 10
6.2482026963
 20
30.8626419192
 30
0.0
 10
6.0184450652
 20
29.7303714028
 30
0.0
 10
5.8778518803
 20
28.3514369863
 30
0.0
 10
5.872908005
 20
26.9653626268
 30
0.0
 10
5.9825305973
 20
25.8152287339
 30
0.0
 10
6.1387455341
 20
24.9055623171
 30
0.0
 10
6.2896378193
 20
24.2297839554
 30
0.0
 10
6.4736735895
 20
23.5622297382
 30
0.0
 10
6.7623996102
 20
22.6854616255
 30
0.0
 10
7.2034385299
 20
21.6176215235
 30
0.0
 10
7.8560895245
 20
20.3948136552
 30
0.0
 10
8.6276346233
 20
19.2432474808
 30
0.0
 10
9.508763509
 20
18.1732124765
 30
0.0
 10
10.4903635906
 20
17.1946155986
 30
0.0
 10
11.3848856476
 20
16.4634094691
 30
0.0
 10
12.1412827525
 20
15.9344871768
 30
0.0
 10
12.7277111563
 20
15.5663204543
 30
0.0
 10
13.3316107276
 20
15.2274945819
 30
0.0
 10
14.1578483655
 20
14.8158914501
 30
0.0
 10
15.2270285968
 20
14.3781194335
 30
0.0
 10
16.5552292543
 20
13.9817209309
 30
0.0
 10
17.9163758116
 20
13.7199408582
 30
0.0
 10
19.0668835241
 20
13.6144765714
 30
0.0
 10
19.9898212802
 20
13.5979944875
 30
0.0
 10
20.6819406508
 20
13.6196386106
 30
0.0
 10
21.372113292
 20
13.6753757505
 30
0.0
 10
22.2872835808
 20
13.7952065784
 30
0.0
 10
23.418381453
 20
14.0306693033
 30
0.0
 10
24.7409774044
 20
14.4453577623
 30
0.0
 10
26.016631233
 20
14.9875144568
 30
0.0
 10
27.0302848745
 20
15.5418892212
 30
0.0
 10
27.8045888942
 20
16.0442331089
 30
0.0
 10
28.3660657867
 20
16.4494350031
 30
0.0
 10
28.9069127182
 20
16.8818496123
 30
0.0
 10
29.5987200996
 20
17.4929859192
 30
0.0
 10
30.4060333348
 20
18.3194501667
 30
0.0
 10
31.2722862427
 20
19.401493744
 30
0.0
 10
32.026178513
 20
20.5646931844
 30
0.0
 10
32.6619270528
 20
21.7964345605
 30
0.0
 10
33.1740222895
 20
23.0844365163
 30
0.0
 10
33.4931285922
 20
24.1948433256
 30
0.0
 10
33.6808300954
 20
25.0985376972
 30
0.0
 10
33.7878482366
 20
25.7826371971
 30
0.0
 10
33.8610131891
 20
26.4712187491
 30
0.0
 10
33.9133599993
 20
27.3928182195
 30
0.0
 10
33.893931981
 20
28.5479862841
 30
0.0
 10
33.7343210001
 20
29.9248570459
 30
0.0
 10
33.438010623
 20
31.2789061281
 30
0.0
 10
33.0811379746
 20
32.3777385198
 30
0.0
 10
32.732255855
 20
33.2323536539
 30
0.0
 10
32.4393785666
 20
33.8598252351
 30
0.0
 10
32.1159400532
 20
34.4720608364
 30
0.0
 10
31.6448597221
 20
35.2657732568
 30
0.0
 10
30.9823550638
 20
36.2122998909
 30
0.0
 10
30.079623422
 20
37.264108881
 30
0.0
 10
29.0782725872
 20
38.2225049774
 30
0.0
 10
28.1690331439
 20
38.9353224288
 30
0.0
 10
27.4020114023
 20
39.4487167649
 30
0.0
 10
26.8082001887
 20
39.8048531411
 30
0.0
 10
26.1975193569
 20
40.1312987251
 30
0.0
 10
25.3630636932
 20
40.5259742677
 30
0.0
 10
24.2851787736
 20
40.941861166
 30
0.0
 10
22.9491874407
 20
41.3111030405
 30
0.0
 10
21.5829372685
 20
41.5450837245
 30
0.0
 10
20.2003005457
 20
41.6434641911
 30
0.0
 10
18.8147360685
 20
41.6060255852
 30
0.0
 10
17.6684882084
 20
41.4612914924
 30
0.0
 10
16.7640234809
 20
41.277337889
 30
0.0
 10
16.0931742202
 20
41.1058553017
 30
0.0
 10
15.4315587521
 20
40.9014962146
 30
0.0
 10
14.5640275305
 20
40.586099081
 30
0.0
 10
13.5101730181
 20
40.1126211277
 30
0.0
 10
12.3078808807
 20
39.4228803246
 30
0.0
 10
11.1804776464
 20
38.6165238857
 30
0.0
 10
10.311487577
 20
37.8551783897
 30
0.0
 10
9.6637641633
 20
37.1975005413
 30
0.0
 10
9.2026799411
 20
36.6808778526
 30
0.0
 10
8.7676505345
 20
36.142180878
 30
0.0
 10
8.2240902693
 20
35.3962334513
 30
0.0
 10
7.6156060764
 20
34.414103335
 30
0.0
 10
7.005129145
 20
33.1697135026
 30
0.0
 10
6.5193776102
 20
31.8714770547
 30
0.0
 10
6.1637517551
 20
30.5317455304
 30
0.0
 10
5.9437142368
 20
29.1631938155
 30
0.0
 10
5.8594300102
 20
27.7796228569
 30
0.0
 10
5.9109894948
 20
26.3945128403
 30
0.0
 10
6.0673991588
 20
25.2497995157
 30
0.0
 10
6.2605620178
 20
24.3472567548
 30
0.0
 10
6.438873357
 20
23.6781901802
 30
0.0
 10
6.6499653756
 20
23.0186920209
 30
0.0
 10
6.9741884777
 20
22.154420563
 30
0.0
 10
7.4583832971
 20
21.1054467396
 30
0.0
 10
8.1603426897
 20
19.9102472707
 30
0.0
 10
8.9781483517
 20
18.7911214252
 30
0.0
 10
9.7483115212
 20
17.929936545
 30
0.0
 10
10.4125571567
 20
17.2889501894
 30
0.0
 10
10.9338526332
 20
16.8331556191
 30
0.0
 10
11.4769556762
 20
16.4036395042
 30
0.0
 10
12.2284046485
 20
15.8677105783
 30
0.0
 10
13.2166855154
 20
15.2692683985
 30
0.0
 10
14.4672339969
 20
14.6715066859
 30
0.0
 10
15.7703504353
 20
14.1990126951
 30
0.0
 10
17.1136505921
 20
13.8570606775
 30
0.0
 10
18.4843236063
 20
13.6509832848
 30
0.0
 10
19.6381769193
 20
13.5924995778
 30
0.0
 10
20.5610191058
 20
13.6136499315
 30
0.0
 10
21.2516811867
 20
13.6634865405
 30
0.0
 10
21.9390084377
 20
13.7473085295
 30
0.0
 10
22.8485339545
 20
13.904341745
 30
0.0
 10
23.9690944952
 20
14.1857118909
 30
0.0
 10
25.2736888128
 20
14.6539642143
 30
0.0
 10
26.5261844614
 20
15.2476655019
 30
0.0
 10
27.5163996484
 20
15.8428956883
 30
0.0
 10
28.2695848705
 20
16.3763824321
 30
0.0
 10
28.8140793085
 20
16.8041331896
 30
0.0
 10
29.3368517095
 20
17.2582330772
 30
0.0
 10
30.0031746759
 20
17.8970597088
 30
0.0
 10
30.7761294611
 20
18.755739866
 30
0.0
 10
31.5975638385
 20
19.8722049664
 30
0.0
 10
32.3033995166
 20
21.065119362
 30
0.0
 10
32.7909970752
 20
22.1125158133
 30
0.0
 10
33.1180241594
 20
22.9757301891
 30
0.0
 10
33.3312559983
 20
23.6345396053
 30
0.0
 10
33.5117383958
 20
24.3030237955
 30
0.0
 10
33.7078301552
 20
25.2049347631
 30
0.0
 10
33.8679551799
 20
26.3491340862
 30
0.0
 10
33.9240104942
 20
27.7340703199
 30
0.0
 10
33.844219656
 20
29.1179042859
 30
0.0
 10
33.6286206325
 20
30.4871754624
 30
0.0
 10
33.2773659956
 20
31.8280082571
 30
0.0
 10
32.8760019504
 20
32.9113847915
 30
0.0
 10
32.4925759895
 20
33.7510690007
 30
0.0
 10
32.1743665985
 20
34.366081668
 30
0.0
 10
31.8262423919
 20
34.9646252443
 30
0.0
 10
31.3232021385
 20
35.7384770388
 30
0.0
 10
30.6226679893
 20
36.657213666
 30
0.0
 10
29.6778152227
 20
37.6713536076
 30
0.0
 10
28.6382326907
 20
38.5881386031
 30
0.0
 10
27.7006946857
 20
39.2633034574
 30
0.0
 10
26.9133846141
 20
39.745007657
 30
0.0
 10
26.3055508699
 20
40.0766445712
 30
0.0
 10
25.6820718207
 20
40.377927771
 30
0.0
 10
24.8322223584
 20
40.7382632428
 30
0.0
 10
23.7382850737
 20
41.1098704674
 30
0.0
 10
22.3883402712
 20
41.4243506526
 30
0.0
 10
21.0137387973
 20
41.6024504779
 30
0.0
 10
19.8589361332
 20
41.6374006188
 30
0.0
 10
18.9367164161
 20
41.5974435706
 30
0.0
 10
18.2472138079
 20
41.5335388183
 30
0.0
 10
17.5617379066
 20
41.4357237017
 30
0.0
 10
16.6556026896
 20
41.2601835633
 30
0.0
 10
15.5410078011
 20
40.9560284238
 30
0.0
 10
14.2462402963
 20
40.4612884131
 30
0.0
 10
13.0060665596
 20
39.8421502005
 30
0.0
 10
11.8328408791
 20
39.1039578163
 30
0.0
 10
10.7392537602
 20
38.2523243172
 30
0.0
 10
9.90201496
 20
37.4561905322
 30
0.0
 10
9.2816368963
 20
36.7726584579
 30
0.0
 10
8.841993093
 20
36.2376714264
 30
0.0
 10
8.429282309
 20
35.6816905953
 30
0.0
 10
7.9165781984
 20
34.9142073112
 30
0.0
 10
7.3486313784
 20
33.9080952428
 30
0.0
 10
6.7893806013
 20
32.6398424525
 30
0.0
 10
6.3569557111
 20
31.3229387798
 30
0.0
 10
6.1063138424
 20
30.1951073452
 30
0.0
 10
5.9741952001
 20
29.2816300608
 30
0.0
 10
5.9091881181
 20
28.5922687748
 30
0.0
 10
5.8782448129
 20
27.9005027716
 30
0.0
 10
5.8823223887
 20
26.9774268624
 30
0.0
 10
5.9723159036
 20
25.825605748
 30
0.0
 10
6.2157803909
 20
24.4610641399
 30
0.0
 10
6.5942938996
 20
23.1276563691
 30
0.0
 10
7.017658066
 20
22.0526896309
 30
0.0
 10
7.4181205265
 20
21.2209952219
 30
0.0
 10
7.7488002189
 20
20.6125968285
 30
0.0
 10
8.1090529002
 20
20.021273724
 30
0.0
 10
8.6277624882
 20
19.2578369323
 30
0.0
 10
9.3468814364
 20
18.3535692436
 30
0.0
 10
10.3121985836
 20
17.3589068009
 30
0.0
 10
11.3702957953
 20
16.4634776781
 30
0.0
 10
12.5113894707
 20
15.6765267791
 30
0.0
 10
13.7253161808
 20
15.0075018572
 30
0.0
 10
14.787132895
 20
14.5521524556
 30
0.0
 10
15.659941751
 20
14.2516699446
 30
0.0
 10
16.3249624976
 20
14.0586797787
 30
0.0
 10
16.9986520492
 20
13.8987195836
 30
0.0
 10
17.9061370061
 20
13.7302940823
 30
0.0
 10
19.0546938615
 20
13.6052251646
 30
0.0
 10
20.4407094939
 20
13.591541652
 30
0.0
 10
21.8214087692
 20
13.7135911505
 30
0.0
 10
22.9566646666
 20
13.9281118686
 30
0.0
 10
23.8481960309
 20
14.1670007788
 30
0.0
 10
24.5073103664
 20
14.3791639145
 30
0.0
 10
25.1551989252
 20
14.6235777166
 30
0.0
 10
26.0018318072
 20
14.9914071934
 30
0.0
 10
27.0247780471
 20
15.5284097095
 30
0.0
 10
28.1826668073
 20
16.2903430238
 30
0.0
 10
29.2586793278
 20
17.1640968877
 30
0.0
 10
30.0795127665
 20
17.9771302024
 30
0.0
 10
30.6858291823
 20
18.6731662475
 30
0.0
 10
31.1144763628
 20
19.2170037774
 30
0.0
 10
31.5157682956
 20
19.7812818944
 30
0.0
 10
32.0127214111
 20
20.5590562666
 30
0.0
 10
32.5600420303
 20
21.5765395622
 30
0.0
 10
33.0933227453
 20
22.8559152894
 30
0.0
 10
33.4988204881
 20
24.1814093869
 30
0.0
 10
33.7718987274
 20
25.5403850157
 30
0.0
 10
33.9078843402
 20
26.9197762955
 30
0.0
 10
33.9075130303
 20
28.0751107338
 30
0.0
 10
33.8393791205
 20
28.9956773016
 30
0.0
 10
33.7544238167
 20
29.6829038988
 30
0.0
 10
33.6356971399
 20
30.3650687306
 30
0.0
 10
33.4325351667
 20
31.2654138473
 30
0.0
 10
33.0944472483
 20
32.3701860771
 30
0.0
 10
32.5603448297
 20
33.6492330715
 30
0.0
 10
31.9036103085
 20
34.869858455
 30
0.0
 10
31.258709843
 20
35.8284660014
 30
0.0
 10
30.6875473115
 20
36.5534966233
 30
0.0
 10
30.2326145516
 20
37.075493766
 30
0.0
 10
29.7524733152
 20
37.5744548476
 30
0.0
 10
29.0805330097
 20
38.2073696823
 30
0.0
 10
28.1835888421
 20
38.935579471
 30
0.0
 10
27.0267420739
 20
39.699068535
 30
0.0
 10
25.799368764
 20
40.3432357782
 30
0.0
 10
24.5145825134
 20
40.8634752335
 30
0.0
 10
23.1850317382
 20
41.2554344643
 30
0.0
 10
21.8233545937
 20
41.5146496346
 30
0.0
 10
20.4425956132
 20
41.6365622634
 30
0.0
 10
19.056549872
 20
41.6220022632
 30
0.0
 10
17.6785884014
 20
41.4718161873
 30
0.0
 10
16.3220872585
 20
41.1867535031
 30
0.0
 10
15.0008432364
 20
40.7676319658
 30
0.0
 10
13.7272598317
 20
40.2205175218
 30
0.0
 10
12.5133816812
 20
39.5513604599
 30
0.0
 10
11.4589783588
 20
38.8262968695
 30
0.0
 10
10.5556697867
 20
38.0793828537
 30
0.0
 10
9.7883213731
 20
37.339846604
 30
0.0
 10
9.078957946
 20
36.5444962419
 30
0.0
 10
8.6473839352
 20
35.9801002773
 30
0.0
 10
8.4426028555
 20
35.6901294988
 30
0.0
  0
SPLINE
  5
2A4
100
AcDbEntity
  8
0
100
AcDbSpline
 62
7
  6
BYLAYER
 70
0
 71
3
 72
319
 73
315
 74
0
 42
0.0000001
 43
0.0000001
 44
0.0000000001
 40
0.0
 40
0.0
 40
0.0
 40
0.0
 40
0.0031252909
 40
0.0062507442
 40
0.0093760172
 40
0.0125009599
 40
0.0165628762
 40
0.0206253
 40
0.0246877173
 40
0.0287496114
 40
0.032811509
 40
0.0368739323
 40
0.0409363561
 40
0.0449982561
 40
0.0490601558
 40
0.0531225791
 40
0.0571850027
 40
0.0612469028
 40
0.0653088029
 40
0.0693712262
 40
0.0714030963
 40
0.0734348764
 40
0.0754665133
 40
0.0774980276
 40
0.0815599273
 40
0.0856223507
 40
0.0896847741
 40
0.093746674
 40
0.0957781884
 40
0.0978098254
 40
0.0998416056
 40
0.1018734757
 40
0.105935899
 40
0.1099977988
 40
0.1140596986
 40
0.118122122
 40
0.1221845453
 40
0.1262464452
 40
0.1282779595
 40
0.1303095966
 40
0.1323413768
 40
0.1343732469
 40
0.1384356702
 40
0.14249757
 40
0.1465594698
 40
0.1506218932
 40
0.1526537633
 40
0.1546855435
 40
0.1567171805
 40
0.1587486949
 40
0.1628105947
 40
0.1668730181
 40
0.1709354414
 40
0.1749973412
 40
0.1770288556
 40
0.1790604927
 40
0.1810922728
 40
0.183124143
 40
0.1871865663
 40
0.1912484661
 40
0.1953103659
 40
0.1993727893
 40
0.2034352126
 40
0.2074971124
 40
0.2095286268
 40
0.2115602639
 40
0.213592044
 40
0.2156239142
 40
0.2196863375
 40
0.2237482373
 40
0.2278101371
 40
0.2318725605
 40
0.2339044306
 40
0.2359362108
 40
0.2379678478
 40
0.2399993622
 40
0.244061262
 40
0.2481236854
 40
0.2521861087
 40
0.2562480085
 40
0.2582795229
 40
0.26031116
 40
0.2623429401
 40
0.2643748102
 40
0.2684372336
 40
0.2724991334
 40
0.2765610332
 40
0.2806234566
 40
0.2846858799
 40
0.2887477797
 40
0.2907792941
 40
0.2928109312
 40
0.2948427113
 40
0.2968745814
 40
0.3009370048
 40
0.3049989046
 40
0.3090608044
 40
0.3131232278
 40
0.3151550979
 40
0.317186878
 40
0.3192185151
 40
0.3212500295
 40
0.3253119293
 40
0.3293743526
 40
0.333436776
 40
0.3374986758
 40
0.3395301902
 40
0.3415618272
 40
0.3435936074
 40
0.3456254775
 40
0.3496879009
 40
0.3537498007
 40
0.3578117005
 40
0.3618741238
 40
0.3659365472
 40
0.369998447
 40
0.3720299614
 40
0.3740615984
 40
0.3760933786
 40
0.3781252487
 40
0.3821876721
 40
0.3862495719
 40
0.3903114717
 40
0.394373895
 40
0.3964057652
 40
0.3984375453
 40
0.4004691824
 40
0.4025006968
 40
0.4065625966
 40
0.4106250199
 40
0.4146874433
 40
0.4187493431
 40
0.4207808575
 40
0.4228124945
 40
0.4248442747
 40
0.4268761448
 40
0.4309385681
 40
0.435000468
 40
0.4390623678
 40
0.4431247911
 40
0.4471872145
 40
0.4512491143
 40
0.4532806287
 40
0.4553122657
 40
0.4573440459
 40
0.459375916
 40
0.4634383393
 40
0.4675002392
 40
0.471562139
 40
0.4756245623
 40
0.4776564324
 40
0.4796882126
 40
0.4817198497
 40
0.483751364
 40
0.4878132638
 40
0.4918756872
 40
0.4959381105
 40
0.5000000104
 40
0.5040619102
 40
0.5081243335
 40
0.5121867569
 40
0.5162486567
 40
0.5182801711
 40
0.5203118081
 40
0.5223435883
 40
0.5243754584
 40
0.5284378817
 40
0.5324997816
 40
0.5365616814
 40
0.5406241047
 40
0.5426559748
 40
0.544687755
 40
0.5467193921
 40
0.5487509064
 40
0.5528128062
 40
0.5568752296
 40
0.5609376529
 40
0.5649995528
 40
0.5690614526
 40
0.5731238759
 40
0.575155746
 40
0.5771875262
 40
0.5792191633
 40
0.5812506776
 40
0.5853125775
 40
0.5893750008
 40
0.5934374241
 40
0.597499324
 40
0.5995308383
 40
0.6015624754
 40
0.6035942556
 40
0.6056261257
 40
0.609688549
 40
0.6137504488
 40
0.6178123487
 40
0.621874772
 40
0.6239066421
 40
0.6259384223
 40
0.6279700593
 40
0.6300015737
 40
0.6340634735
 40
0.6381258969
 40
0.6421883202
 40
0.64625022
 40
0.6503121199
 40
0.6543745432
 40
0.6564064133
 40
0.6584381935
 40
0.6604698305
 40
0.6625013449
 40
0.6665632447
 40
0.6706256681
 40
0.6746880914
 40
0.6787499912
 40
0.6807815056
 40
0.6828131427
 40
0.6848449228
 40
0.686876793
 40
0.6909392163
 40
0.6950011161
 40
0.6990630159
 40
0.7031254393
 40
0.7051573094
 40
0.7071890896
 40
0.7092207266
 40
0.711252241
 40
0.7153141408
 40
0.7193765642
 40
0.7234389875
 40
0.7275008873
 40
0.7315627871
 40
0.7356252105
 40
0.7376570806
 40
0.7396888608
 40
0.7417204978
 40
0.7437520122
 40
0.747813912
 40
0.7518763354
 40
0.7559387587
 40
0.7600006585
 40
0.7620321729
 40
0.76406381
 40
0.7660955901
 40
0.7681274602
 40
0.7721898836
 40
0.7762517834
 40
0.7803136832
 40
0.7843761066
 40
0.7864079767
 40
0.7884397568
 40
0.7904713939
 40
0.7925029083
 40
0.7965648081
 40
0.8006272314
 40
0.8046896548
 40
0.8087515546
 40
0.8128134544
 40
0.8168758778
 40
0.8189077479
 40
0.820939528
 40
0.8229711651
 40
0.8250026795
 40
0.8290645793
 40
0.8331270026
 40
0.837189426
 40
0.8412513258
 40
0.8432828402
 40
0.8453144772
 40
0.8473462574
 40
0.8493781275
 40
0.8534405509
 40
0.8575024507
 40
0.8615643505
 40
0.8656267738
 40
0.867658644
 40
0.8696904241
 40
0.8717220612
 40
0.8737535756
 40
0.8778154754
 40
0.8818778987
 40
0.8859403221
 40
0.8900022219
 40
0.8940641217
 40
0.898126545
 40
0.9001584151
 40
0.9021901953
 40
0.9042218324
 40
0.9062533468
 40
0.9103152466
 40
0.91437767
 40
0.9184400934
 40
0.9225019931
 40
0.9245335074
 40
0.9265651444
 40
0.9285969244
 40
0.9306287945
 40
0.9346912179
 40
0.9387531179
 40
0.942815018
 40
0.9468774416
 40
0.9509398649
 40
0.9550017646
 40
0.9590636646
 40
0.9631260884
 40
0.9671885117
 40
0.9712504093
 40
0.9753123034
 40
0.9793747207
 40
0.9834371445
 40
0.9874990608
 40
0.9906239983
 40
0.9937492662
 40
0.9968747143
 40
1.0
 40
1.0
 40
1.0
 40
1.0
 10
33.8354616494
 20
28.9810399644
 30
0.0
 10
33.8006343668
 20
29.3343186379
 30
0.0
 10
33.7041618975
 20
30.0382317504
 30
0.0
 10
33.4802307909
 20
31.0801709524
 30
0.0
 10
33.1783128432
 20
32.1022212331
 30
0.0
 10
32.7618223732
 20
33.1978422356
 30
0.0
 10
32.203163037
 20
34.3490958256
 30
0.0
 10
31.4782268282
 20
35.5305097377
 30
0.0
 10
30.6410952452
 20
36.6352991367
 30
0.0
 10
29.6993019418
 20
37.6523409267
 30
0.0
 10
28.6606354705
 20
38.5702341917
 30
0.0
 10
27.5366881494
 20
39.3814530841
 30
0.0
 10
26.3387201991
 20
40.0787389511
 30
0.0
 10
25.0779395152
 20
40.6547512066
 30
0.0
 10
23.7659309174
 20
41.1019542808
 30
0.0
 10
22.4162881858
 20
41.4178685087
 30
0.0
 10
21.0422050077
 20
41.6001326589
 30
0.0
 10
19.6568289677
 20
41.6462835709
 30
0.0
 10
18.2738373552
 20
41.553848753
 30
0.0
 10
17.134255647
 20
41.3637123106
 30
0.0
 10
16.2373838236
 20
41.1452955197
 30
0.0
 10
15.5734456851
 20
40.9486132478
 30
0.0
 10
14.9200477141
 20
40.7194497155
 30
0.0
 10
14.0653018103
 20
40.371160353
 30
0.0
 10
13.0310677248
 20
39.8561992917
 30
0.0
 10
11.8571224082
 20
39.1192603851
 30
0.0
 10
10.7609482036
 20
38.2709510545
 30
0.0
 10
9.9212892155
 20
37.4773529799
 30
0.0
 10
9.2999227623
 20
36.7948576704
 30
0.0
 10
8.8597407486
 20
36.2603628844
 30
0.0
 10
8.4464225545
 20
35.7047858241
 30
0.0
 10
7.9324740966
 20
34.9380120517
 30
0.0
 10
7.3614831956
 20
33.9336380212
 30
0.0
 10
6.7983828929
 20
32.6670953102
 30
0.0
 10
6.3645680785
 20
31.3505881164
 30
0.0
 10
6.0624292812
 20
29.9977854076
 30
0.0
 10
5.8941769242
 20
28.6219650281
 30
0.0
 10
5.8674918291
 20
27.4669238934
 30
0.0
 10
5.915414718
 20
26.545187071
 30
0.0
 10
5.9856154325
 20
25.8563352231
 30
0.0
 10
6.0896978578
 20
25.1717444599
 30
0.0
 10
6.2730855637
 20
24.2670595858
 30
0.0
 10
6.5852048835
 20
23.1546872403
 30
0.0
 10
7.0892086997
 20
21.8634750532
 30
0.0
 10
7.7196363422
 20
20.6290481643
 30
0.0
 10
8.3438348858
 20
19.6568512242
 30
0.0
 10
8.8982915055
 20
18.9188379332
 30
0.0
 10
9.3409011126
 20
18.3863020875
 30
0.0
 10
9.80920143
 20
17.8762631515
 30
0.0
 10
10.4663861965
 20
17.2281857893
 30
0.0
 10
11.3475246792
 20
16.4809106956
 30
0.0
 10
12.4877503411
 20
15.6928040982
 30
0.0
 10
13.6996427654
 20
15.0200906944
 30
0.0
 10
14.7600839021
 20
14.5615171673
 30
0.0
 10
15.6323298772
 20
14.2597174731
 30
0.0
 10
16.2971105637
 20
14.0660385771
 30
0.0
 10
16.9706686537
 20
13.9053609589
 30
0.0
 10
17.8779924208
 20
13.7355121431
 30
0.0
 10
19.0261528032
 20
13.6069604091
 30
0.0
 10
20.4121153411
 20
13.5890649614
 30
0.0
 10
21.7929985019
 20
13.7096808378
 30
0.0
 10
23.1552985948
 20
13.965613408
 30
0.0
 10
24.4859423832
 20
14.353656805
 30
0.0
 10
25.5578683324
 20
14.7847100197
 30
0.0
 10
26.385977083
 20
15.1923020569
 30
0.0
 10
26.9912942007
 20
15.5285106161
 30
0.0
 10
27.5793319546
 20
15.8941733899
 30
0.0
 10
28.3383407223
 20
16.4195222862
 30
0.0
 10
29.2374247954
 20
17.1450831278
 30
0.0
 10
30.2251662953
 20
18.1175107545
 30
0.0
 10
31.1108616614
 20
19.1837154605
 30
0.0
 10
31.7580432375
 20
20.1407665144
 30
0.0
 10
32.2175345066
 20
20.9413622516
 30
0.0
 10
32.5323216504
 20
21.5581334777
 30
0.0
 10
32.8163027227
 20
22.18963934
 30
0.0
 10
33.152630908
 20
23.0491621358
 30
0.0
 10
33.4917822381
 20
24.153608362
 30
0.0
 10
33.7662648469
 20
25.5122421854
 30
0.0
 10
33.9064422824
 20
26.8912189287
 30
0.0
 10
33.9095762752
 20
28.046560983
 30
0.0
 10
33.8428747766
 20
28.9671298324
 30
0.0
 10
33.7586470521
 20
29.654407481
 30
0.0
 10
33.6406314873
 20
30.336734473
 30
0.0
 10
33.4388410151
 20
31.2374928446
 30
0.0
 10
33.1041099314
 20
32.3432744296
 30
0.0
 10
32.5738989167
 20
33.6239339016
 30
0.0
 10
31.9184092605
 20
34.8452937193
 30
0.0
 10
31.1459027692
 20
35.9962049862
 30
0.0
 10
30.2644817932
 20
37.065918795
 30
0.0
 10
29.4455821466
 20
37.8809252263
 30
0.0
 10
28.7444087936
 20
38.481134607
 30
0.0
 10
28.1967059543
 20
38.9047696011
 30
0.0
 10
27.6287521653
 20
39.3009086645
 30
0.0
 10
26.8466232564
 20
39.7911740438
 30
0.0
 10
25.8252648575
 20
40.331190457
 30
0.0
 10
24.5420848857
 20
40.8553067797
 30
0.0
 10
23.2129797951
 20
41.2486621088
 30
0.0
 10
22.0782545067
 20
41.4658929356
 30
0.0
 10
21.1613299329
 20
41.5723592996
 30
0.0
 10
20.4704016749
 20
41.6183574904
 30
0.0
 10
19.7780839599
 20
41.6302354092
 30
0.0
 10
18.8555879732
 20
41.6002814566
 30
0.0
 10
17.7069112433
 20
41.4763183113
 30
0.0
 10
16.350161011
 20
41.1926717426
 30
0.0
 10
15.0276901455
 20
40.7775845448
 30
0.0
 10
13.9647767703
 20
40.3247708511
 30
0.0
 10
13.1451480208
 20
39.9003832814
 30
0.0
 10
12.546810057
 20
39.5519057971
 30
0.0
 10
11.9663481002
 20
39.1743323418
 30
0.0
 10
11.2182059857
 20
38.6336213144
 30
0.0
 10
10.3340969558
 20
37.8898814167
 30
0.0
 10
9.3663893767
 20
36.8975334713
 30
0.0
 10
8.5025867582
 20
35.8134525104
 30
0.0
 10
7.7496754967
 20
34.6496279292
 30
0.0
 10
7.11433732
 20
33.4177448297
 30
0.0
 10
6.6883972676
 20
32.3437768663
 30
0.0
 10
6.4134064713
 20
31.4627119235
 30
0.0
 10
6.2401426721
 20
30.7923204974
 30
0.0
 10
6.1001331221
 20
30.1141649179
 30
0.0
 10
5.9581037935
 20
29.2020720267
 30
0.0
 10
5.8647144402
 20
28.0505212749
 30
0.0
 10
5.8892046201
 20
26.6646464642
 30
0.0
 10
6.0519687905
 20
25.2881448908
 30
0.0
 10
6.2999109773
 20
24.1597321187
 30
0.0
 10
6.5637321992
 20
23.2751507919
 30
0.0
 10
6.7939812051
 20
22.6220940666
 30
0.0
 10
7.0561323504
 20
21.9812183528
 30
0.0
 10
7.447511644
 20
21.1453246196
 30
0.0
 10
8.0144896189
 20
20.1386662529
 30
0.0
 10
8.8102743124
 20
19.0037859551
 30
0.0
 10
9.71332303
 20
17.9522491818
 30
0.0
 10
10.5486642432
 20
17.1541075015
 30
0.0
 10
11.2619267888
 20
16.5683151855
 30
0.0
 10
11.8181511587
 20
16.1559326856
 30
0.0
 10
12.3940619484
 20
15.7714530895
 30
0.0
 10
13.1860215051
 20
15.297232572
 30
0.0
 10
14.2181786616
 20
14.7781473995
 30
0.0
 10
15.5117621494
 20
14.2802978604
 30
0.0
 10
16.8486592424
 20
13.914111219
 30
0.0
 10
18.2150969419
 20
13.6812785823
 30
0.0
 10
19.5977020418
 20
13.5833311092
 30
0.0
 10
20.7526028918
 20
13.6155202541
 30
0.0
 10
21.670701697
 20
13.7103356297
 30
0.0
 10
22.3550830306
 20
13.815536383
 30
0.0
 10
23.033482825
 20
13.95435779
 30
0.0
 10
23.927651034
 20
14.183593447
 30
0.0
 10
25.0226792719
 20
14.5519735002
 30
0.0
 10
26.2865402575
 20
15.1210992931
 30
0.0
 10
27.4872494467
 20
15.8135920385
 30
0.0
 10
28.4263864753
 20
16.4865053662
 30
0.0
 10
29.1351966758
 20
17.0778376523
 30
0.0
 10
29.6444938675
 20
17.5470007721
 30
0.0
 10
30.1300146655
 20
18.0406753306
 30
0.0
 10
30.743772448
 20
18.7300204617
 30
0.0
 10
31.445191694
 20
19.6480856117
 30
0.0
 10
32.1741862314
 20
20.82696436
 30
0.0
 10
32.7843051456
 20
22.0716038013
 30
0.0
 10
33.2689686277
 20
23.3702383207
 30
0.0
 10
33.6215032398
 20
24.7107865866
 30
0.0
 10
33.8403980776
 20
26.0795296152
 30
0.0
 10
33.9242477178
 20
27.4630603797
 30
0.0
 10
33.8802889802
 20
28.617573354
 30
0.0
 10
33.77612075
 20
29.5346580312
 30
0.0
 10
33.663949876
 20
30.2179315562
 30
0.0
 10
33.5182210579
 20
30.8948811659
 30
0.0
 10
33.279883458
 20
31.7866664323
 30
0.0
 10
32.9003614143
 20
32.8778830577
 30
0.0
 10
32.3183832231
 20
34.1358775506
 30
0.0
 10
31.6136881655
 20
35.3294661041
 30
0.0
 10
30.9312375946
 20
36.2616956487
 30
0.0
 10
30.3327114451
 20
36.964441848
 30
0.0
 10
29.8583816593
 20
37.4689306173
 30
0.0
 10
29.3597840579
 20
37.9493943935
 30
0.0
 10
28.6642189496
 20
38.5560941147
 30
0.0
 10
27.7390524753
 20
39.2481194822
 30
0.0
 10
26.5528036827
 20
39.9650604642
 30
0.0
 10
25.3020138316
 20
40.5624613111
 30
0.0
 10
23.9984933786
 20
41.033864453
 30
0.0
 10
22.6544716681
 20
41.372712568
 30
0.0
 10
21.5118322451
 20
41.5435135079
 30
0.0
 10
20.5913305024
 20
41.6125177129
 30
0.0
 10
19.8991014746
 20
41.6303157628
 30
0.0
 10
19.2068749688
 20
41.6139652088
 30
0.0
 10
18.286366497
 20
41.5464355874
 30
0.0
 10
17.1436970289
 20
41.3757558555
 30
0.0
 10
15.7996355986
 20
41.0370444098
 30
0.0
 10
14.4951825175
 20
40.5683987783
 30
0.0
 10
13.4516089439
 20
40.0726374568
 30
0.0
 10
12.6499591901
 20
39.6151948298
 30
0.0
 10
12.0663222471
 20
39.2426189018
 30
0.0
 10
11.5017324457
 20
38.8416998981
 30
0.0
 10
10.7762510172
 20
38.2709438577
 30
0.0
 10
9.9231927364
 20
37.4917890068
 30
0.0
 10
8.9967308347
 20
36.4608102963
 30
0.0
 10
8.1778557821
 20
35.3424666962
 30
0.0
 10
7.5903773486
 20
34.3476502328
 30
0.0
 10
7.1806760721
 20
33.5204678852
 30
0.0
 10
6.9041733702
 20
32.8856104839
 30
0.0
 10
6.6593197173
 20
32.2379286971
 30
0.0
 10
6.3761527379
 20
31.3594573923
 30
0.0
 10
6.105137638
 20
30.2363443392
 30
0.0
 10
5.9142037596
 20
28.8634878923
 30
0.0
 10
5.8585752569
 20
27.4784721909
 30
0.0
 10
5.9395278605
 20
26.0946972202
 30
0.0
 10
6.1582637473
 20
24.725987238
 30
0.0
 10
6.4519932188
 20
23.6086149591
 30
0.0
 10
6.7516504209
 20
22.7355224097
 30
0.0
 10
7.0083264063
 20
22.0923931567
 30
0.0
 10
7.2963815374
 20
21.46273522
 30
0.0
 10
7.7215062788
 20
20.6434885839
 30
0.0
 10
8.3290440745
 20
19.6607765655
 30
0.0
 10
9.1704247206
 20
18.5592752354
 30
0.0
 10
10.1155832027
 20
17.54542021
 30
0.0
 10
10.9827621694
 20
16.7819899703
 30
0.0
 10
11.7193086324
 20
16.2257567524
 30
0.0
 10
12.2918793375
 20
15.8363884293
 30
0.0
 10
12.8829826823
 20
15.4757022401
 30
0.0
 10
13.6936135727
 20
15.0341557304
 30
0.0
 10
14.7460674218
 20
14.5575724661
 30
0.0
 10
16.0588815894
 20
14.1128616407
 30
0.0
 10
17.4095431428
 20
13.8014742168
 30
0.0
 10
18.5554238596
 20
13.6540018863
 30
0.0
 10
19.4771413155
 20
13.6037753613
 30
0.0
 10
20.1695892146
 20
13.6000914579
 30
0.0
 10
20.8613386963
 20
13.6305490159
 30
0.0
 10
21.780279008
 20
13.7168280694
 30
0.0
 10
22.9192347215
 20
13.9107661968
 30
0.0
 10
24.2561009837
 20
14.2767978437
 30
0.0
 10
25.5507731693
 20
14.7719614078
 30
0.0
 10
26.7904344664
 20
15.3921439311
 30
0.0
 10
27.9619071978
 20
16.1329975219
 30
0.0
 10
28.8728392354
 20
16.8436314888
 30
0.0
 10
29.5569575246
 20
17.4633630476
 30
0.0
 10
30.0467086697
 20
17.9528950827
 30
0.0
 10
30.511703972
 20
18.4659489247
 30
0.0
 10
31.0968543953
 20
19.1797381642
 30
0.0
 10
31.7602699654
 20
20.1256265645
 30
0.0
 10
32.4406114472
 20
21.333253179
 30
0.0
 10
32.9994798254
 20
22.6016745225
 30
0.0
 10
33.3589825425
 20
23.6996649084
 30
0.0
 10
33.5796103977
 20
24.5958900109
 30
0.0
 10
33.7115771001
 20
25.2756176717
 30
0.0
 10
33.8098772579
 20
25.961062615
 30
0.0
 10
33.8958955666
 20
26.8801309537
 30
0.0
 10
33.9187295991
 20
28.0352367148
 30
0.0
 10
33.8095829974
 20
29.4170238822
 30
0.0
 10
33.5629937791
 20
30.7810042769
 30
0.0
 10
33.246548532
 20
31.8921537318
 30
0.0
 10
32.9291564708
 20
32.7589570842
 30
0.0
 10
32.6594242598
 20
33.3967205187
 30
0.0
 10
32.3585939437
 20
34.0203759759
 30
0.0
 10
31.916858325
 20
34.8307863748
 30
0.0
 10
31.2894125071
 20
35.8009120678
 30
0.0
 10
30.425764478
 20
36.8850258309
 30
0.0
 10
29.4600957114
 20
37.8794336228
 30
0.0
 10
28.4012409703
 20
38.7739799497
 30
0.0
 10
27.2583932388
 20
39.5582703717
 30
0.0
 10
26.2460784661
 20
40.1150617267
 30
0.0
 10
25.4067571323
 20
40.4992813739
 30
0.0
 10
24.7637428038
 20
40.7562451278
 30
0.0
 10
24.1088778827
 20
40.9811824769
 30
0.0
 10
23.2221594373
 20
41.2373591642
 30
0.0
 10
22.091288772
 20
41.4739106865
 30
0.0
 10
20.7132233147
 20
41.6227803177
 30
0.0
 10
19.3272036208
 20
41.6360459516
 30
0.0
 10
18.1764322919
 20
41.5333306175
 30
0.0
 10
17.2658443777
 20
41.3825800443
 30
0.0
 10
16.5891722373
 20
41.2357477665
 30
0.0
 10
15.9205251838
 20
41.055723298
 30
0.0
 10
15.042039075
 20
40.7722662158
 30
0.0
 10
13.9715726856
 20
40.3376486583
 30
0.0
 10
12.7448584032
 20
39.6923418898
 30
0.0
 10
11.5887178243
 20
38.9277585256
 30
0.0
 10
10.6924637469
 20
38.1987048008
 30
0.0
 10
10.0211198212
 20
37.5651567714
 30
0.0
 10
9.5414491591
 20
37.0657433954
 30
0.0
 10
9.0870085372
 20
36.5433175825
 30
0.0
 10
8.5165297016
 20
35.8177493424
 30
0.0
 10
7.8725322543
 20
34.8585312206
 30
0.0
 10
7.2169514816
 20
33.6373005206
 30
0.0
 10
6.6840434596
 20
32.357702122
 30
0.0
 10
6.279655731
 20
31.0318601066
 30
0.0
 10
6.0097141221
 20
29.6723219801
 30
0.0
 10
5.8973427752
 20
28.5224652575
 30
0.0
 10
5.8753199541
 20
27.5996434812
 30
0.0
 10
5.892808236
 20
26.9074065568
 30
0.0
 10
5.9444006554
 20
26.2169117315
 30
0.0
 10
6.0587347306
 20
25.3010384675
 30
0.0
 10
6.2874022128
 20
24.1685472742
 30
0.0
 10
6.6941424595
 20
22.8434853967
 30
0.0
 10
7.2286304851
 20
21.564599511
 30
0.0
 10
7.7769093945
 20
20.5476357575
 30
0.0
 10
8.2745954051
 20
19.7703297207
 30
0.0
 10
8.6764189581
 20
19.2064302036
 30
0.0
 10
9.1055786032
 20
18.6629968896
 30
0.0
 10
9.7125503415
 20
17.9675328207
 30
0.0
 10
10.5341529306
 20
17.1552720733
 30
0.0
 10
11.6109750551
 20
16.282538375
 30
0.0
 10
12.7696308956
 20
15.5216748378
 30
0.0
 10
13.9975189007
 20
14.8785451094
 30
0.0
 10
15.2824757435
 20
14.3587151232
 30
0.0
 10
16.6123591796
 20
13.9678606789
 30
0.0
 10
17.974631762
 20
13.7117914251
 30
0.0
 10
19.3554832683
 20
13.5910275737
 30
0.0
 10
20.7415238728
 20
13.6060313954
 30
0.0
 10
22.1193682216
 20
13.7573622744
 30
0.0
 10
23.4752055694
 20
14.0455526893
 30
0.0
 10
24.7960996839
 20
14.4657760131
 30
0.0
 10
26.0694827661
 20
15.0132857062
 30
0.0
 10
27.1896076508
 20
15.6319971243
 30
0.0
 10
28.1614911279
 20
16.2871989484
 30
0.0
 10
28.9973433862
 20
16.9483256042
 30
0.0
 10
29.7809339
 20
17.6706583369
 30
0.0
 10
30.2655235755
 20
18.1902464218
 30
0.0
 10
30.4976235064
 20
18.4588501543
 30
0.0
  0
SPLINE
  5
2A5
100
AcDbEntity
  8
0
100
AcDbSpline
 62
7
  6
BYLAYER
 70
0
 71
3
 72
319
 73
315
 74
0
 42
0.0000001
 43
0.0000001
 44
0.0000000001
 40
0.0
 40
0.0
 40
0.0
 40
0.0
 40
0.0031252909
 40
0.0062507442
 40
0.0093760172
 40
0.0125009599
 40
0.0165628762
 40
0.0206253
 40
0.0246877173
 40
0.0287496114
 40
0.032811509
 40
0.0368739323
 40
0.0409363561
 40
0.0449982561
 40
0.0490601558
 40
0.0531225791
 40
0.0571850027
 40
0.0612469028
 40
0.0653088029
 40
0.0693712262
 40
0.0714030963
 40
0.0734348764
 40
0.0754665133
 40
0.0774980276
 40
0.0815599273
 40
0.0856223507
 40
0.0896847741
 40
0.093746674
 40
0.0957781884
 40
0.0978098254
 40
0.0998416056
 40
0.1018734757
 40
0.105935899
 40
0.1099977988
 40
0.1140596986
 40
0.118122122
 40
0.1221845453
 40
0.1262464452
 40
0.1282779595
 40
0.1303095966
 40
0.1323413768
 40
0.1343732469
 40
0.1384356702
 40
0.14249757
 40
0.1465594698
 40
0.1506218932
 40
0.1526537633
 40
0.1546855435
 40
0.1567171805
 40
0.1587486949
 40
0.1628105947
 40
0.1668730181
 40
0.1709354414
 40
0.1749973412
 40
0.1770288556
 40
0.1790604927
 40
0.1810922728
 40
0.183124143
 40
0.1871865663
 40
0.1912484661
 40
0.1953103659
 40
0.1993727893
 40
0.2034352126
 40
0.2074971124
 40
0.2095286268
 40
0.2115602639
 40
0.213592044
 40
0.2156239142
 40
0.2196863375
 40
0.2237482373
 40
0.2278101371
 40
0.2318725605
 40
0.2339044306
 40
0.2359362108
 40
0.2379678478
 40
0.2399993622
 40
0.244061262
 40
0.2481236854
 40
0.2521861087
 40
0.2562480085
 40
0.2582795229
 40
0.26031116
 40
0.2623429401
 40
0.2643748102
 40
0.2684372336
 40
0.2724991334
 40
0.2765610332
 40
0.2806234566
 40
0.2846858799
 40
0.2887477797
 40
0.2907792941
 40
0.2928109312
 40
0.2948427113
 40
0.2968745814
 40
0.3009370048
 40
0.3049989046
 40
0.3090608044
 40
0.3131232278
 40
0.3151550979
 40
0.317186878
 40
0.3192185151
 40
0.3212500295
 40
0.3253119293
 40
0.3293743526
 40
0.333436776
 40
0.3374986758
 40
0.3395301902
 40
0.3415618272
 40
0.3435936074
 40
0.3456254775
 40
0.3496879009
 40
0.3537498007
 40
0.3578117005
 40
0.3618741238
 40
0.3659365472
 40
0.369998447
 40
0.3720299614
 40
0.3740615984
 40
0.3760933786
 40
0.3781252487
 40
0.3821876721
 40
0.3862495719
 40
0.3903114717
 40
0.394373895
 40
0.3964057652
 40
0.3984375453
 40
0.4004691824
 40
0.4025006968
 40
0.4065625966
 40
0.4106250199
 40
0.4146874433
 40
0.4187493431
 40
0.4207808575
 40
0.4228124945
 40
0.4248442747
 40
0.4268761448
 40
0.4309385681
 40
0.435000468
 40
0.4390623678
 40
0.4431247911
 40
0.4471872145
 40
0.4512491143
 40
0.4532806287
 40
0.4553122657
 40
0.4573440459
 40
0.459375916
 40
0.4634383393
 40
0.4675002392
 40
0.471562139
 40
0.4756245623
 40
0.4776564324
 40
0.4796882126
 40
0.4817198497
 40
0.483751364
 40
0.4878132638
 40
0.4918756872
 40
0.4959381105
 40
0.5000000104
 40
0.5040619102
 40
0.5081243335
 40
0.5121867569
 40
0.5162486567
 40
0.5182801711
 40
0.5203118081
 40
0.5223435883
 40
0.5243754584
 40
0.5284378817
 40
0.5324997816
 40
0.5365616814
 40
0.5406241047
 40
0.5426559748
 40
0.544687755
 40
0.5467193921
 40
0.5487509064
 40
0.5528128062
 40
0.5568752296
 40
0.5609376529
 40
0.5649995528
 40
0.5690614526
 40
0.5731238759
 40
0.575155746
 40
0.5771875262
 40
0.5792191633
 40
0.5812506776
 40
0.5853125775
 40
0.5893750008
 40
0.5934374241
 40
0.597499324
 40
0.5995308383
 40
0.6015624754
 40
0.6035942556
 40
0.6056261257
 40
0.609688549
 40
0.6137504488
 40
0.6178123487
 40
0.621874772
 40
0.6239066421
 40
0.6259384223
 40
0.6279700593
 40
0.6300015737
 40
0.6340634735
 40
0.6381258969
 40
0.6421883202
 40
0.64625022
 40
0.6503121199
 40
0.6543745432
 40
0.6564064133
 40
0.6584381935
 40
0.6604698305
 40
0.6625013449
 40
0.6665632447
 40
0.6706256681
 40
0.6746880914
 40
0.6787499912
 40
0.6807815056
 40
0.6828131427
 40
0.6848449228
 40
0.686876793
 40
0.6909392163
 40
0.6950011161
 40
0.6990630159
 40
0.7031254393
 40
0.7051573094
 40
0.7071890896
 40
0.7092207266
 40
0.711252241
 40
0.7153141408
 40
0.7193765642
 40
0.7234389875
 40
0.7275008873
 40
0.7315627871
 40
0.7356252105
 40
0.7376570806
 40
0.7396888608
 40
0.7417204978
 40
0.7437520122
 40
0.747813912
 40
0.7518763354
 40
0.7559387587
 40
0.7600006585
 40
0.7620321729
 40
0.76406381
 40
0.7660955901
 40
0.7681274602
 40
0.7721898836
 40
0.7762517834
 40
0.7803136832
 40
0.7843761066
 40
0.7864079767
 40
0.7884397568
 40
0.7904713939
 40
0.7925029083
 40
0.7965648081
 40
0.8006272314
 40
0.8046896548
 40
0.8087515546
 40
0.8128134544
 40
0.8168758778
 40
0.8189077479
 40
0.820939528
 40
0.8229711651
 40
0.8250026795
 40
0.8290645793
 40
0.8331270026
 40
0.837189426
 40
0.8412513258
 40
0.8432828402
 40
0.8453144772
 40
0.8473462574
 40
0.8493781275
 40
0.8534405509
 40
0.8575024507
 40
0.8615643505
 40
0.8656267738
 40
0.867658644
 40
0.8696904241
 40
0.8717220612
 40
0.8737535756
 40
0.8778154754
 40
0.8818778987
 40
0.8859403221
 40
0.8900022219
 40
0.8940641217
 40
0.898126545
 40
0.9001584151
 40
0.9021901953
 40
0.9042218324
 40
0.9062533468
 40
0.9103152466
 40
0.91437767
 40
0.9184400934
 40
0.9225019931
 40
0.9245335074
 40
0.9265651444
 40
0.9285969244
 40
0.9306287945
 40
0.9346912179
 40
0.9387531179
 40
0.942815018
 40
0.9468774416
 40
0.9509398649
 40
0.9550017646
 40
0.9590636646
 40
0.9631260884
 40
0.9671885117
 40
0.9712504093
 40
0.9753123034
 40
0.9793747207
 40
0.9834371445
 40
0.9874990608
 40
0.9906239983
 40
0.9937492662
 40
0.9968747143
 40
1.0
 40
1.0
 40
1.0
 40
1.0
 10
20.5759110075
 20
13.6197107255
 30
0.0
 10
20.9304692195
 20
13.6372388473
 30
0.0
 10
21.6382546143
 20
13.6992101481
 30
0.0
 10
22.689888867
 20
13.8719754216
 30
0.0
 10
23.7254675823
 20
14.1236059998
 30
0.0
 10
24.8401260274
 20
14.4860784036
 30
0.0
 10
26.0172955587
 20
14.9878323045
 30
0.0
 10
27.2327119917
 20
15.6541912414
 30
0.0
 10
28.3770761091
 20
16.4363546964
 30
0.0
 10
29.4389100769
 20
17.3273413706
 30
0.0
 10
30.4064461215
 20
18.3199289421
 30
0.0
 10
31.2716010978
 20
19.4029065683
 30
0.0
 10
32.0265749598
 20
20.5653820553
 30
0.0
 10
32.663488382
 20
21.7965194741
 30
0.0
 10
33.1742488751
 20
23.0851159467
 30
0.0
 10
33.5557156815
 20
24.4177150529
 30
0.0
 10
33.8048858803
 20
25.7812542026
 30
0.0
 10
33.9186569951
 20
27.1627218325
 30
0.0
 10
33.8938913536
 20
28.5485777625
 30
0.0
 10
33.7596502121
 20
29.696087088
 30
0.0
 10
33.5853061629
 20
30.6025577797
 30
0.0
 10
33.4212919279
 20
31.2753111509
 30
0.0
 10
33.2243203259
 20
31.9391236403
 30
0.0
 10
32.9182009136
 20
32.80986295
 30
0.0
 10
32.4543767421
 20
33.8680180314
 30
0.0
 10
31.7756645979
 20
35.0765611144
 30
0.0
 10
30.9819158896
 20
36.2128663531
 30
0.0
 10
30.2302824104
 20
37.090289987
 30
0.0
 10
29.5789555148
 20
37.7442543527
 30
0.0
 10
29.0666016322
 20
38.2100207968
 30
0.0
 10
28.5318783532
 20
38.6499853572
 30
0.0
 10
27.7911262673
 20
39.2007769535
 30
0.0
 10
26.8158440955
 20
39.82014961
 30
0.0
 10
25.5783207827
 20
40.4444479681
 30
0.0
 10
24.2845770715
 20
40.9420559406
 30
0.0
 10
22.948148834
 20
41.3099181265
 30
0.0
 10
21.582190084
 20
41.5451781222
 30
0.0
 10
20.4298314705
 20
41.6282548525
 30
0.0
 10
19.5068540532
 20
41.6254158085
 30
0.0
 10
18.8153953111
 20
41.5889491583
 30
0.0
 10
18.1265374528
 20
41.5184330943
 30
0.0
 10
17.2139742009
 20
41.3794579759
 30
0.0
 10
16.0876829183
 20
41.1220504167
 30
0.0
 10
14.7733917908
 20
40.6817237299
 30
0.0
 10
13.5096423929
 20
40.1123502009
 30
0.0
 10
12.5081141672
 20
39.5363884613
 30
0.0
 10
11.7438968845
 20
39.0186455661
 30
0.0
 10
11.190375436
 20
38.6025786275
 30
0.0
 10
10.6580690538
 20
38.159752681
 30
0.0
 10
9.9786620824
 20
37.5350109327
 30
0.0
 10
9.1892357205
 20
36.6914286248
 30
0.0
 10
8.346370253
 20
35.5910630616
 30
0.0
 10
7.6152593107
 20
34.4134793652
 30
0.0
 10
7.1054309519
 20
33.3767054608
 30
0.0
 10
6.76138255
 20
32.5202436732
 30
0.0
 10
6.5354604965
 20
31.8657178131
 30
0.0
 10
6.3420715477
 20
31.2008129236
 30
0.0
 10
6.1281029509
 20
30.302869452
 30
0.0
 10
5.9436173197
 20
29.162359538
 30
0.0
 10
5.8580392857
 20
27.7789258376
 30
0.0
 10
5.9110553388
 20
26.3937992038
 30
0.0
 10
6.1001343147
 20
25.020623263
 30
0.0
 10
6.4227127985
 20
23.6726122499
 30
0.0
 10
6.8008880589
 20
22.5809091827
 30
0.0
 10
7.1675405654
 20
21.7338783031
 30
0.0
 10
7.4737781359
 20
21.1128601402
 30
0.0
 10
7.8102788497
 20
20.5076618803
 30
0.0
 10
8.2979231479
 20
19.7238960922
 30
0.0
 10
8.9786977195
 20
18.7904419218
 30
0.0
 10
9.9017134563
 20
17.756376784
 30
0.0
 10
10.9233792456
 20
16.819654962
 30
0.0
 10
11.847673041
 20
16.1264943081
 30
0.0
 10
12.6248669341
 20
15.628442691
 30
0.0
 10
13.2255245406
 20
15.2839022274
 30
0.0
 10
13.8424040615
 20
14.9694112735
 30
0.0
 10
14.6844711507
 20
14.5914971272
 30
0.0
 10
15.7710313554
 20
14.1987987533
 30
0.0
 10
17.1146347444
 20
13.8582748895
 30
0.0
 10
18.4851175434
 20
13.6509021102
 30
0.0
 10
19.6389271831
 20
13.5913336655
 30
0.0
 10
20.5616553526
 20
13.6129859552
 30
0.0
 10
21.2522269911
 20
13.6635397685
 30
0.0
 10
21.9395044115
 20
13.7480829225
 30
0.0
 10
22.8490448194
 20
13.9056306454
 30
0.0
 10
23.9698577894
 20
14.1859449303
 30
0.0
 10
25.274889016
 20
14.6529630255
 30
0.0
 10
26.5268112166
 20
15.2480069711
 30
0.0
 10
27.7140852178
 20
15.9633694453
 30
0.0
 10
28.825579147
 20
16.7914828524
 30
0.0
 10
29.6796156318
 20
17.5695919688
 30
0.0
 10
30.3133606018
 20
18.240608127
 30
0.0
 10
30.7632449915
 20
18.7669626123
 30
0.0
 10
31.1866555311
 20
19.3148870405
 30
0.0
 10
31.714542418
 20
20.072132844
 30
0.0
 10
32.3038072485
 20
21.0658922038
 30
0.0
 10
32.8899808945
 20
22.3219372731
 30
0.0
 10
33.3477930891
 20
23.6302402775
 30
0.0
 10
33.6201956413
 20
24.7529991839
 30
0.0
 10
33.7713264534
 20
25.6636282183
 30
0.0
 10
33.851021415
 20
26.3514846019
 30
0.0
 10
33.8967047143
 20
27.042395551
 30
0.0
 10
33.9118502391
 20
27.9652534479
 30
0.0
 10
33.8441476827
 20
29.1186143866
 30
0.0
 10
33.6271166855
 20
30.4876009151
 30
0.0
 10
33.2771274422
 20
31.8287698461
 30
0.0
 10
32.8767774196
 20
32.9125340934
 30
0.0
 10
32.492935186
 20
33.7519155538
 30
0.0
 10
32.1741024078
 20
34.3665622291
 30
0.0
 10
31.8253351563
 20
34.9647755705
 30
0.0
 10
31.3218162337
 20
35.7384381152
 30
0.0
 10
30.6221527819
 20
36.6578231631
 30
0.0
 10
29.6782618561
 20
37.6728514011
 30
0.0
 10
28.637671698
 20
38.5885798632
 30
0.0
 10
27.5120161054
 20
39.397444815
 30
0.0
 10
26.3126398288
 20
40.092201691
 30
0.0
 10
25.2607611092
 20
40.5700963172
 30
0.0
 10
24.394181274
 20
40.8877986319
 30
0.0
 10
23.7330540999
 20
41.0936040448
 30
0.0
 10
23.0625475793
 20
41.2665741866
 30
0.0
 10
22.1584817018
 20
41.4529894794
 30
0.0
 10
21.0128677918
 20
41.6025203279
 30
0.0
 10
19.6274511857
 20
41.6457590513
 30
0.0
 10
18.2446419738
 20
41.5504309839
 30
0.0
 10
17.1054644528
 20
41.3579075102
 30
0.0
 10
16.2090515887
 20
41.1376128489
 30
0.0
 10
15.5455269125
 20
40.9395403994
 30
0.0
 10
14.8926102932
 20
40.7090088576
 30
0.0
 10
14.0385957139
 20
40.3589300335
 30
0.0
 10
13.0054424155
 20
39.841803982
 30
0.0
 10
11.8330431098
 20
39.1024079874
 30
0.0
 10
10.738648005
 20
38.2518047153
 30
0.0
 10
9.9006529703
 20
37.4564498221
 30
0.0
 10
9.2807172987
 20
36.7726546339
 30
0.0
 10
8.8416556945
 20
36.2372391096
 30
0.0
 10
8.4295020046
 20
35.6807976181
 30
0.0
 10
7.9171605993
 20
34.9129491155
 30
0.0
 10
7.3482745037
 20
33.907381404
 30
0.0
 10
6.787828073
 20
32.6396621126
 30
0.0
 10
6.3567714929
 20
31.3222492243
 30
0.0
 10
6.0574666593
 20
29.9688166844
 30
0.0
 10
5.8920961812
 20
28.5926469367
 30
0.0
 10
5.867830256
 20
27.4375524473
 30
0.0
 10
5.9176835197
 20
26.5159180167
 30
0.0
 10
5.9893268072
 20
25.8272147078
 30
0.0
 10
6.0948428067
 20
25.1428434358
 30
0.0
 10
6.2801248766
 20
24.2385446319
 30
0.0
 10
6.5945732573
 20
23.1268284264
 30
0.0
 10
7.101280274
 20
21.8366746533
 30
0.0
 10
7.7342919106
 20
20.6035708348
 30
0.0
 10
8.3605252445
 20
19.6326833456
 30
0.0
 10
8.916526346
 20
18.8958329211
 30
0.0
 10
9.3602502989
 20
18.36422525
 30
0.0
 10
9.8296178985
 20
17.8551682085
 30
0.0
 10
10.4881581198
 20
17.2084688176
 30
0.0
 10
11.3708630575
 20
16.4630396986
 30
0.0
 10
12.5127231711
 20
15.677327525
 30
0.0
 10
13.7260725153
 20
15.0071366588
 30
0.0
 10
14.9994809439
 20
14.459613801
 30
0.0
 10
16.3212075446
 20
14.0420145927
 30
0.0
 10
17.6776235196
 20
13.7565183033
 30
0.0
 10
19.0554065028
 20
13.6051836088
 30
0.0
 10
20.2106885214
 20
13.5926921726
 30
0.0
 10
21.1317669195
 20
13.6519366649
 30
0.0
 10
21.8197042312
 20
13.7305958679
 30
0.0
 10
22.5029644751
 20
13.8430818732
 30
0.0
 10
23.4053278094
 20
14.0375714257
 30
0.0
 10
24.5137812364
 20
14.3633346913
 30
0.0
 10
25.7987033574
 20
14.883165339
 30
0.0
 10
27.0252911214
 20
15.5287125614
 30
0.0
 10
27.9897452653
 20
16.1648091814
 30
0.0
 10
28.7208903467
 20
16.7282917828
 30
0.0
 10
29.2479477266
 20
17.1774111237
 30
0.0
 10
29.752194273
 20
17.6519429232
 30
0.0
 10
30.3921478735
 20
18.3170404806
 30
0.0
 10
31.1285412271
 20
19.2072971533
 30
0.0
 10
31.9025742605
 20
20.3571073258
 30
0.0
 10
32.5603626891
 20
21.5772210117
 30
0.0
 10
33.0948797144
 20
22.8561573054
 30
0.0
 10
33.4989784426
 20
24.1820217862
 30
0.0
 10
33.7253931424
 20
25.314953468
 30
0.0
 10
33.8392812641
 20
26.2309854185
 30
0.0
 10
33.8908732942
 20
26.9215185893
 30
0.0
 10
33.9083573659
 20
27.6137173925
 30
0.0
 10
33.8858749926
 20
28.5364257101
 30
0.0
 10
33.7712181694
 20
29.6860686534
 30
0.0
 10
33.49856819
 20
31.0450714351
 30
0.0
 10
33.0942042898
 20
32.3708604097
 30
0.0
 10
32.6500131681
 20
33.4374059261
 30
0.0
 10
32.2322770707
 20
34.2604445872
 30
0.0
 10
31.8886564775
 20
34.8615849962
 30
0.0
 10
31.5157961979
 20
35.4450855559
 30
0.0
 10
30.9811611626
 20
36.1975821604
 30
0.0
 10
30.2446082162
 20
37.087683542
 30
0.0
 10
29.2601178033
 20
38.063402448
 30
0.0
 10
28.1831112097
 20
38.9359307038
 30
0.0
 10
27.2181806068
 20
39.5713043239
 30
0.0
 10
26.4119996143
 20
40.0209241406
 30
0.0
 10
25.7914072389
 20
40.3281093742
 30
0.0
 10
25.1564597398
 20
40.6043098116
 30
0.0
 10
24.2928698508
 20
40.9300518496
 30
0.0
 10
23.1843366657
 20
41.2556072087
 30
0.0
 10
21.8224462969
 20
41.5133768598
 30
0.0
 10
20.4418015536
 20
41.6365966479
 30
0.0
 10
19.0557241041
 20
41.6233377793
 30
0.0
 10
17.6779629759
 20
41.4717242007
 30
0.0
 10
16.547576069
 20
41.2329287805
 30
0.0
 10
15.6608876868
 20
40.9762796979
 30
0.0
 10
15.005987679
 20
40.7513268644
 30
0.0
 10
14.3630100405
 20
40.4943742768
 30
0.0
 10
13.5239742267
 20
40.1097770855
 30
0.0
 10
12.51275735
 20
39.5509698624
 30
0.0
 10
11.3714698103
 20
38.7644017957
 30
0.0
 10
10.3126544143
 20
37.8698982876
 30
0.0
 10
9.5077741125
 20
37.0410480049
 30
0.0
 10
8.9162248356
 20
36.332552742
 30
0.0
 10
8.4993514175
 20
35.7796861606
 30
0.0
 10
8.1102205759
 20
35.2069079493
 30
0.0
 10
7.6296020797
 20
34.4188142862
 30
0.0
 10
7.1021756621
 20
33.3908979052
 30
0.0
 10
6.5938650904
 20
32.1013750789
 30
0.0
 10
6.2168699144
 20
30.7675372338
 30
0.0
 10
6.0135976364
 20
29.6302285306
 30
0.0
 10
5.9184053894
 20
28.712065033
 30
0.0
 10
5.8808999636
 20
28.0206237794
 30
0.0
 10
5.8775293565
 20
27.3282123068
 30
0.0
 10
5.9188153819
 20
26.4061543717
 30
0.0
 10
6.0568842495
 20
25.2590845821
 30
0.0
 10
6.3571732956
 20
23.9059337929
 30
0.0
 10
6.7885012642
 20
22.5886186419
 30
0.0
 10
7.3473862058
 20
21.3201415567
 30
0.0
 10
8.0301291459
 20
20.1138768755
 30
0.0
 10
8.6954158931
 20
19.16931806
 30
0.0
 10
9.2809885566
 20
18.45574277
 30
0.0
 10
9.746011927
 20
17.9426627933
 30
0.0
 10
10.2357383396
 20
17.4531600695
 30
0.0
 10
10.9200909494
 20
16.8338397953
 30
0.0
 10
11.8324423909
 20
16.1250098217
 30
0.0
 10
13.0053927403
 20
15.3864882921
 30
0.0
 10
14.2449991713
 20
14.7663250353
 30
0.0
 10
15.3241170825
 20
14.3536149375
 30
0.0
 10
16.2084945954
 20
14.0894700917
 30
0.0
 10
16.8809642117
 20
13.9244563996
 30
0.0
 10
17.5607888878
 20
13.7927897711
 30
0.0
 10
18.4745580106
 20
13.6619778796
 30
0.0
 10
19.6271692968
 20
13.5827444573
 30
0.0
 10
21.0126385865
 20
13.6242607679
 30
0.0
 10
22.3870364025
 20
13.8039254642
 30
0.0
 10
23.512317575
 20
14.0657135241
 30
0.0
 10
24.3935906123
 20
14.3403835186
 30
0.0
 10
25.0437690014
 20
14.5786391094
 30
0.0
 10
25.6813753912
 20
14.8486448499
 30
0.0
 10
26.5123969548
 20
15.2502647355
 30
0.0
 10
27.5120150346
 20
15.8295710525
 30
0.0
 10
28.6370235223
 20
16.6392292967
 30
0.0
 10
29.6774168248
 20
17.5551685957
 30
0.0
 10
30.6226199965
 20
18.5690608275
 30
0.0
 10
31.4618019321
 20
19.6722317492
 30
0.0
 10
32.0673798983
 20
20.6561388276
 30
0.0
 10
32.492141494
 20
21.4756890856
 30
0.0
 10
32.7802095704
 20
22.1053831231
 30
0.0
 10
33.0368683758
 20
22.7484780877
 30
0.0
 10
33.3360552152
 20
23.6216237409
 30
0.0
 10
33.6275670992
 20
24.7395888145
 30
0.0
 10
33.8435771809
 20
26.1087368037
 30
0.0
 10
33.9245337204
 20
27.4924537573
 30
0.0
 10
33.8781559288
 20
28.6468688437
 30
0.0
 10
33.7720673411
 20
29.5637337717
 30
0.0
 10
33.6584656392
 20
30.2467707816
 30
0.0
 10
33.5113193498
 20
30.9234137161
 30
0.0
 10
33.2711145207
 20
31.8146978463
 30
0.0
 10
32.8893078735
 20
32.9051172135
 30
0.0
 10
32.304696223
 20
34.1618900547
 30
0.0
 10
31.5975028674
 20
35.3540000818
 30
0.0
 10
30.913101338
 20
36.2847982617
 30
0.0
 10
30.3131046742
 20
36.9862893703
 30
0.0
 10
29.8377193306
 20
37.4897836
 30
0.0
 10
29.3381165422
 20
37.9692020628
 30
0.0
 10
28.6412822906
 20
38.5744436666
 30
0.0
 10
27.7146684706
 20
39.2645298538
 30
0.0
 10
26.5269207222
 20
39.9789847917
 30
0.0
 10
25.2748824224
 20
40.5737646819
 30
0.0
 10
23.9703775278
 20
41.0424367043
 30
0.0
 10
22.6256490886
 20
41.3784691645
 30
0.0
 10
21.4826544514
 20
41.5468765916
 30
0.0
 10
20.5620102073
 20
41.6139527519
 30
0.0
 10
19.8697454202
 20
41.630300963
 30
0.0
 10
19.1775546731
 20
41.6125006511
 30
0.0
 10
18.2571896427
 20
41.5430432732
 30
0.0
 10
17.1148801345
 20
41.3699707227
 30
0.0
 10
15.7715310315
 20
41.0284450356
 30
0.0
 10
14.4680623428
 20
40.5570683964
 30
0.0
 10
13.4255294059
 20
40.0591225021
 30
0.0
 10
12.6248395187
 20
39.6000018811
 30
0.0
 10
12.0419842321
 20
39.2262044119
 30
0.0
 10
11.478235353
 20
38.8241037167
 30
0.0
 10
10.7539511429
 20
38.251829879
 30
0.0
 10
9.902525026
 20
37.470886921
 30
0.0
 10
8.978230739
 20
36.4379832146
 30
0.0
 10
8.1616754972
 20
35.3178786586
 30
0.0
 10
7.4593315309
 20
34.1228733224
 30
0.0
 10
6.8773523044
 20
32.8648441167
 30
0.0
 10
6.4219999869
 20
31.5556415284
 30
0.0
 10
6.0996897426
 20
30.2075042365
 30
0.0
 10
5.9116157884
 20
28.8342005636
 30
0.0
 10
5.8588939332
 20
27.449081768
 30
0.0
 10
5.9427367647
 20
26.0654898974
 30
0.0
 10
6.1643507774
 20
24.6971931978
 30
0.0
 10
6.5195470389
 20
23.3573482369
 30
0.0
 10
7.0041986102
 20
22.0587396767
 30
0.0
 10
7.5674535291
 20
20.9097281569
 30
0.0
 10
8.1743968481
 20
19.9069985169
 30
0.0
 10
8.793903019
 20
19.0398482665
 30
0.0
 10
9.4770951695
 20
18.2219074644
 30
0.0
 10
9.9723908435
 20
17.7125145641
 30
0.0
 10
10.2293358718
 20
17.4675704981
 30
0.0
  0
SPLINE
  5
2A6
100
AcDbEntity
  8
0
100
AcDbSpline
 62
7
  6
BYLAYER
 70
0
 71
3
 72
15
 73
11
 74
0
 42
0.0000001
 43
0.0000001
 44
0.0000000001
 40
0.0
 40
0.0
 40
0.0
 40
0.0
 40
0.1332922336
 40
0.257204036
 40
0.3784727863
 40
0.4993853215
 40
0.6210316255
 40
0.7429286814
 40
0.866651837
 40
1.0
 40
1.0
 40
1.0
 40
1.0
 10
30.1459821024
 20
37.1612021461
 30
0.0
 10
30.4428452501
 20
36.8224704783
 30
0.0
 10
30.992924583
 20
36.1481175591
 30
0.0
 10
31.7137726491
 20
35.0899239267
 30
0.0
 10
32.3226447381
 20
34.0113831007
 30
0.0
 10
32.8344961206
 20
32.8919828887
 30
0.0
 10
33.251355048
 20
31.7316066396
 30
0.0
 10
33.5717263805
 20
30.5311348748
 30
0.0
 10
33.7969607984
 20
29.2689771754
 30
0.0
 10
33.8742244399
 20
28.4025829686
 30
0.0
 10
33.8983530899
 20
27.9526330148
 30
0.0
  0
SPLINE
  5
2A7
100
AcDbEntity
  8
0
100
AcDbSpline
 62
7
  6
BYLAYER
 70
0
 71
3
 72
13
 73
9
 74
0
 42
0.0000001
 43
0.0000001
 44
0.0000000001
 40
0.0
 40
0.0
 40
0.0
 40
0.0
 40
0.1688325437
 40
0.3361855701
 40
0.5017085956
 40
0.6684151949
 40
0.8340077823
 40
1.0
 40
1.0
 40
1.0
 40
1.0
 10
18.1711089146
 20
41.9106881738
 30
0.0
 10
18.9197277822
 20
41.978715372
 30
0.0
 10
20.4236747289
 20
41.9980216969
 30
0.0
 10
22.6429541833
 20
41.6757677588
 30
0.0
 10
24.7763118996
 20
41.0150156185
 30
0.0
 10
26.7741469315
 20
40.0338943595
 30
0.0
 10
28.594836825
 20
38.7509458718
 30
0.0
 10
29.6583134319
 20
37.716526184
 30
0.0
 10
30.1459821024
 20
37.1612021461
 30
0.0
  0
SPLINE
  5
2A8
100
AcDbEntity
  8
0
100
AcDbSpline
 62
7
  6
BYLAYER
 70
0
 71
3
 72
14
 73
10
 74
0
 42
0.0000001
 43
0.0000001
 44
0.0000000001
 40
0.0
 40
0.0
 40
0.0
 40
0.0
 40
0.1437576664
 40
0.288311966
 40
0.4332447862
 40
0.5762135101
 40
0.7173375953
 40
0.8588611254
 40
1.0
 40
1.0
 40
1.0
 40
1.0
 10
32.0267431752
 20
36.4306038439
 30
0.0
 10
31.5643305336
 20
37.0186560761
 30
0.0
 10
30.5476595851
 20
38.1309947179
 30
0.0
 10
28.7861924863
 20
39.5514725339
 30
0.0
 10
26.8324279191
 20
40.6861186471
 30
0.0
 10
24.745816452
 20
41.5038815186
 30
0.0
 10
22.576940737
 20
41.993097432
 30
0.0
 10
20.3690182981
 20
42.1484505612
 30
0.0
 10
18.896237722
 20
42.0273738065
 30
0.0
 10
18.1711089147
 20
41.9106881739
 30
0.0
  0
SPLINE
  5
2A9
100
AcDbEntity
  8
0
100
AcDbSpline
 62
7
  6
BYLAYER
 70
0
 71
3
 72
319
 73
315
 74
0
 42
0.0000001
 43
0.0000001
 44
0.0000000001
 40
0.0
 40
0.0
 40
0.0
 40
0.0
 40
0.0031252857
 40
0.0062507338
 40
0.0093760017
 40
0.0125009392
 40
0.0165628555
 40
0.0206252793
 40
0.0246876966
 40
0.0287495907
 40
0.0328114883
 40
0.0368739116
 40
0.0409363354
 40
0.0449982354
 40
0.0490601351
 40
0.0531225584
 40
0.057184982
 40
0.0612468821
 40
0.0653087821
 40
0.0693712055
 40
0.0714030756
 40
0.0734348556
 40
0.0754664926
 40
0.0774980069
 40
0.0815599066
 40
0.08562233
 40
0.0896847534
 40
0.0937466532
 40
0.0957781676
 40
0.0978098047
 40
0.0998415849
 40
0.101873455
 40
0.1059358783
 40
0.1099977781
 40
0.1140596779
 40
0.1181221013
 40
0.1221845246
 40
0.1262464244
 40
0.1282779388
 40
0.1303095759
 40
0.132341356
 40
0.1343732262
 40
0.1384356495
 40
0.1424975493
 40
0.1465594491
 40
0.1506218725
 40
0.1526537426
 40
0.1546855228
 40
0.1567171598
 40
0.1587486742
 40
0.162810574
 40
0.1668729974
 40
0.1709354207
 40
0.1749973205
 40
0.1770288349
 40
0.179060472
 40
0.1810922521
 40
0.1831241222
 40
0.1871865456
 40
0.1912484454
 40
0.1953103452
 40
0.1993727686
 40
0.2034351919
 40
0.2074970917
 40
0.2095286061
 40
0.2115602432
 40
0.2135920233
 40
0.2156238934
 40
0.2196863168
 40
0.2237482166
 40
0.2278101164
 40
0.2318725398
 40
0.2339044099
 40
0.23593619
 40
0.2379678271
 40
0.2399993415
 40
0.2440612413
 40
0.2481236646
 40
0.252186088
 40
0.2562479878
 40
0.2582795022
 40
0.2603111392
 40
0.2623429194
 40
0.2643747895
 40
0.2684372129
 40
0.2724991127
 40
0.2765610125
 40
0.2806234358
 40
0.2846858592
 40
0.288747759
 40
0.2907792734
 40
0.2928109104
 40
0.2948426906
 40
0.2968745607
 40
0.3009369841
 40
0.3049988839
 40
0.3090607837
 40
0.313123207
 40
0.3151550772
 40
0.3171868573
 40
0.3192184944
 40
0.3212500088
 40
0.3253119086
 40
0.3293743319
 40
0.3334367553
 40
0.3374986551
 40
0.3395301695
 40
0.3415618065
 40
0.3435935867
 40
0.3456254568
 40
0.3496878801
 40
0.35374978
 40
0.3578116798
 40
0.3618741031
 40
0.3659365265
 40
0.3699984263
 40
0.3720299407
 40
0.3740615777
 40
0.3760933579
 40
0.378125228
 40
0.3821876513
 40
0.3862495512
 40
0.390311451
 40
0.3943738743
 40
0.3964057444
 40
0.3984375246
 40
0.4004691617
 40
0.402500676
 40
0.4065625759
 40
0.4106249992
 40
0.4146874225
 40
0.4187493224
 40
0.4207808367
 40
0.4228124738
 40
0.424844254
 40
0.4268761241
 40
0.4309385474
 40
0.4350004472
 40
0.4390623471
 40
0.4431247704
 40
0.4471871938
 40
0.4512490936
 40
0.4532806079
 40
0.455312245
 40
0.4573440252
 40
0.4593758953
 40
0.4634383186
 40
0.4675002184
 40
0.4715621183
 40
0.4756245416
 40
0.4776564117
 40
0.4796881919
 40
0.4817198289
 40
0.4837513433
 40
0.4878132431
 40
0.4918756665
 40
0.4959380898
 40
0.4999999896
 40
0.5040618895
 40
0.5081243128
 40
0.5121867362
 40
0.516248636
 40
0.5182801503
 40
0.5203117874
 40
0.5223435676
 40
0.5243754377
 40
0.528437861
 40
0.5324997608
 40
0.5365616607
 40
0.540624084
 40
0.5426559541
 40
0.5446877343
 40
0.5467193713
 40
0.5487508857
 40
0.5528127855
 40
0.5568752089
 40
0.5609376322
 40
0.564999532
 40
0.5690614319
 40
0.5731238552
 40
0.5751557253
 40
0.5771875055
 40
0.5792191425
 40
0.5812506569
 40
0.5853125567
 40
0.5893749801
 40
0.5934374034
 40
0.5974993032
 40
0.5995308176
 40
0.6015624547
 40
0.6035942348
 40
0.605626105
 40
0.6096885283
 40
0.6137504281
 40
0.6178123279
 40
0.6218747513
 40
0.6239066214
 40
0.6259384016
 40
0.6279700386
 40
0.630001553
 40
0.6340634528
 40
0.6381258762
 40
0.6421882995
 40
0.6462501993
 40
0.6503120991
 40
0.6543745225
 40
0.6564063926
 40
0.6584381728
 40
0.6604698098
 40
0.6625013242
 40
0.666563224
 40
0.6706256474
 40
0.6746880707
 40
0.6787499705
 40
0.6807814849
 40
0.682813122
 40
0.6848449021
 40
0.6868767722
 40
0.6909391956
 40
0.6950010954
 40
0.6990629952
 40
0.7031254186
 40
0.7051572887
 40
0.7071890688
 40
0.7092207059
 40
0.7112522203
 40
0.7153141201
 40
0.7193765434
 40
0.7234389668
 40
0.7275008666
 40
0.7315627664
 40
0.7356251898
 40
0.7376570599
 40
0.73968884
 40
0.7417204771
 40
0.7437519915
 40
0.7478138913
 40
0.7518763146
 40
0.755938738
 40
0.7600006378
 40
0.7620321522
 40
0.7640637892
 40
0.7660955694
 40
0.7681274395
 40
0.7721898629
 40
0.7762517627
 40
0.7803136625
 40
0.7843760858
 40
0.786407956
 40
0.7884397361
 40
0.7904713732
 40
0.7925028876
 40
0.7965647874
 40
0.8006272107
 40
0.8046896341
 40
0.8087515339
 40
0.8128134337
 40
0.816875857
 40
0.8189077272
 40
0.8209395073
 40
0.8229711444
 40
0.8250026588
 40
0.8290645586
 40
0.8331269819
 40
0.8371894053
 40
0.8412513051
 40
0.8432828195
 40
0.8453144565
 40
0.8473462367
 40
0.8493781068
 40
0.8534405302
 40
0.85750243
 40
0.8615643298
 40
0.8656267531
 40
0.8676586232
 40
0.8696904034
 40
0.8717220405
 40
0.8737535548
 40
0.8778154547
 40
0.881877878
 40
0.8859403014
 40
0.8900022012
 40
0.894064101
 40
0.8981265243
 40
0.9001583944
 40
0.9021901746
 40
0.9042218116
 40
0.906253326
 40
0.9103152259
 40
0.9143776493
 40
0.9184400727
 40
0.9225019724
 40
0.9245334867
 40
0.9265651236
 40
0.9285969037
 40
0.9306287738
 40
0.9346911971
 40
0.9387530972
 40
0.9428149973
 40
0.9468774209
 40
0.9509398442
 40
0.9550017439
 40
0.9590636439
 40
0.9631260677
 40
0.967188491
 40
0.9712503886
 40
0.9753122827
 40
0.9793747
 40
0.9834371238
 40
0.9874990401
 40
0.9906239828
 40
0.9937492558
 40
0.9968747091
 40
1.0
 40
1.0
 40
1.0
 40
1.0
 10
30.4976280005
 20
18.4588553608
 30
0.0
 10
30.7294443807
 20
18.7277038476
 30
0.0
 10
31.1726681703
 20
19.2829980074
 30
0.0
 10
31.7727826825
 20
20.1637029764
 30
0.0
 10
32.3047131623
 20
21.0871678741
 30
0.0
 10
32.8109105177
 20
22.1443391756
 30
0.0
 10
33.2593533702
 20
23.3428309713
 30
0.0
 10
33.6149699044
 20
24.6825354979
 30
0.0
 10
33.8377249997
 20
26.0506469959
 30
0.0
 10
33.9247589777
 20
27.4340391007
 30
0.0
 10
33.8731867541
 20
28.8192092673
 30
0.0
 10
33.6855526106
 20
30.1925726934
 30
0.0
 10
33.3643653035
 20
31.5409693353
 30
0.0
 10
32.9120381709
 20
32.8512205389
 30
0.0
 10
32.331103283
 20
34.1097402274
 30
0.0
 10
31.6291394726
 20
35.3049741423
 30
0.0
 10
30.8135354273
 20
36.4257394353
 30
0.0
 10
29.8915742265
 20
37.4608163519
 30
0.0
 10
28.8708974876
 20
38.3985951053
 30
0.0
 10
27.9473282085
 20
39.0927263054
 30
0.0
 10
27.1706565768
 20
39.5915911556
 30
0.0
 10
26.5703600937
 20
39.9367605346
 30
0.0
 10
25.9538103013
 20
40.251897309
 30
0.0
 10
25.1121394652
 20
40.6306930899
 30
0.0
 10
24.0259911167
 20
41.0245291006
 30
0.0
 10
22.6827450633
 20
41.3664597933
 30
0.0
 10
21.3124801614
 20
41.575267614
 30
0.0
 10
20.1587335183
 20
41.6360442843
 30
0.0
 10
19.2359831697
 20
41.6153582813
 30
0.0
 10
18.5453589661
 20
41.5655276592
 30
0.0
 10
17.8579933877
 20
41.4817042662
 30
0.0
 10
16.9482884966
 20
41.3251090987
 30
0.0
 10
15.8271826007
 20
41.0459686817
 30
0.0
 10
14.5216630343
 20
40.5803174696
 30
0.0
 10
13.2691183948
 20
39.9865848609
 30
0.0
 10
12.0810959195
 20
39.2724660893
 30
0.0
 10
10.9687354005
 20
38.4455170895
 30
0.0
 10
10.1138845489
 20
37.6683027442
 30
0.0
 10
9.4794372393
 20
36.9979506096
 30
0.0
 10
9.0290018989
 20
36.4720675305
 30
0.0
 10
8.6050178063
 20
35.9245867971
 30
0.0
 10
8.0763382232
 20
35.1678942106
 30
0.0
 10
7.486033054
 20
34.1747524724
 30
0.0
 10
6.8985444027
 20
32.9193219313
 30
0.0
 10
6.4393624079
 20
31.6114990641
 30
0.0
 10
6.165784255
 20
30.4890260326
 30
0.0
 10
6.0136999173
 20
29.5785557613
 30
0.0
 10
5.933284678
 20
28.8907832112
 30
0.0
 10
5.8868778836
 20
28.1999204803
 30
0.0
 10
5.8707659527
 20
27.2770789498
 30
0.0
 10
5.9372606754
 20
26.1236477455
 30
0.0
 10
6.1528579545
 20
24.7544346934
 30
0.0
 10
6.5014425374
 20
23.41289999
 30
0.0
 10
6.9006574255
 20
22.3287170915
 30
0.0
 10
7.2836204505
 20
21.4889341327
 30
0.0
 10
7.6018093976
 20
20.8739539136
 30
0.0
 10
7.9499500104
 20
20.275375672
 30
0.0
 10
8.4526584796
 20
19.5011862678
 30
0.0
 10
9.1513587702
 20
18.5810690383
 30
0.0
 10
10.0941862435
 20
17.5650529169
 30
0.0
 10
11.1338168826
 20
16.6482352535
 30
0.0
 10
12.2586248168
 20
15.8381919618
 30
0.0
 10
13.4572728882
 20
15.142179483
 30
0.0
 10
14.508650581
 20
14.6631835942
 30
0.0
 10
15.3748972441
 20
14.3445739736
 30
0.0
 10
16.0358085368
 20
14.1380763429
 30
0.0
 10
16.7061335558
 20
13.9644041433
 30
0.0
 10
17.610003724
 20
13.7770422173
 30
0.0
 10
18.7554604176
 20
13.626311767
 30
0.0
 10
20.1408309846
 20
13.5816222627
 30
0.0
 10
21.5237392655
 20
13.6755022037
 30
0.0
 10
22.663117772
 20
13.8668326281
 30
0.0
 10
23.5597608366
 20
14.0861884475
 30
0.0
 10
24.22349257
 20
14.2835659471
 30
0.0
 10
24.8766502432
 20
14.51341363
 30
0.0
 10
25.7310309559
 20
14.8625979403
 30
0.0
 10
26.7647252209
 20
15.3786417928
 30
0.0
 10
27.9378981773
 20
16.1168096485
 30
0.0
 10
29.0331834314
 20
16.9662664067
 30
0.0
 10
29.8720109002
 20
17.7607433175
 30
0.0
 10
30.4926623004
 20
18.4438889359
 30
0.0
 10
30.9322843496
 20
18.9788443824
 30
0.0
 10
31.3450205175
 20
19.5348539625
 30
0.0
 10
31.8581657308
 20
20.3021655216
 30
0.0
 10
32.4281045424
 20
21.3071369456
 30
0.0
 10
32.989878218
 20
22.5742686439
 30
0.0
 10
33.4223141531
 20
23.8912294086
 30
0.0
 10
33.7230361335
 20
25.2443477752
 30
0.0
 10
33.8898476423
 20
26.6203435928
 30
0.0
 10
33.9153231661
 20
27.7754120376
 30
0.0
 10
33.8664350628
 20
28.697098169
 30
0.0
 10
33.7955130229
 20
29.385876125
 30
0.0
 10
33.690713753
 20
30.0703575178
 30
0.0
 10
33.506378764
 20
30.9748498528
 30
0.0
 10
33.1930947421
 20
32.0868947382
 30
0.0
 10
32.6877390485
 20
33.3775784263
 30
0.0
 10
32.0560190632
 20
34.6113444563
 30
0.0
 10
31.4308027797
 20
35.5828872043
 30
0.0
 10
30.8755736185
 20
36.3203194651
 30
0.0
 10
30.4324065839
 20
36.8523915192
 30
0.0
 10
29.9635724118
 20
37.3619397725
 30
0.0
 10
29.3057093406
 20
38.0093285772
 30
0.0
 10
28.4237887966
 20
38.7556805352
 30
0.0
 10
27.2827384568
 20
39.5425926592
 30
0.0
 10
26.0701422332
 20
40.2140366036
 30
0.0
 10
25.009221461
 20
40.6714993882
 30
0.0
 10
24.1366599203
 20
40.9723855032
 30
0.0
 10
23.4716767783
 20
41.1653681365
 30
0.0
 10
22.7979507965
 20
41.3253403183
 30
0.0
 10
21.8904496616
 20
41.4942388939
 30
0.0
 10
20.7421552897
 20
41.6215882069
 30
0.0
 10
19.3561747717
 20
41.6380322685
 30
0.0
 10
17.9754186767
 20
41.5159704009
 30
0.0
 10
16.6133873427
 20
41.258611374
 30
0.0
 10
15.2831506419
 20
40.8691747431
 30
0.0
 10
14.2116766782
 20
40.4369992468
 30
0.0
 10
13.383995211
 20
40.0285402397
 30
0.0
 10
12.7790305019
 20
39.6916979784
 30
0.0
 10
12.1913759916
 20
39.3254196135
 30
0.0
 10
11.432917784
 20
38.7992761733
 30
0.0
 10
10.5345940092
 20
38.072774211
 30
0.0
 10
9.5478713747
 20
37.0993127572
 30
0.0
 10
8.6632930209
 20
36.032181138
 30
0.0
 10
8.017114021
 20
35.074452882
 30
0.0
 10
7.5584613856
 20
34.2733764057
 30
0.0
 10
7.2443202956
 20
33.6562758735
 30
0.0
 10
6.9610006903
 20
33.0244729733
 30
0.0
 10
6.6255727794
 20
32.1645984468
 30
0.0
 10
6.2875782084
 20
31.0597976678
 30
0.0
 10
6.0145185079
 20
29.7008771518
 30
0.0
 10
5.8757852101
 20
28.3217543712
 30
0.0
 10
5.8738610901
 20
27.1664096685
 30
0.0
 10
5.9415265694
 20
26.2459111735
 30
0.0
 10
6.0264739631
 20
25.5587221048
 30
0.0
 10
6.1452039943
 20
24.8765190725
 30
0.0
 10
6.3479376275
 20
23.9759725093
 30
0.0
 10
6.6838264993
 20
22.8705420601
 30
0.0
 10
7.2153783265
 20
21.5904385258
 30
0.0
 10
7.872146628
 20
20.3697658049
 30
0.0
 10
8.645857927
 20
19.2196641358
 30
0.0
 10
9.5283986212
 20
18.1508739353
 30
0.0
 10
10.3481512915
 20
17.3367255004
 30
0.0
 10
11.0499527977
 20
16.7372507157
 30
0.0
 10
11.598098966
 20
16.3141895069
 30
0.0
 10
12.1664672795
 20
15.9186454203
 30
0.0
 10
12.9491091641
 20
15.4291993532
 30
0.0
 10
13.9710325068
 20
14.8902528
 30
0.0
 10
15.254760628
 20
14.3674805071
 30
0.0
 10
16.5842769116
 20
13.9755172297
 30
0.0
 10
17.7192290579
 20
13.7594748015
 30
0.0
 10
18.6362646273
 20
13.6539687006
 30
0.0
 10
19.327240654
 20
13.6086940619
 30
0.0
 10
20.0195705092
 20
13.5975411856
 30
0.0
 10
20.9420342179
 20
13.6284609446
 30
0.0
 10
22.0905835869
 20
13.7536285335
 30
0.0
 10
23.4470232847
 20
14.0386890268
 30
0.0
 10
24.769106073
 20
14.4551857607
 30
0.0
 10
26.0437740596
 20
14.9997698494
 30
0.0
 10
27.257676151
 20
15.6689424866
 30
0.0
 10
28.399835496
 20
16.4543369473
 30
0.0
 10
29.4595738957
 20
17.347725252
 30
0.0
 10
30.2653249008
 20
18.1757336433
 30
0.0
 10
30.8576153712
 20
18.8836088611
 30
0.0
 10
31.2750676047
 20
19.4360386284
 30
0.0
 10
31.6647980226
 20
20.0084090188
 30
0.0
 10
32.1462415521
 20
20.7959989507
 30
0.0
 10
32.6747441083
 20
21.8233624469
 30
0.0
 10
33.1844047872
 20
23.1123522651
 30
0.0
 10
33.5627965477
 20
24.4457945903
 30
0.0
 10
33.767259701
 20
25.5828898038
 30
0.0
 10
33.8634133942
 20
26.5009531129
 30
0.0
 10
33.9016428748
 20
27.1923547118
 30
0.0
 10
33.9057385716
 20
27.884762275
 30
0.0
 10
33.8654181454
 20
28.8068629391
 30
0.0
 10
33.728550562
 20
29.9540766852
 30
0.0
 10
33.4296786964
 20
31.3075411944
 30
0.0
 10
32.9997304533
 20
32.6253073085
 30
0.0
 10
32.442174164
 20
33.894368961
 30
0.0
 10
31.7606947954
 20
35.1013479475
 30
0.0
 10
31.0963975524
 20
36.0466029316
 30
0.0
 10
30.5115724642
 20
36.7607910404
 30
0.0
 10
30.0470866448
 20
37.2743577071
 30
0.0
 10
29.5578731066
 20
37.7643730027
 30
0.0
 10
28.8741694226
 20
38.3844095895
 30
0.0
 10
27.9625607662
 20
39.0941945864
 30
0.0
 10
26.7903844378
 20
39.8339440216
 30
0.0
 10
25.5514281198
 20
40.4554050509
 30
0.0
 10
24.4727429892
 20
40.8692449719
 30
0.0
 10
23.588642573
 20
41.1343157906
 30
0.0
 10
22.9163461273
 20
41.3000336006
 30
0.0
 10
22.2366597049
 20
41.4324120676
 30
0.0
 10
21.323028069
 20
41.5641807839
 30
0.0
 10
20.1705003878
 20
41.6446211743
 30
0.0
 10
18.7849883821
 20
41.6045557462
 30
0.0
 10
17.4104031753
 20
41.4263304141
 30
0.0
 10
16.284848476
 20
41.1657208892
 30
0.0
 10
15.4032882882
 20
40.8919739122
 30
0.0
 10
14.752860755
 20
40.6543993171
 30
0.0
 10
14.1149719655
 20
40.3850614243
 30
0.0
 10
13.2835302823
 20
39.9843120025
 30
0.0
 10
12.2833061025
 20
39.4060528006
 30
0.0
 10
11.1574503598
 20
38.5975731062
 30
0.0
 10
10.1160984585
 20
37.6827238065
 30
0.0
 10
9.1698340597
 20
36.669821945
 30
0.0
 10
8.3294973466
 20
35.5675304172
 30
0.0
 10
7.7228893676
 20
34.584258038
 30
0.0
 10
7.2972697739
 20
33.7651530385
 30
0.0
 10
7.0085424416
 20
33.1357610104
 30
0.0
 10
6.7512103295
 20
32.4929351708
 30
0.0
 10
6.4511092984
 20
31.6201033041
 30
0.0
 10
6.1584268442
 20
30.502444114
 30
0.0
 10
5.9409831129
 20
29.1335230806
 30
0.0
 10
5.858577593
 20
27.7498916633
 30
0.0
 10
5.9037464587
 20
26.5954286432
 30
0.0
 10
6.0088748496
 20
25.6784531221
 30
0.0
 10
6.1217612146
 20
24.9952975234
 30
0.0
 10
6.2681988446
 20
24.3185008687
 30
0.0
 10
6.5074701916
 20
23.4269656853
 30
0.0
 10
6.8881347452
 20
22.3361470891
 30
0.0
 10
7.4714299862
 20
21.0787627331
 30
0.0
 10
8.17737458
 20
19.8859127886
 30
0.0
 10
8.860801005
 20
18.9543984156
 30
0.0
 10
9.4600627403
 20
18.2522793767
 30
0.0
 10
9.9349205654
 20
17.7482876009
 30
0.0
 10
10.4340210338
 20
17.2683462183
 30
0.0
 10
11.130221095
 20
16.6623752236
 30
0.0
 10
12.0561117492
 20
15.9713190675
 30
0.0
 10
13.2431106701
 20
15.2556207152
 30
0.0
 10
14.494525432
 20
14.6595300197
 30
0.0
 10
15.7985388223
 20
14.1894921795
 30
0.0
 10
17.1429146368
 20
13.8520517062
 30
0.0
 10
18.2857322956
 20
13.682447429
 30
0.0
 10
19.2063057946
 20
13.6144072088
 30
0.0
 10
19.8985530809
 20
13.5973340691
 30
0.0
 10
20.5907620848
 20
13.6144095119
 30
0.0
 10
21.5111993351
 20
13.6829030503
 30
0.0
 10
22.6536894413
 20
13.8547792891
 30
0.0
 10
23.9973954369
 20
14.1948980467
 30
0.0
 10
25.3013570383
 20
14.6649094411
 30
0.0
 10
26.3444108797
 20
15.1617633183
 30
0.0
 10
27.1455811612
 20
15.6200451799
 30
0.0
 10
27.7288276237
 20
15.9932320867
 30
0.0
 10
28.2929972742
 20
16.3947421075
 30
0.0
 10
29.0178806107
 20
16.9662575572
 30
0.0
 10
29.8701224949
 20
17.7463053013
 30
0.0
 10
30.7955042503
 20
18.778253635
 30
0.0
 10
31.6132077275
 20
19.8974541457
 30
0.0
 10
32.1996440697
 20
20.8928852694
 30
0.0
 10
32.6084788984
 20
21.7204962016
 30
0.0
 10
32.8843166277
 20
22.3556428077
 30
0.0
 10
33.1284918956
 20
23.0035806495
 30
0.0
 10
33.410738787
 20
23.8823480043
 30
0.0
 10
33.6805776172
 20
25.0057442479
 30
0.0
 10
33.8700737393
 20
26.3787998875
 30
0.0
 10
33.9242518267
 20
27.7638730835
 30
0.0
 10
33.841850182
 20
29.1475625221
 30
0.0
 10
33.6216811056
 20
30.5160426941
 30
0.0
 10
33.3267816859
 20
31.6331067676
 30
0.0
 10
33.0262103478
 20
32.505885038
 30
0.0
 10
32.7688610199
 20
33.148745148
 30
0.0
 10
32.4801466706
 20
33.7781010889
 30
0.0
 10
32.0541642494
 20
34.5969020863
 30
0.0
 10
31.4455976934
 20
35.5789773539
 30
0.0
 10
30.6030640194
 20
36.6795969884
 30
0.0
 10
29.6568443493
 20
37.6924616905
 30
0.0
 10
28.7888663958
 20
38.454983404
 30
0.0
 10
28.0517378507
 20
39.0104450074
 30
0.0
 10
27.478759714
 20
39.3992135225
 30
0.0
 10
26.8872789837
 20
39.759280512
 30
0.0
 10
26.0761861513
 20
40.1999778889
 30
0.0
 10
25.0232338026
 20
40.675458765
 30
0.0
 10
23.7099546551
 20
41.1187945712
 30
0.0
 10
22.3589677585
 20
41.4287674154
 30
0.0
 10
21.2129332376
 20
41.575039702
 30
0.0
 10
20.2911636901
 20
41.6243009794
 30
0.0
 10
19.5987123128
 20
41.6272597511
 30
0.0
 10
18.9069951052
 20
41.5960778114
 30
0.0
 10
17.9881456478
 20
41.508836493
 30
0.0
 10
16.8493936493
 20
41.3137057597
 30
0.0
 10
15.5129114266
 20
40.9462743501
 30
0.0
 10
14.2187584854
 20
40.4497552805
 30
0.0
 10
12.9797473243
 20
39.828274929
 30
0.0
 10
11.8090510594
 20
39.0861949838
 30
0.0
 10
10.8988636992
 20
38.3746074829
 30
0.0
 10
10.2153947678
 20
37.754159858
 30
0.0
 10
9.7261565267
 20
37.2641152243
 30
0.0
 10
9.2616987445
 20
36.7505747195
 30
0.0
 10
8.6772961108
 20
36.036173097
 30
0.0
 10
8.0148714201
 20
35.0895904808
 30
0.0
 10
7.3357949171
 20
33.8812520718
 30
0.0
 10
6.778255133
 20
32.6122461824
 30
0.0
 10
6.41990245
 20
31.5138799444
 30
0.0
 10
6.20021329
 20
30.6174243052
 30
0.0
 10
6.0689585023
 20
29.9375588672
 30
0.0
 10
5.9713762664
 20
29.2520112941
 30
0.0
 10
5.8863203303
 20
28.3328538266
 30
0.0
 10
5.8646971555
 20
27.1777214643
 30
0.0
 10
5.9752855508
 20
25.7960629672
 30
0.0
 10
6.2233212988
 20
24.432290645
 30
0.0
 10
6.6043604121
 20
23.0995738728
 30
0.0
 10
7.114045515
 20
21.8105593662
 30
0.0
 10
7.748113333
 20
20.5779543392
 30
0.0
 10
8.5021249815
 20
19.4148445055
 30
0.0
 10
9.3669333842
 20
18.3315895877
 30
0.0
 10
10.3336394189
 20
17.3382049119
 30
0.0
 10
11.3934173745
 20
16.4447695367
 30
0.0
 10
12.5371286968
 20
15.6616520231
 30
0.0
 10
13.752357
 20
14.9948918904
 30
0.0
 10
15.0269979738
 20
14.4503170781
 30
0.0
 10
16.2475119465
 20
14.0658294643
 30
0.0
 10
17.3922216808
 20
13.8138585996
 30
0.0
 10
18.4474128347
 20
13.6644837274
 30
0.0
 10
19.510886994
 20
13.5951645134
 30
0.0
 10
20.2213417515
 20
13.602556728
 30
0.0
 10
20.5759182439
 20
13.6197110794
 30
0.0
  0
SPLINE
  5
2AA
100
AcDbEntity
  8
0
100
AcDbSpline
 62
7
  6
BYLAYER
 70
0
 71
3
 72
319
 73
315
 74
0
 42
0.0000001
 43
0.0000001
 44
0.0000000001
 40
0.0
 40
0.0
 40
0.0
 40
0.0
 40
0.0031252857
 40
0.0062507338
 40
0.0093760017
 40
0.0125009392
 40
0.0165628555
 40
0.0206252793
 40
0.0246876966
 40
0.0287495907
 40
0.0328114883
 40
0.0368739116
 40
0.0409363354
 40
0.0449982354
 40
0.0490601351
 40
0.0531225584
 40
0.057184982
 40
0.0612468821
 40
0.0653087821
 40
0.0693712055
 40
0.0714030756
 40
0.0734348556
 40
0.0754664926
 40
0.0774980069
 40
0.0815599066
 40
0.08562233
 40
0.0896847534
 40
0.0937466532
 40
0.0957781676
 40
0.0978098047
 40
0.0998415849
 40
0.101873455
 40
0.1059358783
 40
0.1099977781
 40
0.1140596779
 40
0.1181221013
 40
0.1221845246
 40
0.1262464244
 40
0.1282779388
 40
0.1303095759
 40
0.132341356
 40
0.1343732262
 40
0.1384356495
 40
0.1424975493
 40
0.1465594491
 40
0.1506218725
 40
0.1526537426
 40
0.1546855228
 40
0.1567171598
 40
0.1587486742
 40
0.162810574
 40
0.1668729974
 40
0.1709354207
 40
0.1749973205
 40
0.1770288349
 40
0.179060472
 40
0.1810922521
 40
0.1831241222
 40
0.1871865456
 40
0.1912484454
 40
0.1953103452
 40
0.1993727686
 40
0.2034351919
 40
0.2074970917
 40
0.2095286061
 40
0.2115602432
 40
0.2135920233
 40
0.2156238934
 40
0.2196863168
 40
0.2237482166
 40
0.2278101164
 40
0.2318725398
 40
0.2339044099
 40
0.23593619
 40
0.2379678271
 40
0.2399993415
 40
0.2440612413
 40
0.2481236646
 40
0.252186088
 40
0.2562479878
 40
0.2582795022
 40
0.2603111392
 40
0.2623429194
 40
0.2643747895
 40
0.2684372129
 40
0.2724991127
 40
0.2765610125
 40
0.2806234358
 40
0.2846858592
 40
0.288747759
 40
0.2907792734
 40
0.2928109104
 40
0.2948426906
 40
0.2968745607
 40
0.3009369841
 40
0.3049988839
 40
0.3090607837
 40
0.313123207
 40
0.3151550772
 40
0.3171868573
 40
0.3192184944
 40
0.3212500088
 40
0.3253119086
 40
0.3293743319
 40
0.3334367553
 40
0.3374986551
 40
0.3395301695
 40
0.3415618065
 40
0.3435935867
 40
0.3456254568
 40
0.3496878801
 40
0.35374978
 40
0.3578116798
 40
0.3618741031
 40
0.3659365265
 40
0.3699984263
 40
0.3720299407
 40
0.3740615777
 40
0.3760933579
 40
0.378125228
 40
0.3821876513
 40
0.3862495512
 40
0.390311451
 40
0.3943738743
 40
0.3964057444
 40
0.3984375246
 40
0.4004691617
 40
0.402500676
 40
0.4065625759
 40
0.4106249992
 40
0.4146874225
 40
0.4187493224
 40
0.4207808367
 40
0.4228124738
 40
0.424844254
 40
0.4268761241
 40
0.4309385474
 40
0.4350004472
 40
0.4390623471
 40
0.4431247704
 40
0.4471871938
 40
0.4512490936
 40
0.4532806079
 40
0.455312245
 40
0.4573440252
 40
0.4593758953
 40
0.4634383186
 40
0.4675002184
 40
0.4715621183
 40
0.4756245416
 40
0.4776564117
 40
0.4796881919
 40
0.4817198289
 40
0.4837513433
 40
0.4878132431
 40
0.4918756665
 40
0.4959380898
 40
0.4999999896
 40
0.5040618895
 40
0.5081243128
 40
0.5121867362
 40
0.516248636
 40
0.5182801503
 40
0.5203117874
 40
0.5223435676
 40
0.5243754377
 40
0.528437861
 40
0.5324997608
 40
0.5365616607
 40
0.540624084
 40
0.5426559541
 40
0.5446877343
 40
0.5467193713
 40
0.5487508857
 40
0.5528127855
 40
0.5568752089
 40
0.5609376322
 40
0.564999532
 40
0.5690614319
 40
0.5731238552
 40
0.5751557253
 40
0.5771875055
 40
0.5792191425
 40
0.5812506569
 40
0.5853125567
 40
0.5893749801
 40
0.5934374034
 40
0.5974993032
 40
0.5995308176
 40
0.6015624547
 40
0.6035942348
 40
0.605626105
 40
0.6096885283
 40
0.6137504281
 40
0.6178123279
 40
0.6218747513
 40
0.6239066214
 40
0.6259384016
 40
0.6279700386
 40
0.630001553
 40
0.6340634528
 40
0.6381258762
 40
0.6421882995
 40
0.6462501993
 40
0.6503120991
 40
0.6543745225
 40
0.6564063926
 40
0.6584381728
 40
0.6604698098
 40
0.6625013242
 40
0.666563224
 40
0.6706256474
 40
0.6746880707
 40
0.6787499705
 40
0.6807814849
 40
0.682813122
 40
0.6848449021
 40
0.6868767722
 40
0.6909391956
 40
0.6950010954
 40
0.6990629952
 40
0.7031254186
 40
0.7051572887
 40
0.7071890688
 40
0.7092207059
 40
0.7112522203
 40
0.7153141201
 40
0.7193765434
 40
0.7234389668
 40
0.7275008666
 40
0.7315627664
 40
0.7356251898
 40
0.7376570599
 40
0.73968884
 40
0.7417204771
 40
0.7437519915
 40
0.7478138913
 40
0.7518763146
 40
0.755938738
 40
0.7600006378
 40
0.7620321522
 40
0.7640637892
 40
0.7660955694
 40
0.7681274395
 40
0.7721898629
 40
0.7762517627
 40
0.7803136625
 40
0.7843760858
 40
0.786407956
 40
0.7884397361
 40
0.7904713732
 40
0.7925028876
 40
0.7965647874
 40
0.8006272107
 40
0.8046896341
 40
0.8087515339
 40
0.8128134337
 40
0.816875857
 40
0.8189077272
 40
0.8209395073
 40
0.8229711444
 40
0.8250026588
 40
0.8290645586
 40
0.8331269819
 40
0.8371894053
 40
0.8412513051
 40
0.8432828195
 40
0.8453144565
 40
0.8473462367
 40
0.8493781068
 40
0.8534405302
 40
0.85750243
 40
0.8615643298
 40
0.8656267531
 40
0.8676586232
 40
0.8696904034
 40
0.8717220405
 40
0.8737535548
 40
0.8778154547
 40
0.881877878
 40
0.8859403014
 40
0.8900022012
 40
0.894064101
 40
0.8981265243
 40
0.9001583944
 40
0.9021901746
 40
0.9042218116
 40
0.906253326
 40
0.9103152259
 40
0.9143776493
 40
0.9184400727
 40
0.9225019724
 40
0.9245334867
 40
0.9265651236
 40
0.9285969037
 40
0.9306287738
 40
0.9346911971
 40
0.9387530972
 40
0.9428149973
 40
0.9468774209
 40
0.9509398442
 40
0.9550017439
 40
0.9590636439
 40
0.9631260677
 40
0.967188491
 40
0.9712503886
 40
0.9753122827
 40
0.9793747
 40
0.9834371238
 40
0.9874990401
 40
0.9906239828
 40
0.9937492558
 40
0.9968747091
 40
1.0
 40
1.0
 40
1.0
 40
1.0
 10
28.5174206971
 20
38.6545206886
 30
0.0
 10
28.2375690016
 20
38.8729271252
 30
0.0
 10
27.6612864067
 20
39.2884957745
 30
0.0
 10
26.7523174227
 20
39.8448715975
 30
0.0
 10
25.8039703338
 20
40.3310559776
 30
0.0
 10
24.7233335253
 20
40.7850064282
 30
0.0
 10
23.5043662341
 20
41.1743678532
 30
0.0
 10
22.1488893449
 20
41.4641155724
 30
0.0
 10
20.771529649
 20
41.619772797
 30
0.0
 10
19.3855375346
 20
41.6391244825
 30
0.0
 10
18.0045403622
 20
41.5199485852
 30
0.0
 10
16.6419824281
 20
41.265449964
 30
0.0
 10
15.3108855126
 20
40.8787772449
 30
0.0
 10
14.0242946453
 20
40.362984659
 30
0.0
 10
12.795655992
 20
39.7212649305
 30
0.0
 10
11.6361397928
 20
38.9617522669
 30
0.0
 10
10.5565546095
 20
38.0923728143
 30
0.0
 10
9.567751025
 20
37.1209490394
 30
0.0
 10
8.6809516744
 20
36.0556805721
 30
0.0
 10
8.0327653182
 20
35.0993057586
 30
0.0
 10
7.5724362746
 20
34.299191933
 30
0.0
 10
7.2570033254
 20
33.6827506768
 30
0.0
 10
6.9723610965
 20
33.0515426013
 30
0.0
 10
6.6351329723
 20
32.1923725178
 30
0.0
 10
6.2948252445
 20
31.0882820828
 30
0.0
 10
6.0189200306
 20
29.7299364452
 30
0.0
 10
5.8772986228
 20
28.3511072374
 30
0.0
 10
5.8729547694
 20
27.1957690829
 30
0.0
 10
5.9386922182
 20
26.275130878
 30
0.0
 10
6.0222001828
 20
25.5877653993
 30
0.0
 10
6.1395011524
 20
24.9053151945
 30
0.0
 10
6.3403482413
 20
24.004346004
 30
0.0
 10
6.6739211679
 20
22.8982144996
 30
0.0
 10
7.2027907867
 20
21.6170004988
 30
0.0
 10
7.8570010775
 20
20.3949549268
 30
0.0
 10
8.6283019138
 20
19.2432353248
 30
0.0
 10
9.5086022053
 20
18.1725990798
 30
0.0
 10
10.3266479308
 20
17.3567355445
 30
0.0
 10
11.027192362
 20
16.7557922253
 30
0.0
 10
11.5744512716
 20
16.3315839103
 30
0.0
 10
12.1419899136
 20
15.9348503042
 30
0.0
 10
12.9236049889
 20
15.4437661505
 30
0.0
 10
13.944397324
 20
14.9026804699
 30
0.0
 10
15.2270277388
 20
14.3772206923
 30
0.0
 10
16.5557201798
 20
13.9824737438
 30
0.0
 10
17.6902173625
 20
13.7640547548
 30
0.0
 10
18.6070299422
 20
13.6566282481
 30
0.0
 10
19.2979096523
 20
13.6099065442
 30
0.0
 10
19.9902145491
 20
13.5973036385
 30
0.0
 10
20.9127413978
 20
13.6262915394
 30
0.0
 10
22.0615473117
 20
13.7490517253
 30
0.0
 10
23.4185938341
 20
14.0312773533
 30
0.0
 10
24.7414986526
 20
14.4449794355
 30
0.0
 10
25.8048856303
 20
14.8966798009
 30
0.0
 10
26.624958348
 20
15.3202088249
 30
0.0
 10
27.2236609083
 20
15.6680595401
 30
0.0
 10
27.8045179408
 20
16.0450249302
 30
0.0
 10
28.5532258762
 20
16.5849522087
 30
0.0
 10
29.4381132638
 20
17.3277658619
 30
0.0
 10
30.4068594965
 20
18.3190998824
 30
0.0
 10
31.2717968881
 20
19.4022756771
 30
0.0
 10
32.0259264908
 20
20.5653111734
 30
0.0
 10
32.6625543439
 20
21.796528273
 30
0.0
 10
33.0896188191
 20
22.8700496042
 30
0.0
 10
33.3655321134
 20
23.7508260943
 30
0.0
 10
33.5394978498
 20
24.4210357114
 30
0.0
 10
33.6802174858
 20
25.0990443014
 30
0.0
 10
33.8232018778
 20
26.0109879597
 30
0.0
 10
33.9177970808
 20
27.1624402831
 30
0.0
 10
33.8947581987
 20
28.5483399799
 30
0.0
 10
33.7334355864
 20
29.9250112448
 30
0.0
 10
33.4866752064
 20
31.0536830426
 30
0.0
 10
33.2237804605
 20
31.9385401572
 30
0.0
 10
32.9942154601
 20
32.5918376407
 30
0.0
 10
32.7327355818
 20
33.232987527
 30
0.0
 10
32.3422318485
 20
34.0692906533
 30
0.0
 10
31.7763083546
 20
35.0765422058
 30
0.0
 10
30.981712541
 20
36.212255225
 30
0.0
 10
30.0797654851
 20
37.2647370919
 30
0.0
 10
29.2452605418
 20
38.0637531017
 30
0.0
 10
28.5326118275
 20
38.6502920232
 30
0.0
 10
27.9768196084
 20
39.0632567736
 30
0.0
 10
27.4013117605
 20
39.4483392512
 30
0.0
 10
26.6098492406
 20
39.9233888467
 30
0.0
 10
25.5782362346
 20
40.4435546068
 30
0.0
 10
24.2851748028
 20
40.9427585101
 30
0.0
 10
22.9486619125
 20
41.3103449458
 30
0.0
 10
21.582468784
 20
41.5446083848
 30
0.0
 10
20.1999670125
 20
41.6440036646
 30
0.0
 10
19.0450330874
 20
41.6130239465
 30
0.0
 10
18.1268354952
 20
41.5191700535
 30
0.0
 10
17.4423443708
 20
41.4146860403
 30
0.0
 10
16.763799575
 20
41.2765751278
 30
0.0
 10
15.8693918014
 20
41.0482759671
 30
0.0
 10
14.7739783972
 20
40.6810428267
 30
0.0
 10
13.5095221175
 20
40.1132408573
 30
0.0
 10
12.3080884105
 20
39.4220058724
 30
0.0
 10
11.3682472226
 20
38.7500763718
 30
0.0
 10
10.6588181714
 20
38.1594866817
 30
0.0
 10
10.1490299459
 20
37.6908571303
 30
0.0
 10
9.6629924645
 20
37.1976913669
 30
0.0
 10
9.0485130128
 20
36.5089888999
 30
0.0
 10
8.346133712
 20
35.5916621265
 30
0.0
 10
7.6159010995
 20
34.413533568
 30
0.0
 10
7.0044938133
 20
33.1695851357
 30
0.0
 10
6.599402912
 20
32.0875840054
 30
0.0
 10
6.341500444
 20
31.2013659659
 30
0.0
 10
6.1812324789
 20
30.5277495653
 30
0.0
 10
6.0543626411
 20
29.8470133155
 30
0.0
 10
5.9299969286
 20
28.9323449558
 30
0.0
 10
5.858893569
 20
27.779200505
 30
0.0
 10
5.9101739686
 20
26.3940713688
 30
0.0
 10
6.0995397284
 20
25.020926401
 30
0.0
 10
6.4231264211
 20
23.6730930746
 30
0.0
 10
6.8770798748
 20
22.3634683835
 30
0.0
 10
7.3610806694
 20
21.3143852861
 30
0.0
 10
7.8094840816
 20
20.5076450854
 30
0.0
 10
8.1754765863
 20
19.9198572879
 30
0.0
 10
8.5700244527
 20
19.3507969702
 30
0.0
 10
9.1325902587
 20
18.6189462435
 30
0.0
 10
9.902107787
 20
17.7571843975
 30
0.0
 10
10.9226082351
 20
16.8191931422
 30
0.0
 10
12.0316772947
 20
15.9877999874
 30
0.0
 10
13.0198278501
 20
15.3891772413
 30
0.0
 10
13.8423530267
 20
14.9702045756
 30
0.0
 10
14.4740625456
 20
14.6865837458
 30
0.0
 10
15.1189512574
 20
14.4344658115
 30
0.0
 10
15.994184788
 20
14.1414430281
 30
0.0
 10
17.1141775436
 20
13.85782124
 30
0.0
 10
18.4848145986
 20
13.6514704896
 30
0.0
 10
19.8690679857
 20
13.5802726507
 30
0.0
 10
21.0231273583
 20
13.6347891506
 30
0.0
 10
21.9392214615
 20
13.7473399861
 30
0.0
 10
22.6214404602
 20
13.8657549921
 30
0.0
 10
23.2970291011
 20
14.017668737
 30
0.0
 10
24.1865970441
 20
14.2641518265
 30
0.0
 10
25.274299667
 20
14.653639716
 30
0.0
 10
26.5269087491
 20
15.2470897063
 30
0.0
 10
27.7140411741
 20
15.9627034981
 30
0.0
 10
28.8249741609
 20
16.7916732938
 30
0.0
 10
29.849376463
 20
17.7253705109
 30
0.0
 10
30.6225081873
 20
18.5839154727
 30
0.0
 10
31.1869844394
 20
19.3141633295
 30
0.0
 10
31.5827637571
 20
19.8823215293
 30
0.0
 10
31.950070957
 20
20.4693335266
 30
0.0
 10
32.4007008169
 20
21.274950372
 30
0.0
 10
32.8890832219
 20
22.3219810937
 30
0.0
 10
33.3485215732
 20
23.6297139258
 30
0.0
 10
33.675070336
 20
24.9767902655
 30
0.0
 10
33.8354126881
 20
26.1209410577
 30
0.0
 10
33.8959958528
 20
27.0420357614
 30
0.0
 10
33.9074624199
 20
27.7343985133
 30
0.0
 10
33.8847818272
 20
28.4264466371
 30
0.0
 10
33.8088368424
 20
29.3462986277
 30
0.0
 10
33.6277123141
 20
30.4873623786
 30
0.0
 10
33.2767303769
 20
31.8282575342
 30
0.0
 10
32.796147443
 20
33.1284161677
 30
0.0
 10
32.1899462752
 20
34.3749595684
 30
0.0
 10
31.4622737005
 20
35.5547234981
 30
0.0
 10
30.6220226719
 20
36.6571529232
 30
0.0
 10
29.6779329733
 20
37.6719843278
 30
0.0
 10
28.8115523591
 20
38.4363253575
 30
0.0
 10
28.0755889939
 20
38.993329173
 30
0.0
 10
27.5034263065
 20
39.3832969589
 30
0.0
 10
26.9127010065
 20
39.7446019304
 30
0.0
 10
26.1025329433
 20
40.1869970956
 30
0.0
 10
25.0505787498
 20
40.6646822221
 30
0.0
 10
23.7382310015
 20
41.1107675803
 30
0.0
 10
22.3878962729
 20
41.4235692424
 30
0.0
 10
21.2421706169
 20
41.5722414553
 30
0.0
 10
20.3205062635
 20
41.6234331728
 30
0.0
 10
19.6280626019
 20
41.6278422038
 30
0.0
 10
18.9362816044
 20
41.5981090608
 30
0.0
 10
18.0172514453
 20
41.5127923665
 30
0.0
 10
16.8780932649
 20
41.3200470568
 30
0.0
 10
15.5408444283
 20
40.9554155735
 30
0.0
 10
14.2456544186
 20
40.4616080582
 30
0.0
 10
13.0053443478
 20
39.842724045
 30
0.0
 10
11.8330964388
 20
39.1030976235
 30
0.0
 10
10.9214207267
 20
38.3934179718
 30
0.0
 10
10.2366538313
 20
37.7744031598
 30
0.0
 10
9.746390318
 20
37.2853842592
 30
0.0
 10
9.2808580021
 20
36.7728176404
 30
0.0
 10
8.6949604214
 20
36.0596415602
 30
0.0
 10
8.0305546833
 20
35.1144484056
 30
0.0
 10
7.3489489511
 20
33.9075349051
 30
0.0
 10
6.7887525918
 20
32.6396995026
 30
0.0
 10
6.4281002592
 20
31.542086189
 30
0.0
 10
6.2065340004
 20
30.6460926188
 30
0.0
 10
6.0738555613
 20
29.9665035259
 30
0.0
 10
5.9748376613
 20
29.2811618981
 30
0.0
 10
5.8878569538
 20
28.3621841414
 30
0.0
 10
5.8638133101
 20
27.2071029255
 30
0.0
 10
5.9715128482
 20
25.8252022176
 30
0.0
 10
6.2166735746
 20
24.4609643433
 30
0.0
 10
6.5319550554
 20
23.349484117
 30
0.0
 10
6.8484392284
 20
22.4823488678
 30
0.0
 10
7.1175034273
 20
21.84430332
 30
0.0
 10
7.4176804881
 20
21.2203331761
 30
0.0
 10
7.858567205
 20
20.4094606372
 30
0.0
 10
8.4849967658
 20
19.4386784166
 30
0.0
 10
9.3475090403
 20
18.3536608379
 30
0.0
 10
10.3121359362
 20
17.3582423455
 30
0.0
 10
11.3700533301
 20
16.4625876792
 30
0.0
 10
12.5120791281
 20
15.6771009001
 30
0.0
 10
13.5238102753
 20
15.119249757
 30
0.0
 10
14.3627287951
 20
14.7341513854
 30
0.0
 10
15.0054736793
 20
14.4765144095
 30
0.0
 10
15.6601026875
 20
14.2508914109
 30
0.0
 10
16.5465523791
 20
13.9937862949
 30
0.0
 10
17.6771747082
 20
13.7560506575
 30
0.0
 10
19.0550835141
 20
13.6057380015
 30
0.0
 10
20.4410885562
 20
13.5910209387
 30
0.0
 10
21.5919668174
 20
13.6925311317
 30
0.0
 10
22.5027120979
 20
13.8423280569
 30
0.0
 10
23.1795376297
 20
13.9884516449
 30
0.0
 10
23.8483728376
 20
14.1677758092
 30
0.0
 10
24.7271553002
 20
14.4503127875
 30
0.0
 10
25.7980762331
 20
14.8838091172
 30
0.0
 10
27.0254656065
 20
15.5278309201
 30
0.0
 10
28.1824062212
 20
16.2912031582
 30
0.0
 10
29.0794232704
 20
17.0193179287
 30
0.0
 10
29.7514302778
 20
17.6521625812
 30
0.0
 10
30.2316236612
 20
18.1510733734
 30
0.0
 10
30.6866111168
 20
18.6730230105
 30
0.0
 10
31.2578494525
 20
19.3979934481
 30
0.0
 10
31.9028510372
 20
20.3565366501
 30
0.0
 10
32.55971032
 20
21.577080157
 30
0.0
 10
33.0939580419
 20
22.8561197948
 30
0.0
 10
33.4997339676
 20
24.1815376126
 30
0.0
 10
33.7710991343
 20
25.5407923164
 30
0.0
 10
33.8846745478
 20
26.6905307377
 30
0.0
 10
33.9076637338
 20
27.6133289475
 30
0.0
 10
33.8909003699
 20
28.3055838046
 30
0.0
 10
33.8400310623
 20
28.9961322746
 30
0.0
 10
33.726656148
 20
29.9121247556
 30
0.0
 10
33.4991747272
 20
31.0448547709
 30
0.0
 10
33.0938222961
 20
32.370341843
 30
0.0
 10
32.5606738067
 20
33.649786745
 30
0.0
 10
32.0134601648
 20
34.6673241258
 30
0.0
 10
31.516588445
 20
35.4451509566
 30
0.0
 10
31.1153556167
 20
36.0094710085
 30
0.0
 10
30.6867653861
 20
36.5533534457
 30
0.0
 10
30.0805218633
 20
37.2494529729
 30
0.0
 10
29.2597735692
 20
38.0625722446
 30
0.0
 10
28.1838525544
 20
38.9364387828
 30
0.0
 10
27.0260435888
 20
39.6984933471
 30
0.0
 10
26.0031535928
 20
40.2356029835
 30
0.0
 10
25.1565592271
 20
40.6035211161
 30
0.0
 10
24.5086962893
 20
40.8480027676
 30
0.0
 10
23.8496040907
 20
41.0602349094
 30
0.0
 10
22.9580981677
 20
41.2992172537
 30
0.0
 10
21.8228615402
 20
41.5138562855
 30
0.0
 10
20.4421882985
 20
41.6360527234
 30
0.0
 10
19.0561221026
 20
41.6225056228
 30
0.0
 10
17.6781099005
 20
41.4726094438
 30
0.0
 10
16.3220187145
 20
41.1858532777
 30
0.0
 10
15.2206940309
 20
40.8367376046
 30
0.0
 10
14.3636405785
 20
40.4938900898
 30
0.0
 10
13.7341194107
 20
40.2054444333
 30
0.0
 10
13.1196184638
 20
39.8863308764
 30
0.0
 10
12.3226041456
 20
39.4208587795
 30
0.0
 10
11.3714296771
 20
38.7650446177
 30
0.0
 10
10.3132816073
 20
37.8697517973
 30
0.0
 10
9.3478487396
 20
36.875183576
 30
0.0
 10
8.6286378955
 20
35.9709928589
 30
0.0
 10
8.1098479967
 20
35.2076101726
 30
0.0
 10
7.7495334679
 20
34.6163248406
 30
0.0
 10
7.4187900465
 20
34.0079610674
 30
0.0
 10
7.0182404998
 20
33.1763086031
 30
0.0
 10
6.5947637624
 20
32.1013862036
 30
0.0
 10
6.2161106224
 20
30.7680180789
 30
0.0
 10
5.972503242
 20
29.403501973
 30
0.0
 10
5.882389107
 20
28.2516902924
 30
0.0
 10
5.878214871
 20
27.3286148091
 30
0.0
 10
5.909085722
 20
26.6368455884
 30
0.0
 10
5.9740206611
 20
25.9474774267
 30
0.0
 10
6.1060434098
 20
25.0339866676
 30
0.0
 10
6.3565689568
 20
23.906126274
 30
0.0
 10
6.7888485527
 20
22.5891885673
 30
0.0
 10
7.34799392
 20
21.3208355092
 30
0.0
 10
8.0292577193
 20
20.1136627294
 30
0.0
 10
8.8276399659
 20
18.9806145495
 30
0.0
 10
9.5828403722
 20
18.1062747137
 30
0.0
 10
10.2359345678
 20
17.4539304739
 30
0.0
 10
10.7492933309
 20
16.9892148837
 30
0.0
 10
11.2849093946
 20
16.5503979357
 30
0.0
 10
12.0270060538
 20
16.0015913533
 30
0.0
 10
13.004817874
 20
15.3861978495
 30
0.0
 10
14.2448864237
 20
14.7669591238
 30
0.0
 10
15.5396129845
 20
14.2720756111
 30
0.0
 10
16.6541733702
 20
13.9678056899
 30
0.0
 10
17.5602905294
 20
13.7921704602
 30
0.0
 10
18.2457560675
 20
13.6942836428
 30
0.0
 10
18.9352520608
 20
13.6303067478
 30
0.0
 10
19.8574671434
 20
13.5902529875
 30
0.0
 10
21.0122767234
 20
13.6250835778
 30
0.0
 10
22.3868834924
 20
13.8030336453
 30
0.0
 10
23.7369111686
 20
14.1173932366
 30
0.0
 10
25.049423187
 20
14.5630803491
 30
0.0
 10
26.3120007873
 20
15.1351250199
 30
0.0
 10
27.5121601863
 20
15.8286483198
 30
0.0
 10
28.6370481311
 20
16.6385774296
 30
0.0
 10
29.6767640999
 20
17.5552701232
 30
0.0
 10
30.6217394437
 20
18.5693486564
 30
0.0
 10
31.4623382705
 20
19.671505495
 30
0.0
 10
32.1886508145
 20
20.8521064934
 30
0.0
 10
32.7952513044
 20
22.0984550599
 30
0.0
 10
33.276910051
 20
23.3981766417
 30
0.0
 10
33.6013168128
 20
24.6360156197
 30
0.0
 10
33.7970680519
 20
25.7916674466
 30
0.0
 10
33.894718746
 20
26.8528957752
 30
0.0
 10
33.9120047346
 20
27.9184865201
 30
0.0
 10
33.8699157939
 20
28.6277319843
 30
0.0
 10
33.8354609424
 20
28.9810471749
 30
0.0
  0
SPLINE
  5
2AB
100
AcDbEntity
  8
0
100
AcDbSpline
 62
7
  6
BYLAYER
 70
0
 71
3
 72
319
 73
315
 74
0
 42
0.0000001
 43
0.0000001
 44
0.0000000001
 40
0.0
 40
0.0
 40
0.0
 40
0.0
 40
0.0031252857
 40
0.0062507338
 40
0.0093760017
 40
0.0125009392
 40
0.0165628555
 40
0.0206252793
 40
0.0246876966
 40
0.0287495907
 40
0.0328114883
 40
0.0368739116
 40
0.0409363354
 40
0.0449982354
 40
0.0490601351
 40
0.0531225584
 40
0.057184982
 40
0.0612468821
 40
0.0653087821
 40
0.0693712055
 40
0.0714030756
 40
0.0734348556
 40
0.0754664926
 40
0.0774980069
 40
0.0815599066
 40
0.08562233
 40
0.0896847534
 40
0.0937466532
 40
0.0957781676
 40
0.0978098047
 40
0.0998415849
 40
0.101873455
 40
0.1059358783
 40
0.1099977781
 40
0.1140596779
 40
0.1181221013
 40
0.1221845246
 40
0.1262464244
 40
0.1282779388
 40
0.1303095759
 40
0.132341356
 40
0.1343732262
 40
0.1384356495
 40
0.1424975493
 40
0.1465594491
 40
0.1506218725
 40
0.1526537426
 40
0.1546855228
 40
0.1567171598
 40
0.1587486742
 40
0.162810574
 40
0.1668729974
 40
0.1709354207
 40
0.1749973205
 40
0.1770288349
 40
0.179060472
 40
0.1810922521
 40
0.1831241222
 40
0.1871865456
 40
0.1912484454
 40
0.1953103452
 40
0.1993727686
 40
0.2034351919
 40
0.2074970917
 40
0.2095286061
 40
0.2115602432
 40
0.2135920233
 40
0.2156238934
 40
0.2196863168
 40
0.2237482166
 40
0.2278101164
 40
0.2318725398
 40
0.2339044099
 40
0.23593619
 40
0.2379678271
 40
0.2399993415
 40
0.2440612413
 40
0.2481236646
 40
0.252186088
 40
0.2562479878
 40
0.2582795022
 40
0.2603111392
 40
0.2623429194
 40
0.2643747895
 40
0.2684372129
 40
0.2724991127
 40
0.2765610125
 40
0.2806234358
 40
0.2846858592
 40
0.288747759
 40
0.2907792734
 40
0.2928109104
 40
0.2948426906
 40
0.2968745607
 40
0.3009369841
 40
0.3049988839
 40
0.3090607837
 40
0.313123207
 40
0.3151550772
 40
0.3171868573
 40
0.3192184944
 40
0.3212500088
 40
0.3253119086
 40
0.3293743319
 40
0.3334367553
 40
0.3374986551
 40
0.3395301695
 40
0.3415618065
 40
0.3435935867
 40
0.3456254568
 40
0.3496878801
 40
0.35374978
 40
0.3578116798
 40
0.3618741031
 40
0.3659365265
 40
0.3699984263
 40
0.3720299407
 40
0.3740615777
 40
0.3760933579
 40
0.378125228
 40
0.3821876513
 40
0.3862495512
 40
0.390311451
 40
0.3943738743
 40
0.3964057444
 40
0.3984375246
 40
0.4004691617
 40
0.402500676
 40
0.4065625759
 40
0.4106249992
 40
0.4146874225
 40
0.4187493224
 40
0.4207808367
 40
0.4228124738
 40
0.424844254
 40
0.4268761241
 40
0.4309385474
 40
0.4350004472
 40
0.4390623471
 40
0.4431247704
 40
0.4471871938
 40
0.4512490936
 40
0.4532806079
 40
0.455312245
 40
0.4573440252
 40
0.4593758953
 40
0.4634383186
 40
0.4675002184
 40
0.4715621183
 40
0.4756245416
 40
0.4776564117
 40
0.4796881919
 40
0.4817198289
 40
0.4837513433
 40
0.4878132431
 40
0.4918756665
 40
0.4959380898
 40
0.4999999896
 40
0.5040618895
 40
0.5081243128
 40
0.5121867362
 40
0.516248636
 40
0.5182801503
 40
0.5203117874
 40
0.5223435676
 40
0.5243754377
 40
0.528437861
 40
0.5324997608
 40
0.5365616607
 40
0.540624084
 40
0.5426559541
 40
0.5446877343
 40
0.5467193713
 40
0.5487508857
 40
0.5528127855
 40
0.5568752089
 40
0.5609376322
 40
0.564999532
 40
0.5690614319
 40
0.5731238552
 40
0.5751557253
 40
0.5771875055
 40
0.5792191425
 40
0.5812506569
 40
0.5853125567
 40
0.5893749801
 40
0.5934374034
 40
0.5974993032
 40
0.5995308176
 40
0.6015624547
 40
0.6035942348
 40
0.605626105
 40
0.6096885283
 40
0.6137504281
 40
0.6178123279
 40
0.6218747513
 40
0.6239066214
 40
0.6259384016
 40
0.6279700386
 40
0.630001553
 40
0.6340634528
 40
0.6381258762
 40
0.6421882995
 40
0.6462501993
 40
0.6503120991
 40
0.6543745225
 40
0.6564063926
 40
0.6584381728
 40
0.6604698098
 40
0.6625013242
 40
0.666563224
 40
0.6706256474
 40
0.6746880707
 40
0.6787499705
 40
0.6807814849
 40
0.682813122
 40
0.6848449021
 40
0.6868767722
 40
0.6909391956
 40
0.6950010954
 40
0.6990629952
 40
0.7031254186
 40
0.7051572887
 40
0.7071890688
 40
0.7092207059
 40
0.7112522203
 40
0.7153141201
 40
0.7193765434
 40
0.7234389668
 40
0.7275008666
 40
0.7315627664
 40
0.7356251898
 40
0.7376570599
 40
0.73968884
 40
0.7417204771
 40
0.7437519915
 40
0.7478138913
 40
0.7518763146
 40
0.755938738
 40
0.7600006378
 40
0.7620321522
 40
0.7640637892
 40
0.7660955694
 40
0.7681274395
 40
0.7721898629
 40
0.7762517627
 40
0.7803136625
 40
0.7843760858
 40
0.786407956
 40
0.7884397361
 40
0.7904713732
 40
0.7925028876
 40
0.7965647874
 40
0.8006272107
 40
0.8046896341
 40
0.8087515339
 40
0.8128134337
 40
0.816875857
 40
0.8189077272
 40
0.8209395073
 40
0.8229711444
 40
0.8250026588
 40
0.8290645586
 40
0.8331269819
 40
0.8371894053
 40
0.8412513051
 40
0.8432828195
 40
0.8453144565
 40
0.8473462367
 40
0.8493781068
 40
0.8534405302
 40
0.85750243
 40
0.8615643298
 40
0.8656267531
 40
0.8676586232
 40
0.8696904034
 40
0.8717220405
 40
0.8737535548
 40
0.8778154547
 40
0.881877878
 40
0.8859403014
 40
0.8900022012
 40
0.894064101
 40
0.8981265243
 40
0.9001583944
 40
0.9021901746
 40
0.9042218116
 40
0.906253326
 40
0.9103152259
 40
0.9143776493
 40
0.9184400727
 40
0.9225019724
 40
0.9245334867
 40
0.9265651236
 40
0.9285969037
 40
0.9306287738
 40
0.9346911971
 40
0.9387530972
 40
0.9428149973
 40
0.9468774209
 40
0.9509398442
 40
0.9550017439
 40
0.9590636439
 40
0.9631260677
 40
0.967188491
 40
0.9712503886
 40
0.9753122827
 40
0.9793747
 40
0.9834371238
 40
0.9874990401
 40
0.9906239828
 40
0.9937492558
 40
0.9968747091
 40
1.0
 40
1.0
 40
1.0
 40
1.0
 10
17.8447387462
 20
41.4743620917
 30
0.0
 10
17.4935837519
 20
41.4223187156
 30
0.0
 10
16.7952248894
 20
41.2915753384
 30
0.0
 10
15.765470398
 20
41.0170132185
 30
0.0
 10
14.7593906637
 20
40.6655291923
 30
0.0
 10
13.6854242581
 20
40.1960155257
 30
0.0
 10
12.562836003
 20
39.5817849617
 30
0.0
 10
11.4182455039
 20
38.8000024296
 30
0.0
 10
10.3556687568
 20
37.9099015589
 30
0.0
 10
9.3858475611
 20
36.91955037
 30
0.0
 10
8.5197887525
 20
35.8372850492
 30
0.0
 10
7.764442912
 20
34.6750517107
 30
0.0
 10
7.1265099672
 20
33.4444517155
 30
0.0
 10
6.6127742374
 20
32.1570381645
 30
0.0
 10
6.2301963802
 20
30.8247501575
 30
0.0
 10
5.9805890473
 20
29.4612863766
 30
0.0
 10
5.8656661423
 20
28.0799401034
 30
0.0
 10
5.8872456288
 20
26.6939635506
 30
0.0
 10
6.0471289141
 20
25.3171384598
 30
0.0
 10
6.2927066639
 20
24.1882053771
 30
0.0
 10
6.5546746773
 20
23.3030739054
 30
0.0
 10
6.7835553627
 20
22.6495363016
 30
0.0
 10
7.0443636457
 20
22.0081129838
 30
0.0
 10
7.4339913392
 20
21.1714013844
 30
0.0
 10
7.9988597047
 20
20.1635577617
 30
0.0
 10
8.7922657659
 20
19.0270132705
 30
0.0
 10
9.6931101892
 20
17.9735874628
 30
0.0
 10
10.526777965
 20
17.1736979955
 30
0.0
 10
11.238812077
 20
16.5864131073
 30
0.0
 10
11.7941715397
 20
16.1728665577
 30
0.0
 10
12.369275816
 20
15.7871816203
 30
0.0
 10
13.1602404296
 20
15.3113034685
 30
0.0
 10
14.1913081495
 20
14.7900576923
 30
0.0
 10
15.4838461026
 20
14.289499974
 30
0.0
 10
16.8199733215
 20
13.9205141483
 30
0.0
 10
18.1859203803
 20
13.6848201641
 30
0.0
 10
19.5683173082
 20
13.5839771861
 30
0.0
 10
20.7232830432
 20
13.6137474429
 30
0.0
 10
21.6415784163
 20
13.70663975
 30
0.0
 10
22.326178581
 20
13.8104069086
 30
0.0
 10
23.0048676342
 20
13.947807175
 30
0.0
 10
23.8995139916
 20
14.1751695891
 30
0.0
 10
24.9953113604
 20
14.5412554143
 30
0.0
 10
26.2603615472
 20
15.1077329373
 30
0.0
 10
27.4625184546
 20
15.797709405
 30
0.0
 10
28.40306277
 20
16.468654338
 30
0.0
 10
29.1131098962
 20
17.058500792
 30
0.0
 10
29.6233885899
 20
17.5265962375
 30
0.0
 10
30.1099422467
 20
18.0192527533
 30
0.0
 10
30.725142569
 20
18.7073113614
 30
0.0
 10
31.4284821068
 20
19.623902102
 30
0.0
 10
32.159948052
 20
20.8012653169
 30
0.0
 10
32.7726576625
 20
22.0445728031
 30
0.0
 10
33.1788814104
 20
23.12614913
 30
0.0
 10
33.4377117821
 20
24.0120966088
 30
0.0
 10
33.5986850687
 20
24.6855448079
 30
0.0
 10
33.7262677022
 20
25.3661478267
 30
0.0
 10
33.8515911847
 20
26.2806854494
 30
0.0
 10
33.9239020752
 20
27.4337548086
 30
0.0
 10
33.8740722073
 20
28.8189368861
 30
0.0
 10
33.6861445051
 20
30.1922794043
 30
0.0
 10
33.3639694373
 20
31.5404508507
 30
0.0
 10
32.9113876681
 20
32.8505502026
 30
0.0
 10
32.4284857359
 20
33.9001395692
 30
0.0
 10
31.9809273858
 20
34.7073488944
 30
0.0
 10
31.6155506115
 20
35.2955196359
 30
0.0
 10
31.22159888
 20
35.8649928111
 30
0.0
 10
30.6597997746
 20
36.597432254
 30
0.0
 10
29.8911851029
 20
37.4599994642
 30
0.0
 10
28.8716674764
 20
38.3990588706
 30
0.0
 10
27.7634696576
 20
39.2316129837
 30
0.0
 10
26.7759465202
 20
39.8312701902
 30
0.0
 10
25.9538605416
 20
40.2511039723
 30
0.0
 10
25.3224483762
 20
40.5353861711
 30
0.0
 10
24.6778240352
 20
40.788179293
 30
0.0
 10
23.8028978371
 20
41.082118458
 30
0.0
 10
22.6832027036
 20
41.366912944
 30
0.0
 10
21.3127824901
 20
41.5746989088
 30
0.0
 10
19.9286044202
 20
41.6473462952
 30
0.0
 10
18.7744885909
 20
41.5940383531
 30
0.0
 10
17.8582771271
 20
41.4824469106
 30
0.0
 10
17.1759344985
 20
41.3647463874
 30
0.0
 10
16.5001871444
 20
41.2135402005
 30
0.0
 10
15.6103615727
 20
40.9679887994
 30
0.0
 10
14.5222516755
 20
40.5796401628
 30
0.0
 10
13.269021821
 20
39.9875022268
 30
0.0
 10
12.081140658
 20
39.2731319893
 30
0.0
 10
10.9693401853
 20
38.4453260142
 30
0.0
 10
9.9439606797
 20
37.5127020605
 30
0.0
 10
9.1699303133
 20
36.654967191
 30
0.0
 10
8.6046896571
 20
35.9253108526
 30
0.0
 10
8.2083155826
 20
35.3575674234
 30
0.0
 10
7.8403938667
 20
34.7709403911
 30
0.0
 10
7.3889206141
 20
33.9657958858
 30
0.0
 10
6.899442029
 20
32.9192771711
 30
0.0
 10
6.4386344754
 20
31.6120261782
 30
0.0
 10
6.1106752362
 20
30.2652925393
 30
0.0
 10
5.9491348223
 20
29.1213102812
 30
0.0
 10
5.8875871189
 20
28.200279532
 30
0.0
 10
5.87539553
 20
27.5079291464
 30
0.0
 10
5.8973513527
 20
26.8158577301
 30
0.0
 10
5.9723332611
 20
25.8959263206
 30
0.0
 10
6.1522610052
 20
24.754676524
 30
0.0
 10
6.5018458754
 20
23.4134021347
 30
0.0
 10
6.9810399134
 20
22.1127870319
 30
0.0
 10
7.4852360834
 20
21.073262474
 30
0.0
 10
7.9491556684
 20
20.2753434837
 30
0.0
 10
8.3264457902
 20
19.6947428982
 30
0.0
 10
8.7319239077
 20
19.1334183096
 30
0.0
 10
9.3085359704
 20
18.4125829832
 30
0.0
 10
10.0945764674
 20
17.5658609809
 30
0.0
 10
11.1330119781
 20
16.6477846804
 30
0.0
 10
12.2579952543
 20
15.837970429
 30
0.0
 10
13.4572099306
 20
15.142810603
 30
0.0
 10
14.7186584545
 20
14.5684081386
 30
0.0
 10
15.8121513211
 20
14.195439688
 30
0.0
 10
16.7055976306
 20
13.9638170126
 30
0.0
 10
17.3836525981
 20
13.8235085334
 30
0.0
 10
18.0678379872
 20
13.7167938795
 30
0.0
 10
18.9857800647
 20
13.6194896422
 30
0.0
 10
20.1405180716
 20
13.582464772
 30
0.0
 10
21.5235419984
 20
13.6746253795
 30
0.0
 10
22.8904492257
 20
13.9044370169
 30
0.0
 10
24.0054029092
 20
14.2072058989
 30
0.0
 10
24.8760405614
 20
14.5139237486
 30
0.0
 10
25.5170700158
 20
14.7757995395
 30
0.0
 10
26.1443745889
 20
15.0689443435
 30
0.0
 10
26.9601515914
 20
15.5006896004
 30
0.0
 10
27.9379114027
 20
16.1161657109
 30
0.0
 10
29.0325629103
 20
16.9664389881
 30
0.0
 10
30.038730571
 20
17.9197769188
 30
0.0
 10
30.7951131538
 20
18.7931098867
 30
0.0
 10
31.3453634031
 20
19.5341367145
 30
0.0
 10
31.7300821425
 20
20.1098418192
 30
0.0
 10
32.0859696133
 20
20.7038467902
 30
0.0
 10
32.5209369346
 20
21.5180264191
 30
0.0
 10
32.9889817512
 20
22.5743085129
 30
0.0
 10
33.4230456707
 20
23.890667475
 30
0.0
 10
33.7234880203
 20
25.2438566296
 30
0.0
 10
33.8892925197
 20
26.6200368109
 30
0.0
 10
33.9195831162
 20
28.0057759817
 30
0.0
 10
33.8310157601
 20
29.1577256064
 30
0.0
 10
33.6914646657
 20
30.0700966185
 30
0.0
 10
33.5529576371
 20
30.7485218622
 30
0.0
 10
33.3811622899
 20
31.4193303466
 30
0.0
 10
33.1085203977
 20
32.3012329325
 30
0.0
 10
32.6870882624
 20
33.3769585763
 30
0.0
 10
32.0569026092
 20
34.6115090215
 30
0.0
 10
31.3065822377
 20
35.7769566176
 30
0.0
 10
30.5885956484
 20
36.6821007845
 30
0.0
 10
29.9633441167
 20
37.3611783169
 30
0.0
 10
29.4698620626
 20
37.8469489672
 30
0.0
 10
28.9530593046
 20
38.3077742316
 30
0.0
 10
28.2345552305
 20
38.8871249206
 30
0.0
 10
27.2833219555
 20
39.5428594971
 30
0.0
 10
26.0702394112
 20
40.2133957597
 30
0.0
 10
24.7972817299
 20
40.7619859255
 30
0.0
 10
23.4765219022
 20
41.1826327887
 30
0.0
 10
22.1203528323
 20
41.4692610486
 30
0.0
 10
20.7425509324
 20
41.6210317743
 30
0.0
 10
19.3565758779
 20
41.6371961501
 30
0.0
 10
18.2055886078
 20
41.5368922002
 30
0.0
 10
17.2946873978
 20
41.3880489572
 30
0.0
 10
16.6177091289
 20
41.2426342454
 30
0.0
 10
15.9486865234
 20
41.0640105749
 30
0.0
 10
15.0696086629
 20
40.7823940124
 30
0.0
 10
13.9982343648
 20
40.3500193849
 30
0.0
 10
12.7701712452
 20
39.7072832544
 30
0.0
 10
11.6124318638
 20
38.9451229799
 30
0.0
 10
10.7146528266
 20
38.2179479626
 30
0.0
 10
10.0419834743
 20
37.5858073811
 30
0.0
 10
9.5612678961
 20
37.0873997196
 30
0.0
 10
9.1057341058
 20
36.5659268304
 30
0.0
 10
8.5337368961
 20
35.8415549896
 30
0.0
 10
7.8877318812
 20
34.8836877571
 30
0.0
 10
7.2295948087
 20
33.6638327807
 30
0.0
 10
6.6940079727
 20
32.3853533071
 30
0.0
 10
6.2868442954
 20
31.0603611435
 30
0.0
 10
6.0140558696
 20
29.7013913579
 30
0.0
 10
5.8992765154
 20
28.5517725029
 30
0.0
 10
5.8753209901
 20
27.6289988733
 30
0.0
 10
5.8913594174
 20
26.9367268412
 30
0.0
 10
5.9415055565
 20
26.2461254796
 30
0.0
 10
6.0539211837
 20
25.330014775
 30
0.0
 10
6.2802162879
 20
24.1970471628
 30
0.0
 10
6.6841804502
 20
22.8711363335
 30
0.0
 10
7.2159888159
 20
21.5911338214
 30
0.0
 10
7.7621365953
 20
20.5730239578
 30
0.0
 10
8.2581935045
 20
19.7946772307
 30
0.0
 10
8.6588351584
 20
19.2299373183
 30
0.0
 10
9.0868556017
 20
18.6856063607
 30
0.0
 10
9.6923698385
 20
17.9888723586
 30
0.0
 10
10.5122661862
 20
17.1748940472
 30
0.0
 10
11.5872715003
 20
16.2999012866
 30
0.0
 10
12.7442818096
 20
15.5366346857
 30
0.0
 10
13.7666087849
 20
14.998454176
 30
0.0
 10
14.6128174035
 20
14.6296496938
 30
0.0
 10
15.2604239655
 20
14.384489736
 30
0.0
 10
15.9192935539
 20
14.171567511
 30
0.0
 10
16.8105487263
 20
13.931651715
 30
0.0
 10
17.9455599619
 20
13.7158239841
 30
0.0
 10
19.3261044828
 20
13.5921817759
 30
0.0
 10
20.7121841052
 20
13.6042773841
 30
0.0
 10
22.0903525226
 20
13.7527304302
 30
0.0
 10
23.4467432553
 20
14.038066344
 30
0.0
 10
24.5484329281
 20
14.3860285214
 30
0.0
 10
25.4058449396
 20
14.727978344
 30
0.0
 10
26.0356678218
 20
15.0157646095
 30
0.0
 10
26.6505026066
 20
15.3342344876
 30
0.0
 10
27.4480039289
 20
15.7988716981
 30
0.0
 10
28.3998646427
 20
16.4536894329
 30
0.0
 10
29.4589496806
 20
17.3478736725
 30
0.0
 10
30.4254235281
 20
18.3414303497
 30
0.0
 10
31.145580844
 20
19.2448674153
 30
0.0
 10
31.6651698707
 20
20.0077064076
 30
0.0
 10
32.0261033944
 20
20.5986140949
 30
0.0
 10
32.3574837115
 20
21.2066311808
 30
0.0
 10
32.7589039429
 20
22.0378637347
 30
0.0
 10
33.183506104
 20
23.1123420811
 30
0.0
 10
33.5635553359
 20
24.4453129503
 30
0.0
 10
33.8085915
 20
25.8095732033
 30
0.0
 10
33.8999117595
 20
26.9612898854
 30
0.0
 10
33.9050526354
 20
27.8843604914
 30
0.0
 10
33.8749062203
 20
28.5761616606
 30
0.0
 10
33.8106932215
 20
29.2655974438
 30
0.0
 10
33.6796271507
 20
30.1792259551
 30
0.0
 10
33.4302828343
 20
31.3073480789
 30
0.0
 10
32.9993825699
 20
32.6247377448
 30
0.0
 10
32.4415657248
 20
33.8936756435
 30
0.0
 10
31.7615664453
 20
35.1015611817
 30
0.0
 10
30.9643711587
 20
36.2354448082
 30
0.0
 10
30.2100867707
 20
37.1105750123
 30
0.0
 10
29.5576760654
 20
37.7636028143
 30
0.0
 10
29.0448042336
 20
38.2288557366
 30
0.0
 10
28.509647994
 20
38.6682333363
 30
0.0
 10
27.7681264573
 20
39.2178167304
 30
0.0
 10
26.79095962
 20
39.8342338427
 30
0.0
 10
25.551540221
 20
40.4547708081
 30
0.0
 10
24.2573326068
 20
40.9510098836
 30
0.0
 10
23.1430914456
 20
41.2564468263
 30
0.0
 10
22.2371586929
 20
41.4330308922
 30
0.0
 10
21.5517959905
 20
41.5316355047
 30
0.0
 10
20.8623674343
 20
41.5963344779
 30
0.0
 10
19.9401943623
 20
41.6373538158
 30
0.0
 10
18.7853522017
 20
41.6037339371
 30
0.0
 10
17.4105464847
 20
41.4272176564
 30
0.0
 10
16.0602403218
 20
41.1142927035
 30
0.0
 10
14.9658757043
 20
40.7439458535
 30
0.0
 10
14.1156117251
 20
40.3845895705
 30
0.0
 10
13.4917860489
 20
40.0840247858
 30
0.0
 10
12.8835706425
 20
39.7530881942
 30
0.0
 10
12.0957064455
 20
39.2722915858
 30
0.0
 10
11.1573895332
 20
38.5982044353
 30
0.0
 10
10.1167590604
 20
37.6826287755
 30
0.0
 10
9.1707111517
 20
36.6695362931
 30
0.0
 10
8.3289576007
 20
35.568247297
 30
0.0
 10
7.6014313623
 20
34.3884515621
 30
0.0
 10
7.0947560834
 20
33.3501462247
 30
0.0
 10
6.7519957955
 20
32.4930578841
 30
0.0
 10
6.526749923
 20
31.8382586061
 30
0.0
 10
6.3340711189
 20
31.173187366
 30
0.0
 10
6.1215162633
 20
30.2750133685
 30
0.0
 10
5.9404899226
 20
29.1339373201
 30
0.0
 10
5.8591162017
 20
27.7502448364
 30
0.0
 10
5.9135731482
 20
26.3652318365
 30
0.0
 10
6.0723807687
 20
25.220851991
 30
0.0
 10
6.2674333764
 20
24.3187153245
 30
0.0
 10
6.4471456349
 20
23.6500237606
 30
0.0
 10
6.6596184336
 20
22.9909691338
 30
0.0
 10
6.9856509511
 20
22.1273786299
 30
0.0
 10
7.4720416717
 20
21.079421198
 30
0.0
 10
8.1765027428
 20
19.885694531
 30
0.0
 10
8.9966505007
 20
18.7682839466
 30
0.0
 10
9.7686156408
 20
17.90871398
 30
0.0
 10
10.434202297
 20
17.2691202221
 30
0.0
 10
10.9564512435
 20
16.8144184494
 30
0.0
 10
11.5004526714
 20
16.3860407479
 30
0.0
 10
12.2530224425
 20
15.8516868272
 30
0.0
 10
13.2425545167
 20
15.2553158089
 30
0.0
 10
14.4943522048
 20
14.660174548
 30
0.0
 10
15.7984553729
 20
14.1904108323
 30
0.0
 10
17.1424687624
 20
13.8512729643
 30
0.0
 10
18.5135703726
 20
13.6480667532
 30
0.0
 10
19.6675436386
 20
13.5919997984
 30
0.0
 10
20.5903395022
 20
13.6150829008
 30
0.0
 10
21.2808956922
 20
13.6663659185
 30
0.0
 10
21.9680458837
 20
13.751627257
 30
0.0
 10
22.8772405276
 20
13.910565031
 30
0.0
 10
23.9972093281
 20
14.1942814498
 30
0.0
 10
25.3008200962
 20
14.6652650722
 30
0.0
 10
26.5520695509
 20
15.2615882736
 30
0.0
 10
27.5410358908
 20
15.8588910585
 30
0.0
 10
28.2931020838
 20
16.3939541214
 30
0.0
 10
28.8366993943
 20
16.8228443138
 30
0.0
 10
29.3585195737
 20
17.2780381935
 30
0.0
 10
30.0235029243
 20
17.9182585506
 30
0.0
 10
30.7946588466
 20
18.7785590096
 30
0.0
 10
31.6137481079
 20
19.8967283966
 30
0.0
 10
32.3171032075
 20
21.0911689698
 30
0.0
 10
32.8994830809
 20
22.3490077844
 30
0.0
 10
33.3559226155
 20
23.6578241404
 30
0.0
 10
33.6813459336
 20
25.005213028
 30
0.0
 10
33.8705627738
 20
26.3783681681
 30
0.0
 10
33.9237281716
 20
27.7634704137
 30
0.0
 10
33.8410344979
 20
29.1471233428
 30
0.0
 10
33.6225769079
 20
30.5159302561
 30
0.0
 10
33.2684982105
 20
31.8560708849
 30
0.0
 10
32.7842512022
 20
33.1548602206
 30
0.0
 10
32.17519069
 20
34.3999773359
 30
0.0
 10
31.5024997762
 20
35.4885415357
 30
0.0
 10
30.8006031217
 20
36.4272591604
 30
0.0
 10
30.0994332547
 20
37.2298188412
 30
0.0
 10
29.339683177
 20
37.977189071
 30
0.0
 10
28.7970422129
 20
38.4358189779
 30
0.0
 10
28.5174205547
 20
38.6545208045
 30
0.0
  0
SPLINE
  5
2AC
100
AcDbEntity
  8
0
100
AcDbSpline
 62
7
  6
BYLAYER
 70
0
 71
3
 72
319
 73
315
 74
0
 42
0.0000001
 43
0.0000001
 44
0.0000000001
 40
0.0
 40
0.0
 40
0.0
 40
0.0
 40
0.0031252857
 40
0.0062507338
 40
0.0093760017
 40
0.0125009392
 40
0.0165628555
 40
0.0206252793
 40
0.0246876966
 40
0.0287495907
 40
0.0328114883
 40
0.0368739116
 40
0.0409363354
 40
0.0449982354
 40
0.0490601351
 40
0.0531225584
 40
0.057184982
 40
0.0612468821
 40
0.0653087821
 40
0.0693712055
 40
0.0714030756
 40
0.0734348556
 40
0.0754664926
 40
0.0774980069
 40
0.0815599066
 40
0.08562233
 40
0.0896847534
 40
0.0937466532
 40
0.0957781676
 40
0.0978098047
 40
0.0998415849
 40
0.101873455
 40
0.1059358783
 40
0.1099977781
 40
0.1140596779
 40
0.1181221013
 40
0.1221845246
 40
0.1262464244
 40
0.1282779388
 40
0.1303095759
 40
0.132341356
 40
0.1343732262
 40
0.1384356495
 40
0.1424975493
 40
0.1465594491
 40
0.1506218725
 40
0.1526537426
 40
0.1546855228
 40
0.1567171598
 40
0.1587486742
 40
0.162810574
 40
0.1668729974
 40
0.1709354207
 40
0.1749973205
 40
0.1770288349
 40
0.179060472
 40
0.1810922521
 40
0.1831241222
 40
0.1871865456
 40
0.1912484454
 40
0.1953103452
 40
0.1993727686
 40
0.2034351919
 40
0.2074970917
 40
0.2095286061
 40
0.2115602432
 40
0.2135920233
 40
0.2156238934
 40
0.2196863168
 40
0.2237482166
 40
0.2278101164
 40
0.2318725398
 40
0.2339044099
 40
0.23593619
 40
0.2379678271
 40
0.2399993415
 40
0.2440612413
 40
0.2481236646
 40
0.252186088
 40
0.2562479878
 40
0.2582795022
 40
0.2603111392
 40
0.2623429194
 40
0.2643747895
 40
0.2684372129
 40
0.2724991127
 40
0.2765610125
 40
0.2806234358
 40
0.2846858592
 40
0.288747759
 40
0.2907792734
 40
0.2928109104
 40
0.2948426906
 40
0.2968745607
 40
0.3009369841
 40
0.3049988839
 40
0.3090607837
 40
0.313123207
 40
0.3151550772
 40
0.3171868573
 40
0.3192184944
 40
0.3212500088
 40
0.3253119086
 40
0.3293743319
 40
0.3334367553
 40
0.3374986551
 40
0.3395301695
 40
0.3415618065
 40
0.3435935867
 40
0.3456254568
 40
0.3496878801
 40
0.35374978
 40
0.3578116798
 40
0.3618741031
 40
0.3659365265
 40
0.3699984263
 40
0.3720299407
 40
0.3740615777
 40
0.3760933579
 40
0.378125228
 40
0.3821876513
 40
0.3862495512
 40
0.390311451
 40
0.3943738743
 40
0.3964057444
 40
0.3984375246
 40
0.4004691617
 40
0.402500676
 40
0.4065625759
 40
0.4106249992
 40
0.4146874225
 40
0.4187493224
 40
0.4207808367
 40
0.4228124738
 40
0.424844254
 40
0.4268761241
 40
0.4309385474
 40
0.4350004472
 40
0.4390623471
 40
0.4431247704
 40
0.4471871938
 40
0.4512490936
 40
0.4532806079
 40
0.455312245
 40
0.4573440252
 40
0.4593758953
 40
0.4634383186
 40
0.4675002184
 40
0.4715621183
 40
0.4756245416
 40
0.4776564117
 40
0.4796881919
 40
0.4817198289
 40
0.4837513433
 40
0.4878132431
 40
0.4918756665
 40
0.4959380898
 40
0.4999999896
 40
0.5040618895
 40
0.5081243128
 40
0.5121867362
 40
0.516248636
 40
0.5182801503
 40
0.5203117874
 40
0.5223435676
 40
0.5243754377
 40
0.528437861
 40
0.5324997608
 40
0.5365616607
 40
0.540624084
 40
0.5426559541
 40
0.5446877343
 40
0.5467193713
 40
0.5487508857
 40
0.5528127855
 40
0.5568752089
 40
0.5609376322
 40
0.564999532
 40
0.5690614319
 40
0.5731238552
 40
0.5751557253
 40
0.5771875055
 40
0.5792191425
 40
0.5812506569
 40
0.5853125567
 40
0.5893749801
 40
0.5934374034
 40
0.5974993032
 40
0.5995308176
 40
0.6015624547
 40
0.6035942348
 40
0.605626105
 40
0.6096885283
 40
0.6137504281
 40
0.6178123279
 40
0.6218747513
 40
0.6239066214
 40
0.6259384016
 40
0.6279700386
 40
0.630001553
 40
0.6340634528
 40
0.6381258762
 40
0.6421882995
 40
0.6462501993
 40
0.6503120991
 40
0.6543745225
 40
0.6564063926
 40
0.6584381728
 40
0.6604698098
 40
0.6625013242
 40
0.666563224
 40
0.6706256474
 40
0.6746880707
 40
0.6787499705
 40
0.6807814849
 40
0.682813122
 40
0.6848449021
 40
0.6868767722
 40
0.6909391956
 40
0.6950010954
 40
0.6990629952
 40
0.7031254186
 40
0.7051572887
 40
0.7071890688
 40
0.7092207059
 40
0.7112522203
 40
0.7153141201
 40
0.7193765434
 40
0.7234389668
 40
0.7275008666
 40
0.7315627664
 40
0.7356251898
 40
0.7376570599
 40
0.73968884
 40
0.7417204771
 40
0.7437519915
 40
0.7478138913
 40
0.7518763146
 40
0.755938738
 40
0.7600006378
 40
0.7620321522
 40
0.7640637892
 40
0.7660955694
 40
0.7681274395
 40
0.7721898629
 40
0.7762517627
 40
0.7803136625
 40
0.7843760858
 40
0.786407956
 40
0.7884397361
 40
0.7904713732
 40
0.7925028876
 40
0.7965647874
 40
0.8006272107
 40
0.8046896341
 40
0.8087515339
 40
0.8128134337
 40
0.816875857
 40
0.8189077272
 40
0.8209395073
 40
0.8229711444
 40
0.8250026588
 40
0.8290645586
 40
0.8331269819
 40
0.8371894053
 40
0.8412513051
 40
0.8432828195
 40
0.8453144565
 40
0.8473462367
 40
0.8493781068
 40
0.8534405302
 40
0.85750243
 40
0.8615643298
 40
0.8656267531
 40
0.8676586232
 40
0.8696904034
 40
0.8717220405
 40
0.8737535548
 40
0.8778154547
 40
0.881877878
 40
0.8859403014
 40
0.8900022012
 40
0.894064101
 40
0.8981265243
 40
0.9001583944
 40
0.9021901746
 40
0.9042218116
 40
0.906253326
 40
0.9103152259
 40
0.9143776493
 40
0.9184400727
 40
0.9225019724
 40
0.9245334867
 40
0.9265651236
 40
0.9285969037
 40
0.9306287738
 40
0.9346911971
 40
0.9387530972
 40
0.9428149973
 40
0.9468774209
 40
0.9509398442
 40
0.9550017439
 40
0.9590636439
 40
0.9631260677
 40
0.967188491
 40
0.9712503886
 40
0.9753122827
 40
0.9793747
 40
0.9834371238
 40
0.9874990401
 40
0.9906239828
 40
0.9937492558
 40
0.9968747091
 40
1.0
 40
1.0
 40
1.0
 40
1.0
 10
8.4425988909
 20
35.6901238786
 30
0.0
 10
8.2381238925
 20
35.3999371834
 30
0.0
 10
7.8512026472
 20
34.8040421579
 30
0.0
 10
7.3398939862
 20
33.8689795272
 30
0.0
 10
6.9006165803
 20
32.8980146394
 30
0.0
 10
6.4999969436
 20
31.7964925878
 30
0.0
 10
6.1706466342
 20
30.5599603602
 30
0.0
 10
5.947459568
 20
29.1919476148
 30
0.0
 10
5.8592718809
 20
27.8086284776
 30
0.0
 10
5.9076486943
 20
26.4233457221
 30
0.0
 10
6.0941437059
 20
25.0498189858
 30
0.0
 10
6.4148991322
 20
23.7013199579
 30
0.0
 10
6.866133995
 20
22.3907010625
 30
0.0
 10
7.444160463
 20
21.1308425571
 30
0.0
 10
8.1451327817
 20
19.9350185906
 30
0.0
 10
8.9603807909
 20
18.8139887133
 30
0.0
 10
9.8814598116
 20
17.7781613926
 30
0.0
 10
10.9000266673
 20
16.8379921315
 30
0.0
 10
12.0073432945
 20
16.0042896169
 30
0.0
 10
12.9942400822
 20
15.4035957957
 30
0.0
 10
13.8158856495
 20
14.9829016979
 30
0.0
 10
14.4469997865
 20
14.6979583458
 30
0.0
 10
15.0913589936
 20
14.4444903098
 30
0.0
 10
15.9659768622
 20
14.1496350505
 30
0.0
 10
17.085373119
 20
13.8636681669
 30
0.0
 10
18.4555749847
 20
13.6544472177
 30
0.0
 10
19.839676233
 20
13.5803503757
 30
0.0
 10
20.9938472686
 20
13.6324497112
 30
0.0
 10
21.9101750987
 20
13.7430816429
 30
0.0
 10
22.5926406126
 20
13.8600675559
 30
0.0
 10
23.2685459403
 20
14.0105660196
 30
0.0
 10
24.1586281632
 20
14.2551854623
 30
0.0
 10
25.2471441378
 20
14.642394418
 30
0.0
 10
26.5009933859
 20
15.2332196481
 30
0.0
 10
27.6896219813
 20
15.9463455465
 30
0.0
 10
28.80228872
 20
16.7729867929
 30
0.0
 10
29.8286443057
 20
17.7045364609
 30
0.0
 10
30.6035724667
 20
18.561460298
 30
0.0
 10
31.1695769079
 20
19.2905243182
 30
0.0
 10
31.5665453047
 20
19.8578523544
 30
0.0
 10
31.9350811333
 20
20.4440937785
 30
0.0
 10
32.3873972834
 20
21.2487650606
 30
0.0
 10
32.8779715115
 20
22.2947706207
 30
0.0
 10
33.3401477618
 20
23.6015383402
 30
0.0
 10
33.6695171168
 20
24.9479278025
 30
0.0
 10
33.8322554173
 20
26.0917402687
 30
0.0
 10
33.894767588
 20
27.0127060603
 30
0.0
 10
33.9076841978
 20
27.7050432993
 30
0.0
 10
33.8864531225
 20
28.3971373282
 30
0.0
 10
33.8124346051
 20
29.3171467542
 30
0.0
 10
33.6337020735
 20
30.4585843449
 30
0.0
 10
33.2855219739
 20
31.8002240831
 30
0.0
 10
32.8076901993
 20
33.1013402835
 30
0.0
 10
32.3045828931
 20
34.1413922643
 30
0.0
 10
31.8414991411
 20
34.9397966324
 30
0.0
 10
31.4648172296
 20
35.5207919968
 30
0.0
 10
31.0599271521
 20
36.0825408933
 30
0.0
 10
30.4840702623
 20
36.803979651
 30
0.0
 10
29.6989168814
 20
37.6515243285
 30
0.0
 10
28.6614433472
 20
38.5706875726
 30
0.0
 10
27.5373087232
 20
39.3816794595
 30
0.0
 10
26.338822674
 20
40.0780947188
 30
0.0
 10
25.0779763545
 20
40.6538178538
 30
0.0
 10
23.984874659
 20
41.0279312027
 30
0.0
 10
23.0916713941
 20
41.2604893658
 30
0.0
 10
22.4137637291
 20
41.4015078254
 30
0.0
 10
21.7296904664
 20
41.508938898
 30
0.0
 10
20.8118507889
 20
41.6072043484
 30
0.0
 10
19.6571521876
 20
41.6454384369
 30
0.0
 10
18.2740325087
 20
41.5547261789
 30
0.0
 10
16.9068853728
 20
41.3263460892
 30
0.0
 10
15.7916152418
 20
41.0247449497
 30
0.0
 10
14.9206568729
 20
40.7189389977
 30
0.0
 10
14.2793535343
 20
40.4577346347
 30
0.0
 10
13.6517423248
 20
40.1652469031
 30
0.0
 10
12.8355136471
 20
39.7343561625
 30
0.0
 10
11.8571098469
 20
39.119904297
 30
0.0
 10
10.7615685356
 20
38.2707778022
 30
0.0
 10
9.7544030936
 20
37.3184940502
 30
0.0
 10
8.9971063736
 20
36.4459536431
 30
0.0
 10
8.4460804246
 20
35.7055034422
 30
0.0
 10
8.0607590194
 20
35.1302015296
 30
0.0
 10
7.7042497032
 20
34.5365695687
 30
0.0
 10
7.2684300137
 20
33.7228458829
 30
0.0
 10
6.7992793179
 20
32.6670545036
 30
0.0
 10
6.3638371487
 20
31.3511508138
 30
0.0
 10
6.0619779077
 20
29.9982770236
 30
0.0
 10
5.894732367
 20
28.6222712269
 30
0.0
 10
5.8629906447
 20
27.2365645362
 30
0.0
 10
5.9503516337
 20
26.0845227956
 30
0.0
 10
6.088947219
 20
25.1720061463
 30
0.0
 10
6.2267437266
 20
24.4934362303
 30
0.0
 10
6.3978365107
 20
23.8224482101
 30
0.0
 10
6.6695547273
 20
22.9402605979
 30
0.0
 10
7.0898601345
 20
21.8640942213
 30
0.0
 10
7.7187526244
 20
20.6288845242
 30
0.0
 10
8.4678521297
 20
19.4626518339
 30
0.0
 10
9.1848904645
 20
18.5567562888
 30
0.0
 10
9.8094305175
 20
17.8770243688
 30
0.0
 10
10.302403627
 20
17.3907372061
 30
0.0
 10
10.8187234372
 20
16.9293710208
 30
0.0
 10
11.5366208679
 20
16.3492681301
 30
0.0
 10
12.4871635462
 20
15.6925385755
 30
0.0
 10
13.6995572761
 20
15.0207290693
 30
0.0
 10
14.97188771
 20
14.470818314
 30
0.0
 10
16.0723856768
 20
14.1190665416
 30
0.0
 10
16.9701441698
 20
13.904763521
 30
0.0
 10
17.6507854182
 20
13.7775929
 30
0.0
 10
18.3369065248
 20
13.6841283364
 30
0.0
 10
19.2565581325
 20
13.6045924384
 30
0.0
 10
20.4117992699
 20
13.5899048073
 30
0.0
 10
21.7927697165
 20
13.7087872246
 30
0.0
 10
23.155024864
 20
13.9650047233
 30
0.0
 10
24.4854419271
 20
14.3540464456
 30
0.0
 10
25.7713275845
 20
14.8714328059
 30
0.0
 10
26.7955148933
 20
15.4061032378
 30
0.0
 10
27.5793875536
 20
15.8933803911
 30
0.0
 10
28.1485949635
 20
16.2876492496
 30
0.0
 10
28.697702329
 20
16.7095245455
 30
0.0
 10
29.4011981163
 20
17.3071694648
 30
0.0
 10
30.2243403828
 20
18.1178651626
 30
0.0
 10
31.1113605935
 20
19.1829679302
 30
0.0
 10
31.8875834108
 20
20.3313262779
 30
0.0
 10
32.4372205564
 20
21.3475397006
 30
0.0
 10
32.8155128607
 20
22.1895496134
 30
0.0
 10
33.0679362216
 20
22.83435977
 30
0.0
 10
33.2882504967
 20
23.4907944763
 30
0.0
 10
33.5381684946
 20
24.3792971939
 30
0.0
 10
33.766740289
 20
25.511807691
 30
0.0
 10
33.9058893802
 20
26.8908885803
 30
0.0
 10
33.9093817595
 20
28.2769673569
 30
0.0
 10
33.7985548101
 20
29.4269858227
 30
0.0
 10
33.6413873587
 20
30.3364881529
 30
0.0
 10
33.4897874829
 20
31.0121081301
 30
0.0
 10
33.3050527526
 20
31.6794692594
 30
0.0
 10
33.0154087409
 20
32.5559345383
 30
0.0
 10
32.5732518237
 20
33.6233122
 30
0.0
 10
31.9193206658
 20
34.8454359434
 30
0.0
 10
31.146570073
 20
35.9961935264
 30
0.0
 10
30.2643211326
 20
37.0653052281
 30
0.0
 10
29.2816968052
 20
38.0428736404
 30
0.0
 10
28.3864095214
 20
38.7731426279
 30
0.0
 10
27.6294589453
 20
39.3012725331
 30
0.0
 10
27.0426453198
 20
39.6688249474
 30
0.0
 10
26.4383912621
 20
40.0070182321
 30
0.0
 10
25.6117230476
 20
40.4177559043
 30
0.0
 10
24.5420849687
 20
40.8544080381
 30
0.0
 10
23.2134699322
 20
41.2494154353
 30
0.0
 10
21.8520499849
 20
41.5097699747
 30
0.0
 10
20.7014324646
 20
41.6140293972
 30
0.0
 10
19.7784779478
 20
41.6295449696
 30
0.0
 10
19.0863816428
 20
41.6071760862
 30
0.0
 10
18.3962676711
 20
41.5507161795
 30
0.0
 10
17.4812237525
 20
41.4299273045
 30
0.0
 10
16.3503701665
 20
41.1932783125
 30
0.0
 10
15.0282212423
 20
40.7772129799
 30
0.0
 10
13.7530911854
 20
40.2336913461
 30
0.0
 10
12.5376487738
 20
39.5673205411
 30
0.0
 10
11.394839958
 20
38.7828855111
 30
0.0
 10
10.3347727515
 20
37.8897842031
 30
0.0
 10
9.3672714807
 20
36.8972473375
 30
0.0
 10
8.6461654628
 20
35.9945631794
 30
0.0
 10
8.1257782743
 20
35.2322689453
 30
0.0
 10
7.7642260719
 20
34.6417395049
 30
0.0
 10
7.4322092438
 20
34.0340697852
 30
0.0
 10
7.0299187611
 20
33.2032580493
 30
0.0
 10
6.6041916453
 20
32.1292249362
 30
0.0
 10
6.2227467371
 20
30.7966527839
 30
0.0
 10
5.9762820579
 20
29.4326498803
 30
0.0
 10
5.8837557737
 20
28.28102946
 30
0.0
 10
5.8776482635
 20
27.3579647437
 30
0.0
 10
5.9070702098
 20
26.6661323845
 30
0.0
 10
5.970561198
 20
25.9766297357
 30
0.0
 10
6.1006704476
 20
25.0628644733
 30
0.0
 10
6.3488332607
 20
23.9344818553
 30
0.0
 10
6.7783537219
 20
22.6166416742
 30
0.0
 10
7.3348414327
 20
21.3471203269
 30
0.0
 10
8.0135754449
 20
20.1385233575
 30
0.0
 10
8.8095828944
 20
19.0038055319
 30
0.0
 10
9.5629504347
 20
18.127885923
 30
0.0
 10
10.2146769334
 20
17.4741752763
 30
0.0
 10
10.7270612723
 20
17.0083855311
 30
0.0
 10
11.2617571034
 20
16.5684477582
 30
0.0
 10
12.0027027113
 20
16.018088146
 30
0.0
 10
12.9792235024
 20
15.4006480851
 30
0.0
 10
14.2179923971
 20
14.7788135433
 30
0.0
 10
15.5116796414
 20
14.281219449
 30
0.0
 10
16.6256003389
 20
13.9746158435
 30
0.0
 10
17.5313476765
 20
13.797083184
 30
0.0
 10
18.2166067446
 20
13.6977609155
 30
0.0
 10
18.9059671702
 20
13.63234001
 30
0.0
 10
19.8280967812
 20
13.5903549974
 30
0.0
 10
20.9829735153
 20
13.62276551
 30
0.0
 10
22.3579633258
 20
13.797842001
 30
0.0
 10
23.7085964425
 20
14.1093527453
 30
0.0
 10
24.8033482863
 20
14.4785533765
 30
0.0
 10
25.6539881161
 20
14.8370190682
 30
0.0
 10
26.2781282009
 20
15.1369304196
 30
0.0
 10
26.8866898298
 20
15.4672299081
 30
0.0
 10
27.6750570838
 20
15.9472012036
 30
0.0
 10
28.6140793839
 20
16.6203053815
 30
0.0
 10
29.6556680745
 20
17.5347907938
 30
0.0
 10
30.6027763722
 20
18.5468920219
 30
0.0
 10
31.4456827286
 20
19.647298932
 30
0.0
 10
32.1744440471
 20
20.8263321564
 30
0.0
 10
32.6822063588
 20
21.8641063355
 30
0.0
 10
33.0258639994
 20
22.7208352685
 30
0.0
 10
33.2517954525
 20
23.3753983106
 30
0.0
 10
33.4451706118
 20
24.0402674132
 30
0.0
 10
33.6586659163
 20
24.9382183314
 30
0.0
 10
33.8408870894
 20
26.0791041838
 30
0.0
 10
33.9237097648
 20
27.4627106945
 30
0.0
 10
33.8707032302
 20
28.8477799621
 30
0.0
 10
33.7130940883
 20
29.9923254831
 30
0.0
 10
33.5189863028
 20
30.8946659135
 30
0.0
 10
33.3399743949
 20
31.5635453049
 30
0.0
 10
33.1281918731
 20
32.2228220713
 30
0.0
 10
32.8030638841
 20
33.0867535221
 30
0.0
 10
32.3177708485
 20
34.1352197265
 30
0.0
 10
31.6145602308
 20
35.3296834488
 30
0.0
 10
30.7955830716
 20
36.4479522771
 30
0.0
 10
30.0245184938
 20
37.3083301722
 30
0.0
 10
29.3596019833
 20
37.94862058
 30
0.0
 10
28.8378294858
 20
38.4038690012
 30
0.0
 10
28.2942769524
 20
38.8328161445
 30
0.0
 10
27.5422671688
 20
39.3679578612
 30
0.0
 10
26.5533601567
 20
39.9653647878
 30
0.0
 10
25.3021863864
 20
40.5618166015
 30
0.0
 10
23.9985758681
 20
41.0329457132
 30
0.0
 10
22.6549183566
 20
41.3734908429
 30
0.0
 10
21.2840302903
 20
41.5781327574
 30
0.0
 10
20.1301163659
 20
41.6354081202
 30
0.0
 10
19.207296834
 20
41.6132913802
 30
0.0
 10
18.5166873206
 20
41.562731539
 30
0.0
 10
17.8294482246
 20
41.4781898286
 30
0.0
 10
16.9200876513
 20
41.3202042466
 30
0.0
 10
15.7998223751
 20
41.0376608068
 30
0.0
 10
14.4957191254
 20
40.5680425726
 30
0.0
 10
13.2438458859
 20
39.9730300003
 30
0.0
 10
12.2542545654
 20
39.3767631896
 30
0.0
 10
11.5016284222
 20
38.8424880047
 30
0.0
 10
10.9575822222
 20
38.4141672886
 30
0.0
 10
10.43528564
 20
37.9595202041
 30
0.0
 10
9.7696320166
 20
37.3199961511
 30
0.0
 10
8.9975768628
 20
36.4605070285
 30
0.0
 10
8.1773120951
 20
35.3431823364
 30
0.0
 10
7.4727260208
 20
34.1495294456
 30
0.0
 10
6.9862255603
 20
33.1016229577
 30
0.0
 10
6.6601026113
 20
32.2380665934
 30
0.0
 10
6.4475607928
 20
31.5790342425
 30
0.0
 10
6.2677785292
 20
30.9103614182
 30
0.0
 10
6.0726313561
 20
30.0082455984
 30
0.0
 10
5.9137046217
 20
28.8638792202
 30
0.0
 10
5.8590996396
 20
27.4788850449
 30
0.0
 10
5.9403395814
 20
26.0951353944
 30
0.0
 10
6.1573723838
 20
24.7260907434
 30
0.0
 10
6.5100309447
 20
23.3856265168
 30
0.0
 10
6.9125292789
 20
22.3026708838
 30
0.0
 10
7.2968343447
 20
21.4633886577
 30
0.0
 10
7.6156876008
 20
20.8487095556
 30
0.0
 10
7.9644384097
 20
20.2505308623
 30
0.0
 10
8.4682887629
 20
19.4772062745
 30
0.0
 10
9.1697846265
 20
18.5592037485
 30
0.0
 10
10.1156988797
 20
17.5460538103
 30
0.0
 10
11.1562408965
 20
16.6303579655
 30
0.0
 10
12.0944854183
 20
15.9561752688
 30
0.0
 10
12.8822994977
 20
15.4752958024
 30
0.0
 10
13.490480198
 20
15.144295592
 30
0.0
 10
14.1142744083
 20
14.8436654631
 30
0.0
 10
14.964500747
 20
14.484220149
 30
0.0
 10
16.058826578
 20
14.1137586964
 30
0.0
 10
17.4090999629
 20
13.8006923421
 30
0.0
 10
18.7838871884
 20
13.6240320932
 30
0.0
 10
19.9387258188
 20
13.5902912775
 30
0.0
 10
20.8609031872
 20
13.6312140498
 30
0.0
 10
21.5503384966
 20
13.6958408125
 30
0.0
 10
22.2357115906
 20
13.7943737042
 30
0.0
 10
23.1416624862
 20
13.9708626491
 30
0.0
 10
24.2559382541
 20
14.2761848237
 30
0.0
 10
25.5501869593
 20
14.7722804409
 30
0.0
 10
26.7897116556
 20
15.3927170203
 30
0.0
 10
27.9621636571
 20
16.1321375966
 30
0.0
 10
29.0548583441
 20
16.9849158272
 30
0.0
 10
29.8912629723
 20
17.7819259276
 30
0.0
 10
30.5109249015
 20
18.4661072844
 30
0.0
 10
30.9500082278
 20
19.0015544172
 30
0.0
 10
31.3621365672
 20
19.5579671358
 30
0.0
 10
31.874036699
 20
20.3259869087
 30
0.0
 10
32.4409296251
 20
21.3326931869
 30
0.0
 10
32.9988520016
 20
22.6015309343
 30
0.0
 10
33.4298975969
 20
23.9188867151
 30
0.0
 10
33.6793582434
 20
25.0469799843
 30
0.0
 10
33.8105201741
 20
25.9605951046
 30
0.0
 10
33.8748052943
 20
26.6500240396
 30
0.0
 10
33.9050240891
 20
27.3418221259
 30
0.0
 10
33.8999800363
 20
28.2648928273
 30
0.0
 10
33.8087788468
 20
29.416622257
 30
0.0
 10
33.563892003
 20
30.7808951144
 30
0.0
 10
33.1839591726
 20
32.1139546493
 30
0.0
 10
32.6746882394
 20
33.4031279958
 30
0.0
 10
32.0416498862
 20
34.6362540014
 30
0.0
 10
31.2903270476
 20
35.8011021213
 30
0.0
 10
30.4264143647
 20
36.8850822539
 30
0.0
 10
29.4600261906
 20
37.8787767176
 30
0.0
 10
28.4009964998
 20
38.7730863876
 30
0.0
 10
27.2590924259
 20
39.5588415471
 30
0.0
 10
26.0444207024
 20
40.2266148867
 30
0.0
 10
24.7699278107
 20
40.7716073383
 30
0.0
 10
23.4482289991
 20
41.1891999504
 30
0.0
 10
22.1960206352
 20
41.452751266
 30
0.0
 10
21.0321860949
 20
41.5918154793
 30
0.0
 10
19.9674545132
 20
41.6375088324
 30
0.0
 10
18.9022915207
 20
41.6027203212
 30
0.0
 10
18.1959488333
 20
41.5260351513
 30
0.0
 10
17.8447385641
 20
41.4743620685
 30
0.0
  0
SPLINE
  5
2AD
100
AcDbEntity
  8
0
100
AcDbSpline
 62
7
  6
BYLAYER
 70
0
 71
3
 72
15
 73
11
 74
0
 42
0.0000001
 43
0.0000001
 44
0.0000000001
 40
0.0
 40
0.0
 40
0.0
 40
0.0
 40
0.1237337873
 40
0.2474740065
 40
0.3712070887
 40
0.4949270895
 40
0.6557431992
 40
0.816579404
 40
0.9774153488
 40
1.0
 40
1.0
 40
1.0
 40
1.0
 10
23.281020852
 20
14.0191665793
 30
0.0
 10
23.6254213804
 20
14.1052282957
 30
0.0
 10
24.3076889376
 20
14.3034955699
 30
0.0
 10
25.3057362548
 20
14.677233744
 30
0.0
 10
26.2727155425
 20
15.1252164554
 30
0.0
 10
27.2957398309
 20
15.6972900772
 30
0.0
 10
28.3530320217
 20
16.4181345816
 30
0.0
 10
29.4158712417
 20
17.3078784383
 30
0.0
 10
30.108431918
 20
18.0139209389
 30
0.0
 10
30.455304948
 20
18.4097783282
 30
0.0
 10
30.4976754281
 20
18.458814385
 30
0.0
  0
SPLINE
  5
2AE
100
AcDbEntity
  8
0
100
AcDbSpline
 62
7
  6
BYLAYER
 70
0
 71
3
 72
323
 73
319
 74
0
 42
0.0000001
 43
0.0000001
 44
0.0000000001
 40
0.0
 40
0.0
 40
0.0
 40
0.0
 40
0.0015239549
 40
0.0030478303
 40
0.0045716281
 40
0.0060953785
 40
0.0101181605
 40
0.014141518
 40
0.0181649121
 40
0.0221878095
 40
0.0262106867
 40
0.0302340473
 40
0.0342574015
 40
0.0362694953
 40
0.0382814729
 40
0.0423043321
 40
0.0463276921
 40
0.0503510527
 40
0.0543739142
 40
0.0563858943
 40
0.0583979912
 40
0.0624213513
 40
0.0664447115
 40
0.0704675732
 40
0.0744904348
 40
0.0785137949
 40
0.0805261138
 40
0.0825383469
 40
0.0845504438
 40
0.0865624238
 40
0.0905852851
 40
0.0946086451
 40
0.0986320053
 40
0.1026548667
 40
0.1046668468
 40
0.1066789437
 40
0.108691177
 40
0.1107034959
 40
0.114726856
 40
0.1187497174
 40
0.1227725787
 40
0.1267959388
 40
0.1308192989
 40
0.1348421603
 40
0.1368541404
 40
0.1388662373
 40
0.1408784705
 40
0.1428907895
 40
0.1469141496
 40
0.1509370109
 40
0.1549598723
 40
0.1589832324
 40
0.1609955513
 40
0.1630077846
 40
0.1650198815
 40
0.1670318616
 40
0.171054723
 40
0.1750780831
 40
0.1791014431
 40
0.1831243045
 40
0.1851362846
 40
0.1871483815
 40
0.1891606148
 40
0.1911729337
 40
0.1951962938
 40
0.1992191552
 40
0.2032420165
 40
0.2072653766
 40
0.2112887367
 40
0.2153115981
 40
0.2173235781
 40
0.2193356751
 40
0.2213479083
 40
0.2233602273
 40
0.2273835874
 40
0.2314064487
 40
0.2354293101
 40
0.2394526702
 40
0.2414649891
 40
0.2434772224
 40
0.2454893193
 40
0.2475012994
 40
0.2515241608
 40
0.2555475209
 40
0.2595708809
 40
0.2635937423
 40
0.2656057224
 40
0.2676178193
 40
0.2696300526
 40
0.2716423715
 40
0.2756657316
 40
0.279688593
 40
0.2837114543
 40
0.2877348144
 40
0.2917581745
 40
0.2957810359
 40
0.2977930159
 40
0.2998051129
 40
0.3018173461
 40
0.3038296651
 40
0.3078530252
 40
0.3118758865
 40
0.3158987479
 40
0.319922108
 40
0.3219344269
 40
0.3239466602
 40
0.3259587571
 40
0.3279707372
 40
0.3319935986
 40
0.3360169587
 40
0.3400403187
 40
0.3440631801
 40
0.3460751602
 40
0.3480872571
 40
0.3500994904
 40
0.3521118093
 40
0.3561351694
 40
0.3601580308
 40
0.3641808921
 40
0.3682042522
 40
0.3722276123
 40
0.3762504737
 40
0.3782624537
 40
0.3802745507
 40
0.3822867839
 40
0.3842991029
 40
0.388322463
 40
0.3923453243
 40
0.3963681857
 40
0.4003915458
 40
0.4024038647
 40
0.404416098
 40
0.4064281949
 40
0.408440175
 40
0.4124630364
 40
0.4164863964
 40
0.4205097565
 40
0.4245326179
 40
0.426544598
 40
0.4285566949
 40
0.4305689282
 40
0.4325812471
 40
0.4366046072
 40
0.4406274686
 40
0.4446503299
 40
0.44867369
 40
0.4526970501
 40
0.4567199115
 40
0.4587318915
 40
0.4607439885
 40
0.4627562217
 40
0.4647685407
 40
0.4687919008
 40
0.4728147621
 40
0.4768376235
 40
0.4808609836
 40
0.4848843437
 40
0.4868964406
 40
0.4889084207
 40
0.492931282
 40
0.4969546421
 40
0.5009780022
 40
0.5050008636
 40
0.509023725
 40
0.513047085
 40
0.5170704451
 40
0.5210933065
 40
0.5231052866
 40
0.5251173835
 40
0.5291407436
 40
0.5331641037
 40
0.537186965
 40
0.5412098264
 40
0.5452331865
 40
0.5472455054
 40
0.5492577387
 40
0.5512698356
 40
0.5532818157
 40
0.5573046771
 40
0.5613280371
 40
0.5653513972
 40
0.5693742586
 40
0.57339712
 40
0.5774204801
 40
0.579432799
 40
0.5814450323
 40
0.5834571292
 40
0.5854691093
 40
0.5894919706
 40
0.5935153307
 40
0.5975386908
 40
0.6015615522
 40
0.6035735322
 40
0.6055856292
 40
0.6075978624
 40
0.6096101814
 40
0.6136335415
 40
0.6176564028
 40
0.6216792642
 40
0.6257026243
 40
0.6277149432
 40
0.6297271765
 40
0.6317392734
 40
0.6337512535
 40
0.6377741149
 40
0.6417974749
 40
0.645820835
 40
0.6498436964
 40
0.6538665578
 40
0.6578899179
 40
0.6599022368
 40
0.6619144701
 40
0.663926567
 40
0.6659385471
 40
0.6699614084
 40
0.6739847685
 40
0.6780081286
 40
0.68203099
 40
0.68404297
 40
0.686055067
 40
0.6880673002
 40
0.6900796192
 40
0.6941029793
 40
0.6981258406
 40
0.702148702
 40
0.7061720621
 40
0.708184381
 40
0.7101966143
 40
0.7122087112
 40
0.7142206913
 40
0.7182435527
 40
0.7222669127
 40
0.7262902728
 40
0.7303131342
 40
0.7343359956
 40
0.7383593557
 40
0.7403716746
 40
0.7423839079
 40
0.7443960048
 40
0.7464079849
 40
0.7504308462
 40
0.7544542063
 40
0.7584775664
 40
0.7625004278
 40
0.7645124078
 40
0.7665245048
 40
0.768536738
 40
0.770549057
 40
0.7745724171
 40
0.7785952784
 40
0.7826181398
 40
0.7866414999
 40
0.7886538188
 40
0.7906660521
 40
0.792678149
 40
0.7946901291
 40
0.7987129905
 40
0.8027363505
 40
0.8067597106
 40
0.810782572
 40
0.8148054334
 40
0.8188287934
 40
0.8208411124
 40
0.8228533457
 40
0.8248654426
 40
0.8268774227
 40
0.830900284
 40
0.8349236441
 40
0.8389470042
 40
0.8429698656
 40
0.8449818456
 40
0.8469939426
 40
0.8490061758
 40
0.8510184948
 40
0.8550418549
 40
0.8590647162
 40
0.8630875776
 40
0.8671109377
 40
0.8691232566
 40
0.8711354899
 40
0.8731475868
 40
0.8751595669
 40
0.8791824283
 40
0.8832057884
 40
0.8872291484
 40
0.8912520098
 40
0.8952748711
 40
0.8992982312
 40
0.9013105502
 40
0.9033227834
 40
0.9053348804
 40
0.9073468605
 40
0.9113697219
 40
0.915393082
 40
0.9194164421
 40
0.9234393034
 40
0.9254512834
 40
0.9274633802
 40
0.9294756134
 40
0.9314879323
 40
0.9355112924
 40
0.9395341539
 40
0.9435570156
 40
0.9475803759
 40
0.951603736
 40
0.9556265973
 40
0.9596494588
 40
0.9636728194
 40
0.9676961794
 40
0.9717190386
 40
0.9757418944
 40
0.9797652486
 40
0.9837886092
 40
0.9878114864
 40
0.9908583324
 40
0.9939054834
 40
0.9969528096
 40
1.0
 40
1.0
 40
1.0
 40
1.0
 10
32.0735837524
 20
20.6934382237
 30
0.0
 10
32.1591137285
 20
20.8438956455
 30
0.0
 10
32.324623249
 20
21.1479530879
 30
0.0
 10
32.555863393
 20
21.6128869242
 30
0.0
 10
32.7696964227
 20
22.0860671269
 30
0.0
 10
33.0728867316
 20
22.8296625949
 30
0.0
 10
33.4141887244
 20
23.8634786975
 30
0.0
 10
33.7154034441
 20
25.2027146869
 30
0.0
 10
33.8853575273
 20
26.5649413757
 30
0.0
 10
33.9217220837
 20
27.9372319048
 30
0.0
 10
33.8221777117
 20
29.3064094519
 30
0.0
 10
33.5896709915
 20
30.6592864899
 30
0.0
 10
33.2873930815
 20
31.7628646713
 30
0.0
 10
32.9820261757
 20
32.6245250195
 30
0.0
 10
32.6347328502
 20
33.4701057073
 30
0.0
 10
32.1226558907
 20
34.4933197043
 30
0.0
 10
31.3915527184
 20
35.6551565206
 30
0.0
 10
30.5512420222
 20
36.7406312446
 30
0.0
 10
29.7659529662
 20
37.5728045125
 30
0.0
 10
29.0909444917
 20
38.1892334353
 30
0.0
 10
28.3864420337
 20
38.7718018869
 30
0.0
 10
27.4536574837
 20
39.4345036319
 30
0.0
 10
26.2627789848
 20
40.1172419294
 30
0.0
 10
25.0109434339
 20
40.6806968217
 30
0.0
 10
23.7096004453
 20
41.1175638092
 30
0.0
 10
22.5945626915
 20
41.374225423
 30
0.0
 10
21.6910898822
 20
41.513897292
 30
0.0
 10
21.0090526127
 20
41.5855885918
 30
0.0
 10
20.3243646624
 20
41.6238888781
 30
0.0
 10
19.4102775339
 20
41.6300563382
 30
0.0
 10
18.2686814867
 20
41.5528167198
 30
0.0
 10
16.9146471083
 20
41.3270656902
 30
0.0
 10
15.5888813102
 20
40.9710913675
 30
0.0
 10
14.5180089203
 20
40.5680530368
 30
0.0
 10
13.6887507015
 20
40.1834438973
 30
0.0
 10
13.0815675804
 20
39.8647069987
 30
0.0
 10
12.4906410959
 20
39.516683479
 30
0.0
 10
11.7263951211
 20
39.0149866593
 30
0.0
 10
10.8181325907
 20
38.3191122889
 30
0.0
 10
9.8150470748
 20
37.3820007932
 30
0.0
 10
8.9095083945
 20
36.3502422005
 30
0.0
 10
8.1088619616
 20
35.2351326561
 30
0.0
 10
7.4201489091
 20
34.0476932706
 30
0.0
 10
6.9453078905
 20
33.0066647776
 30
0.0
 10
6.6287450537
 20
32.1491214041
 30
0.0
 10
6.4231435728
 20
31.4949098885
 30
0.0
 10
6.2497229132
 20
30.8314043311
 30
0.0
 10
6.0618313325
 20
29.9367149588
 30
0.0
 10
5.9088091155
 20
28.8028016789
 30
0.0
 10
5.8587253776
 20
27.4309834885
 30
0.0
 10
5.9445345847
 20
26.0609359326
 30
0.0
 10
6.1270487589
 20
24.9313945617
 30
0.0
 10
6.338187516
 20
24.0419044081
 30
0.0
 10
6.5288368339
 20
23.3831425288
 30
0.0
 10
6.751413817
 20
22.7345100743
 30
0.0
 10
7.0902126219
 20
21.8855055257
 30
0.0
 10
7.59201395
 20
20.8572045135
 30
0.0
 10
8.3114412081
 20
19.6881035537
 30
0.0
 10
9.1408345739
 20
18.5942665998
 30
0.0
 10
9.9177542451
 20
17.7542645985
 30
0.0
 10
10.5865414868
 20
17.1311137417
 30
0.0
 10
11.1106159215
 20
16.6888349441
 30
0.0
 10
11.6556903282
 20
16.2726518479
 30
0.0
 10
12.4084283827
 20
15.7538483849
 30
0.0
 10
13.395303433
 20
15.174832316
 30
0.0
 10
14.6413641377
 20
14.5989058966
 30
0.0
 10
15.9383278813
 20
14.1490046281
 30
0.0
 10
17.2729631022
 20
13.8276748363
 30
0.0
 10
18.6324076736
 20
13.6372846634
 30
0.0
 10
19.7756315617
 20
13.5898140926
 30
0.0
 10
20.6892473201
 20
13.6197959488
 30
0.0
 10
21.3727050541
 20
13.6759226044
 30
0.0
 10
22.0526427956
 20
13.7653598307
 30
0.0
 10
22.9521702495
 20
13.9285244071
 30
0.0
 10
24.060138692
 20
14.2141483839
 30
0.0
 10
25.3496717402
 20
14.6847841734
 30
0.0
 10
26.5863478673
 20
15.28062449
 30
0.0
 10
27.5638060766
 20
15.8753938414
 30
0.0
 10
28.3081266847
 20
16.4062037325
 30
0.0
 10
28.8464557813
 20
16.8310756658
 30
0.0
 10
29.3633691653
 20
17.2817031482
 30
0.0
 10
30.0220757259
 20
17.9155004506
 30
0.0
 10
30.7854227663
 20
18.7678553301
 30
0.0
 10
31.5971655164
 20
19.8748541293
 30
0.0
 10
32.2977491541
 20
21.0553435208
 30
0.0
 10
32.7829931306
 20
22.0915605932
 30
0.0
 10
33.1081312649
 20
22.9458898965
 30
0.0
 10
33.3202762788
 20
23.5980087821
 30
0.0
 10
33.5003352478
 20
24.2597438093
 30
0.0
 10
33.6971804989
 20
25.1525055686
 30
0.0
 10
33.8615539519
 20
26.2848320855
 30
0.0
 10
33.9253807969
 20
27.6560668044
 30
0.0
 10
33.8532909885
 20
29.0269530736
 30
0.0
 10
33.647912833
 20
30.3842753718
 30
0.0
 10
33.3119004433
 20
31.7152275252
 30
0.0
 10
32.9249993729
 20
32.7920384998
 30
0.0
 10
32.5528946966
 20
33.6269820761
 30
0.0
 10
32.2433177413
 20
34.2388863043
 30
0.0
 10
31.9042132733
 20
34.8349756512
 30
0.0
 10
31.414056858
 20
35.6066744316
 30
0.0
 10
30.731911923
 20
36.5252893745
 30
0.0
 10
29.809968298
 20
37.542350573
 30
0.0
 10
28.7919743466
 20
38.4632641634
 30
0.0
 10
27.8726693417
 20
39.1444788433
 30
0.0
 10
27.100474783
 20
39.6338538238
 30
0.0
 10
26.5040424469
 20
39.972354702
 30
0.0
 10
25.8918252336
 20
40.2813120748
 30
0.0
 10
25.0565049924
 20
40.6525713483
 30
0.0
 10
23.9793060721
 20
41.0383822226
 30
0.0
 10
22.648001386
 20
41.3730469301
 30
0.0
 10
21.2905203788
 20
41.5770517141
 30
0.0
 10
20.1478323206
 20
41.6359714858
 30
0.0
 10
19.2339616638
 20
41.6151439186
 30
0.0
 10
18.5499760436
 20
41.5658669536
 30
0.0
 10
17.8691763485
 20
41.4832458087
 30
0.0
 10
16.968059801
 20
41.3291011373
 30
0.0
 10
15.8572829288
 20
41.0545893653
 30
0.0
 10
14.5631106694
 20
40.5969031371
 30
0.0
 10
13.3204869572
 20
40.0134544132
 30
0.0
 10
12.1406621827
 20
39.3116584959
 30
0.0
 10
11.0344978492
 20
38.4988003116
 30
0.0
 10
10.1829131927
 20
37.7345896821
 30
0.0
 10
9.5497834039
 20
37.0752420225
 30
0.0
 10
9.0996793415
 20
36.5578727069
 30
0.0
 10
8.6753525922
 20
36.0191138002
 30
0.0
 10
8.1452964354
 20
35.2742562368
 30
0.0
 10
7.5515168642
 20
34.29619645
 30
0.0
 10
6.956928728
 20
33.0589177922
 30
0.0
 10
6.4875985621
 20
31.7689089854
 30
0.0
 10
6.2030963194
 20
30.6606519727
 30
0.0
 10
6.0408424073
 20
29.7609598165
 30
0.0
 10
5.9520935302
 20
29.0809318664
 30
0.0
 10
5.896658729
 20
28.3974177428
 30
0.0
 10
5.8676018951
 20
27.4837717205
 30
0.0
 10
5.9162284816
 20
26.3405993802
 30
0.0
 10
6.1079998218
 20
24.9813362022
 30
0.0
 10
6.4306615253
 20
23.6470715876
 30
0.0
 10
6.8067557376
 20
22.5664418262
 30
0.0
 10
7.1704772537
 20
21.7278119772
 30
0.0
 10
7.4739085872
 20
21.1128372023
 30
0.0
 10
7.8070244712
 20
20.5133805431
 30
0.0
 10
8.289425047
 20
19.7368103297
 30
0.0
 10
8.9623356912
 20
18.8114059652
 30
0.0
 10
9.8740331654
 20
17.7851670866
 30
0.0
 10
10.8827909034
 20
16.8540742182
 30
0.0
 10
11.9775002517
 20
16.0257533565
 30
0.0
 10
13.1473198895
 20
15.3075194262
 30
0.0
 10
14.1761305125
 20
14.8067570008
 30
0.0
 10
15.0254773135
 20
14.4688181122
 30
0.0
 10
15.6743347759
 20
14.2468977805
 30
0.0
 10
16.3332894066
 20
14.0569154611
 30
0.0
 10
17.2229922874
 20
13.8466771
 30
0.0
 10
18.35272207
 20
13.6653074348
 30
0.0
 10
19.7228382665
 20
13.5808810683
 30
0.0
 10
21.0946700633
 20
13.6323686319
 30
0.0
 10
22.4548617031
 20
13.8173057923
 30
0.0
 10
23.5683607456
 20
14.0807072651
 30
0.0
 10
24.4401986376
 20
14.3556774098
 30
0.0
 10
25.2974359265
 20
14.6731117428
 30
0.0
 10
26.3379760677
 20
15.1490047658
 30
0.0
 10
27.5247194709
 20
15.8389192791
 30
0.0
 10
28.6390193072
 20
16.6406968863
 30
0.0
 10
29.6698535009
 20
17.5472686904
 30
0.0
 10
30.6059765716
 20
18.5513429742
 30
0.0
 10
31.4397733286
 20
19.6418907378
 30
0.0
 10
32.1638577945
 20
20.8080998215
 30
0.0
 10
32.6697655434
 20
21.8343820948
 30
0.0
 10
33.0119586397
 20
22.6820401686
 30
0.0
 10
33.3121294299
 20
23.5455257719
 30
0.0
 10
33.6077538306
 20
24.6509065512
 30
0.0
 10
33.8321105151
 20
26.0051543603
 30
0.0
 10
33.9234118873
 20
27.3749125532
 30
0.0
 10
33.878806826
 20
28.7469025648
 30
0.0
 10
33.730318959
 20
29.8814225913
 30
0.0
 10
33.5460046216
 20
30.7768552295
 30
0.0
 10
33.3752372711
 20
31.4410487247
 30
0.0
 10
33.1722521728
 20
32.0960767317
 30
0.0
 10
32.8591192912
 20
32.9548785012
 30
0.0
 10
32.3884428406
 20
33.997796515
 30
0.0
 10
31.7044812398
 20
35.1879790607
 30
0.0
 10
30.9082980636
 20
36.3062797167
 30
0.0
 10
30.0068903396
 20
37.3416493216
 30
0.0
 10
29.0075582732
 20
38.2827624612
 30
0.0
 10
28.1020842606
 20
38.9822614143
 30
0.0
 10
27.3398495673
 20
39.4870087612
 30
0.0
 10
26.7503187817
 20
39.8373913112
 30
0.0
 10
26.1444144387
 20
40.1585524466
 30
0.0
 10
25.3167000544
 20
40.5464728804
 30
0.0
 10
24.2474470892
 20
40.9537880337
 30
0.0
 10
22.9231146442
 20
41.3150583093
 30
0.0
 10
21.5699933577
 20
41.5462193307
 30
0.0
 10
20.4287151185
 20
41.6280210741
 30
0.0
 10
19.5146106203
 20
41.6255071259
 30
0.0
 10
18.829775006
 20
41.5899437185
 30
0.0
 10
18.1474567147
 20
41.5209790516
 30
0.0
 10
17.2434323953
 20
41.3849189989
 30
0.0
 10
16.1273812997
 20
41.1327185146
 30
0.0
 10
14.8242879848
 20
40.7010457927
 30
0.0
 10
13.5702653171
 20
40.1426367331
 30
0.0
 10
12.5753756879
 20
39.5775086491
 30
0.0
 10
11.8154403543
 20
39.0693053355
 30
0.0
 10
11.2645869574
 20
38.6608021105
 30
0.0
 10
10.734365605
 20
38.2259113275
 30
0.0
 10
10.0569110435
 20
37.6121947945
 30
0.0
 10
9.2682941974
 20
36.7831605471
 30
0.0
 10
8.4236577764
 20
35.7010666156
 30
0.0
 10
7.6878978212
 20
34.5421182576
 30
0.0
 10
7.068611585
 20
33.316960855
 30
0.0
 10
6.573537934
 20
32.0366247271
 30
0.0
 10
6.2668869661
 20
30.9342875932
 30
0.0
 10
6.0866404981
 20
30.0380271274
 30
0.0
 10
5.9842849992
 20
29.3599136927
 30
0.0
 10
5.9151671056
 20
28.6776474216
 30
0.0
 10
5.8678111659
 20
27.7647669366
 30
0.0
 10
5.8935244913
 20
26.620849823
 30
0.0
 10
6.0580244473
 20
25.258017331
 30
0.0
 10
6.353889341
 20
23.9175559931
 30
0.0
 10
6.7082576063
 20
22.8296080729
 30
0.0
 10
7.0551041277
 20
21.9838593844
 30
0.0
 10
7.3461535305
 20
21.3629287767
 30
0.0
 10
7.6671923445
 20
20.7569184996
 30
0.0
 10
8.1339378199
 20
19.9708390066
 30
0.0
 10
8.7881702743
 20
19.0321404247
 30
0.0
 10
9.6791348099
 20
17.9878340891
 30
0.0
 10
10.6689955365
 20
17.0367456228
 30
0.0
 10
11.5674148434
 20
16.3282134255
 30
0.0
 10
12.3245549424
 20
15.8158549674
 30
0.0
 10
12.910545938
 20
15.4595841394
 30
0.0
 10
13.5132025714
 20
15.1323691368
 30
0.0
 10
14.3369888056
 20
14.7361761207
 30
0.0
 10
15.4021107828
 20
14.3181695572
 30
0.0
 10
16.7227444834
 20
13.9436504133
 30
0.0
 10
18.0735305913
 20
13.6989446741
 30
0.0
 10
19.4417454034
 20
13.5870772014
 30
0.0
 10
20.8142552927
 20
13.6110589479
 30
0.0
 10
21.9508774191
 20
13.7424823656
 30
0.0
 10
22.8489787342
 20
13.9133204164
 30
0.0
 10
23.5156632971
 20
14.0740878635
 30
0.0
 10
24.1736674944
 20
14.2672070603
 30
0.0
 10
25.0370779543
 20
14.5673999028
 30
0.0
 10
26.0869486665
 20
15.0223493786
 30
0.0
 10
27.2872839338
 20
15.6883582995
 30
0.0
 10
28.4173874599
 20
16.4676134915
 30
0.0
 10
29.2915491246
 20
17.2058877823
 30
0.0
 10
29.9442068068
 20
17.8459122377
 30
0.0
 10
30.409654493
 20
18.3495222315
 30
0.0
 10
30.8499793649
 20
18.8752868016
 30
0.0
 10
31.4021791426
 20
19.6038797699
 30
0.0
 10
32.0250813046
 20
20.5636547586
 30
0.0
 10
32.6565812009
 20
21.7825072546
 30
0.0
 10
33.1644642382
 20
23.0578300958
 30
0.0
 10
33.4821411731
 20
24.1570373058
 30
0.0
 10
33.6713575981
 20
25.0514474264
 30
0.0
 10
33.7805012746
 20
25.7285013442
 30
0.0
 10
33.8564506414
 20
26.4100410491
 30
0.0
 10
33.912949608
 20
27.3224009191
 30
0.0
 10
33.898696215
 20
28.4665211725
 30
0.0
 10
33.7478621473
 20
29.8309210569
 30
0.0
 10
33.4654232587
 20
31.1743243032
 30
0.0
 10
33.0533732001
 20
32.4838054419
 30
0.0
 10
32.5138730025
 20
33.7460645505
 30
0.0
 10
31.9637581745
 20
34.7493370204
 30
0.0
 10
31.4670316449
 20
35.516822764
 30
0.0
 10
31.0668520295
 20
36.0737525208
 30
0.0
 10
30.639977916
 20
36.6104489331
 30
0.0
 10
30.0365102155
 20
37.2970493258
 30
0.0
 10
29.2194227866
 20
38.098033515
 30
0.0
 10
28.1501311881
 20
38.9588401799
 30
0.0
 10
27.0024141049
 20
39.7119126405
 30
0.0
 10
25.98911813
 20
40.2433623669
 30
0.0
 10
25.1503097106
 20
40.6066718619
 30
0.0
 10
24.5084140167
 20
40.8479901013
 30
0.0
 10
23.8554660478
 20
41.0576882796
 30
0.0
 10
22.9724820785
 20
41.2945671896
 30
0.0
 10
21.8487169147
 20
41.509804242
 30
0.0
 10
20.4817388487
 20
41.6353609734
 30
0.0
 10
19.109044809
 20
41.6251334814
 30
0.0
 10
17.9711662082
 20
41.5051025898
 30
0.0
 10
17.0713980915
 20
41.3432704081
 30
0.0
 10
16.4031365094
 20
41.1891898841
 30
0.0
 10
15.743230577
 20
41.0026722271
 30
0.0
 10
14.8768564134
 20
40.7111443968
 30
0.0
 10
13.8224783928
 20
40.2667332071
 30
0.0
 10
12.6155407625
 20
39.6127916809
 30
0.0
 10
11.4776521287
 20
38.8448636482
 30
0.0
 10
10.4200334159
 20
37.9696672396
 30
0.0
 10
9.4541893037
 20
36.9942167498
 30
0.0
 10
8.7322340761
 20
36.1065441677
 30
0.0
 10
8.208556496
 20
35.3571888442
 30
0.0
 10
7.8435202977
 20
34.7766175271
 30
0.0
 10
7.5072863069
 20
34.1789459981
 30
0.0
 10
7.0987591932
 20
33.3612058309
 30
0.0
 10
6.6647946201
 20
32.3024885312
 30
0.0
 10
6.2704725635
 20
30.9876186572
 30
0.0
 10
6.0054980163
 20
29.6407106745
 30
0.0
 10
5.8951410803
 20
28.5018389337
 30
0.0
 10
5.8747624968
 20
27.5879581831
 30
0.0
 10
5.8931645329
 20
26.9024467875
 30
0.0
 10
5.9450204536
 20
26.2186153646
 30
0.0
 10
6.0583982777
 20
25.3114676322
 30
0.0
 10
6.2825723998
 20
24.1894478286
 30
0.0
 10
6.6814688795
 20
22.8759647549
 30
0.0
 10
7.208326322
 20
21.6083066226
 30
0.0
 10
7.8562285636
 20
20.3980629026
 30
0.0
 10
8.6184460797
 20
19.2563520374
 30
0.0
 10
9.488323876
 20
18.1943678128
 30
0.0
 10
10.4589677926
 20
17.2236211208
 30
0.0
 10
11.5196039365
 20
16.3521121897
 30
0.0
 10
12.6597576076
 20
15.5875696239
 30
0.0
 10
13.8690094798
 20
14.9377952067
 30
0.0
 10
15.1365915934
 20
14.4107990056
 30
0.0
 10
16.449506752
 20
14.0098687324
 30
0.0
 10
17.7950863122
 20
13.738155833
 30
0.0
 10
19.0504220883
 20
13.6101612271
 30
0.0
 10
20.2001698251
 20
13.5934240221
 30
0.0
 10
21.2373577275
 20
13.6553022057
 30
0.0
 10
22.2671968286
 20
13.7933537612
 30
0.0
 10
22.9451351959
 20
13.9356325419
 30
0.0
 10
23.2810137957
 20
14.0191960603
 30
0.0
  0
SPLINE
  5
2AF
100
AcDbEntity
  8
0
100
AcDbSpline
 62
7
  6
BYLAYER
 70
0
 71
3
 72
35
 73
31
 74
0
 42
0.0000001
 43
0.0000001
 44
0.0000000001
 40
0.0
 40
0.0
 40
0.0
 40
0.0
 40
0.0218139947
 40
0.0580431061
 40
0.0942710389
 40
0.1304983565
 40
0.1667260465
 40
0.2029550221
 40
0.239185931
 40
0.2754175745
 40
0.3116481167
 40
0.3478770151
 40
0.3841048307
 40
0.420332206
 40
0.4565601236
 40
0.4927895223
 40
0.5290207372
 40
0.5652522676
 40
0.6014823955
 40
0.6377109085
 40
0.6739384025
 40
0.710165583
 40
0.746393415
 40
0.782622902
 40
0.8188542036
 40
0.8550857177
 40
0.8913158592
 40
0.9275445227
 40
0.963772251
 40
1.0
 40
1.0
 40
1.0
 40
1.0
 10
12.384364268
 20
15.7844846443
 30
0.0
 10
12.593414359
 20
15.6520027197
 30
0.0
 10
13.1590130202
 20
15.314249309
 30
0.0
 10
14.1144415781
 20
14.8312060414
 30
0.0
 10
15.2605681829
 20
14.3731147644
 30
0.0
 10
16.4423709275
 20
14.017086559
 30
0.0
 10
17.6508659755
 20
13.76613029
 30
0.0
 10
18.8767306605
 20
13.6218791222
 30
0.0
 10
20.1106184496
 20
13.5863288578
 30
0.0
 10
21.3428116541
 20
13.6603967114
 30
0.0
 10
22.5636142989
 20
13.8428582144
 30
0.0
 10
23.7637172426
 20
14.1314510614
 30
0.0
 10
24.9338289385
 20
14.5242419764
 30
0.0
 10
26.0650707818
 20
15.0179118793
 30
0.0
 10
27.1486463251
 20
15.6089467394
 30
0.0
 10
28.1763692014
 20
16.2925975059
 30
0.0
 10
29.1396804887
 20
17.0644796636
 30
0.0
 10
30.0307402158
 20
17.9187510277
 30
0.0
 10
30.8430696195
 20
18.8481256991
 30
0.0
 10
31.5709550196
 20
19.8449631112
 30
0.0
 10
32.2085174064
 20
20.9018148859
 30
0.0
 10
32.7511522457
 20
22.0103944405
 30
0.0
 10
33.1944351313
 20
23.1623278535
 30
0.0
 10
33.5351893728
 20
24.3487052804
 30
0.0
 10
33.7695705243
 20
25.5606630236
 30
0.0
 10
33.8956819531
 20
26.78861153
 30
0.0
 10
33.9132317999
 20
28.0228312034
 30
0.0
 10
33.8227237981
 20
29.2538377498
 30
0.0
 10
33.6245046412
 20
30.4720164905
 30
0.0
 10
33.4218256809
 20
31.26971092
 30
0.0
 10
33.3031667362
 20
31.6631004387
 30
0.0
  0
SPLINE
  5
2B0
100
AcDbEntity
  8
0
100
AcDbSpline
 62
7
  6
BYLAYER
 70
0
 71
3
 72
32
 73
28
 74
0
 42
0.0000001
 43
0.0000001
 44
0.0000000001
 40
0.0
 40
0.0
 40
0.0
 40
0.0
 40
0.1090017416
 40
0.2050512352
 40
0.2899945249
 40
0.365491062
 40
0.4328542411
 40
0.4931808928
 40
0.5473939671
 40
0.5962752077
 40
0.6404624309
 40
0.6805291228
 40
0.7170704893
 40
0.7504560451
 40
0.7809612292
 40
0.8088833126
 40
0.8344630805
 40
0.8578930971
 40
0.8793960773
 40
0.8991810052
 40
0.9174092104
 40
0.9342196031
 40
0.9496796537
 40
0.9639348806
 40
0.9771481871
 40
0.9891716946
 40
1.0
 40
1.0
 40
1.0
 40
1.0
 10
17.8412687535
 20
13.7536788417
 30
0.0
 10
17.4685825259
 20
13.8135654388
 30
0.0
 10
16.7716625849
 20
13.9540850889
 30
0.0
 10
15.8034683267
 20
14.2234951462
 30
0.0
 10
14.9649531048
 20
14.5182257054
 30
0.0
 10
14.2370493561
 20
14.8233620888
 30
0.0
 10
13.6031920498
 20
15.1295051476
 30
0.0
 10
13.049320393
 20
15.4299804624
 30
0.0
 10
12.5635493252
 20
15.7205963717
 30
0.0
 10
12.1359293988
 20
15.9987677572
 30
0.0
 10
11.7581205035
 20
16.2631366071
 30
0.0
 10
11.4228063064
 20
16.5133247162
 30
0.0
 10
11.123857013
 20
16.7494358654
 30
0.0
 10
10.8563504597
 20
16.9717454016
 30
0.0
 10
10.6164676344
 20
17.1804537921
 30
0.0
 10
10.4009167555
 20
17.375847149
 30
0.0
 10
10.2069656446
 20
17.5585081028
 30
0.0
 10
10.0319276293
 20
17.7287761651
 30
0.0
 10
9.8737090653
 20
17.8875158009
 30
0.0
 10
9.7303495162
 20
18.0355965773
 30
0.0
 10
9.5998353815
 20
18.1734772628
 30
0.0
 10
9.4811750881
 20
18.3019369176
 30
0.0
 10
9.3725860861
 20
18.4209585968
 30
0.0
 10
9.2731671887
 20
18.5314959752
 30
0.0
 10
9.1838324977
 20
18.635038208
 30
0.0
 10
9.0999293039
 20
18.7276155518
 30
0.0
 10
9.0424437605
 20
18.7821595407
 30
0.0
 10
9.0141333648
 20
18.8067483408
 30
0.0
  0
SPLINE
  5
2B1
100
AcDbEntity
  8
0
100
AcDbSpline
 62
7
  6
BYLAYER
 70
0
 71
3
 72
10
 73
6
 74
0
 42
0.0000001
 43
0.0000001
 44
0.0000000001
 40
0.0
 40
0.0
 40
0.0
 40
0.0
 40
0.3331464586
 40
0.6664706832
 40
1.0
 40
1.0
 40
1.0
 40
1.0
 10
19.8914882596
 20
38.5065409309
 30
0.0
 10
19.9395563112
 20
38.507333067
 30
0.0
 10
20.0357459594
 20
38.5071974837
 30
0.0
 10
20.1800220069
 20
38.5043401569
 30
0.0
 10
20.2762041525
 20
38.5008624589
 30
0.0
 10
20.3242601194
 20
38.4981970832
 30
0.0
  0
SPLINE
  5
2B2
100
AcDbEntity
  8
0
100
AcDbSpline
 62
7
  6
BYLAYER
 70
0
 71
3
 72
15
 73
11
 74
0
 42
0.0000001
 43
0.0000001
 44
0.0000000001
 40
0.0
 40
0.0
 40
0.0
 40
0.0
 40
0.1250701883
 40
0.2511603031
 40
0.3766392009
 40
0.4995157938
 40
0.6230120759
 40
0.7479830523
 40
0.8738395041
 40
1.0
 40
1.0
 40
1.0
 40
1.0
 10
14.0572642478
 20
32.5138250601
 30
0.0
 10
14.050588641
 20
32.9004408247
 30
0.0
 10
14.114978261
 20
33.6803293027
 30
0.0
 10
14.4407298123
 20
34.8060487948
 30
0.0
 10
14.9800247602
 20
35.8390434813
 30
0.0
 10
15.7032392925
 20
36.7418709071
 30
0.0
 10
16.5866734691
 20
37.4864106654
 30
0.0
 10
17.6052504109
 20
38.0511593491
 30
0.0
 10
18.7215441561
 20
38.4103541916
 30
0.0
 10
19.5014969673
 20
38.5001140806
 30
0.0
 10
19.8914882596
 20
38.5065409311
 30
0.0
  0
SPLINE
  5
2B3
100
AcDbEntity
  8
0
100
AcDbSpline
 62
7
  6
BYLAYER
 70
0
 71
3
 72
15
 73
11
 74
0
 42
0.0000001
 43
0.0000001
 44
0.0000000001
 40
0.0
 40
0.0
 40
0.0
 40
0.0
 40
0.1245559488
 40
0.2491362715
 40
0.3733034427
 40
0.4970474102
 40
0.6214849452
 40
0.7475899068
 40
0.8735554606
 40
1.0
 40
1.0
 40
1.0
 40
1.0
 10
19.8914882596
 20
26.8379552774
 30
0.0
 10
19.5167833863
 20
26.8311763123
 30
0.0
 10
18.7638564359
 20
26.8928587568
 30
0.0
 10
17.6775822192
 20
27.2047868094
 30
0.0
 10
16.6750362653
 20
27.7217282687
 30
0.0
 10
15.7917394198
 20
28.4224386434
 30
0.0
 10
15.058703013
 20
29.2867728657
 30
0.0
 10
14.5032496192
 20
30.2825694839
 30
0.0
 10
14.1519254799
 20
31.37329313
 30
0.0
 10
14.0638323889
 20
32.1334331467
 30
0.0
 10
14.0572642478
 20
32.5138250601
 30
0.0
  0
SPLINE
  5
2B4
100
AcDbEntity
  8
0
100
AcDbSpline
 62
7
  6
BYLAYER
 70
0
 71
3
 72
14
 73
10
 74
0
 42
0.0000001
 43
0.0000001
 44
0.0000000001
 40
0.0
 40
0.0
 40
0.0
 40
0.0
 40
0.143082856
 40
0.2872274724
 40
0.4303472018
 40
0.5707664875
 40
0.7121887133
 40
0.8557965838
 40
1.0
 40
1.0
 40
1.0
 40
1.0
 10
25.4087283767
 20
32.513825059
 30
0.0
 10
25.4165996113
 20
32.0954485143
 30
0.0
 10
25.3352369285
 20
31.250671007
 30
0.0
 10
24.9308842343
 20
30.0479029048
 30
0.0
 10
24.2716187759
 20
28.9722008895
 30
0.0
 10
23.3950856228
 20
28.0770078778
 30
0.0
 10
22.3432987912
 20
27.3932670975
 30
0.0
 10
21.1559948768
 20
26.955592536
 30
0.0
 10
20.3131469578
 20
26.8455837018
 30
0.0
 10
19.8914882596
 20
26.8379552726
 30
0.0
  0
SPLINE
  5
2B5
100
AcDbEntity
  8
0
100
AcDbSpline
 62
7
  6
BYLAYER
 70
0
 71
3
 72
10
 73
6
 74
0
 42
0.0000001
 43
0.0000001
 44
0.0000000001
 40
0.0
 40
0.0
 40
0.0
 40
0.0
 40
0.3340300191
 40
0.6673609729
 40
1.0
 40
1.0
 40
1.0
 40
1.0
 10
24.3086329381
 20
35.7131181223
 30
0.0
 10
24.5386174496
 20
35.4078263875
 30
0.0
 10
24.9347418112
 20
34.7469937294
 30
0.0
 10
25.3076450755
 20
33.6572125166
 30
0.0
 10
25.4015290256
 20
32.8943909826
 30
0.0
 10
25.4086889003
 20
32.513825059
 30
0.0
  0
SPLINE
  5
2B6
100
AcDbEntity
  8
0
100
AcDbSpline
 62
7
  6
BYLAYER
 70
0
 71
3
 72
16
 73
12
 74
0
 42
0.0000001
 43
0.0000001
 44
0.0000000001
 40
0.0
 40
0.0
 40
0.0
 40
0.0
 40
0.1111104961
 40
0.2210963216
 40
0.3313055717
 40
0.442450189
 40
0.5541674072
 40
0.6656779824
 40
0.7769160967
 40
0.8882330191
 40
1.0
 40
1.0
 40
1.0
 40
1.0
 10
19.8914882596
 20
37.9028668489
 30
0.0
 10
20.080767361
 20
37.9043005267
 30
0.0
 10
20.4577650501
 20
37.8858812066
 30
0.0
 10
21.0170460979
 20
37.8035860509
 30
0.0
 10
21.5645993033
 20
37.6620786785
 30
0.0
 10
22.0973615646
 20
37.4639927085
 30
0.0
 10
22.6088798437
 20
37.2110261074
 30
0.0
 10
23.0917316143
 20
36.9066379542
 30
0.0
 10
23.5401396559
 20
36.5544965605
 30
0.0
 10
23.9495209706
 20
36.157148456
 30
0.0
 10
24.1941988142
 20
35.8652959632
 30
0.0
 10
24.3086329381
 20
35.7131181223
 30
0.0
  0
SPLINE
  5
2B7
100
AcDbEntity
  8
0
100
AcDbSpline
 62
7
  6
BYLAYER
 70
0
 71
3
 72
93
 73
89
 74
0
 42
0.0000001
 43
0.0000001
 44
0.0000000001
 40
0.0
 40
0.0
 40
0.0
 40
0.0
 40
0.0118067866
 40
0.0235024005
 40
0.0351168288
 40
0.0466664708
 40
0.0583436265
 40
0.0700278161
 40
0.081713771
 40
0.0933821851
 40
0.1049697473
 40
0.1165524126
 40
0.1282067648
 40
0.1398839329
 40
0.1515349247
 40
0.1631742468
 40
0.1748220687
 40
0.1864610492
 40
0.1980806015
 40
0.2097821391
 40
0.2214701329
 40
0.2331365191
 40
0.2448307818
 40
0.2565325652
 40
0.2681790338
 40
0.2798175622
 40
0.2914644239
 40
0.3031302813
 40
0.3148003808
 40
0.3263981184
 40
0.337990016
 40
0.3496623235
 40
0.3613202389
 40
0.372880901
 40
0.3843629475
 40
0.3958449196
 40
0.4073930164
 40
0.4190110808
 40
0.4307026764
 40
0.4424105004
 40
0.4540852837
 40
0.4657024901
 40
0.4772533906
 40
0.4887438989
 40
0.5002042796
 40
0.5116663449
 40
0.523160848
 40
0.5347182295
 40
0.5463422548
 40
0.5580192125
 40
0.569721949
 40
0.5813996617
 40
0.5929986765
 40
0.6045384963
 40
0.6160318395
 40
0.6275096495
 40
0.6390118754
 40
0.6506151869
 40
0.6622796983
 40
0.6739164288
 40
0.6855855003
 40
0.6972814893
 40
0.7090009143
 40
0.7207192801
 40
0.7323208647
 40
0.7439631596
 40
0.7558002322
 40
0.7676190707
 40
0.7793808871
 40
0.7910133696
 40
0.8025574525
 40
0.8142373969
 40
0.82595239
 40
0.8375889452
 40
0.8491599103
 40
0.8607107018
 40
0.8723115659
 40
0.8839601193
 40
0.8955893097
 40
0.9072012721
 40
0.9188232547
 40
0.9303828161
 40
0.9419202105
 40
0.9535394168
 40
0.9651702844
 40
0.9767877669
 40
0.988397533
 40
1.0
 40
1.0
 40
1.0
 40
1.0
 10
15.1686404112
 20
35.2405934878
 30
0.0
 10
15.3765532119
 20
35.5996811188
 30
0.0
 10
15.8720831168
 20
36.2710917907
 30
0.0
 10
16.8207823263
 20
37.0764471512
 30
0.0
 10
17.9168115882
 20
37.6464849594
 30
0.0
 10
19.111461964
 20
37.9587334053
 30
0.0
 10
20.3483949049
 20
37.9947020914
 30
0.0
 10
21.566790067
 20
37.7530115139
 30
0.0
 10
22.6996989172
 20
37.2437961166
 30
0.0
 10
23.6858033492
 20
36.4945534935
 30
0.0
 10
24.4787051229
 20
35.5482004328
 30
0.0
 10
25.0399052615
 20
34.448844066
 30
0.0
 10
25.3418363658
 20
33.2488665334
 30
0.0
 10
25.3691947452
 20
32.0092129001
 30
0.0
 10
25.1162442837
 20
30.795802857
 30
0.0
 10
24.5992387371
 20
29.6707641755
 30
0.0
 10
23.8450727156
 20
28.6890321969
 30
0.0
 10
22.8894049058
 20
27.9031923294
 30
0.0
 10
21.781521451
 20
27.3487665119
 30
0.0
 10
20.5756453102
 20
27.0553156902
 30
0.0
 10
19.3331204238
 20
27.042427338
 30
0.0
 10
18.1194001871
 20
27.3066211212
 30
0.0
 10
16.9952821654
 20
27.8369950857
 30
0.0
 10
16.0206345401
 20
28.6069400939
 30
0.0
 10
15.2431983027
 20
29.5729320522
 30
0.0
 10
14.7034153982
 20
30.6873041112
 30
0.0
 10
14.4267721452
 20
31.8946841073
 30
0.0
 10
14.4256747535
 20
33.1346410968
 30
0.0
 10
14.7041534674
 20
34.3412470623
 30
0.0
 10
15.2432508486
 20
35.4527014949
 30
0.0
 10
16.0156416188
 20
36.4171227574
 30
0.0
 10
16.987147312
 20
37.1842518058
 30
0.0
 10
18.1039861503
 20
37.7149940921
 30
0.0
 10
19.3045030887
 20
37.9820805613
 30
0.0
 10
20.5278408553
 20
37.9751233237
 30
0.0
 10
21.7194066257
 20
37.7003977284
 30
0.0
 10
22.8250754981
 20
37.1660835257
 30
0.0
 10
23.7891818018
 20
36.3936967078
 30
0.0
 10
24.5610907837
 20
35.4217504272
 30
0.0
 10
25.0944333373
 20
34.2985461191
 30
0.0
 10
25.361083198
 20
33.0871175516
 30
0.0
 10
25.3518878303
 20
31.8522343386
 30
0.0
 10
25.0674833232
 20
30.6572516822
 30
0.0
 10
24.528929262
 20
29.5598691907
 30
0.0
 10
23.7646355784
 20
28.6096443609
 30
0.0
 10
22.8082295293
 20
27.8528709254
 30
0.0
 10
21.7061714339
 20
27.3229361813
 30
0.0
 10
20.5082991959
 20
27.0481464012
 30
0.0
 10
19.2728249171
 20
27.0491410621
 30
0.0
 10
18.0635174299
 20
27.3259080881
 30
0.0
 10
16.9453511586
 20
27.8683499721
 30
0.0
 10
15.9807746454
 20
28.6472581939
 30
0.0
 10
15.2168559304
 20
29.616189846
 30
0.0
 10
14.6911888196
 20
30.7253510339
 30
0.0
 10
14.425477353
 20
31.9189378611
 30
0.0
 10
14.4278731049
 20
33.1404773072
 30
0.0
 10
14.7024771423
 20
34.3349165593
 30
0.0
 10
15.237915217
 20
35.4446454906
 30
0.0
 10
16.0098244687
 20
36.4115468877
 30
0.0
 10
16.981703029
 20
37.1808611214
 30
0.0
 10
18.1014611933
 20
37.7146353685
 30
0.0
 10
19.3154684364
 20
37.9848249195
 30
0.0
 10
20.5608070966
 20
37.9731132024
 30
0.0
 10
21.7686374639
 20
37.6840049665
 30
0.0
 10
22.8783410473
 20
37.1324494789
 30
0.0
 10
23.8393444572
 20
36.343637689
 30
0.0
 10
24.6043176279
 20
35.3532445712
 30
0.0
 10
25.1246675675
 20
34.2103499122
 30
0.0
 10
25.3711033971
 20
32.9867723419
 30
0.0
 10
25.3384384659
 20
31.7488630758
 30
0.0
 10
25.0295330477
 20
30.5527824148
 30
0.0
 10
24.46110657
 20
29.4527038557
 30
0.0
 10
23.6586396041
 20
28.5049331194
 30
0.0
 10
22.6658468644
 20
27.7656604984
 30
0.0
 10
21.5395434945
 20
27.2672457758
 30
0.0
 10
20.3317384153
 20
27.031314983
 30
0.0
 10
19.0990611632
 20
27.0718583229
 30
0.0
 10
17.9033867085
 20
27.3854617773
 30
0.0
 10
16.8078492128
 20
27.9592704729
 30
0.0
 10
15.8696610263
 20
28.7632138821
 30
0.0
 10
15.1343908605
 20
29.7531417016
 30
0.0
 10
14.6403501151
 20
30.880133603
 30
0.0
 10
14.4089018561
 20
32.088289636
 30
0.0
 10
14.4503713448
 20
33.3205579389
 30
0.0
 10
14.7686533766
 20
34.5147607512
 30
0.0
 10
15.3448098904
 20
35.607516912
 30
0.0
 10
16.1480411149
 20
36.5444849324
 30
0.0
 10
16.8118910234
 20
37.0323837336
 30
0.0
 10
17.1647560362
 20
37.2367132472
 30
0.0
  0
SPLINE
  5
2B8
100
AcDbEntity
  8
0
100
AcDbSpline
 62
7
  6
BYLAYER
 70
0
 71
3
 72
12
 73
8
 74
0
 42
0.0000001
 43
0.0000001
 44
0.0000000001
 40
0.0
 40
0.0
 40
0.0
 40
0.0
 40
0.1967664876
 40
0.3947197982
 40
0.5966095132
 40
0.7997666896
 40
1.0
 40
1.0
 40
1.0
 40
1.0
 10
17.0113520816
 20
37.5023680894
 30
0.0
 10
16.6626503358
 20
37.3093093153
 30
0.0
 10
16.0017267311
 20
36.8472549946
 30
0.0
 10
15.170303858
 20
35.9587420888
 30
0.0
 10
14.5348030848
 20
34.9047861809
 30
0.0
 10
14.1318926677
 20
33.7375369773
 30
0.0
 10
14.0322368294
 20
32.9193709552
 30
0.0
 10
14.0255658584
 20
32.5138250601
 30
0.0
  0
SPLINE
  5
2B9
100
AcDbEntity
  8
0
100
AcDbSpline
 62
7
  6
BYLAYER
 70
0
 71
3
 72
14
 73
10
 74
0
 42
0.0000001
 43
0.0000001
 44
0.0000000001
 40
0.0
 40
0.0
 40
0.0
 40
0.0
 40
0.1413699607
 40
0.285019665
 40
0.4291737328
 40
0.5710858505
 40
0.711905324
 40
0.8544945555
 40
1.0
 40
1.0
 40
1.0
 40
1.0
 10
14.0255658584
 20
32.5138250601
 30
0.0
 10
14.0194642027
 20
32.1428893384
 30
0.0
 10
14.0790464186
 20
31.3920786406
 30
0.0
 10
14.3784651591
 20
30.2995388717
 30
0.0
 10
14.8836849881
 20
29.2832972893
 30
0.0
 10
15.5676636377
 20
28.3878796878
 30
0.0
 10
16.4023059023
 20
27.6370512143
 30
0.0
 10
17.3704976963
 20
27.0506438708
 30
0.0
 10
18.0846371209
 20
26.7861588648
 30
0.0
 10
18.4538061016
 20
26.688615191
 30
0.0
  0
SPLINE
  5
2BA
100
AcDbEntity
  8
0
100
AcDbSpline
 62
7
  6
BYLAYER
 70
0
 71
3
 72
15
 73
11
 74
0
 42
0.0000001
 43
0.0000001
 44
0.0000000001
 40
0.0
 40
0.0
 40
0.0
 40
0.0
 40
0.1270157642
 40
0.2529556347
 40
0.3774556296
 40
0.5016436741
 40
0.6258600671
 40
0.7517055141
 40
0.8768668025
 40
1.0
 40
1.0
 40
1.0
 40
1.0
 10
19.8914882596
 20
38.2214755438
 30
0.0
 10
20.2652016391
 20
38.2154298484
 30
0.0
 10
21.0100913581
 20
38.1270383358
 30
0.0
 10
22.0736912168
 20
37.7843972491
 30
0.0
 10
23.0426253324
 20
37.2438538667
 30
0.0
 10
23.8856226094
 20
36.5306377648
 30
0.0
 10
24.5759623155
 20
35.663535686
 30
0.0
 10
25.085111513
 20
34.67555609
 30
0.0
 10
25.3885924802
 20
33.6099087701
 30
0.0
 10
25.4464172138
 20
32.8761127995
 30
0.0
 10
25.4404267662
 20
32.513825059
 30
0.0
  0
SPLINE
  5
2BB
100
AcDbEntity
  8
0
100
AcDbSpline
 62
7
  6
BYLAYER
 70
0
 71
3
 72
10
 73
6
 74
0
 42
0.0000001
 43
0.0000001
 44
0.0000000001
 40
0.0
 40
0.0
 40
0.0
 40
0.0
 40
0.3342358004
 40
0.6675644857
 40
1.0
 40
1.0
 40
1.0
 40
1.0
 10
19.8914882596
 20
27.1097510525
 30
0.0
 10
20.2715820118
 20
27.1051456082
 30
0.0
 10
21.0341731388
 20
27.1771378721
 30
0.0
 10
22.1266494734
 20
27.5184861836
 30
0.0
 10
22.7939966035
 20
27.8894484297
 30
0.0
 10
23.1037597748
 20
28.1062130204
 30
0.0
  0
SPLINE
  5
2BC
100
AcDbEntity
  8
0
100
AcDbSpline
 62
7
  6
BYLAYER
 70
0
 71
3
 72
35
 73
31
 74
0
 42
0.0000001
 43
0.0000001
 44
0.0000000001
 40
0.0
 40
0.0
 40
0.0
 40
0.0
 40
0.0074640353
 40
0.0161307322
 40
0.0259663393
 40
0.0366939235
 40
0.0482605814
 40
0.0608205834
 40
0.0744467031
 40
0.0892319244
 40
0.1053087367
 40
0.1227941613
 40
0.1418306182
 40
0.1625686287
 40
0.1851766982
 40
0.2098457005
 40
0.2368053405
 40
0.2663333951
 40
0.2987152337
 40
0.3342426828
 40
0.3733405211
 40
0.4164827984
 40
0.4641605962
 40
0.5169952864
 40
0.5758198201
 40
0.6416189859
 40
0.7154543153
 40
0.7986328514
 40
0.8928096044
 40
1.0
 40
1.0
 40
1.0
 40
1.0
 10
15.5354938294
 20
29.264845484
 30
0.0
 10
15.546969361
 20
29.2599344035
 30
0.0
 10
15.5703704386
 20
29.2459704872
 30
0.0
 10
15.6027960521
 20
29.2168639101
 30
0.0
 10
15.6353030427
 20
29.1803134343
 30
0.0
 10
15.6700550156
 20
29.1393428126
 30
0.0
 10
15.7081422484
 20
29.0952155003
 30
0.0
 10
15.7500726087
 20
29.0480141023
 30
0.0
 10
15.7960666564
 20
28.9972276188
 30
0.0
 10
15.846431407
 20
28.9424681545
 30
0.0
 10
15.9016660609
 20
28.8834213904
 30
0.0
 10
15.9626362056
 20
28.8200144445
 30
0.0
 10
16.0299660981
 20
28.7519209956
 30
0.0
 10
16.1045163442
 20
28.6789364894
 30
0.0
 10
16.1872056184
 20
28.6008251654
 30
0.0
 10
16.2790877978
 20
28.5173237284
 30
0.0
 10
16.3815809294
 20
28.4283372453
 30
0.0
 10
16.4961919125
 20
28.333699384
 30
0.0
 10
16.6245109688
 20
28.2332376232
 30
0.0
 10
16.7686948375
 20
28.1271954684
 30
0.0
 10
16.9311759954
 20
28.015827793
 30
0.0
 10
17.1147954676
 20
27.89959155
 30
0.0
 10
17.3229119152
 20
27.7794379259
 30
0.0
 10
17.5596314871
 20
27.6568743876
 30
0.0
 10
17.8299887648
 20
27.5341366943
 30
0.0
 10
18.1397785457
 20
27.4144925376
 30
0.0
 10
18.4955235022
 20
27.3027094585
 30
0.0
 10
18.9046526253
 20
27.2056463155
 30
0.0
 10
19.3755360694
 20
27.1335015306
 30
0.0
 10
19.712249078
 20
27.112372732
 30
0.0
 10
19.8914882596
 20
27.109877518
 30
0.0
  0
SPLINE
  5
2BD
100
AcDbEntity
  8
0
100
AcDbSpline
 62
7
  6
BYLAYER
 70
0
 71
3
 72
10
 73
6
 74
0
 42
0.0000001
 43
0.0000001
 44
0.0000000001
 40
0.0
 40
0.0
 40
0.0
 40
0.0
 40
0.332528273
 40
0.6672858427
 40
1.0
 40
1.0
 40
1.0
 40
1.0
 10
15.6403807098
 20
29.0970844185
 30
0.0
 10
15.6283661066
 20
29.1154323632
 30
0.0
 10
15.6045144107
 20
29.1524214045
 30
0.0
 10
15.5696306497
 20
29.208397547
 30
0.0
 10
15.5467699803
 20
29.2460203919
 30
0.0
 10
15.5354938294
 20
29.264845484
 30
0.0
  0
SPLINE
  5
2BE
100
AcDbEntity
  8
0
100
AcDbSpline
 62
7
  6
BYLAYER
 70
0
 71
3
 72
28
 73
24
 74
0
 42
0.0000001
 43
0.0000001
 44
0.0000000001
 40
0.0
 40
0.0
 40
0.0
 40
0.0
 40
0.0470026804
 40
0.0943277535
 40
0.1418131313
 40
0.1891326635
 40
0.2368532034
 40
0.2847257635
 40
0.3326176604
 40
0.3804421416
 40
0.4281187451
 40
0.4756513927
 40
0.5231204575
 40
0.5706374306
 40
0.6183408382
 40
0.6662314758
 40
0.7140964067
 40
0.7618206648
 40
0.8094833296
 40
0.856966455
 40
0.9047846927
 40
0.9525524632
 40
1.0
 40
1.0
 40
1.0
 40
1.0
 10
17.1645597172
 20
37.2370161234
 30
0.0
 10
17.5012255899
 20
37.4314627548
 30
0.0
 10
18.2214595055
 20
37.7493786245
 30
0.0
 10
19.3790813492
 20
37.9866111064
 30
0.0
 10
20.5640289912
 20
37.968873062
 30
0.0
 10
21.7203629896
 20
37.6967198233
 30
0.0
 10
22.7950528098
 20
37.1821766279
 30
0.0
 10
23.7357359564
 20
36.442964037
 30
0.0
 10
24.4951450298
 20
35.5176387043
 30
0.0
 10
25.0362216187
 20
34.4514759533
 30
0.0
 10
25.3317531645
 20
33.2961993835
 30
0.0
 10
25.3730334393
 20
32.1075748199
 30
0.0
 10
25.1578997586
 20
30.9390189933
 30
0.0
 10
24.6952331797
 20
29.8432091731
 30
0.0
 10
24.006746696
 20
28.8688351177
 30
0.0
 10
23.1208087192
 20
28.065079666
 30
0.0
 10
22.0817735961
 20
27.4724610651
 30
0.0
 10
20.9414007451
 20
27.1175781546
 30
0.0
 10
19.7542902725
 20
27.0191432478
 30
0.0
 10
18.5732474549
 20
27.1777027612
 30
0.0
 10
17.4525973539
 20
27.5868443283
 30
0.0
 10
16.4484881342
 20
28.2294025522
 30
0.0
 10
15.8865193023
 20
28.7914130206
 30
0.0
 10
15.6405425044
 20
29.0972292023
 30
0.0
  0
SPLINE
  5
2BF
100
AcDbEntity
  8
0
100
AcDbSpline
 62
7
  6
BYLAYER
 70
0
 71
3
 72
10
 73
6
 74
0
 42
0.0000001
 43
0.0000001
 44
0.0000000001
 40
0.0
 40
0.0
 40
0.0
 40
0.0
 40
0.3341456282
 40
0.6674434576
 40
1.0
 40
1.0
 40
1.0
 40
1.0
 10
19.8914882596
 20
38.2215149798
 30
0.0
 10
19.5575758603
 20
38.2269168005
 30
0.0
 10
18.8882996135
 20
38.1771433185
 30
0.0
 10
17.9142331121
 20
37.9347623786
 30
0.0
 10
17.302208945
 20
37.6632118323
 30
0.0
 10
17.0113520816
 20
37.5023680894
 30
0.0
  0
SPLINE
  5
2C0
100
AcDbEntity
  8
0
100
AcDbSpline
 62
7
  6
BYLAYER
 70
0
 71
3
 72
12
 73
8
 74
0
 42
0.0000001
 43
0.0000001
 44
0.0000000001
 40
0.0
 40
0.0
 40
0.0
 40
0.0
 40
0.1940738452
 40
0.3926334959
 40
0.5952638325
 40
0.7983309239
 40
1.0
 40
1.0
 40
1.0
 40
1.0
 10
23.1037597748
 20
28.1062130204
 30
0.0
 10
23.3774286898
 20
28.2983950819
 30
0.0
 10
23.8959909868
 20
28.7399383411
 30
0.0
 10
24.5451646466
 20
29.5412352675
 30
0.0
 10
25.0419251947
 20
30.4636448167
 30
0.0
 10
25.355380912
 20
31.4684860529
 30
0.0
 10
25.4346816997
 20
32.1663773769
 30
0.0
 10
25.4404267662
 20
32.513825059
 30
0.0
  0
SPLINE
  5
2C1
100
AcDbEntity
  8
0
100
AcDbSpline
 62
7
  6
BYLAYER
 70
0
 71
3
 72
12
 73
8
 74
0
 42
0.0000001
 43
0.0000001
 44
0.0000000001
 40
0.0
 40
0.0
 40
0.0
 40
0.0
 40
0.2036390145
 40
0.4042357645
 40
0.6044040042
 40
0.8037629525
 40
1.0
 40
1.0
 40
1.0
 40
1.0
 10
19.8914882596
 20
26.7232233459
 30
0.0
 10
19.5507517325
 20
26.7447166232
 30
0.0
 10
18.8767828673
 20
26.8497528227
 30
0.0
 10
17.9140969817
 20
27.1816645289
 30
0.0
 10
17.0313344183
 20
27.6760224127
 30
0.0
 10
16.2578336891
 20
28.3160339061
 30
0.0
 10
15.8277421623
 20
28.8266417553
 30
0.0
 10
15.6403807098
 20
29.0970844185
 30
0.0
  0
SPLINE
  5
2C2
100
AcDbEntity
  8
0
100
AcDbSpline
 62
7
  6
BYLAYER
 70
0
 71
3
 72
10
 73
6
 74
0
 42
0.0000001
 43
0.0000001
 44
0.0000000001
 40
0.0
 40
0.0
 40
0.0
 40
0.0
 40
0.3339986257
 40
0.6685948774
 40
1.0
 40
1.0
 40
1.0
 40
1.0
 10
23.0588940887
 20
27.4179894741
 30
0.0
 10
22.7374516429
 20
27.2445966514
 30
0.0
 10
22.0598300984
 20
26.9570756645
 30
0.0
 10
20.9861540224
 20
26.7209465651
 30
0.0
 10
20.2531598426
 20
26.7004094627
 30
0.0
 10
19.8914882596
 20
26.7232232999
 30
0.0
  0
SPLINE
  5
2C3
100
AcDbEntity
  8
0
100
AcDbSpline
 62
7
  6
BYLAYER
 70
0
 71
3
 72
89
 73
85
 74
0
 42
0.0000001
 43
0.0000001
 44
0.0000000001
 40
0.0
 40
0.0
 40
0.0
 40
0.0
 40
0.0124187525
 40
0.0246376859
 40
0.0367629252
 40
0.0488722573
 40
0.0611110852
 40
0.0733134072
 40
0.0854878789
 40
0.0976688862
 40
0.1098555482
 40
0.1220408961
 40
0.1342579407
 40
0.1465436913
 40
0.1587706735
 40
0.1709213459
 40
0.1830547793
 40
0.1951887785
 40
0.2073482738
 40
0.2195415667
 40
0.2317055965
 40
0.2439039341
 40
0.2561294588
 40
0.2683045988
 40
0.2804364484
 40
0.2926296895
 40
0.3048820674
 40
0.317088044
 40
0.3292315688
 40
0.341325819
 40
0.3534472359
 40
0.3657058459
 40
0.3780031832
 40
0.3902504522
 40
0.4024711982
 40
0.4146688305
 40
0.4268429417
 40
0.4389880849
 40
0.451204647
 40
0.4634329089
 40
0.4756606121
 40
0.4879084699
 40
0.5001704474
 40
0.5124185838
 40
0.5246266466
 40
0.5367916993
 40
0.5489400939
 40
0.561066684
 40
0.5731269793
 40
0.585250888
 40
0.5974479135
 40
0.6096714473
 40
0.621881113
 40
0.6341169152
 40
0.6463473217
 40
0.6585735275
 40
0.6708650294
 40
0.6830461852
 40
0.6951565706
 40
0.7070904606
 40
0.7191938448
 40
0.7313952379
 40
0.7438363369
 40
0.7561797174
 40
0.76846125
 40
0.7806251839
 40
0.7926304311
 40
0.8047615797
 40
0.8170190226
 40
0.8292554908
 40
0.8414448614
 40
0.8535974124
 40
0.865690682
 40
0.8778748052
 40
0.8901591654
 40
0.9023899058
 40
0.9145692287
 40
0.9267467467
 40
0.9389459431
 40
0.9511232231
 40
0.9633068053
 40
0.9755607035
 40
0.9878138194
 40
1.0
 40
1.0
 40
1.0
 40
1.0
 10
16.9044819361
 20
37.0766510704
 30
0.0
 10
17.2511887365
 20
37.3031343066
 30
0.0
 10
17.9922476772
 20
37.6770543967
 30
0.0
 10
19.1933695594
 20
37.9682089232
 30
0.0
 10
20.4188920461
 20
37.9874986121
 30
0.0
 10
21.619110978
 20
37.735252
 30
0.0
 10
22.7353466079
 20
37.2206563232
 30
0.0
 10
23.7117153517
 20
36.470534743
 30
0.0
 10
24.4947501007
 20
35.5227389638
 30
0.0
 10
25.0476290267
 20
34.425494986
 30
0.0
 10
25.3444591227
 20
33.2326488362
 30
0.0
 10
25.3668721379
 20
32.0024346879
 30
0.0
 10
25.1159175114
 20
30.7945938539
 30
0.0
 10
24.60074041
 20
29.6717249397
 30
0.0
 10
23.8482746645
 20
28.6950949798
 30
0.0
 10
22.9028877659
 20
27.9119125403
 30
0.0
 10
21.8095851888
 20
27.3601310481
 30
0.0
 10
20.6213104169
 20
27.0636462381
 30
0.0
 10
19.3946662128
 20
27.0362096151
 30
0.0
 10
18.1919161549
 20
27.2840305596
 30
0.0
 10
17.0725892275
 20
27.7917285524
 30
0.0
 10
16.0928761175
 20
28.5361996909
 30
0.0
 10
15.3042986381
 20
29.4811015343
 30
0.0
 10
14.7449345425
 20
30.5747744418
 30
0.0
 10
14.443483768
 20
31.7645837354
 30
0.0
 10
14.4131179068
 20
32.9940735718
 30
0.0
 10
14.6565697688
 20
34.2024595739
 30
0.0
 10
15.1645686084
 20
35.323633702
 30
0.0
 10
15.9040828804
 20
36.3005973749
 30
0.0
 10
16.8391412682
 20
37.0882727718
 30
0.0
 10
17.9289254246
 20
37.6506637295
 30
0.0
 10
19.1228120029
 20
37.9605080254
 30
0.0
 10
20.3602577445
 20
37.9939329281
 30
0.0
 10
21.5722480439
 20
37.7501359067
 30
0.0
 10
22.6970666925
 20
37.2449074795
 30
0.0
 10
23.6778445897
 20
36.501695366
 30
0.0
 10
24.4684811283
 20
35.5623389312
 30
0.0
 10
25.0315850365
 20
34.4703528062
 30
0.0
 10
25.3372762899
 20
33.2785164435
 30
0.0
 10
25.3718043309
 20
32.0457899566
 30
0.0
 10
25.129002419
 20
30.8354793881
 30
0.0
 10
24.622058519
 20
29.7089504849
 30
0.0
 10
23.8769572888
 20
28.7224700073
 30
0.0
 10
22.9298778938
 20
27.9300232164
 30
0.0
 10
21.8338691936
 20
27.3687555496
 30
0.0
 10
20.6436297578
 20
27.0658054481
 30
0.0
 10
19.4187521517
 20
27.03560803
 30
0.0
 10
18.2206460307
 20
27.2745710076
 30
0.0
 10
17.1060067513
 20
27.7727722241
 30
0.0
 10
16.1267961666
 20
28.5057449083
 30
0.0
 10
15.3294744186
 20
29.4409516014
 30
0.0
 10
14.7609933515
 20
30.5338293416
 30
0.0
 10
14.4483843443
 20
31.7265034902
 30
0.0
 10
14.4092553297
 20
32.9593886622
 30
0.0
 10
14.6475548791
 20
34.1700426458
 30
0.0
 10
15.1486463555
 20
35.299614188
 30
0.0
 10
15.8897858075
 20
36.2867518288
 30
0.0
 10
16.8290758444
 20
37.0809098276
 30
0.0
 10
17.9096186653
 20
37.6432238476
 30
0.0
 10
19.084817809
 20
37.9521629679
 30
0.0
 10
20.302315271
 20
37.997652661
 30
0.0
 10
21.5167884486
 20
37.7692574956
 30
0.0
 10
22.656021046
 20
37.2691542334
 30
0.0
 10
23.656016992
 20
36.5248026844
 30
0.0
 10
24.4564504198
 20
35.5811803295
 30
0.0
 10
25.0211009185
 20
34.4934307293
 30
0.0
 10
25.3323258075
 20
33.3133973506
 30
0.0
 10
25.3743304729
 20
32.0903404459
 30
0.0
 10
25.143349216
 20
30.8805993452
 30
0.0
 10
24.6473466411
 20
29.7509479857
 30
0.0
 10
23.9134083503
 20
28.7639426076
 30
0.0
 10
22.983717165
 20
27.9661029018
 30
0.0
 10
21.9002045662
 20
27.3946640922
 30
0.0
 10
20.7128812538
 20
27.076033598
 30
0.0
 10
19.4794770774
 20
27.0285840486
 30
0.0
 10
18.2673037191
 20
27.2598876467
 30
0.0
 10
17.139929078
 20
27.7522210828
 30
0.0
 10
16.150628269
 20
28.4820254779
 30
0.0
 10
15.3493476941
 20
29.4141362908
 30
0.0
 10
14.7734640001
 20
30.5002462412
 30
0.0
 10
14.4538721874
 20
31.6893771691
 30
0.0
 10
14.4071516314
 20
32.9223569046
 30
0.0
 10
14.6350521541
 20
34.1347950455
 30
0.0
 10
14.965723246
 20
34.8884571271
 30
0.0
 10
15.1685461937
 20
35.2405930792
 30
0.0
  0
SPLINE
  5
2C4
100
AcDbEntity
  8
0
100
AcDbSpline
 62
7
  6
BYLAYER
 70
0
 71
3
 72
10
 73
6
 74
0
 42
0.0000001
 43
0.0000001
 44
0.0000000001
 40
0.0
 40
0.0
 40
0.0
 40
0.0
 40
0.3342520897
 40
0.6691388032
 40
1.0
 40
1.0
 40
1.0
 40
1.0
 10
19.8914882596
 20
38.1861353529
 30
0.0
 10
19.5327210252
 20
38.1627375549
 30
0.0
 10
18.8172121244
 20
38.0454055764
 30
0.0
 10
17.8027205589
 20
37.6696155007
 30
0.0
 10
17.1882000541
 20
37.291569946
 30
0.0
 10
16.9042756471
 20
37.0770029889
 30
0.0
  0
SPLINE
  5
2C5
100
AcDbEntity
  8
0
100
AcDbSpline
 62
7
  6
BYLAYER
 70
0
 71
3
 72
11
 73
7
 74
0
 42
0.0000001
 43
0.0000001
 44
0.0000000001
 40
0.0
 40
0.0
 40
0.0
 40
0.0
 40
0.2516217676
 40
0.5002645895
 40
0.7514670889
 40
1.0
 40
1.0
 40
1.0
 40
1.0
 10
24.47857001
 20
36.3814704692
 30
0.0
 10
24.1837586378
 20
36.6890460171
 30
0.0
 10
23.5310415667
 20
37.2408854816
 30
0.0
 10
22.39675564
 20
37.8382937924
 30
0.0
 10
21.1648460805
 20
38.1754874278
 30
0.0
 10
20.3114135947
 20
38.213521672
 30
0.0
 10
19.8914882596
 20
38.1861353134
 30
0.0
  0
SPLINE
  5
2C6
100
AcDbEntity
  8
0
100
AcDbSpline
 62
7
  6
BYLAYER
 70
0
 71
3
 72
59
 73
55
 74
0
 42
0.0000001
 43
0.0000001
 44
0.0000000001
 40
0.0
 40
0.0
 40
0.0
 40
0.0
 40
0.0853638477
 40
0.1619432153
 40
0.2308847901
 40
0.2931466686
 40
0.3495319988
 40
0.400719839
 40
0.4472885
 40
0.4897332107
 40
0.5284804823
 40
0.5639016972
 40
0.5963229951
 40
0.6260328237
 40
0.6532882832
 40
0.6783181522
 40
0.7013256424
 40
0.7224919939
 40
0.7419792964
 40
0.759933123
 40
0.7764814877
 40
0.7917407113
 40
0.8058233755
 40
0.8188267355
 40
0.8308372536
 40
0.8419371116
 40
0.8522041049
 40
0.8617049985
 40
0.8704923337
 40
0.878619326
 40
0.8861315369
 40
0.8930724257
 40
0.8994898869
 40
0.9054213576
 40
0.9108999051
 40
0.9159556357
 40
0.9206148761
 40
0.9249007738
 40
0.9288444827
 40
0.9324306369
 40
0.9357344969
 40
0.9383834342
 40
0.9406428404
 40
0.9439910123
 40
0.9477124581
 40
0.9517860936
 40
0.9562321786
 40
0.9610651456
 40
0.9663135481
 40
0.9720060247
 40
0.9781787819
 40
0.9848725502
 40
0.9921302918
 40
1.0
 40
1.0
 40
1.0
 40
1.0
 10
19.8914882596
 20
37.9028668396
 30
0.0
 10
19.790221286
 20
37.9019250474
 30
0.0
 10
19.598120907
 20
37.8948991503
 30
0.0
 10
19.3251243681
 20
37.8713622888
 30
0.0
 10
19.0807295373
 20
37.8385497624
 30
0.0
 10
18.8615404773
 20
37.7997103435
 30
0.0
 10
18.6645843122
 20
37.7570291285
 30
0.0
 10
18.4872701701
 20
37.7121790721
 30
0.0
 10
18.327345011
 20
37.6663870139
 30
0.0
 10
18.1828516313
 20
37.6205580743
 30
0.0
 10
18.0520860539
 20
37.5753558693
 30
0.0
 10
17.9335594827
 20
37.5312607629
 30
0.0
 10
17.8259650783
 20
37.4886113728
 30
0.0
 10
17.7281503023
 20
37.4476381846
 30
0.0
 10
17.6390956435
 20
37.4084904245
 30
0.0
 10
17.5579012664
 20
37.3712509072
 30
0.0
 10
17.4837732829
 20
37.3359545145
 30
0.0
 10
17.4160108237
 20
37.3026008244
 30
0.0
 10
17.3539933172
 20
37.2711635128
 30
0.0
 10
17.2971732069
 20
37.2415988755
 30
0.0
 10
17.2450654059
 20
37.2138511757
 30
0.0
 10
17.1972315725
 20
37.1878529712
 30
0.0
 10
17.1532774681
 20
37.1635268266
 30
0.0
 10
17.112846402
 20
37.1407966223
 30
0.0
 10
17.0756258102
 20
37.1195784073
 30
0.0
 10
17.0413253249
 20
37.0997938715
 30
0.0
 10
17.009681962
 20
37.0813622674
 30
0.0
 10
16.9804717004
 20
37.0642047688
 30
0.0
 10
16.9534928908
 20
37.0482612469
 30
0.0
 10
16.9285756688
 20
37.0334666131
 30
0.0
 10
16.9055572129
 20
37.0197647618
 30
0.0
 10
16.8842851772
 20
37.0070939813
 30
0.0
 10
16.8646158992
 20
36.9953972385
 30
0.0
 10
16.8464174323
 20
36.9846205084
 30
0.0
 10
16.8295791097
 20
36.974720525
 30
0.0
 10
16.8139909087
 20
36.9656626328
 30
0.0
 10
16.7995867976
 20
36.9574169593
 30
0.0
 10
16.7861768555
 20
36.9499804291
 30
0.0
 10
16.7740199229
 20
36.9432898495
 30
0.0
 10
16.7619241064
 20
36.9376672121
 30
0.0
 10
16.7534813274
 20
36.9326406953
 30
0.0
 10
16.7393080169
 20
36.9296244828
 30
0.0
 10
16.7441293549
 20
36.9426601848
 30
0.0
 10
16.7521419865
 20
36.948763209
 30
0.0
 10
16.7611729403
 20
36.9589447536
 30
0.0
 10
16.7717919504
 20
36.9687009846
 30
0.0
 10
16.7835174751
 20
36.9793991925
 30
0.0
 10
16.7964872509
 20
36.9907363109
 30
0.0
 10
16.8107379704
 20
37.0028698931
 30
0.0
 10
16.8263575363
 20
37.0158397013
 30
0.0
 10
16.8434461707
 20
37.0297240886
 30
0.0
 10
16.86213144
 20
37.0445854678
 30
0.0
 10
16.8825330221
 20
37.0605218635
 30
0.0
 10
16.8968166765
 20
37.0713879346
 30
0.0
 10
16.9042756471
 20
37.0770029889
 30
0.0
  0
SPLINE
  5
2C7
100
AcDbEntity
  8
0
100
AcDbSpline
 62
7
  6
BYLAYER
 70
0
 71
3
 72
74
 73
70
 74
0
 42
0.0000001
 43
0.0000001
 44
0.0000000001
 40
0.0
 40
0.0
 40
0.0
 40
0.0
 40
0.0150079286
 40
0.0300156654
 40
0.045023647
 40
0.0600323157
 40
0.0750417353
 40
0.0900513003
 40
0.1050602743
 40
0.1200686283
 40
0.1350765629
 40
0.1500844263
 40
0.1650925786
 40
0.1801014507
 40
0.1951109694
 40
0.2101204533
 40
0.2251292721
 40
0.2401375105
 40
0.2551453734
 40
0.2701532404
 40
0.2851614663
 40
0.3001704713
 40
0.3151800396
 40
0.3301894395
 40
0.3451981393
 40
0.3602063054
 40
0.3752141378
 40
0.3902220494
 40
0.4052303857
 40
0.4202395354
 40
0.4352491303
 40
0.4502584285
 40
0.4652670075
 40
0.4802751041
 40
0.4952829121
 40
0.5102908779
 40
0.5252993334
 40
0.5403086175
 40
0.5553182088
 40
0.570327396
 40
0.58533586
 40
0.6003438954
 40
0.6153516898
 40
0.6303597228
 40
0.6453683062
 40
0.6603777099
 40
0.6753872663
 40
0.6903963374
 40
0.7054046937
 40
0.7204126772
 40
0.7354204701
 40
0.7504285843
 40
0.765437303
 40
0.7804468076
 40
0.7954563016
 40
0.810465254
 40
0.8254735103
 40
0.8404814508
 40
0.8554892544
 40
0.870497463
 40
0.8855063203
 40
0.9005159036
 40
0.9155253134
 40
0.9305341475
 40
0.9455423121
 40
0.9605502189
 40
0.9755580462
 40
0.990566362
 40
1.0
 40
1.0
 40
1.0
 40
1.0
 10
17.8415790121
 20
13.7553644478
 30
0.0
 10
18.2480658656
 20
13.6953451577
 30
0.0
 10
19.0667558297
 20
13.6109526847
 30
0.0
 10
20.3008019677
 20
13.5923751295
 30
0.0
 10
21.5318325775
 20
13.6821317556
 30
0.0
 10
22.7503148479
 20
13.8793066657
 30
0.0
 10
23.9466549052
 20
14.1835203572
 30
0.0
 10
25.1113094845
 20
14.5925949789
 30
0.0
 10
26.2353731235
 20
15.1025962506
 30
0.0
 10
27.3104670531
 20
15.7089643785
 30
0.0
 10
28.3281625288
 20
16.4073416095
 30
0.0
 10
29.2808462459
 20
17.1920796957
 30
0.0
 10
30.1610148521
 20
18.0574018629
 30
0.0
 10
30.9620392218
 20
18.9965493691
 30
0.0
 10
31.6766874044
 20
20.0030621506
 30
0.0
 10
32.2994381324
 20
21.0688568338
 30
0.0
 10
32.8260337902
 20
22.1852300589
 30
0.0
 10
33.2529382201
 20
23.3433489675
 30
0.0
 10
33.5765245341
 20
24.5344470208
 30
0.0
 10
33.7946602407
 20
25.7492871368
 30
0.0
 10
33.9053625262
 20
26.9786120386
 30
0.0
 10
33.9078568364
 20
28.212980179
 30
0.0
 10
33.8007118179
 20
29.442742942
 30
0.0
 10
33.5853466121
 20
30.6581972547
 30
0.0
 10
33.2640329217
 20
31.8499733205
 30
0.0
 10
32.8397109499
 20
33.009034579
 30
0.0
 10
32.3152884096
 20
34.1263526538
 30
0.0
 10
31.6951259353
 20
35.1935103601
 30
0.0
 10
30.9836928899
 20
36.2021639882
 30
0.0
 10
30.1864131869
 20
37.144528125
 30
0.0
 10
29.3084673558
 20
38.0122883585
 30
0.0
 10
28.3574662335
 20
38.7992321948
 30
0.0
 10
27.3410770722
 20
39.4995939269
 30
0.0
 10
26.2673482906
 20
40.1083337807
 30
0.0
 10
25.1443432462
 20
40.6204623073
 30
0.0
 10
23.9808337921
 20
41.0323865268
 30
0.0
 10
22.7856200594
 20
41.3406256404
 30
0.0
 10
21.5678577895
 20
41.5425915186
 30
0.0
 10
20.3369336665
 20
41.6354115264
 30
0.0
 10
19.1026708928
 20
41.6195486114
 30
0.0
 10
17.8746135044
 20
41.4954099458
 30
0.0
 10
16.6621632742
 20
41.264305618
 30
0.0
 10
15.4746891985
 20
40.9276742072
 30
0.0
 10
14.3212059577
 20
40.4884441657
 30
0.0
 10
13.2106795711
 20
39.949639524
 30
0.0
 10
12.1518787258
 20
39.3150528456
 30
0.0
 10
11.1537090637
 20
38.5888069218
 30
0.0
 10
10.2232546345
 20
37.777706008
 30
0.0
 10
9.3675956371
 20
36.8881186326
 30
0.0
 10
8.5930885959
 20
35.9270917902
 30
0.0
 10
7.905914914
 20
34.9018067589
 30
0.0
 10
7.3110697635
 20
33.8203173163
 30
0.0
 10
6.8134555287
 20
32.6907180541
 30
0.0
 10
6.4175009357
 20
31.5215314185
 30
0.0
 10
6.1269816108
 20
30.3218003633
 30
0.0
 10
5.9428781703
 20
29.1012628756
 30
0.0
 10
5.8665630792
 20
27.8693223909
 30
0.0
 10
5.8983694318
 20
26.6354613693
 30
0.0
 10
6.0383167701
 20
25.4091516451
 30
0.0
 10
6.2850351828
 20
24.1997687554
 30
0.0
 10
6.6370658797
 20
23.0166689379
 30
0.0
 10
7.0924197191
 20
21.8693060534
 30
0.0
 10
7.6477206559
 20
20.7668664348
 30
0.0
 10
8.2975162958
 20
19.7174146645
 30
0.0
 10
9.0368323802
 20
18.7290335002
 30
0.0
 10
9.8598208702
 20
17.8091924317
 30
0.0
 10
10.7603306538
 20
16.9650901141
 30
0.0
 10
11.611051446
 20
16.2973853889
 30
0.0
 10
12.1660988999
 20
15.9227281384
 30
0.0
 10
12.3841767576
 20
15.7841884947
 30
0.0
  0
SPLINE
  5
2C8
100
AcDbEntity
  8
0
100
AcDbSpline
 62
7
  6
BYLAYER
 70
0
 71
3
 72
67
 73
63
 74
0
 42
0.0000001
 43
0.0000001
 44
0.0000000001
 40
0.0
 40
0.0
 40
0.0
 40
0.0
 40
0.0151589781
 40
0.0262198455
 40
0.037280223
 40
0.0483398215
 40
0.0593987522
 40
0.0815104683
 40
0.1036250349
 40
0.1257396018
 40
0.1478513188
 40
0.1589102501
 40
0.1699698491
 40
0.1810302271
 40
0.1920910948
 40
0.2142056613
 40
0.2363173778
 40
0.2584290944
 40
0.2805436611
 40
0.3026582277
 40
0.3247699444
 40
0.3358288755
 40
0.3468884745
 40
0.3579488525
 40
0.3690097201
 40
0.3911242868
 40
0.4132360034
 40
0.4353477201
 40
0.4574622867
 40
0.4685231543
 40
0.4795835323
 40
0.4906431313
 40
0.5017020624
 40
0.5238137791
 40
0.5459283457
 40
0.5680429123
 40
0.590154629
 40
0.6012135601
 40
0.6122731591
 40
0.6233335371
 40
0.6343944047
 40
0.6565089714
 40
0.678620688
 40
0.7007324047
 40
0.7228469713
 40
0.7449615379
 40
0.7670732546
 40
0.7781321857
 40
0.7891917847
 40
0.8002521627
 40
0.8113130303
 40
0.8334275969
 40
0.8555393136
 40
0.8776510302
 40
0.8997655969
 40
0.9108264645
 40
0.9218868425
 40
0.9329464415
 40
0.9440053726
 40
0.9661170893
 40
0.9882316559
 40
1.0
 40
1.0
 40
1.0
 40
1.0
 10
32.0736296205
 20
20.6933993547
 30
0.0
 10
32.2297866495
 20
20.9685475998
 30
0.0
 10
32.4838285317
 20
21.4535498944
 30
0.0
 10
32.8041238223
 20
22.1624935831
 30
0.0
 10
33.0578972109
 20
22.8067736736
 30
0.0
 10
33.279585842
 20
23.4627454595
 30
0.0
 10
33.5313642031
 20
24.3507227661
 30
0.0
 10
33.762307432
 20
25.4827520339
 30
0.0
 10
33.9043445544
 20
26.861538462
 30
0.0
 10
33.9107399075
 20
28.2476068971
 30
0.0
 10
33.8023217821
 20
29.3978549705
 30
0.0
 10
33.6470595262
 20
30.3076844867
 30
0.0
 10
33.4968749951
 20
30.9836204956
 30
0.0
 10
33.3135383862
 20
31.6513670697
 30
0.0
 10
33.0257306738
 20
32.5284370533
 30
0.0
 10
32.5858102377
 20
33.5967384209
 30
0.0
 10
31.9344401247
 20
34.8202290688
 30
0.0
 10
31.1641013673
 20
35.9726025689
 30
0.0
 10
30.284093503
 20
37.0435597017
 30
0.0
 10
29.3035187433
 20
38.023183973
 30
0.0
 10
28.4097628933
 20
38.755326444
 30
0.0
 10
27.6539200887
 20
39.2850405441
 30
0.0
 10
27.0678775495
 20
39.6538211712
 30
0.0
 10
26.4643331268
 20
39.99327926
 30
0.0
 10
25.6385269718
 20
40.4057473999
 30
0.0
 10
24.5698057606
 20
40.8446388189
 30
0.0
 10
23.2420209389
 20
41.2424279919
 30
0.0
 10
21.8811492635
 20
41.5056333099
 30
0.0
 10
20.7307526238
 20
41.6123023476
 30
0.0
 10
19.8078326337
 20
41.6297509204
 30
0.0
 10
19.1156909769
 20
41.6088315948
 30
0.0
 10
18.4254603463
 20
41.5538172325
 30
0.0
 10
17.5101650728
 20
41.4349448344
 30
0.0
 10
16.3788212448
 20
41.2006667213
 30
0.0
 10
15.0557917579
 20
40.7873635086
 30
0.0
 10
13.7795708837
 20
40.2465429727
 30
0.0
 10
12.7653372583
 20
39.6932300077
 30
0.0
 10
11.99050761
 20
39.1916972445
 30
0.0
 10
11.4286066989
 20
38.7870835496
 30
0.0
 10
10.8873072406
 20
38.355235551
 30
0.0
 10
10.1948602582
 20
37.744824038
 30
0.0
 10
9.3866819944
 20
36.91920566
 30
0.0
 10
8.5192964483
 20
35.8380698138
 30
0.0
 10
7.764186492
 20
34.6756604851
 30
0.0
 10
7.1271484245
 20
33.4445855386
 30
0.0
 10
6.6137046763
 20
32.1571205538
 30
0.0
 10
6.2934357335
 20
31.0470485207
 30
0.0
 10
6.1047879868
 20
30.1435512051
 30
0.0
 10
5.9970535172
 20
29.4595641494
 30
0.0
 10
5.9231675241
 20
28.7710595931
 30
0.0
 10
5.869855646
 20
27.8495154455
 30
0.0
 10
5.8880739647
 20
26.6943276693
 30
0.0
 10
6.0462430026
 20
25.3172905183
 30
0.0
 10
6.3411352607
 20
23.9629318831
 30
0.0
 10
6.6968570189
 20
22.8637263777
 30
0.0
 10
7.0448439965
 20
22.0087463638
 30
0.0
 10
7.3370640378
 20
21.3809684264
 30
0.0
 10
7.6598612423
 20
20.7683944568
 30
0.0
 10
8.1301101416
 20
19.9741891575
 30
0.0
 10
8.7916232364
 20
19.0269692692
 30
0.0
 10
9.5526387932
 20
18.1383982887
 30
0.0
 10
10.0517615177
 20
17.6372239243
 30
0.0
 10
10.229554898
 20
17.4678003446
 30
0.0
  0
SPLINE
  5
2C9
100
AcDbEntity
  8
0
100
AcDbSpline
 62
7
  6
BYLAYER
 70
0
 71
3
 72
23
 73
19
 74
0
 42
0.0000001
 43
0.0000001
 44
0.0000000001
 40
0.0
 40
0.0
 40
0.0
 40
0.0
 40
0.053377677
 40
0.1067581286
 40
0.1601355014
 40
0.2135072309
 40
0.2828818985
 40
0.3522652348
 40
0.421648459
 40
0.491022747
 40
0.5603970959
 40
0.6297804227
 40
0.699163758
 40
0.7685381466
 40
0.8379125308
 40
0.9072958584
 40
0.9766791898
 40
1.0
 40
1.0
 40
1.0
 40
1.0
 10
12.3841070422
 20
15.7840787543
 30
0.0
 10
12.6839358509
 20
15.5940234242
 30
0.0
 10
13.2980204733
 20
15.2366734445
 30
0.0
 10
14.2569440781
 20
14.77165281
 30
0.0
 10
15.2482083673
 20
14.3803312524
 30
0.0
 10
16.3679855299
 20
14.0339989991
 30
0.0
 10
17.6191301946
 20
13.7654462034
 30
0.0
 10
18.9964123575
 20
13.6093526996
 30
0.0
 10
20.3823879498
 20
13.5888451178
 30
0.0
 10
21.7636536718
 20
13.7048349197
 30
0.0
 10
23.1264303674
 20
13.9582037467
 30
0.0
 10
24.457650644
 20
14.3444501022
 30
0.0
 10
25.7446621212
 20
14.8591696839
 30
0.0
 10
26.9747800687
 20
15.4980498657
 30
0.0
 10
28.1349340492
 20
16.2566010452
 30
0.0
 10
29.2148008933
 20
17.1256378116
 30
0.0
 10
29.9854376357
 20
17.8814653741
 30
0.0
 10
30.3963584976
 20
18.341350153
 30
0.0
 10
30.4977763474
 20
18.4587271839
 30
0.0
  0
SPLINE
  5
2CA
100
AcDbEntity
  8
0
100
AcDbSpline
 62
7
  6
BYLAYER
 70
0
 71
3
 72
10
 73
6
 74
0
 42
0.0000001
 43
0.0000001
 44
0.0000000001
 40
0.0
 40
0.0
 40
0.0
 40
0.0
 40
0.3355433237
 40
0.8410004979
 40
1.0
 40
1.0
 40
1.0
 40
1.0
 10
30.4977763474
 20
18.4587271839
 30
0.0
 10
30.6980547769
 20
18.6905215618
 30
0.0
 10
31.1809294966
 20
19.2879828997
 30
0.0
 10
31.6943799067
 20
20.0441772386
 30
0.0
 10
32.0019780864
 20
20.5671495535
 30
0.0
 10
32.0736296205
 20
20.6933993547
 30
0.0
  0
ENDSEC
  0
SECTION
  2
OBJECTS
  0
DICTIONARY
  5
C
100
AcDbDictionary
280
0
281
1
  3
ACAD_GROUP
350
D
  3
ACAD_MLINESTYLE
350
17
  3
ACAD_LAYOUT
350
1A
  3
ACAD_PLOTSETTINGS
350
19
  3
ACAD_PLOTSTYLENAME
350
E
  0
DICTIONARY
  5
D
102
{ACAD_REACTORS
330
C
102
}
100
AcDbDictionary
280
0
281
1
  0
ACDBDICTIONARYWDFLT
  5
E
102
{ACAD_REACTORS
330
C
102
}
100
AcDbDictionary
281
1
  3
Normal
350
F
100
AcDbDictionaryWithDefault
340
F
  0
DICTIONARY
  5
17
102
{ACAD_REACTORS
330
C
102
}
100
AcDbDictionary
280
0
281
1
  3
Standard
350
18
  0
DICTIONARY
  5
19
102
{ACAD_REACTORS
330
C
102
}
100
AcDbDictionary
281
1
  0
DICTIONARY
  5
1A
102
{ACAD_REACTORS
330
C
102
}
100
AcDbDictionary
281
1
  3
Model
350
2CB
  3
Layout1
350
2CC
  0
ACDBPLACEHOLDER
  5
F
102
{ACAD_REACTORS
330
E
102
}
  0
MLINESTYLE
  5
18
102
{ACAD_REACTORS
330
17
102
}
100
AcDbMlineStyle
  2
STANDARD
 70
0
  3

 62
256
 51
90.0
 52
90.0
 71
2
 49
0.5
 62
256
  6
BYLAYER
 49
-0.5
 62
256
  6
BYLAYER
  0
LAYOUT
  5
2CB
102
{ACAD_REACTORS
330
1A
102
}
100
AcDbPlotSettings
  1

  2
none_device
  4

  6

 40
0.0
 41
0.0
 42
0.0
 43
0.0
 44
210.0
 45
297.0
 46
0.0
 47
0.0
 48
0.0
 49
0.0
140
0.0
141
0.0
142
1.0
143
1.0
 70
1024
 72
1
 73
0
 74
0
  7

 75
0
147
1.0
148
0.0
149
0.0
100
AcDbLayout
  1
Model
 70
0
 71
0
 10
0.0
 20
0.0
 11
210.0
 21
297.0
 12
0.0
 22
0.0
 32
0.0
 14
0.0
 24
0.0
 34
0.0
 15
0.0
 25
0.0
 35
0.0
146
0.0
 13
0.0
 23
0.0
 33
0.0
 16
1.0
 26
0.0
 36
0.0
 17
0.0
 27
1.0
 37
0.0
 76
0
330
210
345
0
346
0
  0
LAYOUT
  5
2CC
102
{ACAD_REACTORS
330
1A
102
}
100
AcDbPlotSettings
  1

  2
none_device
  4

  6

 40
0.0
 41
0.0
 42
0.0
 43
0.0
 44
210.0
 45
297.0
 46
0.0
 47
0.0
 48
0.0
 49
0.0
140
0.0
141
0.0
142
1.0
143
1.0
 70
0
 72
1
 73
0
 74
0
  7

 75
0
147
1.0
148
0.0
149
0.0
100
AcDbLayout
  1
Layout1
 70
0
 71
1
 10
0.0
 20
0.0
 11
210.0
 21
297.0
 12
0.0
 22
0.0
 32
0.0
 14
0.0
 24
0.0
 34
0.0
 15
0.0
 25
0.0
 35
0.0
146
0.0
 13
0.0
 23
0.0
 33
0.0
 16
1.0
 26
0.0
 36
0.0
 17
0.0
 27
1.0
 37
0.0
 76
0
330
211
345
0
346
0
  0
ENDSEC
  0
EOF
