999
DXF file: C:\Users\sesa63760\Dev\_Creo\CAD\MCADID0003746_3D-CAD\drw0001_7.dxf
999
Pro/ENGINEER 2019471 by Parametric Technology Corporation
  0
SECTION
  2
HEADER
  9
$ACADVER
  1
AC1024
  9
$DWGCODEPAGE
  3
ANSI_1252
  9
$EXTMAX
 10
104.9172247641
 20
148.3829321663
 30
0.0
  9
$EXTMIN
 10
0.0
 20
0.0
 30
0.0
  9
$LIMMIN
 10
0.0
 20
0.0
  9
$LIMMAX
 10
104.9172247641
 20
148.3829321663
  9
$VIEWCTR
 10
52.458612382
 20
74.1914660832
  9
$VIEWSIZE
 40
148.3829321663
  9
$CLAYER
  8
0
  9
$LTSCALE
 40
9.6723689116
  9
$CELTYPE
  6
BYLAYER
  9
$DIMSCALE
 40
1.0
  9
$DIMASZ
 40
1.2490145805
  9
$DIMEXO
 40
1.0
  9
$DIMDLI
 40
6.6827276116
  9
$DIMEXE
 40
1.0
  9
$DIMCEN
 40
1.5827512764
  9
$DIMLFAC
 40
1.0
  9
$DIMBLK
  1
_FILLED
  9
$DIMALT
 70
0
  9
$DIMALTF
 40
0.0393700787
  9
$DIMTXT
 40
1.7486204127
  9
$DIMTOL
 70
1
  9
$DIMLIM
 70
0
  9
$DIMTFAC
 40
1.0
  9
$DIMTP
 40
0.01
  9
$DIMTM
 40
0.01
  9
$DIMGAP
 40
0.625
  9
$DIMDSEP
 70
46
  9
$AUNITS
 70
0
  9
$PDMODE
 70
3
  9
$PDSIZE
 40
0.3125
  9
$HANDSEED
  5
25C
  9
$TILEMODE
 70
1
  9
$MEASUREMENT
 70
1
  9
$INSUNITS
 70
4
  0
ENDSEC
  0
SECTION
  2
CLASSES
  0
CLASS
  1
ACDBDICTIONARYWDFLT
  2
AcDbDictionaryWithDefault
  3
AutoCAD 2000
 90
0
 91
1
280
0
281
0
  0
CLASS
  1
ACDBPLACEHOLDER
  2
AcDbPlaceHolder
  3
AutoCAD 2000
 90
0
 91
1
280
0
281
0
  0
CLASS
  1
LAYOUT
  2
AcDbLayout
  3
AutoCAD 2000
 90
0
 91
0
280
0
281
0
  0
ENDSEC
  0
SECTION
  2
TABLES
  0
TABLE
  2
VPORT
  5
8
100
AcDbSymbolTable
 70
2
  0
VPORT
  5
1F4
100
AcDbSymbolTableRecord
100
AcDbViewportTableRecord
  2
*ACTIVE
 70
0
 10
0.0
 20
0.0
 11
1.0
 21
1.0
 12
52.458612382
 22
74.1914660832
 13
0.0
 23
0.0
 14
1.0
 24
1.0
 15
0.0
 25
0.0
 16
0.0
 26
0.0
 36
1.0
 17
0.0
 27
0.0
 37
0.0
 40
148.3829321663
 41
0.7070707071
 42
50.0
 43
0.0
 44
0.0
 50
0.0
 51
0.0
 71
0
 72
100
 73
1
 74
1
 75
0
 76
0
 77
0
 78
0
  0
ENDTAB
  0
TABLE
  2
LTYPE
  5
5
100
AcDbSymbolTable
 70
6
  0
LTYPE
  5
14
100
AcDbSymbolTableRecord
100
AcDbLinetypeTableRecord
  2
BYBLOCK
 70
0
  3

 72
65
 73
0
 40
0.0
  0
LTYPE
  5
15
100
AcDbSymbolTableRecord
100
AcDbLinetypeTableRecord
  2
BYLAYER
 70
0
  3

 72
65
 73
0
 40
0.0
  0
LTYPE
  5
16
100
AcDbSymbolTableRecord
100
AcDbLinetypeTableRecord
  2
CONTINUOUS
 70
64
  3
Solid line
 72
65
 73
0
 40
0.0
  0
LTYPE
  5
1F5
100
AcDbSymbolTableRecord
100
AcDbLinetypeTableRecord
  2
CENTER
 70
64
  3
____ _ ____ _ ____ _ ____ _ ____ _ ____ _ ____
 72
65
 73
4
 40
0.6
 49
0.375
 74
0
 49
-0.075
 74
0
 49
0.075
 74
0
 49
-0.075
 74
0
  0
LTYPE
  5
1F6
100
AcDbSymbolTableRecord
100
AcDbLinetypeTableRecord
  2
HIDDEN
 70
64
  3
- - - - - - - - - - - - - - - - - - - -
 72
65
 73
2
 40
0.2
 49
0.1
 74
0
 49
-0.1
 74
0
  0
LTYPE
  5
1F7
100
AcDbSymbolTableRecord
100
AcDbLinetypeTableRecord
  2
PHANTOM
 70
64
  3
_____ _ _ _____ _ _ _____ _ _ _____
 72
65
 73
6
 40
0.8
 49
0.45
 74
0
 49
-0.05
 74
0
 49
0.1
 74
0
 49
-0.05
 74
0
 49
0.1
 74
0
 49
-0.05
 74
0
  0
LTYPE
  5
1F8
100
AcDbSymbolTableRecord
100
AcDbLinetypeTableRecord
  2
DOT
 70
64
  3
. . . . . . . . . . . . . . . . . . . .
 72
65
 73
2
 40
0.2
 49
0.1
 74
0
 49
-0.1
 74
0
  0
LTYPE
  5
1F9
100
AcDbSymbolTableRecord
100
AcDbLinetypeTableRecord
  2
DASHED
 70
64
  3
- - - - - - - - - - - - - - - - - - - -
 72
65
 73
2
 40
0.2
 49
0.1
 74
0
 49
-0.1
 74
0
  0
ENDTAB
  0
TABLE
  2
LAYER
  5
2
100
AcDbSymbolTable
 70
36
  0
LAYER
  5
10
100
AcDbSymbolTableRecord
100
AcDbLayerTableRecord
  2
0
 70
0
 62
7
  6
CONTINUOUS
370
-3
390
F
  0
LAYER
  5
1FA
100
AcDbSymbolTableRecord
100
AcDbLayerTableRecord
  2
DEFAULT_1
 70
0
 62
7
  6
CENTER
370
-3
390
F
  0
LAYER
  5
1FB
100
AcDbSymbolTableRecord
100
AcDbLayerTableRecord
  2
DEFAULT_2
 70
0
 62
7
  6
HIDDEN
370
-3
390
F
  0
LAYER
  5
1FC
100
AcDbSymbolTableRecord
100
AcDbLayerTableRecord
  2
DEFAULT_3
 70
0
 62
7
  6
PHANTOM
370
-3
390
F
  0
LAYER
  5
1FD
100
AcDbSymbolTableRecord
100
AcDbLayerTableRecord
  2
00_COMPONENTS
 70
0
 62
7
  6
CONTINUOUS
370
-3
390
F
  0
LAYER
  5
1FE
100
AcDbSymbolTableRecord
100
AcDbLayerTableRecord
  2
01_1_DEFAULT_DATUMS
 70
0
 62
7
  6
CONTINUOUS
370
-3
390
F
  0
LAYER
  5
1FF
100
AcDbSymbolTableRecord
100
AcDbLayerTableRecord
  2
01_PLANES
 70
0
 62
7
  6
CONTINUOUS
370
-3
390
F
  0
LAYER
  5
200
100
AcDbSymbolTableRecord
100
AcDbLayerTableRecord
  2
02_COORD_SYS
 70
0
 62
7
  6
CONTINUOUS
370
-3
390
F
  0
LAYER
  5
201
100
AcDbSymbolTableRecord
100
AcDbLayerTableRecord
  2
03_AXES
 70
0
 62
7
  6
CONTINUOUS
370
-3
390
F
  0
LAYER
  5
202
100
AcDbSymbolTableRecord
100
AcDbLayerTableRecord
  2
04_POINTS
 70
0
 62
7
  6
CONTINUOUS
370
-3
390
F
  0
LAYER
  5
203
100
AcDbSymbolTableRecord
100
AcDbLayerTableRecord
  2
05_CURVES
 70
0
 62
7
  6
CONTINUOUS
370
-3
390
F
  0
LAYER
  5
204
100
AcDbSymbolTableRecord
100
AcDbLayerTableRecord
  2
06_SURFS
 70
0
 62
7
  6
CONTINUOUS
370
-3
390
F
  0
LAYER
  5
205
100
AcDbSymbolTableRecord
100
AcDbLayerTableRecord
  2
07_COSMETICS
 70
0
 62
7
  6
CONTINUOUS
370
-3
390
F
  0
LAYER
  5
206
100
AcDbSymbolTableRecord
100
AcDbLayerTableRecord
  2
10_NOTES
 70
0
 62
7
  6
CONTINUOUS
370
-3
390
F
  0
LAYER
  5
207
100
AcDbSymbolTableRecord
100
AcDbLayerTableRecord
  2
11_NOTES_PUB
 70
0
 62
7
  6
CONTINUOUS
370
-3
390
F
  0
LAYER
  5
208
100
AcDbSymbolTableRecord
100
AcDbLayerTableRecord
  2
13_REF_GTOL
 70
0
 62
7
  6
CONTINUOUS
370
-3
390
F
  0
LAYER
  5
209
100
AcDbSymbolTableRecord
100
AcDbLayerTableRecord
  2
16_MISC
 70
0
 62
7
  6
CONTINUOUS
370
-3
390
F
  0
LAYER
  5
20A
100
AcDbSymbolTableRecord
100
AcDbLayerTableRecord
  2
17_NO_PRINT
 70
0
 62
7
  6
CONTINUOUS
370
-3
390
F
  0
LAYER
  5
20B
100
AcDbSymbolTableRecord
100
AcDbLayerTableRecord
  2
18_DATUM_CAMS_JOINTS
 70
0
 62
7
  6
CONTINUOUS
370
-3
390
F
  0
LAYER
  5
20C
100
AcDbSymbolTableRecord
100
AcDbLayerTableRecord
  2
19_DATUM_FUNCTIONAL
 70
0
 62
7
  6
CONTINUOUS
370
-3
390
F
  0
LAYER
  5
20D
100
AcDbSymbolTableRecord
100
AcDbLayerTableRecord
  2
20_DATUM_KINEMATIC_SCHEME
 70
0
 62
7
  6
CONTINUOUS
370
-3
390
F
  0
ENDTAB
  0
TABLE
  2
STYLE
  5
3
100
AcDbSymbolTable
 70
1
  0
STYLE
  5
11
100
AcDbSymbolTableRecord
100
AcDbTextStyleTableRecord
  2
STANDARD
 70
0
 40
0.0
 41
1.0
 50
0.0
 71
0
 42
0.2
  3
ARIAL.TTF
  4

  0
STYLE
  5
20E
100
AcDbSymbolTableRecord
100
AcDbTextStyleTableRecord
  2
TEXTSTYLE_1
 70
0
 40
0.0
 41
0.8
 50
0.0
 71
0
 42
0.2
  3
gdt
  4

  0
ENDTAB
  0
TABLE
  2
VIEW
  5
6
100
AcDbSymbolTable
 70
0
  0
ENDTAB
  0
TABLE
  2
UCS
  5
7
100
AcDbSymbolTable
 70
0
  0
ENDTAB
  0
TABLE
  2
APPID
  5
9
100
AcDbSymbolTable
 70
1
  0
APPID
  5
20F
100
AcDbSymbolTableRecord
100
AcDbRegAppTableRecord
  2
ACAD
 70
0
  0
ENDTAB
  0
TABLE
  2
BLOCK_RECORD
  5
1
100
AcDbSymbolTable
 70
0
  0
BLOCK_RECORD
  5
210
100
AcDbSymbolTableRecord
100
AcDbBlockTableRecord
  2
*Model_Space
  0
BLOCK_RECORD
  5
211
100
AcDbSymbolTableRecord
100
AcDbBlockTableRecord
  2
*Paper_Space
  0
BLOCK_RECORD
  5
212
100
AcDbSymbolTableRecord
100
AcDbBlockTableRecord
  2
_FILLED
  0
ENDTAB
  0
TABLE
  2
DIMSTYLE
  5
A
100
AcDbSymbolTable
 70
1
100
AcDbDimStyleTable
 71
0
  0
DIMSTYLE
105
213
100
AcDbSymbolTableRecord
100
AcDbDimStyleTableRecord
  2
STANDARD
 70
0
  3

  4

 40
1.0
 41
1.2490145805
 42
1.0
 43
0.38
 44
1.0
 45
0.0
 46
0.0
 47
0.01
 48
0.01
140
1.7486204127
141
0.09
142
0.0
143
25.4
144
1.0
145
0.0
146
1.0
147
0.625
 71
1
 72
0
 73
0
 74
0
 75
0
 76
0
 77
1
 78
8
 79
2
170
0
171
1
172
0
173
0
174
0
175
0
176
0
177
0
178
0
270
2
179
2
271
2
272
2
273
2
274
2
275
0
280
0
281
0
282
0
283
1
284
8
285
0
286
0
287
3
288
0
340
11
278
46
341
212
342
212
343
212
344
212
  0
ENDTAB
  0
ENDSEC
  0
SECTION
  2
BLOCKS
  0
BLOCK
  5
20
100
AcDbEntity
  8
0
100
AcDbBlockBegin
  2
*Model_Space
 70
0
 10
0.0
 20
0.0
 30
0.0
  3
*Model_Space
  1

  0
ENDBLK
  5
21
100
AcDbEntity
  8
0
100
AcDbBlockEnd
  0
BLOCK
  5
1C
100
AcDbEntity
  8
0
100
AcDbBlockBegin
  2
*Paper_Space
 70
0
 10
0.0
 20
0.0
 30
0.0
  3
*Paper_Space
  1

  0
ENDBLK
  5
1D
100
AcDbEntity
  8
0
100
AcDbBlockEnd
  0
BLOCK
  5
214
100
AcDbEntity
  8
0
100
AcDbBlockBegin
  2
_FILLED
 70
64
 10
0.0
 20
0.0
  3
_FILLED
  1

  0
SOLID
  5
215
100
AcDbEntity
  8
0
  6
BYBLOCK
 62
0
100
AcDbTrace
 10
0.0
 20
0.0
 11
-1.0
 21
0.25
 12
-1.0
 22
-0.25
 13
-1.0
 23
-0.25
  0
ENDBLK
  5
216
100
AcDbEntity
  8
0
  6
BYBLOCK
 62
0
100
AcDbBlockEnd
  0
ENDSEC
  0
SECTION
  2
ENTITIES
  0
LINE
  5
217
100
AcDbEntity
  8
0
100
AcDbLine
 62
7
  6
BYLAYER
 10
11.140231638
 20
76.5545586937
 11
11.140231638
 21
72.5545586937
  0
LINE
  5
218
100
AcDbEntity
  8
0
100
AcDbLine
 62
7
  6
BYLAYER
 10
11.140231638
 20
65.0545586937
 11
11.140231638
 21
66.0545586937
  0
LINE
  5
219
100
AcDbEntity
  8
0
100
AcDbLine
 62
7
  6
BYLAYER
 10
11.140231638
 20
83.0545586937
 11
11.140231638
 21
84.0545586937
  0
LINE
  5
21A
100
AcDbEntity
  8
0
100
AcDbLine
 62
7
  6
BYLAYER
 10
19.140231638
 20
57.0545586937
 11
19.140231638
 21
92.0545586937
  0
LINE
  5
21B
100
AcDbEntity
  8
0
100
AcDbLine
 62
7
  6
BYLAYER
 10
22.1706015452
 20
92.0545586937
 11
22.1706015452
 21
88.5545586937
  0
LINE
  5
21C
100
AcDbEntity
  8
0
100
AcDbLine
 62
7
  6
BYLAYER
 10
22.1706015452
 20
60.5545586937
 11
22.1706015452
 21
57.0545586937
  0
LINE
  5
21D
100
AcDbEntity
  8
0
100
AcDbLine
 62
7
  6
BYLAYER
 10
22.1942780526
 20
61.5545586937
 11
22.1942780526
 21
72.6011456393
  0
LINE
  5
21E
100
AcDbEntity
  8
0
100
AcDbLine
 62
7
  6
BYLAYER
 10
22.1942780526
 20
76.5079717482
 11
22.1942780526
 21
87.5545586937
  0
LINE
  5
21F
100
AcDbEntity
  8
0
100
AcDbLine
 62
7
  6
BYLAYER
 10
23.140231638
 20
61.5545586937
 11
23.140231638
 21
87.5545586937
  0
LINE
  5
220
100
AcDbEntity
  8
0
100
AcDbLine
 62
7
  6
BYLAYER
 10
23.4883333563
 20
87.5545586937
 11
23.4883333563
 21
77.5545586937
  0
LINE
  5
221
100
AcDbEntity
  8
0
100
AcDbLine
 62
7
  6
BYLAYER
 10
23.4883333563
 20
71.5545586937
 11
23.4883333563
 21
61.5545586937
  0
LINE
  5
222
100
AcDbEntity
  8
0
100
AcDbLine
 62
7
  6
BYLAYER
 10
24.140371638
 20
59.0417351679
 11
24.140371638
 21
90.0673822195
  0
LINE
  5
223
100
AcDbEntity
  8
0
100
AcDbLine
 62
7
  6
BYLAYER
 10
19.140231638
 20
57.0545586937
 11
94.140231638
 21
57.0546819142
  0
LINE
  5
224
100
AcDbEntity
  8
0
100
AcDbLine
 62
7
  6
BYLAYER
 10
52.1403515442
 20
59.0417351679
 11
24.140371638
 21
59.0417351679
  0
LINE
  5
225
100
AcDbEntity
  8
0
100
AcDbLine
 62
7
  6
BYLAYER
 10
22.1706015452
 20
59.0545586937
 11
19.140231638
 21
59.0545586937
  0
LINE
  5
226
100
AcDbEntity
  8
0
100
AcDbLine
 62
7
  6
BYLAYER
 10
52.2364998545
 20
59.0545586937
 11
93.140231638
 21
59.0545586937
  0
LINE
  5
227
100
AcDbEntity
  8
0
100
AcDbLine
 62
7
  6
BYLAYER
 10
22.1706015452
 20
60.5545586937
 11
23.4181397835
 21
60.5545586937
  0
LINE
  5
228
100
AcDbEntity
  8
0
100
AcDbLine
 62
7
  6
BYLAYER
 10
23.140231638
 20
61.5545586937
 11
22.1942780526
 21
61.5545586937
  0
LINE
  5
229
100
AcDbEntity
  8
0
100
AcDbLine
 62
7
  6
BYLAYER
 10
19.140231638
 20
65.0545586937
 11
11.140231638
 21
65.0545586937
  0
LINE
  5
22A
100
AcDbEntity
  8
0
100
AcDbLine
 62
7
  6
BYLAYER
 10
11.140231638
 20
66.0545586937
 11
19.140231638
 21
66.0545586937
  0
LINE
  5
22B
100
AcDbEntity
  8
0
100
AcDbLine
 62
7
  6
BYLAYER
 10
55.8308305613
 20
70.5545586937
 11
60.4496327148
 21
70.5545586937
  0
LINE
  5
22C
100
AcDbEntity
  8
0
100
AcDbLine
 62
7
  6
BYLAYER
 10
82.8308305613
 20
70.5545586937
 11
87.4496327148
 21
70.5545586937
  0
LINE
  5
22D
100
AcDbEntity
  8
0
100
AcDbLine
 62
7
  6
BYLAYER
 10
23.140231638
 20
71.5545586937
 11
23.8792556807
 21
71.5545586937
  0
LINE
  5
22E
100
AcDbEntity
  8
0
100
AcDbLine
 62
7
  6
BYLAYER
 10
52.1403515442
 20
59.0417351679
 11
52.1403515442
 21
74.5166263921
  0
LINE
  5
22F
100
AcDbEntity
  8
0
100
AcDbLine
 62
7
  6
BYLAYER
 10
52.1403515442
 20
74.5924909954
 11
52.1403515442
 21
90.0673822195
  0
LINE
  5
230
100
AcDbEntity
  8
0
100
AcDbLine
 62
7
  6
BYLAYER
 10
52.2364998545
 20
90.0545586937
 11
52.2364998545
 21
75.6250497159
  0
LINE
  5
231
100
AcDbEntity
  8
0
100
AcDbLine
 62
7
  6
BYLAYER
 10
52.2364998545
 20
73.4840676716
 11
52.2364998545
 21
59.0545586937
  0
LINE
  5
232
100
AcDbEntity
  8
0
100
AcDbLine
 62
7
  6
BYLAYER
 10
11.140231638
 20
72.5545586937
 11
19.140231638
 21
72.5545586937
  0
LINE
  5
233
100
AcDbEntity
  8
0
100
AcDbLine
 62
7
  6
BYLAYER
 10
55.8308305613
 20
78.5545586937
 11
53.5214294845
 21
74.5545586937
  0
LINE
  5
234
100
AcDbEntity
  8
0
100
AcDbLine
 62
7
  6
BYLAYER
 10
19.140231638
 20
76.5545586937
 11
11.140231638
 21
76.5545586937
  0
LINE
  5
235
100
AcDbEntity
  8
0
100
AcDbLine
 62
7
  6
BYLAYER
 10
23.140231638
 20
77.5545586937
 11
23.8792556807
 21
77.5545586937
  0
LINE
  5
236
100
AcDbEntity
  8
0
100
AcDbLine
 62
7
  6
BYLAYER
 10
53.5214294845
 20
74.5545586937
 11
55.8308305613
 21
70.5545586937
  0
LINE
  5
237
100
AcDbEntity
  8
0
100
AcDbLine
 62
7
  6
BYLAYER
 10
57.1402633047
 20
57.0545586937
 11
57.1402633047
 21
59.0545586937
  0
LINE
  5
238
100
AcDbEntity
  8
0
100
AcDbLine
 62
7
  6
BYLAYER
 10
57.1402633047
 20
90.0545586937
 11
57.1402633047
 21
92.0545586937
  0
LINE
  5
239
100
AcDbEntity
  8
0
100
AcDbLine
 62
7
  6
BYLAYER
 10
87.4496327148
 20
78.5545586937
 11
82.8308305613
 21
78.5545586937
  0
LINE
  5
23A
100
AcDbEntity
  8
0
100
AcDbLine
 62
7
  6
BYLAYER
 10
60.4496327148
 20
78.5545586937
 11
55.8308305613
 21
78.5545586937
  0
LINE
  5
23B
100
AcDbEntity
  8
0
100
AcDbLine
 62
7
  6
BYLAYER
 10
60.4496327148
 20
70.5545586937
 11
62.7590337916
 21
74.5545586937
  0
LINE
  5
23C
100
AcDbEntity
  8
0
100
AcDbLine
 62
7
  6
BYLAYER
 10
19.140231638
 20
83.0545586937
 11
11.140231638
 21
83.0545586937
  0
LINE
  5
23D
100
AcDbEntity
  8
0
100
AcDbLine
 62
7
  6
BYLAYER
 10
62.7590337916
 20
74.5545586937
 11
60.4496327148
 21
78.5545586937
  0
LINE
  5
23E
100
AcDbEntity
  8
0
100
AcDbLine
 62
7
  6
BYLAYER
 10
11.140231638
 20
84.0545586937
 11
19.140231638
 21
84.0545586937
  0
LINE
  5
23F
100
AcDbEntity
  8
0
100
AcDbLine
 62
7
  6
BYLAYER
 10
22.1942780526
 20
87.5545586937
 11
23.140231638
 21
87.5545586937
  0
LINE
  5
240
100
AcDbEntity
  8
0
100
AcDbLine
 62
7
  6
BYLAYER
 10
23.4181397835
 20
88.5545586937
 11
22.1706015452
 21
88.5545586937
  0
LINE
  5
241
100
AcDbEntity
  8
0
100
AcDbLine
 62
7
  6
BYLAYER
 10
93.140231638
 20
90.0545586937
 11
52.2364998545
 21
90.0545586937
  0
LINE
  5
242
100
AcDbEntity
  8
0
100
AcDbLine
 62
7
  6
BYLAYER
 10
19.140231638
 20
90.0545586937
 11
22.1706015452
 21
90.0545586937
  0
LINE
  5
243
100
AcDbEntity
  8
0
100
AcDbLine
 62
7
  6
BYLAYER
 10
24.140371638
 20
90.0673822195
 11
52.1403515442
 21
90.0673822195
  0
LINE
  5
244
100
AcDbEntity
  8
0
100
AcDbLine
 62
7
  6
BYLAYER
 10
94.140231638
 20
92.0545586937
 11
19.140231638
 21
92.0545586937
  0
LINE
  5
245
100
AcDbEntity
  8
0
100
AcDbLine
 62
7
  6
BYLAYER
 10
82.8308305613
 20
78.5545586937
 11
80.5214294845
 21
74.5545586937
  0
LINE
  5
246
100
AcDbEntity
  8
0
100
AcDbLine
 62
7
  6
BYLAYER
 10
80.5214294845
 20
74.5545586937
 11
82.8308305613
 21
70.5545586937
  0
LINE
  5
247
100
AcDbEntity
  8
0
100
AcDbLine
 62
7
  6
BYLAYER
 10
87.4496327148
 20
70.5545586937
 11
89.7590337916
 21
74.5545586937
  0
LINE
  5
248
100
AcDbEntity
  8
0
100
AcDbLine
 62
7
  6
BYLAYER
 10
89.7590337916
 20
74.5545586937
 11
87.4496327148
 21
78.5545586937
  0
LINE
  5
249
100
AcDbEntity
  8
0
100
AcDbLine
 62
7
  6
BYLAYER
 10
93.140231638
 20
90.0545586937
 11
93.140231638
 21
59.0545586937
  0
LINE
  5
24A
100
AcDbEntity
  8
0
100
AcDbLine
 62
7
  6
BYLAYER
 10
94.140231638
 20
57.0545586937
 11
94.140231638
 21
92.0545586937
  0
CIRCLE
  5
24B
100
AcDbEntity
  8
0
100
AcDbCircle
 62
7
  6
BYLAYER
 10
58.140231638
 20
74.5545586937
 40
6.0
  0
CIRCLE
  5
24C
100
AcDbEntity
  8
0
100
AcDbCircle
 62
7
  6
BYLAYER
 10
85.140231638
 20
74.5545586937
 40
6.0
  0
ARC
  5
24D
100
AcDbEntity
  8
0
100
AcDbCircle
 62
7
  6
BYLAYER
 10
25.152731638
 20
74.5545586937
 40
3.6125
100
AcDbArc
 50
123.8550261283
 51
236.1449738717
  0
SPLINE
  5
24E
100
AcDbEntity
  8
0
100
AcDbSpline
 62
7
  6
BYLAYER
 70
0
 71
3
 72
22
 73
18
 74
0
 42
0.0000001
 43
0.0000001
 44
0.0000000001
 40
0.0
 40
0.0
 40
0.0
 40
0.0
 40
0.0012675066
 40
0.0049065225
 40
0.0109277166
 40
0.01931683
 40
0.0300567321
 40
0.0431295066
 40
0.0761772906
 40
0.1181158038
 40
0.1685209427
 40
0.2269587895
 40
0.2928574855
 40
0.4443164127
 40
0.6171745023
 40
0.8050146525
 40
1.0
 40
1.0
 40
1.0
 40
1.0
 10
22.1858049995
 20
88.5545586937
 30
0.0
 10
22.1862275617
 20
88.5545586937
 30
0.0
 10
22.1860759315
 20
88.5520539622
 30
0.0
 10
22.1868018246
 20
88.5492616804
 30
0.0
 10
22.1869375452
 20
88.5427831522
 30
0.0
 10
22.1874081869
 20
88.5346137284
 30
0.0
 10
22.1877462511
 20
88.5238050082
 30
0.0
 10
22.1883074829
 20
88.5048942595
 30
0.0
 10
22.1889268819
 20
88.4755190635
 30
0.0
 10
22.1896251223
 20
88.4337321921
 30
0.0
 10
22.1902873387
 20
88.3834651328
 30
0.0
 10
22.1909178495
 20
88.3252142329
 30
0.0
 10
22.1917405889
 20
88.2332724763
 30
0.0
 10
22.192599322
 20
88.1031850367
 30
0.0
 10
22.1933488062
 20
87.9324431668
 30
0.0
 10
22.1938789759
 20
87.7471897097
 30
0.0
 10
22.1940302054
 20
87.6195630479
 30
0.0
 10
22.1940302054
 20
87.5545586937
 30
0.0
  0
SPLINE
  5
24F
100
AcDbEntity
  8
0
100
AcDbSpline
 62
7
  6
BYLAYER
 70
0
 71
3
 72
22
 73
18
 74
0
 42
0.0000001
 43
0.0000001
 44
0.0000000001
 40
0.0
 40
0.0
 40
0.0
 40
0.0
 40
0.1949851474
 40
0.38282513
 40
0.5556831079
 40
0.7071417941
 40
0.7730403079
 40
0.8314779392
 40
0.8818828493
 40
0.9238211855
 40
0.9568689447
 40
0.9699418019
 40
0.9806818559
 40
0.9890711933
 40
0.9950926851
 40
0.9987320715
 40
1.0
 40
1.0
 40
1.0
 40
1.0
 10
22.1941622194
 20
61.5545586937
 30
0.0
 10
22.1941622194
 20
61.4895542594
 30
0.0
 10
22.1940279981
 20
61.3619274287
 30
0.0
 10
22.1935259646
 20
61.1766736239
 30
0.0
 10
22.1927835678
 20
61.0059315039
 30
0.0
 10
22.1919268788
 20
60.8758439325
 30
0.0
 10
22.191103526
 20
60.7839021861
 30
0.0
 10
22.1904716177
 20
60.7256513772
 30
0.0
 10
22.1898066428
 20
60.6753844475
 30
0.0
 10
22.189102984
 20
60.633597705
 30
0.0
 10
22.1884753629
 20
60.6042226597
 30
0.0
 10
22.1879043628
 20
60.5853120465
 30
0.0
 10
22.1875591191
 20
60.5745034586
 30
0.0
 10
22.1870819553
 20
60.5663339301
 30
0.0
 10
22.1869400879
 20
60.5598557719
 30
0.0
 10
22.1862110866
 20
60.5570629161
 30
0.0
 10
22.1863599622
 20
60.5545586937
 30
0.0
 10
22.1859372584
 20
60.5545586937
 30
0.0
  0
SPLINE
  5
250
100
AcDbEntity
  8
0
100
AcDbSpline
 62
7
  6
BYLAYER
 70
0
 71
3
 72
17
 73
13
 74
0
 42
0.0000001
 43
0.0000001
 44
0.0000000001
 40
0.0
 40
0.0
 40
0.0
 40
0.0
 40
0.0082592773
 40
0.0240311317
 40
0.0485490064
 40
0.0819499925
 40
0.1743411961
 40
0.2981405944
 40
0.4486410386
 40
0.6202308182
 40
0.8065940141
 40
1.0
 40
1.0
 40
1.0
 40
1.0
 10
23.4182509174
 20
60.5545586937
 30
0.0
 10
23.4210265271
 20
60.5545586937
 30
0.0
 10
23.4275131923
 20
60.5615296285
 30
0.0
 10
23.4328750316
 20
60.5762956998
 30
0.0
 10
23.439541826
 20
60.6005018109
 30
0.0
 10
23.4485863227
 20
60.6500562938
 30
0.0
 10
23.4587011113
 20
60.7334924545
 30
0.0
 10
23.4686717437
 20
60.8562756937
 30
0.0
 10
23.477017172
 20
61.0059222528
 30
0.0
 10
23.4832566047
 20
61.1766800657
 30
0.0
 10
23.4871714773
 20
61.3619364413
 30
0.0
 10
23.4880877762
 20
61.4895627499
 30
0.0
 10
23.4880877762
 20
61.5545586937
 30
0.0
  0
SPLINE
  5
251
100
AcDbEntity
  8
0
100
AcDbSpline
 62
7
  6
BYLAYER
 70
0
 71
3
 72
17
 73
13
 74
0
 42
0.0000001
 43
0.0000001
 44
0.0000000001
 40
0.0
 40
0.0
 40
0.0
 40
0.0
 40
0.1934030555
 40
0.3797630946
 40
0.5513500991
 40
0.7018481574
 40
0.8256456839
 40
0.918036371
 40
0.951438656
 40
0.9759597307
 40
0.9917365051
 40
1.0
 40
1.0
 40
1.0
 40
1.0
 10
23.4882198023
 20
87.5545586937
 30
0.0
 10
23.4882198023
 20
87.6195546672
 30
0.0
 10
23.4873204818
 20
87.7471809288
 30
0.0
 10
23.483433688
 20
87.9324379024
 30
0.0
 10
23.4772012526
 20
88.1031959005
 30
0.0
 10
23.4688582227
 20
88.2528426237
 30
0.0
 10
23.4588856473
 20
88.3756259725
 30
0.0
 10
23.4487667775
 20
88.4590628476
 30
0.0
 10
23.4397078294
 20
88.5086171266
 30
0.0
 10
23.4330280341
 20
88.5328234684
 30
0.0
 10
23.4276512879
 20
88.5475890905
 30
0.0
 10
23.4211601029
 20
88.5545586937
 30
0.0
 10
23.4183830326
 20
88.5545586937
 30
0.0
  0
SPLINE
  5
252
100
AcDbEntity
  8
0
100
AcDbSpline
 62
7
  6
BYLAYER
 70
0
 71
3
 72
19
 73
15
 74
0
 42
0.0000001
 43
0.0000001
 44
0.0000000001
 40
0.0
 40
0.0
 40
0.0
 40
0.0
 40
0.194485394
 40
0.3818731028
 40
0.5543585741
 40
0.7055614065
 40
0.7713830806
 40
0.8297814385
 40
0.8801881732
 40
0.9221742041
 40
0.9553264364
 40
0.9793284721
 40
0.994094479
 40
1.0
 40
1.0
 40
1.0
 40
1.0
 10
23.140231638
 20
61.5545586937
 30
0.0
 10
23.140231638
 20
61.4895823072
 30
0.0
 10
23.1406655218
 20
61.3620005597
 30
0.0
 10
23.1425803463
 20
61.1768003466
 30
0.0
 10
23.145691874
 20
61.0060814771
 30
0.0
 10
23.1493017892
 20
60.8759901567
 30
0.0
 10
23.1528001933
 20
60.7840478357
 30
0.0
 10
23.1555064183
 20
60.7257458878
 30
0.0
 10
23.1583789957
 20
60.6755149134
 30
0.0
 10
23.1614042638
 20
60.6334887838
 30
0.0
 10
23.1644559894
 20
60.6010007314
 30
0.0
 10
23.1676547503
 20
60.5760266684
 30
0.0
 10
23.1704314603
 20
60.563463759
 30
0.0
 10
23.1731581361
 20
60.5545586937
 30
0.0
 10
23.1751311347
 20
60.5545586937
 30
0.0
  0
SPLINE
  5
253
100
AcDbEntity
  8
0
100
AcDbSpline
 62
7
  6
BYLAYER
 70
0
 71
3
 72
19
 73
15
 74
0
 42
0.0000001
 43
0.0000001
 44
0.0000000001
 40
0.0
 40
0.0
 40
0.0
 40
0.0
 40
0.0059055381
 40
0.0206715876
 40
0.0446736635
 40
0.0778259387
 40
0.1198120441
 40
0.170218838
 40
0.2286172169
 40
0.2944389401
 40
0.4456418342
 40
0.6181272479
 40
0.8055147173
 40
1.0
 40
1.0
 40
1.0
 40
1.0
 10
23.1751311347
 20
88.5545586937
 30
0.0
 10
23.1731581304
 20
88.5545586937
 30
0.0
 10
23.1704314651
 20
88.5456535893
 30
0.0
 10
23.1676547443
 20
88.5330906612
 30
0.0
 10
23.1644559823
 20
88.50811655
 30
0.0
 10
23.161404249
 20
88.475628448
 30
0.0
 10
23.1583789829
 20
88.4336022583
 30
0.0
 10
23.155506405
 20
88.3833712326
 30
0.0
 10
23.1528001784
 20
88.3250692416
 30
0.0
 10
23.1493017793
 20
88.2331268767
 30
0.0
 10
23.1456918647
 20
88.1030355391
 30
0.0
 10
23.1425803436
 20
87.9323167486
 30
0.0
 10
23.1406655184
 20
87.7471166727
 30
0.0
 10
23.140231638
 20
87.6195350428
 30
0.0
 10
23.140231638
 20
87.5545586937
 30
0.0
  0
SPLINE
  5
254
100
AcDbEntity
  8
0
100
AcDbSpline
 62
7
  6
BYLAYER
 70
0
 71
3
 72
18
 73
14
 74
0
 42
0.0000001
 43
0.0000001
 44
0.0000000001
 40
0.0
 40
0.0
 40
0.0
 40
0.0
 40
0.1934740539
 40
0.3794691154
 40
0.5506065545
 40
0.7006162134
 40
0.8238999518
 40
0.9160589058
 40
0.9495159116
 40
0.9742810587
 40
0.9834595687
 40
0.9906200105
 40
1.0
 40
1.0
 40
1.0
 40
1.0
 10
24.1403715826
 20
59.0417351679
 30
0.0
 10
24.1402990586
 20
58.9120861595
 30
0.0
 10
24.1380139133
 20
58.6577959941
 30
0.0
 10
24.1282720187
 20
58.288935558
 30
0.0
 10
24.1126603335
 20
57.9494339938
 30
0.0
 10
24.0921193464
 20
57.6522733642
 30
0.0
 10
24.0673338756
 20
57.4086230291
 30
0.0
 10
24.0430979797
 20
57.2434304457
 30
0.0
 10
24.0204960738
 20
57.1451390022
 30
0.0
 10
24.0070130877
 20
57.1020005629
 30
0.0
 10
23.9950596805
 20
57.0769255013
 30
0.0
 10
23.9860480795
 20
57.0626730004
 30
0.0
 10
23.9760611097
 20
57.0545586937
 30
0.0
 10
23.9697754786
 20
57.0545586937
 30
0.0
  0
SPLINE
  5
255
100
AcDbEntity
  8
0
100
AcDbSpline
 62
7
  6
BYLAYER
 70
0
 71
3
 72
18
 73
14
 74
0
 42
0.0000001
 43
0.0000001
 44
0.0000000001
 40
0.0
 40
0.0
 40
0.0
 40
0.0
 40
0.0093805125
 40
0.0165417082
 40
0.0257210797
 40
0.050487763
 40
0.0839479963
 40
0.176112159
 40
0.2994003835
 40
0.4494125499
 40
0.6205482282
 40
0.8065322674
 40
1.0
 40
1.0
 40
1.0
 40
1.0
 10
23.9697754786
 20
92.0545586937
 30
0.0
 10
23.9760614577
 20
92.0545586937
 30
0.0
 10
23.9860484891
 20
92.046442345
 30
0.0
 10
23.995060107
 20
92.0321884757
 30
0.0
 10
24.0070139479
 20
92.0071112009
 30
0.0
 10
24.0204988012
 20
91.9639695184
 30
0.0
 10
24.0431007296
 20
91.8656711349
 30
0.0
 10
24.0673375911
 20
91.7004701428
 30
0.0
 10
24.0921224363
 20
91.4568115454
 30
0.0
 10
24.1126624129
 20
91.1596474785
 30
0.0
 10
24.128272385
 20
90.820152862
 30
0.0
 10
24.1380145625
 20
90.4513053931
 30
0.0
 10
24.140299061
 20
90.1970269408
 30
0.0
 10
24.1403715826
 20
90.0673822195
 30
0.0
  0
SPLINE
  5
256
100
AcDbEntity
  8
0
100
AcDbSpline
 62
7
  6
BYLAYER
 70
0
 71
3
 72
19
 73
15
 74
0
 42
0.0000001
 43
0.0000001
 44
0.0000000001
 40
0.0
 40
0.0
 40
0.0
 40
0.0
 40
0.0092111242
 40
0.0163260493
 40
0.0254783778
 40
0.0502338429
 40
0.0837178694
 40
0.1257455057
 40
0.1760295
 40
0.299499721
 40
0.4496670647
 40
0.6208754594
 40
0.806794526
 40
1.0
 40
1.0
 40
1.0
 40
1.0
 10
23.8792554508
 20
71.5545586936
 30
0.0
 10
23.8885696968
 20
71.5545587983
 30
0.0
 10
23.9032934774
 20
71.5669749439
 30
0.0
 10
23.9164629192
 20
71.5884135967
 30
0.0
 10
23.9340811496
 20
71.626375793
 30
0.0
 10
23.953935166
 20
71.6915858154
 30
0.0
 10
23.9763009406
 20
71.7905730448
 30
0.0
 10
23.9979681011
 20
71.9159426576
 30
0.0
 10
24.0278699348
 20
72.1321148642
 30
0.0
 10
24.06013082
 20
72.4581714414
 30
0.0
 10
24.0908703937
 20
72.9069834233
 30
0.0
 10
24.1140297023
 20
73.4194766601
 30
0.0
 10
24.1284247875
 20
73.9758123889
 30
0.0
 10
24.1316607154
 20
74.359190216
 30
0.0
 10
24.1316607154
 20
74.5545586937
 30
0.0
  0
SPLINE
  5
257
100
AcDbEntity
  8
0
100
AcDbSpline
 62
7
  6
BYLAYER
 70
0
 71
3
 72
19
 73
15
 74
0
 42
0.0000001
 43
0.0000001
 44
0.0000000001
 40
0.0
 40
0.0
 40
0.0
 40
0.0
 40
0.1931993905
 40
0.3791166249
 40
0.5503324563
 40
0.7005006537
 40
0.8239685355
 40
0.8742513927
 40
0.9162797685
 40
0.9497650978
 40
0.9745210169
 40
0.9836736148
 40
0.9907887745
 40
1.0
 40
1.0
 40
1.0
 40
1.0
 10
24.1316607154
 20
74.5545586937
 30
0.0
 10
24.1316607154
 20
74.7499210095
 30
0.0
 10
24.1284257845
 20
75.1332908276
 30
0.0
 10
24.1140292041
 20
75.6896259952
 30
0.0
 10
24.0908714577
 20
76.2021258155
 30
0.0
 10
24.0601308058
 20
76.6509437342
 30
0.0
 10
24.0278706205
 20
76.9769976991
 30
0.0
 10
23.9979686021
 20
77.1931670855
 30
0.0
 10
23.9763016641
 20
77.3185376201
 30
0.0
 10
23.9539365547
 20
77.4175276291
 30
0.0
 10
23.9340818651
 20
77.4827395352
 30
0.0
 10
23.9164634291
 20
77.5207027761
 30
0.0
 10
23.9032940588
 20
77.542141976
 30
0.0
 10
23.8885699737
 20
77.5545590052
 30
0.0
 10
23.8792556258
 20
77.5545586917
 30
0.0
  0
ELLIPSE
  5
258
100
AcDbEntity
  8
0
100
AcDbEllipse
 62
7
  6
BYLAYER
 10
52.3326521178
 20
59.0545586937
 30
0.0
 11
0.0
 21
2.0
 31
0.0
 40
0.0961522633
 41
-4.7059771747
 42
-3.1415926536
  0
ELLIPSE
  5
259
100
AcDbEntity
  8
0
100
AcDbEllipse
 62
7
  6
BYLAYER
 10
52.3326521178
 20
90.0545586937
 30
0.0
 11
-0.0
 21
2.0
 31
0.0
 40
0.0961522633
 41
-0.0
 42
1.5643845211
  0
ENDSEC
  0
SECTION
  2
OBJECTS
  0
DICTIONARY
  5
C
100
AcDbDictionary
280
0
281
1
  3
ACAD_GROUP
350
D
  3
ACAD_MLINESTYLE
350
17
  3
ACAD_LAYOUT
350
1A
  3
ACAD_PLOTSETTINGS
350
19
  3
ACAD_PLOTSTYLENAME
350
E
  0
DICTIONARY
  5
D
102
{ACAD_REACTORS
330
C
102
}
100
AcDbDictionary
280
0
281
1
  0
ACDBDICTIONARYWDFLT
  5
E
102
{ACAD_REACTORS
330
C
102
}
100
AcDbDictionary
281
1
  3
Normal
350
F
100
AcDbDictionaryWithDefault
340
F
  0
DICTIONARY
  5
17
102
{ACAD_REACTORS
330
C
102
}
100
AcDbDictionary
280
0
281
1
  3
Standard
350
18
  0
DICTIONARY
  5
19
102
{ACAD_REACTORS
330
C
102
}
100
AcDbDictionary
281
1
  0
DICTIONARY
  5
1A
102
{ACAD_REACTORS
330
C
102
}
100
AcDbDictionary
281
1
  3
Model
350
25A
  3
Layout1
350
25B
  0
ACDBPLACEHOLDER
  5
F
102
{ACAD_REACTORS
330
E
102
}
  0
MLINESTYLE
  5
18
102
{ACAD_REACTORS
330
17
102
}
100
AcDbMlineStyle
  2
STANDARD
 70
0
  3

 62
256
 51
90.0
 52
90.0
 71
2
 49
0.5
 62
256
  6
BYLAYER
 49
-0.5
 62
256
  6
BYLAYER
  0
LAYOUT
  5
25A
102
{ACAD_REACTORS
330
1A
102
}
100
AcDbPlotSettings
  1

  2
none_device
  4

  6

 40
0.0
 41
0.0
 42
0.0
 43
0.0
 44
210.0
 45
297.0
 46
0.0
 47
0.0
 48
0.0
 49
0.0
140
0.0
141
0.0
142
1.0
143
1.0
 70
1024
 72
1
 73
0
 74
0
  7

 75
0
147
1.0
148
0.0
149
0.0
100
AcDbLayout
  1
Model
 70
0
 71
0
 10
0.0
 20
0.0
 11
210.0
 21
297.0
 12
0.0
 22
0.0
 32
0.0
 14
0.0
 24
0.0
 34
0.0
 15
0.0
 25
0.0
 35
0.0
146
0.0
 13
0.0
 23
0.0
 33
0.0
 16
1.0
 26
0.0
 36
0.0
 17
0.0
 27
1.0
 37
0.0
 76
0
330
210
345
0
346
0
  0
LAYOUT
  5
25B
102
{ACAD_REACTORS
330
1A
102
}
100
AcDbPlotSettings
  1

  2
none_device
  4

  6

 40
0.0
 41
0.0
 42
0.0
 43
0.0
 44
210.0
 45
297.0
 46
0.0
 47
0.0
 48
0.0
 49
0.0
140
0.0
141
0.0
142
1.0
143
1.0
 70
0
 72
1
 73
0
 74
0
  7

 75
0
147
1.0
148
0.0
149
0.0
100
AcDbLayout
  1
Layout1
 70
0
 71
1
 10
0.0
 20
0.0
 11
210.0
 21
297.0
 12
0.0
 22
0.0
 32
0.0
 14
0.0
 24
0.0
 34
0.0
 15
0.0
 25
0.0
 35
0.0
146
0.0
 13
0.0
 23
0.0
 33
0.0
 16
1.0
 26
0.0
 36
0.0
 17
0.0
 27
1.0
 37
0.0
 76
0
330
211
345
0
346
0
  0
ENDSEC
  0
EOF
