999
DXF file: C:\Users\sesa63760\Dev\_Creo\CAD\MCADUE0002349_3D-CAD\drw0001_2.dxf
999
Pro/ENGINEER 2019471 by Parametric Technology Corporation
  0
SECTION
  2
HEADER
  9
$ACADVER
  1
AC1024
  9
$DWGCODEPAGE
  3
ANSI_1252
  9
$EXTMAX
 10
339.1805858146
 20
479.6982570806
 30
0.0
  9
$EXTMIN
 10
0.0
 20
0.0
 30
0.0
  9
$LIMMIN
 10
0.0
 20
0.0
  9
$LIMMAX
 10
339.1805858146
 20
479.6982570806
  9
$VIEWCTR
 10
169.5902929073
 20
239.8491285403
  9
$VIEWSIZE
 40
479.6982570806
  9
$CLAYER
  8
0
  9
$LTSCALE
 40
31.2692197208
  9
$CELTYPE
  6
BYLAYER
  9
$DIMSCALE
 40
1.0
  9
$DIMASZ
 40
4.0378641168
  9
$DIMEXO
 40
1.0
  9
$DIMDLI
 40
21.6041881707
  9
$DIMEXE
 40
1.0
  9
$DIMCEN
 40
5.1167814089
  9
$DIMLFAC
 40
1.0
  9
$DIMBLK
  1
_FILLED
  9
$DIMALT
 70
0
  9
$DIMALTF
 40
0.0393700787
  9
$DIMTXT
 40
5.6530097636
  9
$DIMTOL
 70
1
  9
$DIMLIM
 70
0
  9
$DIMTFAC
 40
1.0
  9
$DIMTP
 40
0.01
  9
$DIMTM
 40
0.01
  9
$DIMGAP
 40
0.625
  9
$DIMDSEP
 70
46
  9
$AUNITS
 70
0
  9
$PDMODE
 70
3
  9
$PDSIZE
 40
0.3125
  9
$HANDSEED
  5
283
  9
$TILEMODE
 70
1
  9
$MEASUREMENT
 70
1
  9
$INSUNITS
 70
4
  0
ENDSEC
  0
SECTION
  2
CLASSES
  0
CLASS
  1
ACDBDICTIONARYWDFLT
  2
AcDbDictionaryWithDefault
  3
AutoCAD 2000
 90
0
 91
1
280
0
281
0
  0
CLASS
  1
ACDBPLACEHOLDER
  2
AcDbPlaceHolder
  3
AutoCAD 2000
 90
0
 91
1
280
0
281
0
  0
CLASS
  1
LAYOUT
  2
AcDbLayout
  3
AutoCAD 2000
 90
0
 91
0
280
0
281
0
  0
ENDSEC
  0
SECTION
  2
TABLES
  0
TABLE
  2
VPORT
  5
8
100
AcDbSymbolTable
 70
2
  0
VPORT
  5
1F4
100
AcDbSymbolTableRecord
100
AcDbViewportTableRecord
  2
*ACTIVE
 70
0
 10
0.0
 20
0.0
 11
1.0
 21
1.0
 12
169.5902929073
 22
239.8491285403
 13
0.0
 23
0.0
 14
1.0
 24
1.0
 15
0.0
 25
0.0
 16
0.0
 26
0.0
 36
1.0
 17
0.0
 27
0.0
 37
0.0
 40
479.6982570806
 41
0.7070707071
 42
50.0
 43
0.0
 44
0.0
 50
0.0
 51
0.0
 71
0
 72
100
 73
1
 74
1
 75
0
 76
0
 77
0
 78
0
  0
ENDTAB
  0
TABLE
  2
LTYPE
  5
5
100
AcDbSymbolTable
 70
6
  0
LTYPE
  5
14
100
AcDbSymbolTableRecord
100
AcDbLinetypeTableRecord
  2
BYBLOCK
 70
0
  3

 72
65
 73
0
 40
0.0
  0
LTYPE
  5
15
100
AcDbSymbolTableRecord
100
AcDbLinetypeTableRecord
  2
BYLAYER
 70
0
  3

 72
65
 73
0
 40
0.0
  0
LTYPE
  5
16
100
AcDbSymbolTableRecord
100
AcDbLinetypeTableRecord
  2
CONTINUOUS
 70
64
  3
Solid line
 72
65
 73
0
 40
0.0
  0
LTYPE
  5
1F5
100
AcDbSymbolTableRecord
100
AcDbLinetypeTableRecord
  2
CENTER
 70
64
  3
____ _ ____ _ ____ _ ____ _ ____ _ ____ _ ____
 72
65
 73
4
 40
0.6
 49
0.375
 74
0
 49
-0.075
 74
0
 49
0.075
 74
0
 49
-0.075
 74
0
  0
LTYPE
  5
1F6
100
AcDbSymbolTableRecord
100
AcDbLinetypeTableRecord
  2
HIDDEN
 70
64
  3
- - - - - - - - - - - - - - - - - - - -
 72
65
 73
2
 40
0.2
 49
0.1
 74
0
 49
-0.1
 74
0
  0
LTYPE
  5
1F7
100
AcDbSymbolTableRecord
100
AcDbLinetypeTableRecord
  2
PHANTOM
 70
64
  3
_____ _ _ _____ _ _ _____ _ _ _____
 72
65
 73
6
 40
0.8
 49
0.45
 74
0
 49
-0.05
 74
0
 49
0.1
 74
0
 49
-0.05
 74
0
 49
0.1
 74
0
 49
-0.05
 74
0
  0
LTYPE
  5
1F8
100
AcDbSymbolTableRecord
100
AcDbLinetypeTableRecord
  2
DOT
 70
64
  3
. . . . . . . . . . . . . . . . . . . .
 72
65
 73
2
 40
0.2
 49
0.1
 74
0
 49
-0.1
 74
0
  0
LTYPE
  5
1F9
100
AcDbSymbolTableRecord
100
AcDbLinetypeTableRecord
  2
DASHED
 70
64
  3
- - - - - - - - - - - - - - - - - - - -
 72
65
 73
2
 40
0.2
 49
0.1
 74
0
 49
-0.1
 74
0
  0
ENDTAB
  0
TABLE
  2
LAYER
  5
2
100
AcDbSymbolTable
 70
36
  0
LAYER
  5
10
100
AcDbSymbolTableRecord
100
AcDbLayerTableRecord
  2
0
 70
0
 62
7
  6
CONTINUOUS
370
-3
390
F
  0
LAYER
  5
1FA
100
AcDbSymbolTableRecord
100
AcDbLayerTableRecord
  2
DEFAULT_1
 70
0
 62
7
  6
CENTER
370
-3
390
F
  0
LAYER
  5
1FB
100
AcDbSymbolTableRecord
100
AcDbLayerTableRecord
  2
DEFAULT_2
 70
0
 62
8
  6
HIDDEN
370
-3
390
F
  0
LAYER
  5
1FC
100
AcDbSymbolTableRecord
100
AcDbLayerTableRecord
  2
DEFAULT_3
 70
0
 62
7
  6
PHANTOM
370
-3
390
F
  0
LAYER
  5
1FD
100
AcDbSymbolTableRecord
100
AcDbLayerTableRecord
  2
00_COMPONENTS
 70
0
 62
7
  6
CONTINUOUS
370
-3
390
F
  0
LAYER
  5
1FE
100
AcDbSymbolTableRecord
100
AcDbLayerTableRecord
  2
01_1_DEFAULT_DATUMS
 70
0
 62
7
  6
CONTINUOUS
370
-3
390
F
  0
LAYER
  5
1FF
100
AcDbSymbolTableRecord
100
AcDbLayerTableRecord
  2
01_PLANES
 70
0
 62
7
  6
CONTINUOUS
370
-3
390
F
  0
LAYER
  5
200
100
AcDbSymbolTableRecord
100
AcDbLayerTableRecord
  2
02_COORD_SYS
 70
0
 62
7
  6
CONTINUOUS
370
-3
390
F
  0
LAYER
  5
201
100
AcDbSymbolTableRecord
100
AcDbLayerTableRecord
  2
03_AXES
 70
0
 62
7
  6
CONTINUOUS
370
-3
390
F
  0
LAYER
  5
202
100
AcDbSymbolTableRecord
100
AcDbLayerTableRecord
  2
04_POINTS
 70
0
 62
7
  6
CONTINUOUS
370
-3
390
F
  0
LAYER
  5
203
100
AcDbSymbolTableRecord
100
AcDbLayerTableRecord
  2
05_CURVES
 70
0
 62
7
  6
CONTINUOUS
370
-3
390
F
  0
LAYER
  5
204
100
AcDbSymbolTableRecord
100
AcDbLayerTableRecord
  2
06_SURFS
 70
0
 62
7
  6
CONTINUOUS
370
-3
390
F
  0
LAYER
  5
205
100
AcDbSymbolTableRecord
100
AcDbLayerTableRecord
  2
07_COSMETICS
 70
0
 62
7
  6
CONTINUOUS
370
-3
390
F
  0
LAYER
  5
206
100
AcDbSymbolTableRecord
100
AcDbLayerTableRecord
  2
10_NOTES
 70
0
 62
7
  6
CONTINUOUS
370
-3
390
F
  0
LAYER
  5
207
100
AcDbSymbolTableRecord
100
AcDbLayerTableRecord
  2
11_NOTES_PUB
 70
0
 62
7
  6
CONTINUOUS
370
-3
390
F
  0
LAYER
  5
208
100
AcDbSymbolTableRecord
100
AcDbLayerTableRecord
  2
13_REF_GTOL
 70
0
 62
7
  6
CONTINUOUS
370
-3
390
F
  0
LAYER
  5
209
100
AcDbSymbolTableRecord
100
AcDbLayerTableRecord
  2
16_MISC
 70
0
 62
7
  6
CONTINUOUS
370
-3
390
F
  0
LAYER
  5
20A
100
AcDbSymbolTableRecord
100
AcDbLayerTableRecord
  2
17_NO_PRINT
 70
0
 62
7
  6
CONTINUOUS
370
-3
390
F
  0
LAYER
  5
20B
100
AcDbSymbolTableRecord
100
AcDbLayerTableRecord
  2
18_DATUM_CAMS_JOINTS
 70
0
 62
7
  6
CONTINUOUS
370
-3
390
F
  0
LAYER
  5
20C
100
AcDbSymbolTableRecord
100
AcDbLayerTableRecord
  2
19_DATUM_FUNCTIONAL
 70
0
 62
7
  6
CONTINUOUS
370
-3
390
F
  0
LAYER
  5
20D
100
AcDbSymbolTableRecord
100
AcDbLayerTableRecord
  2
20_DATUM_KINEMATIC_SCHEME
 70
0
 62
7
  6
CONTINUOUS
370
-3
390
F
  0
ENDTAB
  0
TABLE
  2
STYLE
  5
3
100
AcDbSymbolTable
 70
1
  0
STYLE
  5
11
100
AcDbSymbolTableRecord
100
AcDbTextStyleTableRecord
  2
STANDARD
 70
0
 40
0.0
 41
0.8
 50
0.0
 71
0
 42
0.2
  3
txt
  4

  0
STYLE
  5
20E
100
AcDbSymbolTableRecord
100
AcDbTextStyleTableRecord
  2
TEXTSTYLE_1
 70
0
 40
0.0
 41
0.8
 50
0.0
 71
0
 42
0.2
  3
gdt
  4

  0
ENDTAB
  0
TABLE
  2
VIEW
  5
6
100
AcDbSymbolTable
 70
0
  0
ENDTAB
  0
TABLE
  2
UCS
  5
7
100
AcDbSymbolTable
 70
0
  0
ENDTAB
  0
TABLE
  2
APPID
  5
9
100
AcDbSymbolTable
 70
1
  0
APPID
  5
20F
100
AcDbSymbolTableRecord
100
AcDbRegAppTableRecord
  2
ACAD
 70
0
  0
ENDTAB
  0
TABLE
  2
BLOCK_RECORD
  5
1
100
AcDbSymbolTable
 70
0
  0
BLOCK_RECORD
  5
210
100
AcDbSymbolTableRecord
100
AcDbBlockTableRecord
  2
*Model_Space
  0
BLOCK_RECORD
  5
211
100
AcDbSymbolTableRecord
100
AcDbBlockTableRecord
  2
*Paper_Space
  0
BLOCK_RECORD
  5
212
100
AcDbSymbolTableRecord
100
AcDbBlockTableRecord
  2
_FILLED
  0
ENDTAB
  0
TABLE
  2
DIMSTYLE
  5
A
100
AcDbSymbolTable
 70
1
100
AcDbDimStyleTable
 71
0
  0
DIMSTYLE
105
213
100
AcDbSymbolTableRecord
100
AcDbDimStyleTableRecord
  2
STANDARD
 70
0
  3

  4

 40
1.0
 41
4.0378641168
 42
1.0
 43
0.38
 44
1.0
 45
0.0
 46
0.0
 47
0.01
 48
0.01
140
5.6530097636
141
0.09
142
0.0
143
25.4
144
1.0
145
0.0
146
1.0
147
0.625
 71
1
 72
0
 73
0
 74
0
 75
0
 76
0
 77
1
 78
8
 79
2
170
0
171
1
172
0
173
0
174
0
175
0
176
0
177
0
178
0
270
2
179
2
271
2
272
2
273
2
274
2
275
0
280
0
281
0
282
0
283
1
284
8
285
0
286
0
287
3
288
0
340
11
278
46
341
212
342
212
343
212
344
212
  0
ENDTAB
  0
ENDSEC
  0
SECTION
  2
BLOCKS
  0
BLOCK
  5
20
100
AcDbEntity
  8
0
100
AcDbBlockBegin
  2
*Model_Space
 70
0
 10
0.0
 20
0.0
 30
0.0
  3
*Model_Space
  1

  0
ENDBLK
  5
21
100
AcDbEntity
  8
0
100
AcDbBlockEnd
  0
BLOCK
  5
1C
100
AcDbEntity
  8
0
100
AcDbBlockBegin
  2
*Paper_Space
 70
0
 10
0.0
 20
0.0
 30
0.0
  3
*Paper_Space
  1

  0
ENDBLK
  5
1D
100
AcDbEntity
  8
0
100
AcDbBlockEnd
  0
BLOCK
  5
214
100
AcDbEntity
  8
0
100
AcDbBlockBegin
  2
_FILLED
 70
64
 10
0.0
 20
0.0
  3
_FILLED
  1

  0
SOLID
  5
215
100
AcDbEntity
  8
0
  6
BYBLOCK
 62
0
100
AcDbTrace
 10
0.0
 20
0.0
 11
-1.0
 21
0.25
 12
-1.0
 22
-0.25
 13
-1.0
 23
-0.25
  0
ENDBLK
  5
216
100
AcDbEntity
  8
0
  6
BYBLOCK
 62
0
100
AcDbBlockEnd
  0
ENDSEC
  0
SECTION
  2
ENTITIES
  0
LINE
  5
217
100
AcDbEntity
  8
0
100
AcDbLine
 62
7
  6
CONTINUOUS
 10
37.7039535171
 20
245.7272748884
 11
37.1888767853
 21
216.2185486852
  0
LINE
  5
218
100
AcDbEntity
  8
0
100
AcDbLine
 62
7
  6
CONTINUOUS
 10
47.4388767853
 20
216.2185486852
 11
47.4388767853
 21
217.474847526
  0
LINE
  5
219
100
AcDbEntity
  8
0
100
AcDbLine
 62
7
  6
CONTINUOUS
 10
47.7124453824
 20
246.2137735276
 11
47.8886025468
 21
256.3058107174
  0
LINE
  5
21A
100
AcDbEntity
  8
0
100
AcDbLine
 62
7
  6
CONTINUOUS
 10
49.3528455979
 20
256.3058107174
 11
49.1768994953
 21
246.2257590255
  0
LINE
  5
21B
100
AcDbEntity
  8
0
100
AcDbLine
 62
7
  6
CONTINUOUS
 10
57.5321473177
 20
225.1975738699
 11
57.3606147635
 21
235.0232111378
  0
LINE
  5
21C
100
AcDbEntity
  8
0
100
AcDbLine
 62
7
  6
CONTINUOUS
 10
58.7153878257
 20
226.8897357349
 11
58.407646602
 21
245.7272748884
  0
LINE
  5
21D
100
AcDbEntity
  8
0
100
AcDbLine
 62
7
  6
CONTINUOUS
 10
60.4434563586
 20
226.8251429617
 11
60.6566052631
 21
256.3058107174
  0
LINE
  5
21E
100
AcDbEntity
  8
0
100
AcDbLine
 62
7
  6
CONTINUOUS
 10
57.7120374621
 20
234.3832995447
 11
57.7217966441
 21
235.0176545653
  0
LINE
  5
21F
100
AcDbEntity
  8
0
100
AcDbLine
 62
7
  6
CONTINUOUS
 10
60.5117375293
 20
245.7272748884
 11
60.2039956251
 21
226.8897335113
  0
LINE
  5
220
100
AcDbEntity
  8
0
100
AcDbLine
 62
7
  6
CONTINUOUS
 10
63.9738917591
 20
223.3490244942
 11
63.9738917591
 21
226.1944447537
  0
LINE
  5
221
100
AcDbEntity
  8
0
100
AcDbLine
 62
7
  6
CONTINUOUS
 10
64.1916006876
 20
256.3058107174
 11
64.1916006876
 21
261.2185486852
  0
LINE
  5
222
100
AcDbEntity
  8
0
100
AcDbLine
 62
7
  6
CONTINUOUS
 10
64.1916006907
 20
256.3058107174
 11
63.973891759
 21
226.1944447537
  0
LINE
  5
223
100
AcDbEntity
  8
0
100
AcDbLine
 62
7
  6
CONTINUOUS
 10
283.6737579919
 20
226.8897335299
 11
283.4342972119
 21
226.8251429617
  0
LINE
  5
224
100
AcDbEntity
  8
0
100
AcDbLine
 62
7
  6
CONTINUOUS
 10
60.4434563586
 20
226.8251429617
 11
60.2039956251
 21
226.8897335113
  0
LINE
  5
225
100
AcDbEntity
  8
0
100
AcDbLine
 62
7
  6
CONTINUOUS
 10
306.6888767853
 20
216.2185486852
 11
37.1888767853
 21
216.2185486852
  0
LINE
  5
226
100
AcDbEntity
  8
0
100
AcDbLine
 62
7
  6
CONTINUOUS
 10
47.4388767853
 20
217.474847526
 11
296.4388767853
 21
217.474847526
  0
LINE
  5
227
100
AcDbEntity
  8
0
100
AcDbLine
 62
7
  6
CONTINUOUS
 10
288.6685242431
 20
222.2172146252
 11
55.2092293275
 21
222.2172146252
  0
LINE
  5
228
100
AcDbEntity
  8
0
100
AcDbLine
 62
7
  6
CONTINUOUS
 10
63.9738917591
 20
223.3490244942
 11
279.9038618115
 21
223.3490244942
  0
LINE
  5
229
100
AcDbEntity
  8
0
100
AcDbLine
 62
7
  6
CONTINUOUS
 10
279.9038618115
 20
226.1944447537
 11
63.973891759
 21
226.1944447537
  0
LINE
  5
22A
100
AcDbEntity
  8
0
100
AcDbLine
 62
7
  6
CONTINUOUS
 10
37.7039535171
 20
245.7272748884
 11
57.1669496681
 21
245.7272748884
  0
LINE
  5
22B
100
AcDbEntity
  8
0
100
AcDbLine
 62
7
  6
CONTINUOUS
 10
286.710803903
 20
245.7272748884
 11
306.1738000535
 21
245.7272748884
  0
LINE
  5
22C
100
AcDbEntity
  8
0
100
AcDbLine
 62
7
  6
CONTINUOUS
 10
285.4701069685
 20
245.7272748884
 11
285.9968742128
 21
245.7272741688
  0
LINE
  5
22D
100
AcDbEntity
  8
0
100
AcDbLine
 62
7
  6
CONTINUOUS
 10
57.8808793697
 20
245.7272741245
 11
58.407646602
 21
245.7272748884
  0
LINE
  5
22E
100
AcDbEntity
  8
0
100
AcDbLine
 62
7
  6
CONTINUOUS
 10
38.2051636635
 20
246.2185486852
 11
59.5926144159
 21
246.2185486852
  0
LINE
  5
22F
100
AcDbEntity
  8
0
100
AcDbLine
 62
7
  6
CONTINUOUS
 10
284.2851399673
 20
246.2185486852
 11
305.6737169057
 21
246.2185486852
  0
LINE
  5
230
100
AcDbEntity
  8
0
100
AcDbLine
 62
7
  6
CONTINUOUS
 10
59.5756359059
 20
223.7041497242
 11
56.8739752849
 21
222.9755191443
  0
LINE
  5
231
100
AcDbEntity
  8
0
100
AcDbLine
 62
7
  6
CONTINUOUS
 10
57.5865291162
 20
226.5852525161
 11
58.7153878257
 21
226.8897357349
  0
LINE
  5
232
100
AcDbEntity
  8
0
100
AcDbLine
 62
7
  6
CONTINUOUS
 10
60.6566052631
 20
256.3058107174
 11
49.3528455979
 21
256.3058107174
  0
LINE
  5
233
100
AcDbEntity
  8
0
100
AcDbLine
 62
7
  6
CONTINUOUS
 10
64.1916006907
 20
256.3058107174
 11
279.6861528865
 21
256.3058107174
  0
LINE
  5
234
100
AcDbEntity
  8
0
100
AcDbLine
 62
7
  6
CONTINUOUS
 10
283.2211483122
 20
256.3058107174
 11
294.5249079774
 21
256.3058107174
  0
LINE
  5
235
100
AcDbEntity
  8
0
100
AcDbLine
 62
7
  6
CONTINUOUS
 10
287.0037782857
 20
222.9755191443
 11
284.3021418871
 21
223.7041437318
  0
LINE
  5
236
100
AcDbEntity
  8
0
100
AcDbLine
 62
7
  6
CONTINUOUS
 10
285.1623660531
 20
226.8897356308
 11
286.2912244119
 21
226.5852526066
  0
LINE
  5
237
100
AcDbEntity
  8
0
100
AcDbLine
 62
7
  6
CONTINUOUS
 10
52.8878410226
 20
261.2185486852
 11
290.989912548
 21
261.2185486852
  0
LINE
  5
238
100
AcDbEntity
  8
0
100
AcDbLine
 62
7
  6
CONTINUOUS
 10
270.6888767853
 20
261.7185486852
 11
260.6888767853
 21
261.7185486852
  0
LINE
  5
239
100
AcDbEntity
  8
0
100
AcDbLine
 62
7
  6
CONTINUOUS
 10
260.6888767853
 20
261.7185486852
 11
260.6888767853
 21
261.2185486852
  0
LINE
  5
23A
100
AcDbEntity
  8
0
100
AcDbLine
 62
7
  6
CONTINUOUS
 10
270.6888767853
 20
261.7185486852
 11
270.6888767853
 21
261.2185486852
  0
LINE
  5
23B
100
AcDbEntity
  8
0
100
AcDbLine
 62
7
  6
CONTINUOUS
 10
279.9038618115
 20
226.1944447537
 11
279.6861528865
 21
256.3058107174
  0
LINE
  5
23C
100
AcDbEntity
  8
0
100
AcDbLine
 62
7
  6
CONTINUOUS
 10
279.686152883
 20
261.2185486852
 11
279.686152883
 21
256.3058107174
  0
LINE
  5
23D
100
AcDbEntity
  8
0
100
AcDbLine
 62
7
  6
CONTINUOUS
 10
279.9038618137
 20
226.1944447537
 11
279.9038618137
 21
223.3490244942
  0
LINE
  5
23E
100
AcDbEntity
  8
0
100
AcDbLine
 62
7
  6
CONTINUOUS
 10
283.6737579919
 20
226.8897335299
 11
283.3660296687
 21
245.7272803154
  0
LINE
  5
23F
100
AcDbEntity
  8
0
100
AcDbLine
 62
7
  6
CONTINUOUS
 10
286.1553431179
 20
235.0177251881
 11
286.1652282381
 21
234.3832736677
  0
LINE
  5
240
100
AcDbEntity
  8
0
100
AcDbLine
 62
7
  6
CONTINUOUS
 10
283.2211483122
 20
256.3058107174
 11
283.4342972119
 21
226.8251429617
  0
LINE
  5
241
100
AcDbEntity
  8
0
100
AcDbLine
 62
7
  6
CONTINUOUS
 10
285.4701069685
 20
245.7272748884
 11
285.1623660531
 21
226.8897356308
  0
LINE
  5
242
100
AcDbEntity
  8
0
100
AcDbLine
 62
7
  6
CONTINUOUS
 10
286.5171406456
 20
235.0233159965
 11
286.3456062587
 21
225.1975742056
  0
LINE
  5
243
100
AcDbEntity
  8
0
100
AcDbLine
 62
7
  6
CONTINUOUS
 10
294.7009805849
 20
246.2185486852
 11
294.5249079774
 21
256.3058107174
  0
LINE
  5
244
100
AcDbEntity
  8
0
100
AcDbLine
 62
7
  6
CONTINUOUS
 10
295.9891510237
 20
256.3058107174
 11
296.1653081881
 21
246.2137735276
  0
LINE
  5
245
100
AcDbEntity
  8
0
100
AcDbLine
 62
7
  6
CONTINUOUS
 10
306.6888767853
 20
216.2185486852
 11
306.1738000535
 21
245.7272748884
  0
LINE
  5
246
100
AcDbEntity
  8
0
100
AcDbLine
 62
7
  6
CONTINUOUS
 10
296.4388767853
 20
217.474847526
 11
296.4388767853
 21
216.2185486852
  0
ARC
  5
247
100
AcDbEntity
  8
0
100
AcDbCircle
 62
7
  6
CONTINUOUS
 10
284.4180610748
 20
700.8823195524
 40
455.1562612199
100
AcDbArc
 50
269.8675678438
 51
270.1324332937
  0
ARC
  5
248
100
AcDbEntity
  8
0
100
AcDbCircle
 62
7
  6
CONTINUOUS
 10
59.4596892011
 20
700.5452129907
 40
454.819154811
100
AcDbArc
 50
269.8674689622
 51
270.1325314171
  0
ARC
  5
249
100
AcDbEntity
  8
0
100
AcDbCircle
 62
7
  6
CONTINUOUS
 10
284.4180610838
 20
119.7056558474
 40
107.1866616925
100
AcDbArc
 50
89.602134963
 51
90.3978615635
  0
ARC
  5
24A
100
AcDbEntity
  8
0
100
AcDbCircle
 62
7
  6
CONTINUOUS
 10
59.4596920685
 20
119.7374588622
 40
107.154859511
100
AcDbArc
 50
89.6020171292
 51
90.397982897
  0
ARC
  5
24B
100
AcDbEntity
  8
0
100
AcDbCircle
 62
7
  6
CONTINUOUS
 10
52.8878410226
 20
256.2185486852
 40
5.0
100
AcDbArc
 50
90.0
 51
178.9999999997
  0
ARC
  5
24C
100
AcDbEntity
  8
0
100
AcDbCircle
 62
7
  6
CONTINUOUS
 10
290.989912548
 20
256.2185486852
 40
5.0
100
AcDbArc
 50
1.0000000003
 51
90.0
  0
ARC
  5
24D
100
AcDbEntity
  8
0
100
AcDbCircle
 62
7
  6
CONTINUOUS
 10
305.6738762059
 20
245.7185486852
 40
0.5
100
AcDbArc
 50
1.0000000002
 51
90.0
  0
ARC
  5
24E
100
AcDbEntity
  8
0
100
AcDbCircle
 62
7
  6
CONTINUOUS
 10
38.2038773647
 20
245.7185486852
 40
0.5
100
AcDbArc
 50
90.0
 51
178.9999999998
  0
ARC
  5
24F
100
AcDbEntity
  8
0
100
AcDbCircle
 62
7
  6
CONTINUOUS
 10
56.667204695
 20
245.718731842
 40
0.4998157541
100
AcDbArc
 50
0.9793650908
 51
89.9801777226
  0
ARC
  5
250
100
AcDbEntity
  8
0
100
AcDbCircle
 62
7
  6
CONTINUOUS
 10
287.2105489403
 20
245.7187318408
 40
0.4998156929
100
AcDbArc
 50
90.0198295629
 51
179.0206348979
  0
SPLINE
  5
251
100
AcDbEntity
  8
0
100
AcDbSpline
 62
7
  6
CONTINUOUS
 70
0
 71
3
 72
11
 73
7
 74
0
 42
0.0000001
 43
0.0000001
 44
0.0000000001
 40
0.0
 40
0.0
 40
0.0
 40
0.0
 40
0.4061335342
 40
0.7140560171
 40
0.9149358204
 40
1.0
 40
1.0
 40
1.0
 40
1.0
 10
57.8808767167
 20
245.7272735205
 30
0.0
 10
57.7842223204
 20
245.7262286093
 30
0.0
 10
57.61438301
 20
245.7252316454
 30
0.0
 10
57.3963088151
 20
245.7222132954
 30
0.0
 10
57.2555821815
 20
245.726377823
 30
0.0
 10
57.1867880513
 20
245.72324503
 30
0.0
 10
57.166947466
 20
245.727273002
 30
0.0
  0
SPLINE
  5
252
100
AcDbEntity
  8
0
100
AcDbSpline
 62
7
  6
CONTINUOUS
 70
0
 71
3
 72
8
 73
4
 74
0
 42
0.0000001
 43
0.0000001
 44
0.0000000001
 40
0.0
 40
0.0
 40
0.0
 40
0.0
 40
1.0
 40
1.0
 40
1.0
 40
1.0
 10
57.5865291162
 20
226.5852525161
 30
0.0
 10
57.6301031134
 20
229.1845664857
 30
0.0
 10
57.671917164
 20
231.7839102185
 30
0.0
 10
57.7125252648
 20
234.3832722147
 30
0.0
  0
SPLINE
  5
253
100
AcDbEntity
  8
0
100
AcDbSpline
 62
7
  6
CONTINUOUS
 70
0
 71
3
 72
8
 73
4
 74
0
 42
0.0000001
 43
0.0000001
 44
0.0000000001
 40
0.0
 40
0.0
 40
0.0
 40
0.0
 40
1.0
 40
1.0
 40
1.0
 40
1.0
 10
57.7224087822
 20
235.0176203838
 30
0.0
 10
57.777879071
 20
238.5874648186
 30
0.0
 10
57.8304536828
 20
242.1573548689
 30
0.0
 10
57.8808793697
 20
245.7272741245
 30
0.0
  0
SPLINE
  5
254
100
AcDbEntity
  8
0
100
AcDbSpline
 62
7
  6
CONTINUOUS
 70
0
 71
3
 72
9
 73
5
 74
0
 42
0.0000001
 43
0.0000001
 44
0.0000000001
 40
0.0
 40
0.0
 40
0.0
 40
0.0
 40
0.2584240012
 40
1.0
 40
1.0
 40
1.0
 40
1.0
 10
57.8808767276
 20
245.7272748227
 30
0.0
 10
57.8803808394
 20
245.7674506678
 30
0.0
 10
57.8634878504
 20
245.9209735305
 30
0.0
 10
57.7933773504
 20
246.0794880538
 30
0.0
 10
57.7030017672
 20
246.1510829594
 30
0.0
  0
SPLINE
  5
255
100
AcDbEntity
  8
0
100
AcDbSpline
 62
7
  6
CONTINUOUS
 70
0
 71
3
 72
9
 73
5
 74
0
 42
0.0000001
 43
0.0000001
 44
0.0000000001
 40
0.0
 40
0.0
 40
0.0
 40
0.0
 40
0.2742310446
 40
1.0
 40
1.0
 40
1.0
 40
1.0
 10
57.7030017672
 20
246.1510829594
 30
0.0
 10
57.6893876716
 20
246.1618679508
 30
0.0
 10
57.6371695888
 20
246.1975253148
 30
0.0
 10
57.5733455975
 20
246.2185468857
 30
0.0
 10
57.5273792101
 20
246.2185468018
 30
0.0
  0
SPLINE
  5
256
100
AcDbEntity
  8
0
100
AcDbSpline
 62
7
  6
CONTINUOUS
 70
0
 71
3
 72
9
 73
5
 74
0
 42
0.0000001
 43
0.0000001
 44
0.0000000001
 40
0.0
 40
0.0
 40
0.0
 40
0.0
 40
0.5184533786
 40
1.0
 40
1.0
 40
1.0
 40
1.0
 10
60.5117375293
 20
245.7272748884
 30
0.0
 10
60.3711888003
 20
245.8435728953
 30
0.0
 10
60.1044914926
 20
246.0674296044
 30
0.0
 10
59.7620539558
 20
246.2185486007
 30
0.0
 10
59.5926143685
 20
246.2185484227
 30
0.0
  0
SPLINE
  5
257
100
AcDbEntity
  8
0
100
AcDbSpline
 62
7
  6
CONTINUOUS
 70
0
 71
3
 72
10
 73
6
 74
0
 42
0.0000001
 43
0.0000001
 44
0.0000000001
 40
0.0
 40
0.0
 40
0.0
 40
0.0
 40
0.4381200901
 40
0.7173792178
 40
1.0
 40
1.0
 40
1.0
 40
1.0
 10
58.0541463929
 20
246.2185486852
 30
0.0
 10
58.1496042345
 20
246.2185489943
 30
0.0
 10
58.3029260497
 20
246.1130424443
 30
0.0
 10
58.3863165608
 20
245.9115069119
 30
0.0
 10
58.4068866331
 20
245.7888477671
 30
0.0
 10
58.4076466016
 20
245.7272748884
 30
0.0
  0
SPLINE
  5
258
100
AcDbEntity
  8
0
100
AcDbSpline
 62
7
  6
CONTINUOUS
 70
0
 71
3
 72
8
 73
4
 74
0
 42
0.0000001
 43
0.0000001
 44
0.0000000001
 40
0.0
 40
0.0
 40
0.0
 40
0.0
 40
1.0
 40
1.0
 40
1.0
 40
1.0
 10
286.7108344254
 20
245.7272519449
 30
0.0
 10
286.6445951897
 20
242.1592965839
 30
0.0
 10
286.5796141079
 20
238.5913171197
 30
0.0
 10
286.5170314824
 20
235.023295748
 30
0.0
  0
SPLINE
  5
259
100
AcDbEntity
  8
0
100
AcDbSpline
 62
7
  6
CONTINUOUS
 70
0
 71
3
 72
12
 73
8
 74
0
 42
0.0000001
 43
0.0000001
 44
0.0000000001
 40
0.0
 40
0.0
 40
0.0
 40
0.0
 40
0.0985653996
 40
0.2095978307
 40
0.4568003014
 40
0.7239761534
 40
1.0
 40
1.0
 40
1.0
 40
1.0
 10
55.2092293275
 20
222.2172146252
 30
0.0
 10
54.9237943351
 20
222.1254387414
 30
0.0
 10
54.3327997218
 20
221.881314166
 30
0.0
 10
53.0971669554
 20
221.2444705838
 30
0.0
 10
51.4765737581
 20
220.2440598874
 30
0.0
 10
49.4817894319
 20
218.9021326269
 30
0.0
 10
48.1270522287
 20
217.9558951528
 30
0.0
 10
47.4388767853
 20
217.474847526
 30
0.0
  0
SPLINE
  5
25A
100
AcDbEntity
  8
0
100
AcDbSpline
 62
7
  6
CONTINUOUS
 70
0
 71
3
 72
12
 73
8
 74
0
 42
0.0000001
 43
0.0000001
 44
0.0000000001
 40
0.0
 40
0.0
 40
0.0
 40
0.0
 40
0.2760274011
 40
0.5432060851
 40
0.7904082533
 40
0.901435734
 40
1.0
 40
1.0
 40
1.0
 40
1.0
 10
296.4388767853
 20
217.474847526
 30
0.0
 10
295.7506924933
 20
217.9559013381
 30
0.0
 10
294.3959401782
 20
218.9021513249
 30
0.0
 10
292.401136156
 20
220.2440814328
 30
0.0
 10
290.7805546045
 20
221.2444986831
 30
0.0
 10
289.5449311856
 20
221.8813172382
 30
0.0
 10
288.9539559471
 20
222.1254397987
 30
0.0
 10
288.6685242431
 20
222.2172146252
 30
0.0
  0
SPLINE
  5
25B
100
AcDbEntity
  8
0
100
AcDbSpline
 62
7
  6
CONTINUOUS
 70
0
 71
3
 72
9
 73
5
 74
0
 42
0.0000001
 43
0.0000001
 44
0.0000000001
 40
0.0
 40
0.0
 40
0.0
 40
0.0
 40
0.4781480891
 40
1.0
 40
1.0
 40
1.0
 40
1.0
 10
284.3021418871
 20
223.7041437318
 30
0.0
 10
283.6090510254
 20
223.5810570381
 30
0.0
 10
282.1448298896
 20
223.4052499383
 30
0.0
 10
280.6721386844
 20
223.349022904
 30
0.0
 10
279.9038618115
 20
223.3490244942
 30
0.0
  0
SPLINE
  5
25C
100
AcDbEntity
  8
0
100
AcDbSpline
 62
7
  6
CONTINUOUS
 70
0
 71
3
 72
9
 73
5
 74
0
 42
0.0000001
 43
0.0000001
 44
0.0000000001
 40
0.0
 40
0.0
 40
0.0
 40
0.0
 40
0.5218696369
 40
1.0
 40
1.0
 40
1.0
 40
1.0
 10
63.9738917591
 20
223.3490244942
 30
0.0
 10
63.2055926001
 20
223.3490213391
 30
0.0
 10
61.7329061071
 20
223.4052157392
 30
0.0
 10
60.2686973564
 20
223.5810666285
 30
0.0
 10
59.5756359059
 20
223.7041497242
 30
0.0
  0
SPLINE
  5
25D
100
AcDbEntity
  8
0
100
AcDbSpline
 62
7
  6
CONTINUOUS
 70
0
 71
3
 72
9
 73
5
 74
0
 42
0.0000001
 43
0.0000001
 44
0.0000000001
 40
0.0
 40
0.0
 40
0.0
 40
0.0
 40
0.1467438497
 40
1.0
 40
1.0
 40
1.0
 40
1.0
 10
284.3021608055
 20
223.7041440232
 30
0.0
 10
284.2754514958
 20
223.7957296305
 30
0.0
 10
284.0917253249
 20
224.4192670582
 30
0.0
 10
283.9226391908
 20
225.0481867256
 30
0.0
 10
283.8123658372
 20
225.5918325262
 30
0.0
  0
SPLINE
  5
25E
100
AcDbEntity
  8
0
100
AcDbSpline
 62
7
  6
CONTINUOUS
 70
0
 71
3
 72
9
 73
5
 74
0
 42
0.0000001
 43
0.0000001
 44
0.0000000001
 40
0.0
 40
0.0
 40
0.0
 40
0.0
 40
0.2570822988
 40
1.0
 40
1.0
 40
1.0
 40
1.0
 10
283.812376649
 20
225.5918310456
 30
0.0
 10
283.764107964
 20
225.6915464006
 30
0.0
 10
283.5928264188
 20
226.087192114
 30
0.0
 10
283.4807967023
 20
226.5083947504
 30
0.0
 10
283.4342972105
 20
226.825142971
 30
0.0
  0
SPLINE
  5
25F
100
AcDbEntity
  8
0
100
AcDbSpline
 62
7
  6
CONTINUOUS
 70
0
 71
3
 72
11
 73
7
 74
0
 42
0.0000001
 43
0.0000001
 44
0.0000000001
 40
0.0
 40
0.0
 40
0.0
 40
0.0
 40
0.3279411616
 40
0.6068615909
 40
0.8310924691
 40
1.0
 40
1.0
 40
1.0
 40
1.0
 10
285.0237478096
 20
225.5918309005
 30
0.0
 10
284.9898802618
 20
225.3705645731
 30
0.0
 10
284.9052636624
 20
224.9643483507
 30
0.0
 10
284.7399466433
 20
224.4204791501
 30
0.0
 10
284.5479665769
 20
224.0021360436
 30
0.0
 10
284.386236726
 20
223.7832568254
 30
0.0
 10
284.3023286173
 20
223.7041901055
 30
0.0
  0
SPLINE
  5
260
100
AcDbEntity
  8
0
100
AcDbSpline
 62
7
  6
CONTINUOUS
 70
0
 71
3
 72
9
 73
5
 74
0
 42
0.0000001
 43
0.0000001
 44
0.0000000001
 40
0.0
 40
0.0
 40
0.0
 40
0.0
 40
0.2581146926
 40
1.0
 40
1.0
 40
1.0
 40
1.0
 10
285.1623661486
 20
226.8897394439
 30
0.0
 10
285.1555107568
 20
226.7776189432
 30
0.0
 10
285.125147418
 20
226.3435177895
 30
0.0
 10
285.076206591
 20
225.910404458
 30
0.0
 10
285.0237478096
 20
225.5918309005
 30
0.0
  0
SPLINE
  5
261
100
AcDbEntity
  8
0
100
AcDbSpline
 62
7
  6
CONTINUOUS
 70
0
 71
3
 72
8
 73
4
 74
0
 42
0.0000001
 43
0.0000001
 44
0.0000000001
 40
0.0
 40
0.0
 40
0.0
 40
0.0
 40
1.0
 40
1.0
 40
1.0
 40
1.0
 10
286.3628413774
 20
226.0424518022
 30
0.0
 10
286.356885894
 20
226.2248548844
 30
0.0
 10
286.3299869372
 20
226.4069121067
 30
0.0
 10
286.2912252517
 20
226.5852485413
 30
0.0
  0
SPLINE
  5
262
100
AcDbEntity
  8
0
100
AcDbSpline
 62
7
  6
CONTINUOUS
 70
0
 71
3
 72
11
 73
7
 74
0
 42
0.0000001
 43
0.0000001
 44
0.0000000001
 40
0.0
 40
0.0
 40
0.0
 40
0.0
 40
0.1899966689
 40
0.3928565321
 40
0.6527831508
 40
1.0
 40
1.0
 40
1.0
 40
1.0
 10
287.0037782857
 20
222.9755191443
 30
0.0
 10
286.8777628162
 20
223.0629097242
 30
0.0
 10
286.638011476
 20
223.2823439521
 30
0.0
 10
286.4169340303
 20
223.7736755636
 30
0.0
 10
286.3379847527
 20
224.4274317957
 30
0.0
 10
286.3406675666
 20
224.9174271468
 30
0.0
 10
286.3455586064
 20
225.1976346273
 30
0.0
  0
SPLINE
  5
263
100
AcDbEntity
  8
0
100
AcDbSpline
 62
7
  6
CONTINUOUS
 70
0
 71
3
 72
9
 73
5
 74
0
 42
0.0000001
 43
0.0000001
 44
0.0000000001
 40
0.0
 40
0.0
 40
0.0
 40
0.0
 40
0.4857309826
 40
1.0
 40
1.0
 40
1.0
 40
1.0
 10
283.8123766952
 20
225.5918307492
 30
0.0
 10
283.9992715718
 20
225.5244083517
 30
0.0
 10
284.4116661456
 20
225.4651508686
 30
0.0
 10
284.8258723778
 20
225.5204470983
 30
0.0
 10
285.0237478034
 20
225.5918308595
 30
0.0
  0
SPLINE
  5
264
100
AcDbEntity
  8
0
100
AcDbSpline
 62
7
  6
CONTINUOUS
 70
0
 71
3
 72
9
 73
5
 74
0
 42
0.0000001
 43
0.0000001
 44
0.0000000001
 40
0.0
 40
0.0
 40
0.0
 40
0.0
 40
0.237782164
 40
1.0
 40
1.0
 40
1.0
 40
1.0
 10
283.8123735646
 20
225.5918316139
 30
0.0
 10
283.7955523138
 20
225.6939394098
 30
0.0
 10
283.7324745579
 20
226.1246149615
 30
0.0
 10
283.6939874876
 20
226.5586295076
 30
0.0
 10
283.6737557765
 20
226.889733304
 30
0.0
  0
SPLINE
  5
265
100
AcDbEntity
  8
0
100
AcDbSpline
 62
7
  6
CONTINUOUS
 70
0
 71
3
 72
8
 73
4
 74
0
 42
0.0000001
 43
0.0000001
 44
0.0000000001
 40
0.0
 40
0.0
 40
0.0
 40
0.0
 40
1.0
 40
1.0
 40
1.0
 40
1.0
 10
57.3607232792
 20
235.0231908922
 30
0.0
 10
57.298140296
 20
238.5912472117
 30
0.0
 10
57.2331590006
 20
242.1592616266
 30
0.0
 10
57.1669192531
 20
245.7272519328
 30
0.0
  0
SPLINE
  5
266
100
AcDbEntity
  8
0
100
AcDbSpline
 62
7
  6
CONTINUOUS
 70
0
 71
3
 72
9
 73
5
 74
0
 42
0.0000001
 43
0.0000001
 44
0.0000000001
 40
0.0
 40
0.0
 40
0.0
 40
0.0
 40
0.4481706576
 40
1.0
 40
1.0
 40
1.0
 40
1.0
 10
286.3503744232
 20
246.2185467451
 30
0.0
 10
286.2909319929
 20
246.2185467034
 30
0.0
 10
286.1582982828
 20
246.1635540341
 30
0.0
 10
286.0796063702
 20
246.0492235474
 30
0.0
 10
286.0507743185
 20
245.9819506602
 30
0.0
  0
SPLINE
  5
267
100
AcDbEntity
  8
0
100
AcDbSpline
 62
7
  6
CONTINUOUS
 70
0
 71
3
 72
8
 73
4
 74
0
 42
0.0000001
 43
0.0000001
 44
0.0000000001
 40
0.0
 40
0.0
 40
0.0
 40
0.0
 40
1.0
 40
1.0
 40
1.0
 40
1.0
 10
286.0507743185
 20
245.9819506602
 30
0.0
 10
286.0165922648
 20
245.9021947873
 30
0.0
 10
285.9979478926
 20
245.8140403965
 30
0.0
 10
285.9968769603
 20
245.7272748207
 30
0.0
  0
SPLINE
  5
268
100
AcDbEntity
  8
0
100
AcDbSpline
 62
7
  6
CONTINUOUS
 70
0
 71
3
 72
8
 73
4
 74
0
 42
0.0000001
 43
0.0000001
 44
0.0000000001
 40
0.0
 40
0.0
 40
0.0
 40
0.0
 40
1.0
 40
1.0
 40
1.0
 40
1.0
 10
285.9968742128
 20
245.7272741688
 30
0.0
 10
286.0472993443
 20
242.1573898333
 30
0.0
 10
286.0998734342
 20
238.5875347036
 30
0.0
 10
286.1553431179
 20
235.0177251881
 30
0.0
  0
SPLINE
  5
269
100
AcDbEntity
  8
0
100
AcDbSpline
 62
7
  6
CONTINUOUS
 70
0
 71
3
 72
8
 73
4
 74
0
 42
0.0000001
 43
0.0000001
 44
0.0000000001
 40
0.0
 40
0.0
 40
0.0
 40
0.0
 40
1.0
 40
1.0
 40
1.0
 40
1.0
 10
286.1652282381
 20
234.3832736677
 30
0.0
 10
286.20583633
 20
231.783911217
 30
0.0
 10
286.2476502629
 20
229.1845670279
 30
0.0
 10
286.2912244119
 20
226.5852526066
 30
0.0
  0
SPLINE
  5
26A
100
AcDbEntity
  8
0
100
AcDbSpline
 62
7
  6
CONTINUOUS
 70
0
 71
3
 72
11
 73
7
 74
0
 42
0.0000001
 43
0.0000001
 44
0.0000000001
 40
0.0
 40
0.0
 40
0.0
 40
0.0
 40
0.0850613914
 40
0.2859479949
 40
0.59387527
 40
1.0
 40
1.0
 40
1.0
 40
1.0
 10
286.7108062371
 20
245.7272733871
 30
0.0
 10
286.6909665961
 20
245.7232440958
 30
0.0
 10
286.6221708623
 20
245.7263803672
 30
0.0
 10
286.4814426782
 20
245.7222131172
 30
0.0
 10
286.2633675299
 20
245.725232756
 30
0.0
 10
286.09352925
 20
245.7262291101
 30
0.0
 10
285.9968769441
 20
245.7272739044
 30
0.0
  0
SPLINE
  5
26B
100
AcDbEntity
  8
0
100
AcDbSpline
 62
7
  6
CONTINUOUS
 70
0
 71
3
 72
9
 73
5
 74
0
 42
0.0000001
 43
0.0000001
 44
0.0000000001
 40
0.0
 40
0.0
 40
0.0
 40
0.0
 40
0.4815569758
 40
1.0
 40
1.0
 40
1.0
 40
1.0
 10
284.2851390969
 20
246.2185483785
 30
0.0
 10
284.1156981762
 20
246.2185488472
 30
0.0
 10
283.7732904417
 20
246.0674002444
 30
0.0
 10
283.50651733
 20
245.8436424745
 30
0.0
 10
283.3660296687
 20
245.7272803154
 30
0.0
  0
SPLINE
  5
26C
100
AcDbEntity
  8
0
100
AcDbSpline
 62
7
  6
CONTINUOUS
 70
0
 71
3
 72
10
 73
6
 74
0
 42
0.0000001
 43
0.0000001
 44
0.0000000001
 40
0.0
 40
0.0
 40
0.0
 40
0.0
 40
0.282620376
 40
0.5618793262
 40
1.0
 40
1.0
 40
1.0
 40
1.0
 10
285.4701069676
 20
245.7272748884
 30
0.0
 10
285.4708669356
 20
245.78884768
 30
0.0
 10
285.4914367975
 20
245.9115067707
 30
0.0
 10
285.5748274132
 20
246.1130420678
 30
0.0
 10
285.728149225
 20
246.2185495075
 30
0.0
 10
285.8236071959
 20
246.2185486852
 30
0.0
  0
SPLINE
  5
26D
100
AcDbEntity
  8
0
100
AcDbSpline
 62
7
  6
CONTINUOUS
 70
0
 71
3
 72
17
 73
13
 74
0
 42
0.0000001
 43
0.0000001
 44
0.0000000001
 40
0.0
 40
0.0
 40
0.0
 40
0.0
 40
0.0043029672
 40
0.01671295
 40
0.0372630689
 40
0.0659091293
 40
0.1472698916
 40
0.2600995528
 40
0.4033096563
 40
0.5757141642
 40
0.7754031902
 40
1.0
 40
1.0
 40
1.0
 40
1.0
 10
47.8886025469
 20
256.3058107174
 30
0.0
 10
47.8886392093
 20
256.3079111039
 30
0.0
 10
47.9011812155
 20
256.3067138275
 30
0.0
 10
47.915140264
 20
256.3100986505
 30
0.0
 10
47.9475492635
 20
256.3099905153
 30
0.0
 10
48.0098525708
 20
256.3121705531
 30
0.0
 10
48.1196882025
 20
256.3126134256
 30
0.0
 10
48.2839068288
 20
256.3132163702
 30
0.0
 10
48.4932647693
 20
256.3125768766
 30
0.0
 10
48.7447640709
 20
256.3112018847
 30
0.0
 10
49.0360824158
 20
256.3089068421
 30
0.0
 10
49.243203271
 20
256.3069316035
 30
0.0
 10
49.3528455956
 20
256.3058107174
 30
0.0
  0
SPLINE
  5
26E
100
AcDbEntity
  8
0
100
AcDbSpline
 62
7
  6
CONTINUOUS
 70
0
 71
3
 72
12
 73
8
 74
0
 42
0.0000001
 43
0.0000001
 44
0.0000000001
 40
0.0
 40
0.0
 40
0.0
 40
0.0
 40
0.2875596106
 40
0.5541040684
 40
0.7887512089
 40
0.8963100873
 40
1.0
 40
1.0
 40
1.0
 40
1.0
 10
49.3528455956
 20
256.3058107174
 30
0.0
 10
49.3606958497
 20
256.9418401925
 30
0.0
 10
49.5408844992
 20
258.1731088515
 30
0.0
 10
50.2821589137
 20
259.7809324903
 30
0.0
 10
51.2737959073
 20
260.7583282398
 30
0.0
 10
52.1889591281
 20
261.1522544999
 30
0.0
 10
52.6584803561
 20
261.2185486855
 30
0.0
 10
52.8878410226
 20
261.2185486852
 30
0.0
  0
SPLINE
  5
26F
100
AcDbEntity
  8
0
100
AcDbSpline
 62
7
  6
CONTINUOUS
 70
0
 71
3
 72
12
 73
8
 74
0
 42
0.0000001
 43
0.0000001
 44
0.0000000001
 40
0.0
 40
0.0
 40
0.0
 40
0.0
 40
0.1036895215
 40
0.2112461427
 40
0.4458869386
 40
0.7124277435
 40
1.0
 40
1.0
 40
1.0
 40
1.0
 10
64.1916006876
 20
261.2185486852
 30
0.0
 10
63.9622408319
 20
261.2185486854
 30
0.0
 10
63.4927252633
 20
261.1522565539
 30
0.0
 10
62.577579111
 20
260.7583414313
 30
0.0
 10
61.5859530491
 20
259.7809771737
 30
0.0
 10
60.8446501431
 20
258.1731591762
 30
0.0
 10
60.6644558618
 20
256.941868314
 30
0.0
 10
60.6566052606
 20
256.3058107174
 30
0.0
  0
SPLINE
  5
270
100
AcDbEntity
  8
0
100
AcDbSpline
 62
7
  6
CONTINUOUS
 70
0
 71
3
 72
9
 73
5
 74
0
 42
0.0000001
 43
0.0000001
 44
0.0000000001
 40
0.0
 40
0.0
 40
0.0
 40
0.0
 40
0.2142751466
 40
1.0
 40
1.0
 40
1.0
 40
1.0
 10
60.6566052618
 20
256.3058107174
 30
0.0
 10
60.9090810268
 20
256.3083911551
 30
0.0
 10
62.0874017506
 20
256.3161146239
 30
0.0
 10
63.2657739389
 20
256.3125025213
 30
0.0
 10
64.1916006876
 20
256.3058107174
 30
0.0
  0
SPLINE
  5
271
100
AcDbEntity
  8
0
100
AcDbSpline
 62
7
  6
CONTINUOUS
 70
0
 71
3
 72
11
 73
7
 74
0
 42
0.0000001
 43
0.0000001
 44
0.0000000001
 40
0.0
 40
0.0
 40
0.0
 40
0.0
 40
0.1689202219
 40
0.3931258819
 40
0.6720692556
 40
1.0
 40
1.0
 40
1.0
 40
1.0
 10
59.5754481311
 20
223.7041963574
 30
0.0
 10
59.4915080659
 20
223.7832431958
 30
0.0
 10
59.3297602671
 20
224.0021162296
 30
0.0
 10
59.1378666736
 20
224.4205066172
 30
0.0
 10
58.9724227295
 20
224.9643199917
 30
0.0
 10
58.8877132944
 20
225.3705470854
 30
0.0
 10
58.8540055051
 20
225.5918325116
 30
0.0
  0
SPLINE
  5
272
100
AcDbEntity
  8
0
100
AcDbSpline
 62
7
  6
CONTINUOUS
 70
0
 71
3
 72
9
 73
5
 74
0
 42
0.0000001
 43
0.0000001
 44
0.0000000001
 40
0.0
 40
0.0
 40
0.0
 40
0.0
 40
0.2388136821
 40
1.0
 40
1.0
 40
1.0
 40
1.0
 10
58.8540055051
 20
225.5918325116
 30
0.0
 10
58.8371218738
 20
225.6943864127
 30
0.0
 10
58.7734664555
 20
226.1249843031
 30
0.0
 10
58.7356030221
 20
226.5590800184
 30
0.0
 10
58.7153877322
 20
226.8897394985
 30
0.0
  0
SPLINE
  5
273
100
AcDbEntity
  8
0
100
AcDbSpline
 62
7
  6
CONTINUOUS
 70
0
 71
3
 72
8
 73
4
 74
0
 42
0.0000001
 43
0.0000001
 44
0.0000000001
 40
0.0
 40
0.0
 40
0.0
 40
0.0
 40
1.0
 40
1.0
 40
1.0
 40
1.0
 10
57.5865282881
 20
226.585248504
 30
0.0
 10
57.5479409596
 20
226.4077143102
 30
0.0
 10
57.5211253594
 20
226.2265008179
 30
0.0
 10
57.5149967991
 20
226.0449249037
 30
0.0
  0
SPLINE
  5
274
100
AcDbEntity
  8
0
100
AcDbSpline
 62
7
  6
CONTINUOUS
 70
0
 71
3
 72
11
 73
7
 74
0
 42
0.0000001
 43
0.0000001
 44
0.0000000001
 40
0.0
 40
0.0
 40
0.0
 40
0.0
 40
0.347216822
 40
0.6071434504
 40
0.8100033239
 40
1.0
 40
1.0
 40
1.0
 40
1.0
 10
57.5321950705
 20
225.1976342953
 30
0.0
 10
57.5370861092
 20
224.917426875
 30
0.0
 10
57.5397687713
 20
224.4274316063
 30
0.0
 10
57.4608195157
 20
223.773675472
 30
0.0
 10
57.2397420617
 20
223.2823439176
 30
0.0
 10
56.9999907419
 20
223.0629097156
 30
0.0
 10
56.8739752849
 20
222.9755191443
 30
0.0
  0
SPLINE
  5
275
100
AcDbEntity
  8
0
100
AcDbSpline
 62
7
  6
CONTINUOUS
 70
0
 71
3
 72
9
 73
5
 74
0
 42
0.0000001
 43
0.0000001
 44
0.0000000001
 40
0.0
 40
0.0
 40
0.0
 40
0.0
 40
0.5142691044
 40
1.0
 40
1.0
 40
1.0
 40
1.0
 10
58.8540055089
 20
225.5918324866
 30
0.0
 10
59.0518819207
 20
225.5204515168
 30
0.0
 10
59.4660876755
 20
225.4651582924
 30
0.0
 10
59.8784819343
 20
225.5244126406
 30
0.0
 10
60.0653776637
 20
225.5918324158
 30
0.0
  0
SPLINE
  5
276
100
AcDbEntity
  8
0
100
AcDbSpline
 62
7
  6
CONTINUOUS
 70
0
 71
3
 72
9
 73
5
 74
0
 42
0.0000001
 43
0.0000001
 44
0.0000000001
 40
0.0
 40
0.0
 40
0.0
 40
0.0
 40
0.2591314468
 40
1.0
 40
1.0
 40
1.0
 40
1.0
 10
60.203996086
 20
226.8897334597
 30
0.0
 10
60.1971182502
 20
226.7771725146
 30
0.0
 10
60.1661698693
 20
226.3431205333
 30
0.0
 10
60.1177896812
 20
225.9099614413
 30
0.0
 10
60.0653786024
 20
225.5918327962
 30
0.0
  0
SPLINE
  5
277
100
AcDbEntity
  8
0
100
AcDbSpline
 62
7
  6
CONTINUOUS
 70
0
 71
3
 72
9
 73
5
 74
0
 42
0.0000001
 43
0.0000001
 44
0.0000000001
 40
0.0
 40
0.0
 40
0.0
 40
0.0
 40
0.3457836591
 40
1.0
 40
1.0
 40
1.0
 40
1.0
 10
60.0653854406
 20
225.5918336865
 30
0.0
 10
60.0206903505
 20
225.3714821683
 30
0.0
 10
59.8762003275
 20
224.737218886
 30
0.0
 10
59.694730145
 20
224.1125176989
 30
0.0
 10
59.5755907949
 20
223.704151361
 30
0.0
  0
SPLINE
  5
278
100
AcDbEntity
  8
0
100
AcDbSpline
 62
7
  6
CONTINUOUS
 70
0
 71
3
 72
9
 73
5
 74
0
 42
0.0000001
 43
0.0000001
 44
0.0000000001
 40
0.0
 40
0.0
 40
0.0
 40
0.0
 40
0.2408397022
 40
1.0
 40
1.0
 40
1.0
 40
1.0
 10
60.4434563676
 20
226.8251429659
 30
0.0
 10
60.4283839275
 20
226.7224715516
 30
0.0
 10
60.3493559215
 20
226.2988063723
 30
0.0
 10
60.2078972268
 20
225.8862554231
 30
0.0
 10
60.0653776982
 20
225.5918326294
 30
0.0
  0
SPLINE
  5
279
100
AcDbEntity
  8
0
100
AcDbSpline
 62
7
  6
CONTINUOUS
 70
0
 71
3
 72
9
 73
5
 74
0
 42
0.0000001
 43
0.0000001
 44
0.0000000001
 40
0.0
 40
0.0
 40
0.0
 40
0.0
 40
0.4644271953
 40
1.0
 40
1.0
 40
1.0
 40
1.0
 10
60.4434562796
 20
226.8251426123
 30
0.0
 10
60.9545075868
 20
226.6011760245
 30
0.0
 10
62.1271337901
 20
226.2861337915
 30
0.0
 10
63.3304482866
 20
226.1916561214
 30
0.0
 10
63.9738917607
 20
226.1944443864
 30
0.0
  0
SPLINE
  5
27A
100
AcDbEntity
  8
0
100
AcDbSpline
 62
7
  6
CONTINUOUS
 70
0
 71
3
 72
9
 73
5
 74
0
 42
0.0000001
 43
0.0000001
 44
0.0000000001
 40
0.0
 40
0.0
 40
0.0
 40
0.0
 40
0.5355365187
 40
1.0
 40
1.0
 40
1.0
 40
1.0
 10
279.9038618106
 20
226.1944441351
 30
0.0
 10
280.5472616684
 20
226.1916554122
 30
0.0
 10
281.7505750095
 20
226.2861276605
 30
0.0
 10
282.9232057676
 20
226.6011591126
 30
0.0
 10
283.4342973472
 20
226.8251423741
 30
0.0
  0
SPLINE
  5
27B
100
AcDbEntity
  8
0
100
AcDbSpline
 62
7
  6
CONTINUOUS
 70
0
 71
3
 72
9
 73
5
 74
0
 42
0.0000001
 43
0.0000001
 44
0.0000000001
 40
0.0
 40
0.0
 40
0.0
 40
0.0
 40
0.2758111563
 40
1.0
 40
1.0
 40
1.0
 40
1.0
 10
279.6861528847
 20
256.3058107174
 30
0.0
 10
280.0111433315
 20
256.3081597231
 30
0.0
 10
281.1894599648
 20
256.3145083166
 30
0.0
 10
282.367853197
 20
256.3145318512
 30
0.0
 10
283.2211483099
 20
256.3058107174
 30
0.0
  0
SPLINE
  5
27C
100
AcDbEntity
  8
0
100
AcDbSpline
 62
7
  6
CONTINUOUS
 70
0
 71
3
 72
12
 73
8
 74
0
 42
0.0000001
 43
0.0000001
 44
0.0000000001
 40
0.0
 40
0.0
 40
0.0
 40
0.0
 40
0.2875596106
 40
0.5541040684
 40
0.7887512089
 40
0.8963100873
 40
1.0
 40
1.0
 40
1.0
 40
1.0
 10
283.2211483099
 20
256.3058107174
 30
0.0
 10
283.2132980558
 20
256.9418401925
 30
0.0
 10
283.0331094063
 20
258.1731088515
 30
0.0
 10
282.2918349918
 20
259.7809324903
 30
0.0
 10
281.3001979983
 20
260.7583282398
 30
0.0
 10
280.3850347774
 20
261.1522544999
 30
0.0
 10
279.9155135494
 20
261.2185486855
 30
0.0
 10
279.6861528829
 20
261.2185486852
 30
0.0
  0
SPLINE
  5
27D
100
AcDbEntity
  8
0
100
AcDbSpline
 62
7
  6
CONTINUOUS
 70
0
 71
3
 72
12
 73
8
 74
0
 42
0.0000001
 43
0.0000001
 44
0.0000000001
 40
0.0
 40
0.0
 40
0.0
 40
0.0
 40
0.1036895216
 40
0.2112461427
 40
0.4458869386
 40
0.7124277435
 40
1.0
 40
1.0
 40
1.0
 40
1.0
 10
290.9899125479
 20
261.2185486852
 30
0.0
 10
291.2192724037
 20
261.2185486854
 30
0.0
 10
291.6887879724
 20
261.1522565539
 30
0.0
 10
292.6039341245
 20
260.7583414312
 30
0.0
 10
293.5955601865
 20
259.7809771738
 30
0.0
 10
294.3368630925
 20
258.1731591762
 30
0.0
 10
294.5170573738
 20
256.941868314
 30
0.0
 10
294.5249079749
 20
256.3058107174
 30
0.0
  0
SPLINE
  5
27E
100
AcDbEntity
  8
0
100
AcDbSpline
 62
7
  6
CONTINUOUS
 70
0
 71
3
 72
17
 73
13
 74
0
 42
0.0000001
 43
0.0000001
 44
0.0000000001
 40
0.0
 40
0.0
 40
0.0
 40
0.0
 40
0.224596798
 40
0.4242858208
 40
0.5966903311
 40
0.7399004376
 40
0.8527301019
 40
0.9340908676
 40
0.9627369293
 40
0.9832870493
 40
0.9956970328
 40
1.0
 40
1.0
 40
1.0
 40
1.0
 10
294.524906215
 20
256.3058106994
 30
0.0
 10
294.6345486656
 20
256.3069315876
 30
0.0
 10
294.8416697623
 20
256.30890683
 30
0.0
 10
295.1329884511
 20
256.3112018777
 30
0.0
 10
295.384488056
 20
256.3125768736
 30
0.0
 10
295.5938462522
 20
256.3132163703
 30
0.0
 10
295.7580650805
 20
256.312613427
 30
0.0
 10
295.8679008482
 20
256.3121705562
 30
0.0
 10
295.930204233
 20
256.3099905168
 30
0.0
 10
295.9626132736
 20
256.310098654
 30
0.0
 10
295.9765723387
 20
256.3067138262
 30
0.0
 10
295.9891143613
 20
256.3079111065
 30
0.0
 10
295.9891510237
 20
256.3058107174
 30
0.0
  0
ELLIPSE
  5
27F
100
AcDbEntity
  8
0
100
AcDbEllipse
 62
7
  6
CONTINUOUS
 10
296.4388767853
 20
223.9523516074
 30
0.0
 11
10.1148953344
 21
0.0
 31
0.0
 40
0.2679521232
 41
-2.7728811156
 42
-2.4468350283
  0
ELLIPSE
  5
280
100
AcDbEntity
  8
0
100
AcDbEllipse
 62
7
  6
CONTINUOUS
 10
47.4388767853
 20
223.9523516074
 30
0.0
 11
10.1148953344
 21
-0.0
 31
0.0
 40
0.2679521232
 41
-0.6947576253
 42
-0.3687115379
  0
ENDSEC
  0
SECTION
  2
OBJECTS
  0
DICTIONARY
  5
C
100
AcDbDictionary
280
0
281
1
  3
ACAD_GROUP
350
D
  3
ACAD_MLINESTYLE
350
17
  3
ACAD_LAYOUT
350
1A
  3
ACAD_PLOTSETTINGS
350
19
  3
ACAD_PLOTSTYLENAME
350
E
  0
DICTIONARY
  5
D
102
{ACAD_REACTORS
330
C
102
}
100
AcDbDictionary
280
0
281
1
  0
ACDBDICTIONARYWDFLT
  5
E
102
{ACAD_REACTORS
330
C
102
}
100
AcDbDictionary
281
1
  3
Normal
350
F
100
AcDbDictionaryWithDefault
340
F
  0
DICTIONARY
  5
17
102
{ACAD_REACTORS
330
C
102
}
100
AcDbDictionary
280
0
281
1
  3
Standard
350
18
  0
DICTIONARY
  5
19
102
{ACAD_REACTORS
330
C
102
}
100
AcDbDictionary
281
1
  0
DICTIONARY
  5
1A
102
{ACAD_REACTORS
330
C
102
}
100
AcDbDictionary
281
1
  3
Model
350
281
  3
Layout1
350
282
  0
ACDBPLACEHOLDER
  5
F
102
{ACAD_REACTORS
330
E
102
}
  0
MLINESTYLE
  5
18
102
{ACAD_REACTORS
330
17
102
}
100
AcDbMlineStyle
  2
STANDARD
 70
0
  3

 62
256
 51
90.0
 52
90.0
 71
2
 49
0.5
 62
256
  6
BYLAYER
 49
-0.5
 62
256
  6
BYLAYER
  0
LAYOUT
  5
281
102
{ACAD_REACTORS
330
1A
102
}
100
AcDbPlotSettings
  1

  2
none_device
  4

  6

 40
0.0
 41
0.0
 42
0.0
 43
0.0
 44
210.0
 45
297.0
 46
0.0
 47
0.0
 48
0.0
 49
0.0
140
0.0
141
0.0
142
1.0
143
1.0
 70
1024
 72
1
 73
0
 74
0
  7

 75
0
147
1.0
148
0.0
149
0.0
100
AcDbLayout
  1
Model
 70
0
 71
0
 10
0.0
 20
0.0
 11
210.0
 21
297.0
 12
0.0
 22
0.0
 32
0.0
 14
0.0
 24
0.0
 34
0.0
 15
0.0
 25
0.0
 35
0.0
146
0.0
 13
0.0
 23
0.0
 33
0.0
 16
1.0
 26
0.0
 36
0.0
 17
0.0
 27
1.0
 37
0.0
 76
0
330
210
345
0
346
0
  0
LAYOUT
  5
282
102
{ACAD_REACTORS
330
1A
102
}
100
AcDbPlotSettings
  1

  2
none_device
  4

  6

 40
0.0
 41
0.0
 42
0.0
 43
0.0
 44
210.0
 45
297.0
 46
0.0
 47
0.0
 48
0.0
 49
0.0
140
0.0
141
0.0
142
1.0
143
1.0
 70
0
 72
1
 73
0
 74
0
  7

 75
0
147
1.0
148
0.0
149
0.0
100
AcDbLayout
  1
Layout1
 70
0
 71
1
 10
0.0
 20
0.0
 11
210.0
 21
297.0
 12
0.0
 22
0.0
 32
0.0
 14
0.0
 24
0.0
 34
0.0
 15
0.0
 25
0.0
 35
0.0
146
0.0
 13
0.0
 23
0.0
 33
0.0
 16
1.0
 26
0.0
 36
0.0
 17
0.0
 27
1.0
 37
0.0
 76
0
330
211
345
0
346
0
  0
ENDSEC
  0
EOF
