999
DXF file: C:\Users\sesa63760\Dev\_Creo\CAD\MCADID0005237_3D-CAD\drw0001_1.dxf
999
Pro/ENGINEER 2019471 by Parametric Technology Corporation
  0
SECTION
  2
HEADER
  9
$ACADVER
  1
AC1024
  9
$DWGCODEPAGE
  3
ANSI_1252
  9
$EXTMAX
 10
79.2405247776
 20
112.0687421855
 30
0.0
  9
$EXTMIN
 10
0.0
 20
0.0
 30
0.0
  9
$LIMMIN
 10
0.0
 20
0.0
  9
$LIMMAX
 10
79.2405247776
 20
112.0687421855
  9
$VIEWCTR
 10
39.6202623888
 20
56.0343710928
  9
$VIEWSIZE
 40
112.0687421855
  9
$CLAYER
  8
0
  9
$LTSCALE
 40
7.3052217128
  9
$CELTYPE
  6
BYLAYER
  9
$DIMSCALE
 40
1.0
  9
$DIMASZ
 40
0.9433395807
  9
$DIMEXO
 40
1.0
  9
$DIMDLI
 40
5.0472440925
  9
$DIMEXE
 40
1.0
  9
$DIMCEN
 40
1.1953999166
  9
$DIMLFAC
 40
1.0
  9
$DIMBLK
  1
_FILLED
  9
$DIMALT
 70
0
  9
$DIMALTF
 40
0.0393700787
  9
$DIMTXT
 40
1.320675413
  9
$DIMTOL
 70
1
  9
$DIMLIM
 70
0
  9
$DIMTFAC
 40
1.0
  9
$DIMTP
 40
0.01
  9
$DIMTM
 40
0.01
  9
$DIMGAP
 40
0.625
  9
$DIMDSEP
 70
46
  9
$AUNITS
 70
0
  9
$PDMODE
 70
3
  9
$PDSIZE
 40
0.3125
  9
$HANDSEED
  5
31F
  9
$TILEMODE
 70
1
  9
$MEASUREMENT
 70
1
  9
$INSUNITS
 70
4
  0
ENDSEC
  0
SECTION
  2
CLASSES
  0
CLASS
  1
ACDBDICTIONARYWDFLT
  2
AcDbDictionaryWithDefault
  3
AutoCAD 2000
 90
0
 91
1
280
0
281
0
  0
CLASS
  1
ACDBPLACEHOLDER
  2
AcDbPlaceHolder
  3
AutoCAD 2000
 90
0
 91
1
280
0
281
0
  0
CLASS
  1
LAYOUT
  2
AcDbLayout
  3
AutoCAD 2000
 90
0
 91
0
280
0
281
0
  0
ENDSEC
  0
SECTION
  2
TABLES
  0
TABLE
  2
VPORT
  5
8
100
AcDbSymbolTable
 70
2
  0
VPORT
  5
1F4
100
AcDbSymbolTableRecord
100
AcDbViewportTableRecord
  2
*ACTIVE
 70
0
 10
0.0
 20
0.0
 11
1.0
 21
1.0
 12
39.6202623888
 22
56.0343710928
 13
0.0
 23
0.0
 14
1.0
 24
1.0
 15
0.0
 25
0.0
 16
0.0
 26
0.0
 36
1.0
 17
0.0
 27
0.0
 37
0.0
 40
112.0687421855
 41
0.7070707071
 42
50.0
 43
0.0
 44
0.0
 50
0.0
 51
0.0
 71
0
 72
100
 73
1
 74
1
 75
0
 76
0
 77
0
 78
0
  0
ENDTAB
  0
TABLE
  2
LTYPE
  5
5
100
AcDbSymbolTable
 70
6
  0
LTYPE
  5
14
100
AcDbSymbolTableRecord
100
AcDbLinetypeTableRecord
  2
BYBLOCK
 70
0
  3

 72
65
 73
0
 40
0.0
  0
LTYPE
  5
15
100
AcDbSymbolTableRecord
100
AcDbLinetypeTableRecord
  2
BYLAYER
 70
0
  3

 72
65
 73
0
 40
0.0
  0
LTYPE
  5
16
100
AcDbSymbolTableRecord
100
AcDbLinetypeTableRecord
  2
CONTINUOUS
 70
64
  3
Solid line
 72
65
 73
0
 40
0.0
  0
LTYPE
  5
1F5
100
AcDbSymbolTableRecord
100
AcDbLinetypeTableRecord
  2
CENTER
 70
64
  3
____ _ ____ _ ____ _ ____ _ ____ _ ____ _ ____
 72
65
 73
4
 40
0.6
 49
0.375
 74
0
 49
-0.075
 74
0
 49
0.075
 74
0
 49
-0.075
 74
0
  0
LTYPE
  5
1F6
100
AcDbSymbolTableRecord
100
AcDbLinetypeTableRecord
  2
HIDDEN
 70
64
  3
- - - - - - - - - - - - - - - - - - - -
 72
65
 73
2
 40
0.2
 49
0.1
 74
0
 49
-0.1
 74
0
  0
LTYPE
  5
1F7
100
AcDbSymbolTableRecord
100
AcDbLinetypeTableRecord
  2
PHANTOM
 70
64
  3
_____ _ _ _____ _ _ _____ _ _ _____
 72
65
 73
6
 40
0.8
 49
0.45
 74
0
 49
-0.05
 74
0
 49
0.1
 74
0
 49
-0.05
 74
0
 49
0.1
 74
0
 49
-0.05
 74
0
  0
LTYPE
  5
1F8
100
AcDbSymbolTableRecord
100
AcDbLinetypeTableRecord
  2
DOT
 70
64
  3
. . . . . . . . . . . . . . . . . . . .
 72
65
 73
2
 40
0.2
 49
0.1
 74
0
 49
-0.1
 74
0
  0
LTYPE
  5
1F9
100
AcDbSymbolTableRecord
100
AcDbLinetypeTableRecord
  2
DASHED
 70
64
  3
- - - - - - - - - - - - - - - - - - - -
 72
65
 73
2
 40
0.2
 49
0.1
 74
0
 49
-0.1
 74
0
  0
ENDTAB
  0
TABLE
  2
LAYER
  5
2
100
AcDbSymbolTable
 70
36
  0
LAYER
  5
10
100
AcDbSymbolTableRecord
100
AcDbLayerTableRecord
  2
0
 70
0
 62
7
  6
CONTINUOUS
370
-3
390
F
  0
LAYER
  5
1FA
100
AcDbSymbolTableRecord
100
AcDbLayerTableRecord
  2
DEFAULT_1
 70
0
 62
7
  6
CENTER
370
-3
390
F
  0
LAYER
  5
1FB
100
AcDbSymbolTableRecord
100
AcDbLayerTableRecord
  2
DEFAULT_2
 70
0
 62
7
  6
HIDDEN
370
-3
390
F
  0
LAYER
  5
1FC
100
AcDbSymbolTableRecord
100
AcDbLayerTableRecord
  2
DEFAULT_3
 70
0
 62
7
  6
PHANTOM
370
-3
390
F
  0
LAYER
  5
1FD
100
AcDbSymbolTableRecord
100
AcDbLayerTableRecord
  2
00_COMPONENTS
 70
0
 62
7
  6
CONTINUOUS
370
-3
390
F
  0
LAYER
  5
1FE
100
AcDbSymbolTableRecord
100
AcDbLayerTableRecord
  2
00_COMPONENTS_1
 70
0
 62
7
  6
CONTINUOUS
370
-3
390
F
  0
LAYER
  5
1FF
100
AcDbSymbolTableRecord
100
AcDbLayerTableRecord
  2
00_COMPONENTS_2
 70
0
 62
7
  6
CONTINUOUS
370
-3
390
F
  0
LAYER
  5
200
100
AcDbSymbolTableRecord
100
AcDbLayerTableRecord
  2
01_1_DEFAULT_DATUMS
 70
0
 62
7
  6
CONTINUOUS
370
-3
390
F
  0
LAYER
  5
201
100
AcDbSymbolTableRecord
100
AcDbLayerTableRecord
  2
01_PLANES
 70
0
 62
7
  6
CONTINUOUS
370
-3
390
F
  0
LAYER
  5
202
100
AcDbSymbolTableRecord
100
AcDbLayerTableRecord
  2
02_COORD_SYS
 70
0
 62
7
  6
CONTINUOUS
370
-3
390
F
  0
LAYER
  5
203
100
AcDbSymbolTableRecord
100
AcDbLayerTableRecord
  2
03_AXES
 70
0
 62
7
  6
CONTINUOUS
370
-3
390
F
  0
LAYER
  5
204
100
AcDbSymbolTableRecord
100
AcDbLayerTableRecord
  2
04_POINTS
 70
0
 62
7
  6
CONTINUOUS
370
-3
390
F
  0
LAYER
  5
205
100
AcDbSymbolTableRecord
100
AcDbLayerTableRecord
  2
05_CURVES
 70
0
 62
7
  6
CONTINUOUS
370
-3
390
F
  0
LAYER
  5
206
100
AcDbSymbolTableRecord
100
AcDbLayerTableRecord
  2
06_SURFS
 70
0
 62
7
  6
CONTINUOUS
370
-3
390
F
  0
LAYER
  5
207
100
AcDbSymbolTableRecord
100
AcDbLayerTableRecord
  2
07_COSMETICS
 70
0
 62
7
  6
CONTINUOUS
370
-3
390
F
  0
LAYER
  5
208
100
AcDbSymbolTableRecord
100
AcDbLayerTableRecord
  2
10_NOTES
 70
0
 62
7
  6
CONTINUOUS
370
-3
390
F
  0
LAYER
  5
209
100
AcDbSymbolTableRecord
100
AcDbLayerTableRecord
  2
11_NOTES_PUB
 70
0
 62
7
  6
CONTINUOUS
370
-3
390
F
  0
LAYER
  5
20A
100
AcDbSymbolTableRecord
100
AcDbLayerTableRecord
  2
13_REF_GTOL
 70
0
 62
7
  6
CONTINUOUS
370
-3
390
F
  0
LAYER
  5
20B
100
AcDbSymbolTableRecord
100
AcDbLayerTableRecord
  2
16_MISC
 70
0
 62
7
  6
CONTINUOUS
370
-3
390
F
  0
LAYER
  5
20C
100
AcDbSymbolTableRecord
100
AcDbLayerTableRecord
  2
17_NO_PRINT
 70
0
 62
7
  6
CONTINUOUS
370
-3
390
F
  0
LAYER
  5
20D
100
AcDbSymbolTableRecord
100
AcDbLayerTableRecord
  2
18_DATUM_CAMS_JOINTS
 70
0
 62
7
  6
CONTINUOUS
370
-3
390
F
  0
LAYER
  5
20E
100
AcDbSymbolTableRecord
100
AcDbLayerTableRecord
  2
19_DATUM_FUNCTIONAL
 70
0
 62
7
  6
CONTINUOUS
370
-3
390
F
  0
LAYER
  5
20F
100
AcDbSymbolTableRecord
100
AcDbLayerTableRecord
  2
20_DATUM_KINEMATIC_SCHEME
 70
0
 62
7
  6
CONTINUOUS
370
-3
390
F
  0
LAYER
  5
210
100
AcDbSymbolTableRecord
100
AcDbLayerTableRecord
  2
INTF_BLANK
 70
0
 62
7
  6
CONTINUOUS
370
-3
390
F
  0
LAYER
  5
211
100
AcDbSymbolTableRecord
100
AcDbLayerTableRecord
  2
SHELL5
 70
0
 62
7
  6
CONTINUOUS
370
-3
390
F
  0
LAYER
  5
212
100
AcDbSymbolTableRecord
100
AcDbLayerTableRecord
  2
SHELL6
 70
0
 62
7
  6
CONTINUOUS
370
-3
390
F
  0
LAYER
  5
213
100
AcDbSymbolTableRecord
100
AcDbLayerTableRecord
  2
SHELL980
 70
0
 62
7
  6
CONTINUOUS
370
-3
390
F
  0
LAYER
  5
214
100
AcDbSymbolTableRecord
100
AcDbLayerTableRecord
  2
_BLACK_HOLE
 70
0
 62
7
  6
CONTINUOUS
370
-3
390
F
  0
LAYER
  5
215
100
AcDbSymbolTableRecord
100
AcDbLayerTableRecord
  2
black
 70
0
 62
7
  6
CONTINUOUS
370
-3
390
F
  0
ENDTAB
  0
TABLE
  2
STYLE
  5
3
100
AcDbSymbolTable
 70
1
  0
STYLE
  5
11
100
AcDbSymbolTableRecord
100
AcDbTextStyleTableRecord
  2
STANDARD
 70
0
 40
0.0
 41
1.0
 50
0.0
 71
0
 42
0.2
  3
ARIAL.TTF
  4

  0
STYLE
  5
216
100
AcDbSymbolTableRecord
100
AcDbTextStyleTableRecord
  2
TEXTSTYLE_1
 70
0
 40
0.0
 41
0.8
 50
0.0
 71
0
 42
0.2
  3
gdt
  4

  0
ENDTAB
  0
TABLE
  2
VIEW
  5
6
100
AcDbSymbolTable
 70
0
  0
ENDTAB
  0
TABLE
  2
UCS
  5
7
100
AcDbSymbolTable
 70
0
  0
ENDTAB
  0
TABLE
  2
APPID
  5
9
100
AcDbSymbolTable
 70
1
  0
APPID
  5
217
100
AcDbSymbolTableRecord
100
AcDbRegAppTableRecord
  2
ACAD
 70
0
  0
ENDTAB
  0
TABLE
  2
BLOCK_RECORD
  5
1
100
AcDbSymbolTable
 70
0
  0
BLOCK_RECORD
  5
218
100
AcDbSymbolTableRecord
100
AcDbBlockTableRecord
  2
*Model_Space
  0
BLOCK_RECORD
  5
219
100
AcDbSymbolTableRecord
100
AcDbBlockTableRecord
  2
*Paper_Space
  0
BLOCK_RECORD
  5
21A
100
AcDbSymbolTableRecord
100
AcDbBlockTableRecord
  2
_FILLED
  0
ENDTAB
  0
TABLE
  2
DIMSTYLE
  5
A
100
AcDbSymbolTable
 70
1
100
AcDbDimStyleTable
 71
0
  0
DIMSTYLE
105
21B
100
AcDbSymbolTableRecord
100
AcDbDimStyleTableRecord
  2
STANDARD
 70
0
  3

  4

 40
1.0
 41
0.9433395807
 42
1.0
 43
0.38
 44
1.0
 45
0.0
 46
0.0
 47
0.01
 48
0.01
140
1.320675413
141
0.09
142
0.0
143
25.4
144
1.0
145
0.0
146
1.0
147
0.625
 71
1
 72
0
 73
0
 74
0
 75
0
 76
0
 77
1
 78
8
 79
2
170
0
171
1
172
0
173
0
174
0
175
0
176
0
177
0
178
0
270
2
179
2
271
2
272
2
273
2
274
2
275
0
280
0
281
0
282
0
283
1
284
8
285
0
286
0
287
3
288
0
340
11
278
46
341
21A
342
21A
343
21A
344
21A
  0
ENDTAB
  0
ENDSEC
  0
SECTION
  2
BLOCKS
  0
BLOCK
  5
20
100
AcDbEntity
  8
0
100
AcDbBlockBegin
  2
*Model_Space
 70
0
 10
0.0
 20
0.0
 30
0.0
  3
*Model_Space
  1

  0
ENDBLK
  5
21
100
AcDbEntity
  8
0
100
AcDbBlockEnd
  0
BLOCK
  5
1C
100
AcDbEntity
  8
0
100
AcDbBlockBegin
  2
*Paper_Space
 70
0
 10
0.0
 20
0.0
 30
0.0
  3
*Paper_Space
  1

  0
ENDBLK
  5
1D
100
AcDbEntity
  8
0
100
AcDbBlockEnd
  0
BLOCK
  5
21C
100
AcDbEntity
  8
0
100
AcDbBlockBegin
  2
_FILLED
 70
64
 10
0.0
 20
0.0
  3
_FILLED
  1

  0
SOLID
  5
21D
100
AcDbEntity
  8
0
  6
BYBLOCK
 62
0
100
AcDbTrace
 10
0.0
 20
0.0
 11
-1.0
 21
0.25
 12
-1.0
 22
-0.25
 13
-1.0
 23
-0.25
  0
ENDBLK
  5
21E
100
AcDbEntity
  8
0
  6
BYBLOCK
 62
0
100
AcDbBlockEnd
  0
ENDSEC
  0
SECTION
  2
ENTITIES
  0
LINE
  5
21F
100
AcDbEntity
  8
00_COMPONENTS
100
AcDbLine
 62
7
  6
BYLAYER
 10
21.588688308
 20
87.7275503966
 11
26.1685998616
 21
90.3717477812
  0
LINE
  5
220
100
AcDbEntity
  8
00_COMPONENTS
100
AcDbLine
 62
7
  6
BYLAYER
 10
27.1602684654
 20
90.716132221
 11
26.366188355
 21
90.2576725921
  0
LINE
  5
221
100
AcDbEntity
  8
00_COMPONENTS
100
AcDbLine
 62
7
  6
BYLAYER
 10
21.588688308
 20
87.4993981186
 11
18.4417492619
 21
85.6825228585
  0
LINE
  5
222
100
AcDbEntity
  8
00_COMPONENTS
100
AcDbLine
 62
7
  6
BYLAYER
 10
26.1686073393
 20
89.3348119476
 11
23.3847395322
 21
87.7275547138
  0
LINE
  5
223
100
AcDbEntity
  8
00_COMPONENTS
100
AcDbLine
 62
7
  6
BYLAYER
 10
26.1686073393
 20
87.8623314885
 11
24.6599632467
 21
86.9913206148
  0
LINE
  5
224
100
AcDbEntity
  8
00_COMPONENTS
100
AcDbLine
 62
7
  6
BYLAYER
 10
28.6112396962
 20
88.9615209188
 11
27.7132178229
 21
88.4430508434
  0
LINE
  5
225
100
AcDbEntity
  8
00_COMPONENTS
100
AcDbLine
 62
7
  6
BYLAYER
 10
24.9293500158
 20
86.8357936096
 11
24.0313281425
 21
86.3173235342
  0
LINE
  5
226
100
AcDbEntity
  8
00_COMPONENTS
100
AcDbLine
 62
7
  6
BYLAYER
 10
12.7347118983
 20
75.7975893116
 11
13.6554580649
 21
77.3923773058
  0
LINE
  5
227
100
AcDbEntity
  8
00_COMPONENTS
100
AcDbLine
 62
7
  6
BYLAYER
 10
15.4461506095
 20
80.4939649911
 11
18.4417492619
 21
85.6825228585
  0
LINE
  5
228
100
AcDbEntity
  8
00_COMPONENTS
100
AcDbLine
 62
7
  6
BYLAYER
 10
9.1928125581
 20
65.6153203863
 11
10.8995695388
 21
68.5715266033
  0
LINE
  5
229
100
AcDbEntity
  8
00_COMPONENTS
100
AcDbLine
 62
7
  6
BYLAYER
 10
12.6902620834
 20
71.6731142886
 11
14.4873046015
 21
74.7857005117
  0
LINE
  5
22A
100
AcDbEntity
  8
00_COMPONENTS
100
AcDbLine
 62
7
  6
BYLAYER
 10
28.6112396962
 20
87.4890404598
 11
27.7132178229
 21
86.9705703844
  0
LINE
  5
22B
100
AcDbEntity
  8
00_COMPONENTS
100
AcDbLine
 62
7
  6
BYLAYER
 10
24.9293500158
 20
85.3633131506
 11
24.0313281425
 21
84.8448430752
  0
LINE
  5
22C
100
AcDbEntity
  8
00_COMPONENTS
100
AcDbLine
 62
7
  6
BYLAYER
 10
10.6437961422
 20
57.7974596155
 11
10.6437961422
 21
55.7719348525
  0
LINE
  5
22D
100
AcDbEntity
  8
00_COMPONENTS
100
AcDbLine
 62
7
  6
BYLAYER
 10
19.2865238655
 20
78.8486207229
 11
19.0390086881
 21
78.4199094802
  0
LINE
  5
22E
100
AcDbEntity
  8
00_COMPONENTS
100
AcDbLine
 62
7
  6
BYLAYER
 10
18.9438472182
 20
78.2550840644
 11
18.5534801413
 21
77.5789447002
  0
LINE
  5
22F
100
AcDbEntity
  8
00_COMPONENTS
100
AcDbLine
 62
7
  6
BYLAYER
 10
17.2469899403
 20
75.3160247308
 11
17.0005333831
 21
74.8891470821
  0
LINE
  5
230
100
AcDbEntity
  8
00_COMPONENTS
100
AcDbLine
 62
7
  6
BYLAYER
 10
21.1087784188
 20
80.8762499455
 11
18.9476135608
 21
77.1329818286
  0
LINE
  5
231
100
AcDbEntity
  8
00_COMPONENTS
100
AcDbLine
 62
7
  6
BYLAYER
 10
18.3169638981
 20
76.0406585074
 11
17.6245137605
 21
74.8412930295
  0
LINE
  5
232
100
AcDbEntity
  8
00_COMPONENTS
100
AcDbLine
 62
7
  6
BYLAYER
 10
17.5027545882
 20
74.6303987861
 11
16.8161962906
 21
73.4412383312
  0
LINE
  5
233
100
AcDbEntity
  8
00_COMPONENTS
100
AcDbLine
 62
7
  6
BYLAYER
 10
16.5306353394
 20
70.0277700204
 11
16.283120162
 21
69.5990587777
  0
LINE
  5
234
100
AcDbEntity
  8
00_COMPONENTS
100
AcDbLine
 62
7
  6
BYLAYER
 10
16.1879586921
 20
69.4342333619
 11
15.7975916152
 21
68.7580939978
  0
LINE
  5
235
100
AcDbEntity
  8
00_COMPONENTS
100
AcDbLine
 62
7
  6
BYLAYER
 10
14.4911014143
 20
66.4951740284
 11
14.244644857
 21
66.0682963797
  0
LINE
  5
236
100
AcDbEntity
  8
00_COMPONENTS
100
AcDbLine
 62
7
  6
BYLAYER
 10
17.5027545882
 20
70.5829135283
 11
16.1917250347
 21
68.3121311261
  0
LINE
  5
237
100
AcDbEntity
  8
00_COMPONENTS
100
AcDbLine
 62
7
  6
BYLAYER
 10
15.5610753721
 20
67.219807805
 11
13.7682089807
 21
64.1144548857
  0
LINE
  5
238
100
AcDbEntity
  8
00_COMPONENTS
100
AcDbLine
 62
7
  6
BYLAYER
 10
17.5027545882
 20
74.7709957582
 11
24.5931323004
 21
78.8646028035
  0
LINE
  5
239
100
AcDbEntity
  8
00_COMPONENTS
100
AcDbLine
 62
7
  6
BYLAYER
 10
38.9694724456
 20
87.1647371112
 11
46.0598501579
 21
91.2583441565
  0
LINE
  5
23A
100
AcDbEntity
  8
00_COMPONENTS
100
AcDbLine
 62
7
  6
BYLAYER
 10
47.8559088598
 20
90.22141264
 11
35.2387015404
 21
82.9369080804
  0
LINE
  5
23B
100
AcDbEntity
  8
00_COMPONENTS
100
AcDbLine
 62
7
  6
BYLAYER
 10
31.9160206094
 20
81.0185688014
 11
19.29881329
 21
73.7340642418
  0
LINE
  5
23C
100
AcDbEntity
  8
00_COMPONENTS
100
AcDbLine
 62
7
  6
BYLAYER
 10
19.3167738771
 20
73.7236949266
 11
31.9070405402
 21
80.9926453839
  0
LINE
  5
23D
100
AcDbEntity
  8
00_COMPONENTS
100
AcDbLine
 62
7
  6
BYLAYER
 10
35.2656421966
 20
82.9317230213
 11
47.8738694468
 21
90.2110433248
  0
LINE
  5
23E
100
AcDbEntity
  8
00_COMPONENTS
100
AcDbLine
 62
7
  6
BYLAYER
 10
35.813440325
 20
82.6050899951
 11
32.490759394
 21
80.6867507161
  0
LINE
  5
23F
100
AcDbEntity
  8
00_COMPONENTS
100
AcDbLine
 62
7
  6
BYLAYER
 10
48.1944178429
 20
30.9169942009
 11
47.5636868912
 21
30.9169926848
  0
LINE
  5
240
100
AcDbEntity
  8
00_COMPONENTS
100
AcDbLine
 62
7
  6
BYLAYER
 10
34.3587401288
 20
30.916960944
 11
33.7280091771
 21
30.9169594279
  0
LINE
  5
241
100
AcDbEntity
  8
00_COMPONENTS
100
AcDbLine
 62
7
  6
BYLAYER
 10
30.110009631
 20
32.2280665473
 11
28.3872187183
 21
33.2226978429
  0
LINE
  5
242
100
AcDbEntity
  8
00_COMPONENTS
100
AcDbLine
 62
7
  6
BYLAYER
 10
33.7280091771
 20
30.9169594279
 11
33.2820131872
 21
31.1744495075
  0
LINE
  5
243
100
AcDbEntity
  8
00_COMPONENTS
100
AcDbLine
 62
7
  6
BYLAYER
 10
23.4396718997
 20
36.7553041318
 11
25.7611255118
 21
34.7241958339
  0
LINE
  5
244
100
AcDbEntity
  8
00_COMPONENTS
100
AcDbLine
 62
7
  6
BYLAYER
 10
17.5027545882
 20
54.654009205
 11
17.5027545882
 21
60.8177014767
  0
LINE
  5
245
100
AcDbEntity
  8
00_COMPONENTS
100
AcDbLine
 62
7
  6
BYLAYER
 10
17.5027545882
 20
62.5361549301
 11
17.5027545882
 21
74.7709957582
  0
LINE
  5
246
100
AcDbEntity
  8
00_COMPONENTS
100
AcDbLine
 62
7
  6
BYLAYER
 10
33.6748380446
 20
80.016107524
 11
35.813440325
 21
81.250822756
  0
LINE
  5
247
100
AcDbEntity
  8
00_COMPONENTS
100
AcDbLine
 62
7
  6
BYLAYER
 10
19.0486215642
 20
59.9252223506
 11
19.0486215642
 21
61.0658762273
  0
LINE
  5
248
100
AcDbEntity
  8
00_COMPONENTS
100
AcDbLine
 62
7
  6
BYLAYER
 10
19.29881329
 20
73.7340642418
 11
19.29881329
 21
61.4992234136
  0
LINE
  5
249
100
AcDbEntity
  8
00_COMPONENTS
100
AcDbLine
 62
7
  6
BYLAYER
 10
19.29881329
 20
59.7807699603
 11
19.29881329
 21
53.6170776885
  0
LINE
  5
24A
100
AcDbEntity
  8
00_COMPONENTS
100
AcDbLine
 62
7
  6
BYLAYER
 10
19.3167738771
 20
73.7236949266
 11
19.3167738771
 21
53.6067083733
  0
LINE
  5
24B
100
AcDbEntity
  8
00_COMPONENTS
100
AcDbLine
 62
7
  6
BYLAYER
 10
21.1173908066
 20
42.0357698291
 11
21.1173908066
 21
43.2801195128
  0
LINE
  5
24C
100
AcDbEntity
  8
00_COMPONENTS
100
AcDbLine
 62
7
  6
BYLAYER
 10
21.3313750338
 20
49.6015978941
 11
21.3313750338
 21
45.7037657488
  0
LINE
  5
24D
100
AcDbEntity
  8
00_COMPONENTS
100
AcDbLine
 62
7
  6
BYLAYER
 10
21.588688308
 20
86.2550699376
 11
21.588688308
 21
87.7275503966
  0
LINE
  5
24E
100
AcDbEntity
  8
00_COMPONENTS
100
AcDbLine
 62
7
  6
BYLAYER
 10
21.6317669182
 20
51.4536952452
 11
21.6317669182
 21
49.4281704823
  0
LINE
  5
24F
100
AcDbEntity
  8
00_COMPONENTS
100
AcDbLine
 62
7
  6
BYLAYER
 10
19.0486215642
 20
61.0658762273
 11
19.29881329
 21
61.4992234136
  0
LINE
  5
250
100
AcDbEntity
  8
00_COMPONENTS
100
AcDbLine
 62
7
  6
BYLAYER
 10
23.9955067954
 20
71.0224883262
 11
27.336148164
 21
72.9511970067
  0
LINE
  5
251
100
AcDbEntity
  8
00_COMPONENTS
100
AcDbLine
 62
7
  6
BYLAYER
 10
32.0238418591
 20
72.9512082745
 11
49.2209607321
 21
82.8799102188
  0
LINE
  5
252
100
AcDbEntity
  8
00_COMPONENTS
100
AcDbLine
 62
7
  6
BYLAYER
 10
23.7460521491
 20
43.078056647
 11
25.9911255265
 21
41.7818922513
  0
LWPOLYLINE
  5
253
100
AcDbEntity
  8
00_COMPONENTS
100
AcDbPolyline
 62
7
  6
BYLAYER
 90
4
 70
0
 10
26.3250990519
 20
41.6795200377
 10
27.6248373747
 20
40.9292196645
 10
32.2453378485
 20
39.1797462517
 10
37.5026344427
 20
38.2155772209
  0
LINE
  5
254
100
AcDbEntity
  8
00_COMPONENTS
100
AcDbLine
 62
7
  6
BYLAYER
 10
21.3313750338
 20
45.7037657488
 11
23.7460521491
 21
43.078056647
  0
LWPOLYLINE
  5
255
100
AcDbEntity
  8
00_COMPONENTS
100
AcDbPolyline
 62
7
  6
BYLAYER
 90
3
 70
0
 10
22.6289106586
 20
44.2928313102
 10
23.0390560819
 20
43.5465467958
 10
23.6696922147
 20
42.9913249487
  0
LINE
  5
256
100
AcDbEntity
  8
00_COMPONENTS
100
AcDbLine
 62
7
  6
BYLAYER
 10
23.4986709215
 20
36.7036841459
 11
23.4986709215
 21
32.3627160231
  0
LINE
  5
257
100
AcDbEntity
  8
00_COMPONENTS
100
AcDbLine
 62
7
  6
BYLAYER
 10
23.7460521491
 20
49.1546309357
 11
23.7460521491
 21
43.078056647
  0
LINE
  5
258
100
AcDbEntity
  8
00_COMPONENTS
100
AcDbLine
 62
7
  6
BYLAYER
 10
23.9955067954
 20
50.9055017729
 11
23.9955067954
 21
71.0224883262
  0
LINE
  5
259
100
AcDbEntity
  8
00_COMPONENTS
100
AcDbLine
 62
7
  6
BYLAYER
 10
24.0313281425
 20
84.8448430752
 11
24.0313281425
 21
86.3173235342
  0
LINE
  5
25A
100
AcDbEntity
  8
00_COMPONENTS
100
AcDbLine
 62
7
  6
BYLAYER
 10
24.9293500158
 20
85.3633131506
 11
24.9293500158
 21
86.8357936096
  0
LINE
  5
25B
100
AcDbEntity
  8
00_COMPONENTS
100
AcDbLine
 62
7
  6
BYLAYER
 10
24.9611408026
 20
30.3596219637
 11
24.9611408026
 21
31.1950606157
  0
LWPOLYLINE
  5
25C
100
AcDbEntity
  8
00_COMPONENTS
100
AcDbPolyline
 62
7
  6
BYLAYER
 90
3
 70
0
 10
21.1172266127
 20
43.2801195036
 10
21.2057508858
 20
44.3600534449
 10
21.6224335134
 20
45.3872700591
  0
LINE
  5
25D
100
AcDbEntity
  8
00_COMPONENTS
100
AcDbLine
 62
7
  6
BYLAYER
 10
57.2313352835
 20
84.808630124
 11
53.890693915
 21
82.8799214434
  0
LINE
  5
25E
100
AcDbEntity
  8
00_COMPONENTS
100
AcDbLine
 62
7
  6
BYLAYER
 10
10.6437961422
 20
57.7974596155
 11
16.6888967856
 21
61.287579266
  0
LINE
  5
25F
100
AcDbEntity
  8
00_COMPONENTS
100
AcDbLine
 62
7
  6
BYLAYER
 10
53.890693915
 20
81.8429633737
 11
56.0279859734
 21
83.0769221532
  0
LWPOLYLINE
  5
260
100
AcDbEntity
  8
00_COMPONENTS
100
AcDbPolyline
 62
7
  6
BYLAYER
 90
5
 70
0
 10
37.5026344427
 20
38.2155772209
 10
43.018814671
 20
38.104565389
 10
48.3853384012
 20
38.856341181
 10
53.218897732
 20
40.4228226081
 10
55.3116498346
 20
41.4760246321
  0
LWPOLYLINE
  5
261
100
AcDbEntity
  8
00_COMPONENTS
100
AcDbPolyline
 62
7
  6
BYLAYER
 90
3
 70
0
 10
30.5390722196
 20
40.3878195627
 10
35.7546287068
 20
39.2465931663
 10
39.7061974511
 20
38.9931292208
  0
LINE
  5
262
100
AcDbEntity
  8
00_COMPONENTS
100
AcDbLine
 62
7
  6
BYLAYER
 10
25.9911255265
 20
41.7818922513
 11
30.5390722196
 21
40.3878195627
  0
LINE
  5
263
100
AcDbEntity
  8
00_COMPONENTS
100
AcDbLine
 62
7
  6
BYLAYER
 10
23.7460521491
 20
49.1546309357
 11
21.6317669182
 21
51.4536952452
  0
LINE
  5
264
100
AcDbEntity
  8
00_COMPONENTS
100
AcDbLine
 62
7
  6
BYLAYER
 10
15.9153610556
 20
67.7367015125
 11
15.3281628965
 21
69.0112523902
  0
LINE
  5
265
100
AcDbEntity
  8
00_COMPONENTS
100
AcDbLine
 62
7
  6
BYLAYER
 10
16.0919140644
 20
68.0818884986
 11
15.785360993
 21
68.7472813989
  0
LINE
  5
266
100
AcDbEntity
  8
00_COMPONENTS
100
AcDbLine
 62
7
  6
BYLAYER
 10
16.1273137104
 20
69.5658671443
 11
16.4123840913
 21
68.9471037872
  0
LINE
  5
267
100
AcDbEntity
  8
00_COMPONENTS
100
AcDbLine
 62
7
  6
BYLAYER
 10
25.9911255265
 20
47.8584665401
 11
25.9911255265
 21
41.7818922514
  0
LINE
  5
268
100
AcDbEntity
  8
00_COMPONENTS
100
AcDbLine
 62
7
  6
BYLAYER
 10
26.1686073393
 20
87.8623314885
 11
26.1686073393
 21
89.3348119476
  0
LINE
  5
269
100
AcDbEntity
  8
00_COMPONENTS
100
AcDbLine
 62
7
  6
BYLAYER
 10
27.336148164
 20
52.8342104535
 11
27.336148164
 21
72.9511970067
  0
LINE
  5
26A
100
AcDbEntity
  8
00_COMPONENTS
100
AcDbLine
 62
7
  6
BYLAYER
 10
27.7132178229
 20
86.9705703844
 11
27.7132178229
 21
88.4430508434
  0
LINE
  5
26B
100
AcDbEntity
  8
00_COMPONENTS
100
AcDbLine
 62
7
  6
BYLAYER
 10
29.9732962538
 20
46.6378199875
 11
25.9911255265
 21
47.8584665401
  0
LINE
  5
26C
100
AcDbEntity
  8
00_COMPONENTS
100
AcDbLine
 62
7
  6
BYLAYER
 10
10.6437961422
 20
55.7719348525
 11
21.6317669182
 21
49.4281704823
  0
LINE
  5
26D
100
AcDbEntity
  8
00_COMPONENTS
100
AcDbLine
 62
7
  6
BYLAYER
 10
29.9732962538
 20
44.6122952246
 11
40.9612670298
 21
38.2685308543
  0
LINE
  5
26E
100
AcDbEntity
  8
00_COMPONENTS
100
AcDbLine
 62
7
  6
BYLAYER
 10
25.9911255265
 20
47.8584665401
 11
23.7460521491
 21
49.1546309357
  0
LINE
  5
26F
100
AcDbEntity
  8
00_COMPONENTS
100
AcDbLine
 62
7
  6
BYLAYER
 10
40.9612670298
 20
40.2940556172
 11
29.9732962538
 21
46.6378199875
  0
LINE
  5
270
100
AcDbEntity
  8
00_COMPONENTS
100
AcDbLine
 62
7
  6
BYLAYER
 10
21.6317669182
 20
51.4536952452
 11
10.6437961422
 21
57.7974596155
  0
LINE
  5
271
100
AcDbEntity
  8
00_COMPONENTS
100
AcDbLine
 62
7
  6
BYLAYER
 10
17.5027545882
 20
54.654009205
 11
19.29881329
 21
53.6170776885
  0
LINE
  5
272
100
AcDbEntity
  8
00_COMPONENTS
100
AcDbLine
 62
7
  6
BYLAYER
 10
19.3167738771
 20
53.6067083733
 11
23.9955067954
 21
50.9055017729
  0
LINE
  5
273
100
AcDbEntity
  8
00_COMPONENTS
100
AcDbLine
 62
7
  6
BYLAYER
 10
28.6112396962
 20
87.4890404598
 11
28.6112396962
 21
88.9615209188
  0
LINE
  5
274
100
AcDbEntity
  8
00_COMPONENTS
100
AcDbLine
 62
7
  6
BYLAYER
 10
29.9732962538
 20
44.6122952246
 11
29.9732962538
 21
46.6378199875
  0
LINE
  5
275
100
AcDbEntity
  8
00_COMPONENTS
100
AcDbLine
 62
7
  6
BYLAYER
 10
30.110009631
 20
32.2280665473
 11
30.110009631
 21
32.5687388046
  0
LINE
  5
276
100
AcDbEntity
  8
00_COMPONENTS
100
AcDbLine
 62
7
  6
BYLAYER
 10
30.5390722196
 20
40.3878195627
 11
30.5390722196
 21
44.2856517081
  0
LINE
  5
277
100
AcDbEntity
  8
00_COMPONENTS
100
AcDbLine
 62
7
  6
BYLAYER
 10
18.6712495817
 20
76.5575522149
 11
18.0840514226
 21
77.8321030926
  0
LINE
  5
278
100
AcDbEntity
  8
00_COMPONENTS
100
AcDbLine
 62
7
  6
BYLAYER
 10
18.8478025904
 20
76.902739201
 11
18.5412495191
 21
77.5681321013
  0
LINE
  5
279
100
AcDbEntity
  8
00_COMPONENTS
100
AcDbLine
 62
7
  6
BYLAYER
 10
18.8832022365
 20
78.3867178468
 11
19.1682726174
 21
77.7679544897
  0
LINE
  5
27A
100
AcDbEntity
  8
00_COMPONENTS
100
AcDbLine
 62
7
  6
BYLAYER
 10
31.9160206094
 20
80.9926453839
 11
31.9160206094
 21
81.0185688014
  0
LINE
  5
27B
100
AcDbEntity
  8
00_COMPONENTS
100
AcDbLine
 62
7
  6
BYLAYER
 10
32.0238418591
 20
72.9512082745
 11
32.0238418591
 21
52.8342217213
  0
LINE
  5
27C
100
AcDbEntity
  8
00_COMPONENTS
100
AcDbLine
 62
7
  6
BYLAYER
 10
32.490759394
 20
80.6867507161
 11
32.490759394
 21
80.6556427706
  0
LINE
  5
27D
100
AcDbEntity
  8
00_COMPONENTS
100
AcDbLine
 62
7
  6
BYLAYER
 10
33.7280091771
 20
30.9169594279
 11
33.7280091771
 21
26.4569384342
  0
LINE
  5
27E
100
AcDbEntity
  8
00_COMPONENTS
100
AcDbLine
 62
7
  6
BYLAYER
 10
19.29881329
 20
53.6170776885
 11
19.3167738771
 21
53.6274471764
  0
LINE
  5
27F
100
AcDbEntity
  8
00_COMPONENTS
100
AcDbLine
 62
7
  6
BYLAYER
 10
49.2209412901
 20
70.1460073083
 11
51.3582333485
 21
71.3799660878
  0
LINE
  5
280
100
AcDbEntity
  8
00_COMPONENTS
100
AcDbLine
 62
7
  6
BYLAYER
 10
19.29881329
 20
59.7807699603
 11
9.1928125581
 21
65.6153203863
  0
LINE
  5
281
100
AcDbEntity
  8
00_COMPONENTS
100
AcDbLine
 62
7
  6
BYLAYER
 10
19.0486215642
 20
61.0658762273
 11
13.7682089807
 21
64.1144548857
  0
LINE
  5
282
100
AcDbEntity
  8
00_COMPONENTS
100
AcDbLine
 62
7
  6
BYLAYER
 10
17.5027545882
 20
62.5361549301
 11
19.29881329
 21
61.4992234136
  0
LINE
  5
283
100
AcDbEntity
  8
00_COMPONENTS
100
AcDbLine
 62
7
  6
BYLAYER
 10
35.2656421966
 20
79.7052219887
 11
35.2656421966
 21
80.934553247
  0
LINE
  5
284
100
AcDbEntity
  8
00_COMPONENTS
100
AcDbLine
 62
7
  6
BYLAYER
 10
35.2656421966
 20
82.9213542372
 11
35.2656421966
 21
82.9317230213
  0
LINE
  5
285
100
AcDbEntity
  8
00_COMPONENTS
100
AcDbLine
 62
7
  6
BYLAYER
 10
35.2836027837
 20
82.9213537061
 11
35.2836027837
 21
82.9420928675
  0
LINE
  5
286
100
AcDbEntity
  8
00_COMPONENTS
100
AcDbLine
 62
7
  6
BYLAYER
 10
35.813440325
 20
81.250822756
 11
35.813440325
 21
82.6050899951
  0
LINE
  5
287
100
AcDbEntity
  8
00_COMPONENTS
100
AcDbLine
 62
7
  6
BYLAYER
 10
36.8461738543
 20
80.1392899161
 11
36.8461738543
 21
82.0399624482
  0
LINE
  5
288
100
AcDbEntity
  8
00_COMPONENTS
100
AcDbLine
 62
7
  6
BYLAYER
 10
27.336148164
 20
52.8342104535
 11
23.9955067954
 21
50.9055017729
  0
LINE
  5
289
100
AcDbEntity
  8
00_COMPONENTS
100
AcDbLine
 62
7
  6
BYLAYER
 10
50.2117385419
 20
66.0309904784
 11
49.2209412901
 21
65.458956833
  0
LINE
  5
28A
100
AcDbEntity
  8
00_COMPONENTS
100
AcDbLine
 62
7
  6
BYLAYER
 10
56.0279859734
 20
68.683944145
 11
53.890693915
 21
67.4499853655
  0
LINE
  5
28B
100
AcDbEntity
  8
00_COMPONENTS
100
AcDbLine
 62
7
  6
BYLAYER
 10
14.244644857
 20
66.0682963797
 11
14.2915624888
 21
66.0412090851
  0
LINE
  5
28C
100
AcDbEntity
  8
00_COMPONENTS
100
AcDbLine
 62
7
  6
BYLAYER
 10
14.4899901317
 20
66.4985635922
 11
10.8995695388
 21
68.5715266033
  0
LINE
  5
28D
100
AcDbEntity
  8
00_COMPONENTS
100
AcDbLine
 62
7
  6
BYLAYER
 10
21.1087784188
 20
80.8762499455
 11
18.4417492619
 21
85.6825228585
  0
LINE
  5
28E
100
AcDbEntity
  8
00_COMPONENTS
100
AcDbLine
 62
7
  6
BYLAYER
 10
53.890693915
 20
66.4130272957
 11
56.0279859734
 21
67.6469860752
  0
LINE
  5
28F
100
AcDbEntity
  8
00_COMPONENTS
100
AcDbLine
 62
7
  6
BYLAYER
 10
32.0238418591
 20
52.8342217213
 11
49.2209607321
 21
62.7629236655
  0
LINE
  5
290
100
AcDbEntity
  8
00_COMPONENTS
100
AcDbLine
 62
7
  6
BYLAYER
 10
15.3281628965
 20
69.0112523902
 11
15.785360993
 21
68.7472813989
  0
LINE
  5
291
100
AcDbEntity
  8
00_COMPONENTS
100
AcDbLine
 62
7
  6
BYLAYER
 10
12.6902620834
 20
71.6731142886
 11
16.2827218519
 21
69.5989739252
  0
LINE
  5
292
100
AcDbEntity
  8
00_COMPONENTS
100
AcDbLine
 62
7
  6
BYLAYER
 10
16.5776688535
 20
70.0006158228
 11
16.5306353395
 21
70.0277700205
  0
LINE
  5
293
100
AcDbEntity
  8
00_COMPONENTS
100
AcDbLine
 62
7
  6
BYLAYER
 10
40.9612670298
 20
40.2940556172
 11
40.9612670298
 21
38.2685308543
  0
LINE
  5
294
100
AcDbEntity
  8
00_COMPONENTS
100
AcDbLine
 62
7
  6
BYLAYER
 10
57.2313352835
 20
64.6916435707
 11
56.0279859734
 21
63.9968936697
  0
LINE
  5
295
100
AcDbEntity
  8
00_COMPONENTS
100
AcDbLine
 62
7
  6
BYLAYER
 10
17.5027545882
 20
73.0448626805
 11
12.7347118983
 21
75.7975893116
  0
LINE
  5
296
100
AcDbEntity
  8
00_COMPONENTS
100
AcDbLine
 62
7
  6
BYLAYER
 10
17.0005333831
 20
74.8891470822
 11
17.0474510149
 21
74.8620597876
  0
LINE
  5
297
100
AcDbEntity
  8
00_COMPONENTS
100
AcDbLine
 62
7
  6
BYLAYER
 10
23.9955067954
 20
71.0224883262
 11
19.3167738771
 21
73.7236949266
  0
LINE
  5
298
100
AcDbEntity
  8
00_COMPONENTS
100
AcDbLine
 62
7
  6
BYLAYER
 10
17.5027545882
 20
74.7709957582
 11
19.29881329
 21
73.7340642418
  0
LINE
  5
299
100
AcDbEntity
  8
00_COMPONENTS
100
AcDbLine
 62
7
  6
BYLAYER
 10
17.2458786577
 20
75.3194142947
 11
13.6554580649
 21
77.3923773058
  0
LINE
  5
29A
100
AcDbEntity
  8
00_COMPONENTS
100
AcDbLine
 62
7
  6
BYLAYER
 10
47.8559088598
 20
90.200673837
 11
47.8559088598
 21
90.22141264
  0
LINE
  5
29B
100
AcDbEntity
  8
00_COMPONENTS
100
AcDbLine
 62
7
  6
BYLAYER
 10
48.1944178429
 20
30.9169942009
 11
48.1944178429
 21
26.4569732071
  0
LINE
  5
29C
100
AcDbEntity
  8
00_COMPONENTS
100
AcDbLine
 62
7
  6
BYLAYER
 10
49.2209607321
 20
62.7629236655
 11
49.2209607321
 21
82.8799102188
  0
LINE
  5
29D
100
AcDbEntity
  8
00_COMPONENTS
100
AcDbLine
 62
7
  6
BYLAYER
 10
13.7682089807
 20
64.1144548857
 11
11.8490880132
 21
64.0817809503
  0
LINE
  5
29E
100
AcDbEntity
  8
00_COMPONENTS
100
AcDbLine
 62
7
  6
BYLAYER
 10
18.0840514226
 20
77.8321030926
 11
18.5412495191
 21
77.5681321014
  0
LINE
  5
29F
100
AcDbEntity
  8
00_COMPONENTS
100
AcDbLine
 62
7
  6
BYLAYER
 10
15.4461506095
 20
80.4939649911
 11
19.038610378
 21
78.4198246277
  0
LINE
  5
2A0
100
AcDbEntity
  8
00_COMPONENTS
100
AcDbLine
 62
7
  6
BYLAYER
 10
19.3335573796
 20
78.8214665252
 11
19.2865238655
 21
78.8486207229
  0
LINE
  5
2A1
100
AcDbEntity
  8
00_COMPONENTS
100
AcDbLine
 62
7
  6
BYLAYER
 10
50.5027353752
 20
33.2348265593
 11
50.5027353752
 21
31.9904768756
  0
LINE
  5
2A2
100
AcDbEntity
  8
00_COMPONENTS
100
AcDbLine
 62
7
  6
BYLAYER
 10
51.3582333485
 20
71.3799660878
 11
51.3582333485
 21
81.3072627596
  0
LINE
  5
2A3
100
AcDbEntity
  8
00_COMPONENTS
100
AcDbLine
 62
7
  6
BYLAYER
 10
51.3582333485
 20
83.4627837416
 11
51.3582333485
 21
83.9550562725
  0
LINE
  5
2A4
100
AcDbEntity
  8
00_COMPONENTS
100
AcDbLine
 62
7
  6
BYLAYER
 10
51.8123984792
 20
32.7466067077
 11
51.8123984792
 21
32.2281187134
  0
LINE
  5
2A5
100
AcDbEntity
  8
00_COMPONENTS
100
AcDbLine
 62
7
  6
BYLAYER
 10
51.97381517
 20
44.626590535
 11
51.97381517
 21
40.5755410092
  0
LINE
  5
2A6
100
AcDbEntity
  8
00_COMPONENTS
100
AcDbLine
 62
7
  6
BYLAYER
 10
24.5931323004
 20
78.8646028035
 11
21.1087784188
 21
80.8762499455
  0
LINE
  5
2A7
100
AcDbEntity
  8
00_COMPONENTS
100
AcDbLine
 62
7
  6
BYLAYER
 10
53.890693915
 20
82.8799214434
 11
53.890693915
 21
81.8429633737
  0
LINE
  5
2A8
100
AcDbEntity
  8
00_COMPONENTS
100
AcDbLine
 62
7
  6
BYLAYER
 10
53.890693915
 20
67.4499853655
 11
53.890693915
 21
66.4130272957
  0
LINE
  5
2A9
100
AcDbEntity
  8
00_COMPONENTS
100
AcDbLine
 62
7
  6
BYLAYER
 10
56.0279859734
 20
83.0769221532
 11
56.0279859734
 21
68.683944145
  0
LINE
  5
2AA
100
AcDbEntity
  8
00_COMPONENTS
100
AcDbLine
 62
7
  6
BYLAYER
 10
56.0279859734
 20
67.6469860752
 11
56.0279859734
 21
63.9968936697
  0
LINE
  5
2AB
100
AcDbEntity
  8
00_COMPONENTS
100
AcDbLine
 62
7
  6
BYLAYER
 10
56.1527343112
 20
34.7339978163
 11
56.1527343112
 21
35.2524858106
  0
LINE
  5
2AC
100
AcDbEntity
  8
00_COMPONENTS
100
AcDbLine
 62
7
  6
BYLAYER
 10
71.2784854711
 20
57.7976053633
 11
40.9612670298
 21
40.2940556172
  0
LINE
  5
2AD
100
AcDbEntity
  8
00_COMPONENTS
100
AcDbLine
 62
7
  6
BYLAYER
 10
40.9612670298
 20
38.2685308543
 11
51.97381517
 21
44.626590535
  0
LINE
  5
2AE
100
AcDbEntity
  8
00_COMPONENTS
100
AcDbLine
 62
7
  6
BYLAYER
 10
60.2659373309
 20
49.4140209197
 11
71.2784854711
 21
55.7720806004
  0
LINE
  5
2AF
100
AcDbEntity
  8
00_COMPONENTS
100
AcDbLine
 62
7
  6
BYLAYER
 10
56.0279859734
 20
63.9968936697
 11
52.8766176026
 21
65.8162958865
  0
LINE
  5
2B0
100
AcDbEntity
  8
00_COMPONENTS
100
AcDbLine
 62
7
  6
BYLAYER
 10
56.9611408106
 20
30.3596219637
 11
56.9611408106
 21
31.2308026537
  0
LINE
  5
2B1
100
AcDbEntity
  8
00_COMPONENTS
100
AcDbLine
 62
7
  6
BYLAYER
 10
57.2313352835
 20
64.6916435707
 11
57.2313352835
 21
84.808630124
  0
LINE
  5
2B2
100
AcDbEntity
  8
00_COMPONENTS
100
AcDbLine
 62
7
  6
BYLAYER
 10
58.3604267662
 20
36.5270900354
 11
58.3604267662
 21
37.7714397192
  0
LINE
  5
2B3
100
AcDbEntity
  8
00_COMPONENTS
100
AcDbLine
 62
7
  6
BYLAYER
 10
58.4236709212
 20
36.6058877227
 11
58.4236709212
 21
32.3627999725
  0
LINE
  5
2B4
100
AcDbEntity
  8
00_COMPONENTS
100
AcDbLine
 62
7
  6
BYLAYER
 10
24.0313281425
 20
84.8448430752
 11
21.588688308
 21
86.2550699376
  0
LINE
  5
2B5
100
AcDbEntity
  8
00_COMPONENTS
100
AcDbLine
 62
7
  6
BYLAYER
 10
57.2313352835
 20
65.907547834
 11
71.2784854711
 21
57.7976053633
  0
LINE
  5
2B6
100
AcDbEntity
  8
00_COMPONENTS
100
AcDbLine
 62
7
  6
BYLAYER
 10
33.4696116108
 20
80.0905149646
 11
31.9070405402
 21
80.9926453839
  0
LINE
  5
2B7
100
AcDbEntity
  8
00_COMPONENTS
100
AcDbLine
 62
7
  6
BYLAYER
 10
31.9160206094
 20
81.0185688014
 11
32.490759394
 21
80.6867507161
  0
LINE
  5
2B8
100
AcDbEntity
  8
00_COMPONENTS
100
AcDbLine
 62
7
  6
BYLAYER
 10
24.0313281425
 20
86.3173235342
 11
21.588688308
 21
87.7275503966
  0
LINE
  5
2B9
100
AcDbEntity
  8
00_COMPONENTS
100
AcDbLine
 62
7
  6
BYLAYER
 10
51.3582333485
 20
71.3799660878
 11
56.0279859734
 21
68.683944145
  0
LINE
  5
2BA
100
AcDbEntity
  8
00_COMPONENTS
100
AcDbLine
 62
7
  6
BYLAYER
 10
23.3847395322
 20
87.7275547138
 11
24.9293500158
 21
86.8357936096
  0
LINE
  5
2BB
100
AcDbEntity
  8
00_COMPONENTS
100
AcDbLine
 62
7
  6
BYLAYER
 10
60.2659373309
 20
45.3629713938
 11
60.2659373309
 21
49.4140209197
  0
LINE
  5
2BC
100
AcDbEntity
  8
00_COMPONENTS
100
AcDbLine
 62
7
  6
BYLAYER
 10
60.8048908066
 20
42.0357698291
 11
60.8048908066
 21
43.2801195128
  0
LINE
  5
2BD
100
AcDbEntity
  8
00_COMPONENTS
100
AcDbLine
 62
7
  6
BYLAYER
 10
54.3382197813
 20
39.0646794715
 11
55.3154351292
 21
40.5774847815
  0
LWPOLYLINE
  5
2BE
100
AcDbEntity
  8
00_COMPONENTS
100
AcDbPolyline
 62
7
  6
BYLAYER
 90
3
 70
0
 10
51.5578871477
 20
37.1622235656
 10
54.2124143656
 20
39.2393891175
 10
54.8502325507
 20
40.2921102402
  0
LINE
  5
2BF
100
AcDbEntity
  8
00_COMPONENTS
100
AcDbLine
 62
7
  6
BYLAYER
 10
51.7374930179
 20
37.0585304139
 11
54.3382197813
 21
39.0646794715
  0
LWPOLYLINE
  5
2C0
100
AcDbEntity
  8
00_COMPONENTS
100
AcDbPolyline
 62
7
  6
BYLAYER
 90
3
 70
0
 10
55.3116498346
 20
41.4760246321
 10
57.1323107968
 20
42.6815655535
 10
59.0716378149
 20
44.6734463627
  0
LWPOLYLINE
  5
2C1
100
AcDbEntity
  8
00_COMPONENTS
100
AcDbPolyline
 62
7
  6
BYLAYER
 90
4
 70
0
 10
54.992849415
 20
40.3638823891
 10
56.7732855613
 20
41.5428106667
 10
59.4228874336
 20
44.2642459052
 10
59.7643053959
 20
45.0733557899
  0
LINE
  5
2C2
100
AcDbEntity
  8
00_COMPONENTS
100
AcDbLine
 62
7
  6
BYLAYER
 10
60.2659373309
 20
45.3629713938
 11
51.97381517
 21
40.5755410092
  0
LINE
  5
2C3
100
AcDbEntity
  8
00_COMPONENTS
100
AcDbLine
 62
7
  6
BYLAYER
 10
27.7132178229
 20
86.9705703844
 11
26.1686073393
 21
87.8623314885
  0
LINE
  5
2C4
100
AcDbEntity
  8
00_COMPONENTS
100
AcDbLine
 62
7
  6
BYLAYER
 10
35.2387015404
 20
82.9369080804
 11
35.813440325
 21
82.6050899951
  0
LINE
  5
2C5
100
AcDbEntity
  8
00_COMPONENTS
100
AcDbLine
 62
7
  6
BYLAYER
 10
35.2656421966
 20
82.9317230213
 11
35.2836027837
 21
82.9213537061
  0
LINE
  5
2C6
100
AcDbEntity
  8
00_COMPONENTS
100
AcDbLine
 62
7
  6
BYLAYER
 10
35.2836027837
 20
82.9420928675
 11
36.8461738543
 21
82.0399624482
  0
LINE
  5
2C7
100
AcDbEntity
  8
00_COMPONENTS
100
AcDbLine
 62
7
  6
BYLAYER
 10
27.7132178229
 20
88.4430508434
 11
26.1686073393
 21
89.3348119476
  0
LINE
  5
2C8
100
AcDbEntity
  8
00_COMPONENTS
100
AcDbLine
 62
7
  6
BYLAYER
 10
50.5027353752
 20
33.2348265593
 11
58.3604267662
 21
37.7714397192
  0
LINE
  5
2C9
100
AcDbEntity
  8
00_COMPONENTS
100
AcDbLine
 62
7
  6
BYLAYER
 10
26.1685998616
 20
90.3717477812
 11
28.6112396962
 21
88.9615209188
  0
LINE
  5
2CA
100
AcDbEntity
  8
00_COMPONENTS
100
AcDbLine
 62
7
  6
BYLAYER
 10
48.640410119
 20
31.1744864246
 11
48.1944178429
 21
30.9169942009
  0
LINE
  5
2CB
100
AcDbEntity
  8
00_COMPONENTS
100
AcDbLine
 62
7
  6
BYLAYER
 10
58.3604267662
 20
36.5270900354
 11
50.5027353752
 21
31.9904768756
  0
LINE
  5
2CC
100
AcDbEntity
  8
00_COMPONENTS
100
AcDbLine
 62
7
  6
BYLAYER
 10
56.1527343112
 20
34.7339978163
 11
51.8123984792
 21
32.2281187134
  0
LINE
  5
2CD
100
AcDbEntity
  8
00_COMPONENTS
100
AcDbLine
 62
7
  6
BYLAYER
 10
38.9694724456
 20
87.1647371112
 11
35.485118564
 21
89.1763842532
  0
LINE
  5
2CE
100
AcDbEntity
  8
00_COMPONENTS
100
AcDbLine
 62
7
  6
BYLAYER
 10
71.2784854711
 20
57.7976053633
 11
71.2784854711
 21
55.7720806004
  0
LINE
  5
2CF
100
AcDbEntity
  8
00_COMPONENTS
100
AcDbLine
 62
7
  6
BYLAYER
 10
27.1602684654
 20
90.716132221
 11
35.485118564
 21
89.1763842532
  0
LINE
  5
2D0
100
AcDbEntity
  8
00_COMPONENTS
100
AcDbLine
 62
7
  6
BYLAYER
 10
46.0598501579
 20
91.2583441565
 11
47.8559088598
 21
90.22141264
  0
LINE
  5
2D1
100
AcDbEntity
  8
00_COMPONENTS
100
AcDbLine
 62
7
  6
BYLAYER
 10
47.8738694468
 20
90.2110433248
 11
57.2313352835
 21
84.808630124
  0
ARC
  5
2D2
100
AcDbEntity
  8
00_COMPONENTS
100
AcDbCircle
 62
7
  6
BYLAYER
 10
41.6314213996
 20
58.102997371
 40
27.8257187627
100
AcDbArc
 50
282.3095720404
 51
284.5893136853
  0
ARC
  5
2D3
100
AcDbEntity
  8
00_COMPONENTS
100
AcDbCircle
 62
7
  6
BYLAYER
 10
40.238334094
 20
57.8833541937
 40
27.5999273567
100
AcDbArc
 50
255.4016626809
 51
257.7000620857
  0
ARC
  5
2D4
100
AcDbEntity
  8
00_COMPONENTS
100
AcDbCircle
 62
7
  6
BYLAYER
 10
44.653722898
 20
37.0292478331
 40
15.2434020355
100
AcDbArc
 50
299.2760498524
 51
299.997710552
  0
ARC
  5
2D5
100
AcDbEntity
  8
00_COMPONENTS
100
AcDbCircle
 62
7
  6
BYLAYER
 10
37.2519476003
 20
36.9997313651
 40
15.2095344536
100
AcDbArc
 50
240.0000405853
 51
240.7553030647
  0
ARC
  5
2D6
100
AcDbEntity
  8
00_COMPONENTS
100
AcDbCircle
 62
7
  6
BYLAYER
 10
44.5239598506
 20
49.5530986579
 40
14.4273800933
100
AcDbArc
 50
299.5421933241
 51
299.9992806026
  0
ARC
  5
2D7
100
AcDbEntity
  8
00_COMPONENTS
100
AcDbCircle
 62
7
  6
BYLAYER
 10
50.0196127732
 20
44.4500406354
 40
11.5040133986
100
AcDbArc
 50
316.4717713471
 51
317.8610630686
  0
ARC
  5
2D8
100
AcDbEntity
  8
00_COMPONENTS
100
AcDbCircle
 62
7
  6
BYLAYER
 10
54.1269366138
 20
43.2825751826
 40
6.6779414922
100
AcDbArc
 50
349.6979172361
 51
359.9789307971
  0
ARC
  5
2D9
100
AcDbEntity
  8
00_COMPONENTS
100
AcDbCircle
 62
7
  6
BYLAYER
 10
17.8563687835
 20
69.2623077944
 40
1.5308499548
100
AcDbArc
 50
147.5657892574
 51
149.9983901967
  0
ARC
  5
2DA
100
AcDbEntity
  8
00_COMPONENTS
100
AcDbCircle
 62
7
  6
BYLAYER
 10
20.6122573094
 20
78.083158497
 40
1.5308499546
100
AcDbArc
 50
147.5657892582
 51
149.9983901968
  0
ARC
  5
2DB
100
AcDbEntity
  8
00_COMPONENTS
100
AcDbCircle
 62
7
  6
BYLAYER
 10
15.5704207277
 20
65.3029173761
 40
1.5308450864
100
AcDbArc
 50
150.0018816563
 51
152.4284429602
  0
ARC
  5
2DC
100
AcDbEntity
  8
00_COMPONENTS
100
AcDbCircle
 62
7
  6
BYLAYER
 10
18.3263092534
 20
74.1237680787
 40
1.530845086
100
AcDbArc
 50
150.0018816563
 51
152.4284429593
  0
ARC
  5
2DD
100
AcDbEntity
  8
00_COMPONENTS
100
AcDbCircle
 62
7
  6
BYLAYER
 10
51.9068547485
 20
82.6786434015
 40
1.2380337873
100
AcDbArc
 50
57.0237754723
 51
60.0101751732
  0
ARC
  5
2DE
100
AcDbEntity
  8
00_COMPONENTS
100
AcDbCircle
 62
7
  6
BYLAYER
 10
51.1956997329
 20
82.6931285778
 40
1.2209409725
100
AcDbArc
 50
120.1673543733
 51
123.0220386139
  0
SPLINE
  5
2DF
100
AcDbEntity
  8
00_COMPONENTS
100
AcDbSpline
 62
7
  6
BYLAYER
 70
0
 71
3
 72
9
 73
5
 74
0
 42
0.0000001
 43
0.0000001
 44
0.0000000001
 40
0.0
 40
0.0
 40
0.0
 40
0.0
 40
0.5084751053
 40
1.0
 40
1.0
 40
1.0
 40
1.0
 10
48.640410119
 20
31.1744864246
 30
0.0
 10
49.1889346039
 20
31.3174019825
 30
0.0
 10
50.2591913031
 20
31.6324276005
 30
0.0
 10
51.3058416862
 20
32.0192176571
 30
0.0
 10
51.8123984792
 20
32.2281187134
 30
0.0
  0
SPLINE
  5
2E0
100
AcDbEntity
  8
00_COMPONENTS
100
AcDbSpline
 62
7
  6
BYLAYER
 70
0
 71
3
 72
9
 73
5
 74
0
 42
0.0000001
 43
0.0000001
 44
0.0000000001
 40
0.0
 40
0.0
 40
0.0
 40
0.0
 40
0.2578804251
 40
1.0
 40
1.0
 40
1.0
 40
1.0
 10
56.1527343112
 20
34.7339978163
 30
0.0
 10
56.2813042555
 20
34.8379182468
 30
0.0
 10
56.772388038
 20
35.2499868293
 30
0.0
 10
57.2325564959
 20
35.6994994628
 30
0.0
 10
57.5496835681
 20
36.054129224
 30
0.0
  0
SPLINE
  5
2E1
100
AcDbEntity
  8
00_COMPONENTS
100
AcDbSpline
 62
7
  6
BYLAYER
 70
0
 71
3
 72
15
 73
11
 74
0
 42
0.0000001
 43
0.0000001
 44
0.0000000001
 40
0.0
 40
0.0
 40
0.0
 40
0.0
 40
0.1366058121
 40
0.2704719432
 40
0.4011452954
 40
0.5282658757
 40
0.6516265974
 40
0.7712170419
 40
0.8872301418
 40
1.0
 40
1.0
 40
1.0
 40
1.0
 10
23.4986709215
 20
32.3627160231
 30
0.0
 10
23.9146858424
 20
32.0164001348
 30
0.0
 10
24.7492191007
 20
31.3435696407
 30
0.0
 10
26.0231825324
 20
30.3922921795
 30
0.0
 10
27.3059012155
 20
29.5177311697
 30
0.0
 10
28.5939307916
 20
28.7278075094
 30
0.0
 10
29.882961908
 20
28.0272368914
 30
0.0
 10
31.1685293403
 20
27.4168584816
 30
0.0
 10
32.4465411705
 20
26.893398879
 30
0.0
 10
33.3026944163
 20
26.5939808719
 30
0.0
 10
33.7280091771
 20
26.4569384342
 30
0.0
  0
SPLINE
  5
2E2
100
AcDbEntity
  8
00_COMPONENTS
100
AcDbSpline
 62
7
  6
BYLAYER
 70
0
 71
3
 72
13
 73
9
 74
0
 42
0.0000001
 43
0.0000001
 44
0.0000000001
 40
0.0
 40
0.0
 40
0.0
 40
0.0
 40
0.2494608786
 40
0.3746573513
 40
0.4999998888
 40
0.625342441
 40
0.7505389573
 40
1.0
 40
1.0
 40
1.0
 40
1.0
 10
33.7280091771
 20
26.4569384342
 30
0.0
 10
34.9184066059
 20
26.2421936119
 30
0.0
 10
36.7196838042
 20
25.9857260468
 30
0.0
 10
39.1383932494
 20
25.8087142598
 30
0.0
 10
40.9612136178
 20
25.7637070018
 30
0.0
 10
42.7840339803
 20
25.8087230331
 30
0.0
 10
45.2027436536
 20
25.9857464783
 30
0.0
 10
47.0040206308
 20
26.2422227012
 30
0.0
 10
48.1944178429
 20
26.4569732071
 30
0.0
  0
SPLINE
  5
2E3
100
AcDbEntity
  8
00_COMPONENTS
100
AcDbSpline
 62
7
  6
BYLAYER
 70
0
 71
3
 72
11
 73
7
 74
0
 42
0.0000001
 43
0.0000001
 44
0.0000000001
 40
0.0
 40
0.0
 40
0.0
 40
0.0
 40
0.2390498922
 40
0.4849780948
 40
0.738497266
 40
1.0
 40
1.0
 40
1.0
 40
1.0
 10
48.1944178429
 20
26.4569732071
 30
0.0
 10
48.6197223012
 20
26.594015511
 30
0.0
 10
49.475893351
 20
26.8933366603
 30
0.0
 10
50.7538721807
 20
27.4168965507
 30
0.0
 10
52.039385863
 20
28.027308004
 30
0.0
 10
52.885723822
 20
28.4872344889
 30
0.0
 10
53.309044382
 20
28.7316372692
 30
0.0
  0
SPLINE
  5
2E4
100
AcDbEntity
  8
00_COMPONENTS
100
AcDbSpline
 62
7
  6
BYLAYER
 70
0
 71
3
 72
10
 73
6
 74
0
 42
0.0000001
 43
0.0000001
 44
0.0000000001
 40
0.0
 40
0.0
 40
0.0
 40
0.0
 40
0.4879261527
 40
0.741370173
 40
1.0
 40
1.0
 40
1.0
 40
1.0
 10
53.309044382
 20
28.7316372692
 30
0.0
 10
54.1934323104
 20
29.2422358299
 30
0.0
 10
55.4960539736
 20
30.0910788955
 30
0.0
 10
57.1730464456
 20
31.3436537647
 30
0.0
 10
58.007658474
 20
32.0164812598
 30
0.0
 10
58.4236709212
 20
32.3627999725
 30
0.0
  0
SPLINE
  5
2E5
100
AcDbEntity
  8
00_COMPONENTS
100
AcDbSpline
 62
7
  6
BYLAYER
 70
0
 71
3
 72
21
 73
17
 74
0
 42
0.0000001
 43
0.0000001
 44
0.0000000001
 40
0.0
 40
0.0
 40
0.0
 40
0.0
 40
0.0558440954
 40
0.1141908019
 40
0.1748005427
 40
0.2373774849
 40
0.3015795559
 40
0.3670302059
 40
0.4999979447
 40
0.6329661331
 40
0.6984167817
 40
0.762619917
 40
0.8251975217
 40
0.8858048338
 40
0.9441625342
 40
1.0
 40
1.0
 40
1.0
 40
1.0
 10
29.8268048739
 20
23.7241860848
 30
0.0
 10
30.1998396108
 20
23.5088083745
 30
0.0
 10
30.9820339985
 20
23.1013700095
 30
0.0
 10
32.2233468353
 20
22.5720786937
 30
0.0
 10
33.548191377
 20
22.1153641686
 30
0.0
 10
34.9438421621
 20
21.7356529974
 30
0.0
 10
36.3970625997
 20
21.4364767525
 30
0.0
 10
38.4030304811
 20
21.1473645003
 30
0.0
 10
40.9609879413
 20
21.0038272581
 30
0.0
 10
43.5189464289
 20
21.1473367099
 30
0.0
 10
45.5249304077
 20
21.4364193404
 30
0.0
 10
46.9781663785
 20
21.7355882823
 30
0.0
 10
48.3738146357
 20
22.1152836624
 30
0.0
 10
49.698745515
 20
22.5719699768
 30
0.0
 10
50.9400558575
 20
23.1013055854
 30
0.0
 10
51.722296934
 20
23.5087247531
 30
0.0
 10
52.0952905416
 20
23.7240714274
 30
0.0
  0
SPLINE
  5
2E6
100
AcDbEntity
  8
00_COMPONENTS
100
AcDbSpline
 62
7
  6
BYLAYER
 70
0
 71
3
 72
15
 73
11
 74
0
 42
0.0000001
 43
0.0000001
 44
0.0000000001
 40
0.0
 40
0.0
 40
0.0
 40
0.0
 40
0.1080125962
 40
0.2180617431
 40
0.3319999525
 40
0.4513576929
 40
0.5772772922
 40
0.7105009212
 40
0.8513949675
 40
1.0
 40
1.0
 40
1.0
 40
1.0
 10
24.9611579175
 20
30.3596219637
 30
0.0
 10
24.9611579889
 20
30.056730024
 30
0.0
 10
25.0137490669
 20
29.4440056154
 30
0.0
 10
25.2485161474
 20
28.5389854887
 30
0.0
 10
25.6360682363
 20
27.6534736603
 30
0.0
 10
26.1714383574
 20
26.7964143753
 30
0.0
 10
26.8486322484
 20
25.9755691422
 30
0.0
 10
27.6607047765
 20
25.1982960674
 30
0.0
 10
28.599544405
 20
24.4715197977
 30
0.0
 10
29.2863001207
 20
24.036248435
 30
0.0
 10
29.6471897037
 20
23.8278827617
 30
0.0
  0
SPLINE
  5
2E7
100
AcDbEntity
  8
00_COMPONENTS
100
AcDbSpline
 62
7
  6
BYLAYER
 70
0
 71
3
 72
23
 73
19
 74
0
 42
0.0000001
 43
0.0000001
 44
0.0000000001
 40
0.0
 40
0.0
 40
0.0
 40
0.0
 40
0.0457789746
 40
0.0949530589
 40
0.1478573523
 40
0.2045442245
 40
0.2648342809
 40
0.3283643297
 40
0.3946287276
 40
0.4630147026
 40
0.5328330894
 40
0.6033459373
 40
0.6737925678
 40
0.7434138752
 40
0.8114795052
 40
0.8773097368
 40
0.9403116386
 40
1.0
 40
1.0
 40
1.0
 40
1.0
 10
26.432434067
 20
40.6234895561
 30
0.0
 10
26.6343712233
 20
40.2553582438
 30
0.0
 10
27.1277841052
 20
39.5312424187
 30
0.0
 10
28.0664170901
 20
38.5458566932
 30
0.0
 10
29.2113960704
 20
37.6393530868
 30
0.0
 10
30.5439081217
 20
36.8254272372
 30
0.0
 10
32.0428967079
 20
36.116053845
 30
0.0
 10
33.6845814007
 20
35.5221744524
 30
0.0
 10
35.4428589602
 20
35.0530662692
 30
0.0
 10
37.2896503426
 20
34.7161607041
 30
0.0
 10
39.1953779058
 20
34.5168313262
 30
0.0
 10
41.1294641382
 20
34.4582687526
 30
0.0
 10
43.0608434136
 20
34.5414185104
 30
0.0
 10
44.9585150293
 20
34.764933944
 30
0.0
 10
46.7920002636
 20
35.1252539609
 30
0.0
 10
48.5320556264
 20
35.6166351331
 30
0.0
 10
50.1506443065
 20
36.2312224939
 30
0.0
 10
51.1613071662
 20
36.7314458175
 30
0.0
 10
51.6375868878
 20
37.0013813756
 30
0.0
  0
SPLINE
  5
2E8
100
AcDbEntity
  8
00_COMPONENTS
100
AcDbSpline
 62
7
  6
BYLAYER
 70
0
 71
3
 72
14
 73
10
 74
0
 42
0.0000001
 43
0.0000001
 44
0.0000000001
 40
0.0
 40
0.0
 40
0.0
 40
0.0
 40
0.117031712
 40
0.2349045017
 40
0.3544260925
 40
0.4763516712
 40
0.6013555156
 40
0.730025972
 40
1.0
 40
1.0
 40
1.0
 40
1.0
 10
21.1174036787
 20
42.0357698209
 30
0.0
 10
21.1173979586
 20
41.8059461889
 30
0.0
 10
21.1415243099
 20
41.3442889139
 30
0.0
 10
21.2498498943
 20
40.6555810394
 30
0.0
 10
21.4297730273
 20
39.9720480669
 30
0.0
 10
21.6806706661
 20
39.2964160797
 30
0.0
 10
22.0013904007
 20
38.6310086908
 30
0.0
 10
22.5287149581
 20
37.7470208037
 30
0.0
 10
23.014283222
 20
37.1275134989
 30
0.0
 10
23.3698545785
 20
36.7342621769
 30
0.0
  0
SPLINE
  5
2E9
100
AcDbEntity
  8
00_COMPONENTS
100
AcDbSpline
 62
7
  6
BYLAYER
 70
0
 71
3
 72
19
 73
15
 74
0
 42
0.0000001
 43
0.0000001
 44
0.0000000001
 40
0.0
 40
0.0
 40
0.0
 40
0.0
 40
0.0529696999
 40
0.1082789283
 40
0.1658043831
 40
0.225373149
 40
0.286772495
 40
0.3497567086
 40
0.4793193593
 40
0.6116976701
 40
0.7443051849
 40
0.8745380242
 40
0.9380254798
 40
1.0
 40
1.0
 40
1.0
 40
1.0
 10
25.7155367977
 20
34.7022674368
 30
0.0
 10
26.0884578678
 20
34.4438429242
 30
0.0
 10
26.8731660568
 20
33.9473365551
 30
0.0
 10
28.1275912264
 20
33.2790709084
 30
0.0
 10
29.4765545589
 20
32.6755382388
 30
0.0
 10
30.9100204965
 20
32.1411409473
 30
0.0
 10
32.4175399791
 20
31.6797098061
 30
0.0
 10
34.5310955075
 20
31.1616314158
 30
0.0
 10
37.2846802401
 20
30.7204746306
 30
0.0
 10
40.6639155292
 20
30.5243914705
 30
0.0
 10
44.0517341066
 20
30.66226598
 30
0.0
 10
46.8246489165
 20
31.0554355854
 30
0.0
 10
48.962245652
 20
31.5363034068
 30
0.0
 10
49.9966537835
 20
31.8302463635
 30
0.0
 10
50.5027353752
 20
31.9904768756
 30
0.0
  0
SPLINE
  5
2EA
100
AcDbEntity
  8
00_COMPONENTS
100
AcDbSpline
 62
7
  6
BYLAYER
 70
0
 71
3
 72
13
 73
9
 74
0
 42
0.0000001
 43
0.0000001
 44
0.0000000001
 40
0.0
 40
0.0
 40
0.0
 40
0.0
 40
0.2700804831
 40
0.5235650152
 40
0.6455098704
 40
0.7650554825
 40
0.8829487231
 40
1.0
 40
1.0
 40
1.0
 40
1.0
 10
58.5500695102
 20
36.7316449385
 30
0.0
 10
58.9060001986
 20
37.1251026093
 30
0.0
 10
59.5438354188
 20
37.9378756955
 30
0.0
 10
60.1531578553
 20
39.0581927598
 30
0.0
 10
60.492130264
 20
39.9709946273
 30
0.0
 10
60.6723240415
 20
40.6548625543
 30
0.0
 10
60.7807279356
 20
41.3439310212
 30
0.0
 10
60.8048722115
 20
41.8058275992
 30
0.0
 10
60.8048779346
 20
42.0357698373
 30
0.0
  0
SPLINE
  5
2EB
100
AcDbEntity
  8
00_COMPONENTS
100
AcDbSpline
 62
7
  6
BYLAYER
 70
0
 71
3
 72
9
 73
5
 74
0
 42
0.0000001
 43
0.0000001
 44
0.0000000001
 40
0.0
 40
0.0
 40
0.0
 40
0.0
 40
0.5043972582
 40
1.0
 40
1.0
 40
1.0
 40
1.0
 10
60.4465550938
 20
45.4474783644
 30
0.0
 10
60.5638606978
 20
45.0959760416
 30
0.0
 10
60.743679823
 20
44.3801084863
 30
0.0
 10
60.8048865375
 20
43.6442182531
 30
0.0
 10
60.8048776544
 20
43.2801195235
 30
0.0
  0
SPLINE
  5
2EC
100
AcDbEntity
  8
00_COMPONENTS
100
AcDbSpline
 62
7
  6
BYLAYER
 70
0
 71
3
 72
15
 73
11
 74
0
 42
0.0000001
 43
0.0000001
 44
0.0000000001
 40
0.0
 40
0.0
 40
0.0
 40
0.0
 40
0.1485855515
 40
0.2895083633
 40
0.4227232286
 40
0.5486425556
 40
0.6680017289
 40
0.7819390888
 40
0.8919878313
 40
1.0
 40
1.0
 40
1.0
 40
1.0
 10
52.2748964118
 20
23.8277698897
 30
0.0
 10
52.6357514579
 20
24.0361084041
 30
0.0
 10
53.3225357647
 20
24.4714201518
 30
0.0
 10
54.2614568062
 20
25.1981472449
 30
0.0
 10
55.0735731459
 20
25.9755005305
 30
0.0
 10
55.7507832002
 20
26.79633888
 30
0.0
 10
56.2861880948
 20
27.653410571
 30
0.0
 10
56.6737507966
 20
28.5389468248
 30
0.0
 10
56.9085300617
 20
29.4439844511
 30
0.0
 10
56.9611237673
 20
30.056723125
 30
0.0
 10
56.9611236958
 20
30.3596219637
 30
0.0
  0
SPLINE
  5
2ED
100
AcDbEntity
  8
00_COMPONENTS
100
AcDbSpline
 62
7
  6
BYLAYER
 70
0
 71
3
 72
9
 73
5
 74
0
 42
0.0000001
 43
0.0000001
 44
0.0000000001
 40
0.0
 40
0.0
 40
0.0
 40
0.0
 40
0.4915250254
 40
1.0
 40
1.0
 40
1.0
 40
1.0
 10
30.110009631
 20
32.2280665473
 30
0.0
 10
30.6165693087
 20
32.0191679791
 30
0.0
 10
31.6632249821
 20
31.6323830393
 30
0.0
 10
32.7334864948
 20
31.3173624666
 30
0.0
 10
33.2820131872
 20
31.1744495075
 30
0.0
  0
SPLINE
  5
2EE
100
AcDbEntity
  8
00_COMPONENTS
100
AcDbSpline
 62
7
  6
BYLAYER
 70
0
 71
3
 72
11
 73
7
 74
0
 42
0.0000001
 43
0.0000001
 44
0.0000000001
 40
0.0
 40
0.0
 40
0.0
 40
0.0
 40
0.2472827907
 40
0.5000002494
 40
0.7527175812
 40
1.0
 40
1.0
 40
1.0
 40
1.0
 10
34.3587401288
 20
30.916960944
 30
0.0
 10
35.4295808682
 20
30.6832102962
 30
0.0
 10
37.6235793077
 20
30.3350880559
 30
0.0
 10
40.9612181082
 20
30.1624528754
 30
0.0
 10
44.2988544416
 20
30.3351039279
 30
0.0
 10
46.4928489885
 20
30.6832367723
 30
0.0
 10
47.5636868912
 20
30.9169926848
 30
0.0
  0
SPLINE
  5
2EF
100
AcDbEntity
  8
00_COMPONENTS
100
AcDbSpline
 62
7
  6
BYLAYER
 70
0
 71
3
 72
26
 73
22
 74
0
 42
0.0000001
 43
0.0000001
 44
0.0000000001
 40
0.0
 40
0.0
 40
0.0
 40
0.0
 40
0.0694712374
 40
0.1412080853
 40
0.2144611239
 40
0.2884329457
 40
0.3622998428
 40
0.4352415086
 40
0.5064689576
 40
0.5752547085
 40
0.6409637375
 40
0.7030891213
 40
0.7612931536
 40
0.8154558689
 40
0.8657304787
 40
0.8895706023
 40
0.9126495695
 40
0.9350849336
 40
0.9570148426
 40
0.9785964635
 40
1.0
 40
1.0
 40
1.0
 40
1.0
 10
50.5027353752
 20
33.2348265593
 30
0.0
 10
49.7367684852
 20
32.9923137529
 30
0.0
 10
48.1570458785
 20
32.5691348909
 30
0.0
 10
45.7145373259
 20
32.1242440947
 30
0.0
 10
43.1931186968
 20
31.8641523182
 30
0.0
 10
40.6347968096
 20
31.793196253
 30
0.0
 10
38.08185557
 20
31.9125596607
 30
0.0
 10
35.5766033061
 20
32.2202547199
 30
0.0
 10
33.1604852255
 20
32.7112097115
 30
0.0
 10
30.8733868873
 20
33.3773503492
 30
0.0
 10
28.7529186952
 20
34.2078446956
 30
0.0
 10
26.8338306844
 20
35.1893289715
 30
0.0
 10
25.1473834447
 20
36.306543451
 30
0.0
 10
23.7215077152
 20
37.5420583438
 30
0.0
 10
22.7533226622
 20
38.6757223481
 30
0.0
 10
22.1421864796
 20
39.6207773837
 30
0.0
 10
21.7707636947
 20
40.3331181044
 30
0.0
 10
21.4799203389
 20
41.0583099968
 30
0.0
 10
21.2711554503
 20
41.7933968861
 30
0.0
 10
21.1454237585
 20
42.535012563
 30
0.0
 10
21.1173979197
 20
43.0325856541
 30
0.0
 10
21.1174039589
 20
43.2801195021
 30
0.0
  0
SPLINE
  5
2F0
100
AcDbEntity
  8
00_COMPONENTS
100
AcDbSpline
 62
7
  6
BYLAYER
 70
0
 71
3
 72
21
 73
17
 74
0
 42
0.0000001
 43
0.0000001
 44
0.0000000001
 40
0.0
 40
0.0
 40
0.0
 40
0.0
 40
0.0560866817
 40
0.1145943402
 40
0.1752850775
 40
0.2378698419
 40
0.3020169623
 40
0.3673627736
 40
0.500035044
 40
0.6327021138
 40
0.6980412091
 40
0.7621799416
 40
0.8247537358
 40
0.8854278784
 40
0.9439287691
 40
1.0
 40
1.0
 40
1.0
 40
1.0
 10
29.821474266
 20
23.7287854936
 30
0.0
 10
30.1986362034
 20
23.5175912081
 30
0.0
 10
30.9875874562
 20
23.1182230558
 30
0.0
 10
32.2361506423
 20
22.5995118724
 30
0.0
 10
33.5649995471
 20
22.1522899333
 30
0.0
 10
34.9618539574
 20
21.7807452509
 30
0.0
 10
36.4139611222
 20
21.4882190389
 30
0.0
 10
38.4156320663
 20
21.2057937736
 30
0.0
 10
40.9660537461
 20
21.0658220723
 30
0.0
 10
43.5163746067
 20
21.2066973138
 30
0.0
 10
45.5177872206
 20
21.4898349473
 30
0.0
 10
46.9695849462
 20
21.7828832172
 30
0.0
 10
48.3660191027
 20
22.1549275296
 30
0.0
 10
49.6944388239
 20
22.6025992565
 30
0.0
 10
50.9424696384
 20
23.1218159282
 30
0.0
 10
51.7310709105
 20
23.5214958306
 30
0.0
 10
52.1080189884
 20
23.7328281866
 30
0.0
  0
SPLINE
  5
2F1
100
AcDbEntity
  8
00_COMPONENTS
100
AcDbSpline
 62
7
  6
BYLAYER
 70
0
 71
3
 72
11
 73
7
 74
0
 42
0.0000001
 43
0.0000001
 44
0.0000000001
 40
0.0
 40
0.0
 40
0.0
 40
0.0
 40
0.2469659903
 40
0.4999997857
 40
0.7530336904
 40
1.0
 40
1.0
 40
1.0
 40
1.0
 10
46.9206563264
 20
26.227142398
 30
0.0
 10
45.9573291073
 20
26.0039042024
 30
0.0
 10
43.9776512398
 20
25.6717424624
 30
0.0
 10
40.9611947174
 20
25.5071560566
 30
0.0
 10
37.9447362817
 20
25.671730796
 30
0.0
 10
35.9650553916
 20
26.0038847411
 30
0.0
 10
35.0017259638
 20
26.2271190702
 30
0.0
  0
SPLINE
  5
2F2
100
AcDbEntity
  8
00_COMPONENTS
100
AcDbSpline
 62
7
  6
BYLAYER
 70
0
 71
3
 72
11
 73
7
 74
0
 42
0.0000001
 43
0.0000001
 44
0.0000000001
 40
0.0
 40
0.0
 40
0.0
 40
0.0
 40
0.2340231879
 40
0.4766504044
 40
0.7312149301
 40
1.0
 40
1.0
 40
1.0
 40
1.0
 10
60.6972199234
 20
42.0883056136
 30
0.0
 10
60.6280326197
 20
41.7064791629
 30
0.0
 10
60.4200749409
 20
40.9395721726
 30
0.0
 10
59.9185545356
 20
39.8307343752
 30
0.0
 10
59.2298417758
 20
38.7587996953
 30
0.0
 10
58.667364257
 20
38.0945867454
 30
0.0
 10
58.3604267662
 20
37.7714397192
 30
0.0
  0
SPLINE
  5
2F3
100
AcDbEntity
  8
00_COMPONENTS
100
AcDbSpline
 62
7
  6
BYLAYER
 70
0
 71
3
 72
9
 73
5
 74
0
 42
0.0000001
 43
0.0000001
 44
0.0000000001
 40
0.0
 40
0.0
 40
0.0
 40
0.0
 40
0.2532689644
 40
1.0
 40
1.0
 40
1.0
 40
1.0
 10
18.8832022365
 20
78.3867178468
 30
0.0
 10
18.9154580437
 20
78.4011611338
 30
0.0
 10
19.0440361092
 20
78.4554097813
 30
0.0
 10
19.1774166773
 20
78.4983878062
 30
0.0
 10
19.2786110606
 20
78.5232377549
 30
0.0
  0
SPLINE
  5
2F4
100
AcDbEntity
  8
00_COMPONENTS
100
AcDbSpline
 62
7
  6
BYLAYER
 70
0
 71
3
 72
13
 73
9
 74
0
 42
0.0000001
 43
0.0000001
 44
0.0000000001
 40
0.0
 40
0.0
 40
0.0
 40
0.0
 40
0.1168131512
 40
0.2372041214
 40
0.4865672167
 40
0.6147004142
 40
0.7437198984
 40
1.0
 40
1.0
 40
1.0
 40
1.0
 10
17.2784454925
 20
75.058610661
 30
0.0
 10
17.2456208258
 20
75.1714958359
 30
0.0
 10
17.1972938974
 20
75.4064559882
 30
0.0
 10
17.170560915
 20
75.8967235126
 30
0.0
 10
17.2499813702
 20
76.3987431282
 30
0.0
 10
17.4240555473
 20
76.8789454911
 30
0.0
 10
17.6598873484
 20
77.3398157178
 30
0.0
 10
17.9008843938
 20
77.650519308
 30
0.0
 10
18.0840514226
 20
77.8321030926
 30
0.0
  0
SPLINE
  5
2F5
100
AcDbEntity
  8
00_COMPONENTS
100
AcDbSpline
 62
7
  6
BYLAYER
 70
0
 71
3
 72
9
 73
5
 74
0
 42
0.0000001
 43
0.0000001
 44
0.0000000001
 40
0.0
 40
0.0
 40
0.0
 40
0.0
 40
0.2536608796
 40
1.0
 40
1.0
 40
1.0
 40
1.0
 10
18.5412495191
 20
77.5681321013
 30
0.0
 10
18.5816007669
 20
77.6081345643
 30
0.0
 10
18.7451746408
 20
77.7612067089
 30
0.0
 10
18.9267129486
 20
77.8952836129
 30
0.0
 10
19.0700150473
 20
77.9813813145
 30
0.0
  0
SPLINE
  5
2F6
100
AcDbEntity
  8
00_COMPONENTS
100
AcDbSpline
 62
7
  6
BYLAYER
 70
0
 71
3
 72
12
 73
8
 74
0
 42
0.0000001
 43
0.0000001
 44
0.0000000001
 40
0.0
 40
0.0
 40
0.0
 40
0.0
 40
0.1081620034
 40
0.2183717769
 40
0.4513384358
 40
0.7104781591
 40
1.0
 40
1.0
 40
1.0
 40
1.0
 10
27.8458638507
 20
84.2382491503
 30
0.0
 10
27.8458578247
 20
84.2038682901
 30
0.0
 10
27.8518462891
 20
84.1343107295
 30
0.0
 10
27.8879977353
 20
83.9948874127
 30
0.0
 10
27.9807104798
 20
83.8238694523
 30
0.0
 10
28.153499895
 20
83.6424616753
 30
0.0
 10
28.2980821708
 20
83.5428505154
 30
0.0
 10
28.3777818261
 20
83.496836939
 30
0.0
  0
SPLINE
  5
2F7
100
AcDbEntity
  8
00_COMPONENTS
100
AcDbSpline
 62
7
  6
BYLAYER
 70
0
 71
3
 72
15
 73
11
 74
0
 42
0.0000001
 43
0.0000001
 44
0.0000000001
 40
0.0
 40
0.0
 40
0.0
 40
0.0
 40
0.1139977135
 40
0.2370741808
 40
0.366688155
 40
0.49973363
 40
0.6328237806
 40
0.7625300249
 40
0.8858279087
 40
1.0
 40
1.0
 40
1.0
 40
1.0
 10
50.5821434111
 20
83.7487068546
 30
0.0
 10
50.6484599046
 20
83.7872968981
 30
0.0
 10
50.7936243029
 20
83.8553886975
 30
0.0
 10
51.0302308827
 20
83.9278441347
 30
0.0
 10
51.2866108899
 20
83.9725879582
 30
0.0
 10
51.5531024787
 20
83.9878992214
 30
0.0
 10
51.819686779
 20
83.9731832497
 30
0.0
 10
52.0764187573
 20
83.9290548954
 30
0.0
 10
52.3135132843
 20
83.8570794795
 30
0.0
 10
52.4591314713
 20
83.789343676
 30
0.0
 10
52.5256812257
 20
83.7509220265
 30
0.0
  0
SPLINE
  5
2F8
100
AcDbEntity
  8
00_COMPONENTS
100
AcDbSpline
 62
7
  6
BYLAYER
 70
0
 71
3
 72
11
 73
7
 74
0
 42
0.0000001
 43
0.0000001
 44
0.0000000001
 40
0.0
 40
0.0
 40
0.0
 40
0.0
 40
0.2177822878
 40
0.4509146108
 40
0.7103059136
 40
1.0
 40
1.0
 40
1.0
 40
1.0
 10
50.1842239081
 20
84.2279324305
 30
0.0
 10
50.1842310422
 20
84.1756901495
 30
0.0
 10
50.2035259909
 20
84.0667993682
 30
0.0
 10
50.286081187
 20
83.9150791033
 30
0.0
 10
50.4165812873
 20
83.7779356304
 30
0.0
 10
50.5257711923
 20
83.7027304957
 30
0.0
 10
50.5859539795
 20
83.6679847334
 30
0.0
  0
SPLINE
  5
2F9
100
AcDbEntity
  8
00_COMPONENTS
100
AcDbSpline
 62
7
  6
BYLAYER
 70
0
 71
3
 72
16
 73
12
 74
0
 42
0.0000001
 43
0.0000001
 44
0.0000000001
 40
0.0
 40
0.0
 40
0.0
 40
0.0
 40
0.046256488
 40
0.0932590972
 40
0.1916054302
 40
0.2992543235
 40
0.4183524301
 40
0.5493235232
 40
0.6912582257
 40
0.8423428303
 40
1.0
 40
1.0
 40
1.0
 40
1.0
 10
15.4710608861
 20
74.7017513778
 30
0.0
 10
15.5164669386
 20
74.6755372394
 30
0.0
 10
15.6122028567
 20
74.6296039117
 30
0.0
 10
15.8203843476
 20
74.5654184099
 30
0.0
 10
16.1100240304
 20
74.5420226195
 30
0.0
 10
16.4763249767
 20
74.6028853706
 30
0.0
 10
16.8574652045
 20
74.7474442667
 30
0.0
 10
17.2433849471
 20
74.970849642
 30
0.0
 10
17.6239327606
 20
75.2664255889
 30
0.0
 10
17.9884241565
 20
75.625762245
 30
0.0
 10
18.210653822
 20
75.8970229996
 30
0.0
 10
18.3169638981
 20
76.0406585074
 30
0.0
  0
SPLINE
  5
2FA
100
AcDbEntity
  8
00_COMPONENTS
100
AcDbSpline
 62
7
  6
BYLAYER
 70
0
 71
3
 72
16
 73
12
 74
0
 42
0.0000001
 43
0.0000001
 44
0.0000000001
 40
0.0
 40
0.0
 40
0.0
 40
0.0
 40
0.157657989
 40
0.3087429361
 40
0.4506775583
 40
0.5816482489
 40
0.7007457888
 40
0.808394181
 40
0.9067403747
 40
0.953743151
 40
1.0
 40
1.0
 40
1.0
 40
1.0
 10
18.9476135608
 20
77.1329818286
 30
0.0
 10
19.0188493231
 20
77.2968663811
 30
0.0
 10
19.1426506318
 20
77.6249519127
 30
0.0
 10
19.2715952704
 20
78.1202761555
 30
0.0
 10
19.3372927061
 20
78.597623878
 30
0.0
 10
19.3378021426
 20
79.0435372746
 30
0.0
 10
19.2724178682
 20
79.4458871678
 30
0.0
 10
19.1419698476
 20
79.7935368655
 30
0.0
 10
18.9768833263
 20
80.0326666066
 30
0.0
 10
18.8172025683
 20
80.180857737
 30
0.0
 10
18.7295534584
 20
80.2407974716
 30
0.0
 10
18.6841475086
 20
80.2670115506
 30
0.0
  0
SPLINE
  5
2FB
100
AcDbEntity
  8
00_COMPONENTS
100
AcDbSpline
 62
7
  6
BYLAYER
 70
0
 71
3
 72
20
 73
16
 74
0
 42
0.0000001
 43
0.0000001
 44
0.0000000001
 40
0.0
 40
0.0
 40
0.0
 40
0.0
 40
0.0623921369
 40
0.1288107638
 40
0.2703049945
 40
0.4173669803
 40
0.5616187136
 40
0.6302551767
 40
0.6953819904
 40
0.7563644167
 40
0.812833572
 40
0.8647660381
 40
0.912567381
 40
0.9571680124
 40
1.0
 40
1.0
 40
1.0
 40
1.0
 10
28.3777818261
 20
83.496836939
 30
0.0
 10
28.4430016427
 20
83.4591831121
 30
0.0
 10
28.5828663436
 20
83.3902614145
 30
0.0
 10
28.8900616477
 20
83.2789149884
 30
0.0
 10
29.3128864241
 20
83.1943671556
 30
0.0
 10
29.8372649017
 20
83.1798919709
 30
0.0
 10
30.2700310803
 20
83.240575525
 30
0.0
 10
30.5929293739
 20
83.3336238556
 30
0.0
 10
30.8114054933
 20
83.421624774
 30
0.0
 10
31.0054827944
 20
83.527194341
 30
0.0
 10
31.1711211001
 20
83.6482379022
 30
0.0
 10
31.3048191694
 20
83.7824601425
 30
0.0
 10
31.4034160181
 20
83.9275489581
 30
0.0
 10
31.4642310643
 20
84.0805641932
 30
0.0
 10
31.4780332975
 20
84.1865498213
 30
0.0
 10
31.4780423589
 20
84.2382491433
 30
0.0
  0
SPLINE
  5
2FC
100
AcDbEntity
  8
00_COMPONENTS
100
AcDbSpline
 62
7
  6
BYLAYER
 70
0
 71
3
 72
13
 73
9
 74
0
 42
0.0000001
 43
0.0000001
 44
0.0000000001
 40
0.0
 40
0.0
 40
0.0
 40
0.0
 40
0.1168131512
 40
0.2372041214
 40
0.4865672167
 40
0.6147004142
 40
0.7437198984
 40
1.0
 40
1.0
 40
1.0
 40
1.0
 10
14.5225569664
 20
66.2377599586
 30
0.0
 10
14.4897322997
 20
66.3506451335
 30
0.0
 10
14.4414053713
 20
66.5856052857
 30
0.0
 10
14.4146723889
 20
67.0758728102
 30
0.0
 10
14.4940928441
 20
67.5778924257
 30
0.0
 10
14.6681670213
 20
68.0580947886
 30
0.0
 10
14.9039988223
 20
68.5189650153
 30
0.0
 10
15.1449958677
 20
68.8296686055
 30
0.0
 10
15.3281628965
 20
69.0112523902
 30
0.0
  0
SPLINE
  5
2FD
100
AcDbEntity
  8
00_COMPONENTS
100
AcDbSpline
 62
7
  6
BYLAYER
 70
0
 71
3
 72
9
 73
5
 74
0
 42
0.0000001
 43
0.0000001
 44
0.0000000001
 40
0.0
 40
0.0
 40
0.0
 40
0.0
 40
0.2536608796
 40
1.0
 40
1.0
 40
1.0
 40
1.0
 10
15.785360993
 20
68.7472813989
 30
0.0
 10
15.8257122408
 20
68.7872838618
 30
0.0
 10
15.9892861147
 20
68.9403560064
 30
0.0
 10
16.1708244225
 20
69.0744329104
 30
0.0
 10
16.3141265212
 20
69.160530612
 30
0.0
  0
SPLINE
  5
2FE
100
AcDbEntity
  8
00_COMPONENTS
100
AcDbSpline
 62
7
  6
BYLAYER
 70
0
 71
3
 72
9
 73
5
 74
0
 42
0.0000001
 43
0.0000001
 44
0.0000000001
 40
0.0
 40
0.0
 40
0.0
 40
0.0
 40
0.2532689644
 40
1.0
 40
1.0
 40
1.0
 40
1.0
 10
16.1273137104
 20
69.5658671443
 30
0.0
 10
16.1595695177
 20
69.5803104313
 30
0.0
 10
16.2881475831
 20
69.6345590788
 30
0.0
 10
16.4215281513
 20
69.6775371038
 30
0.0
 10
16.5227225345
 20
69.7023870524
 30
0.0
  0
SPLINE
  5
2FF
100
AcDbEntity
  8
00_COMPONENTS
100
AcDbSpline
 62
7
  6
BYLAYER
 70
0
 71
3
 72
15
 73
11
 74
0
 42
0.0000001
 43
0.0000001
 44
0.0000000001
 40
0.0
 40
0.0
 40
0.0
 40
0.0
 40
0.1141549974
 40
0.2373268943
 40
0.3669765742
 40
0.5000005394
 40
0.633024429
 40
0.7626738905
 40
0.8858454396
 40
1.0
 40
1.0
 40
1.0
 40
1.0
 10
49.2209607321
 20
81.842952149
 30
0.0
 10
49.3808018696
 20
81.7506699129
 30
0.0
 10
49.7303227839
 20
81.5879140514
 30
0.0
 10
50.2994964248
 20
81.4149227934
 30
0.0
 10
50.9157148889
 20
81.3084412839
 30
0.0
 10
51.5558313442
 20
81.2725168099
 30
0.0
 10
52.1959472765
 20
81.3084443378
 30
0.0
 10
52.812164187
 20
81.4149287871
 30
0.0
 10
53.3813353242
 20
81.5879227426
 30
0.0
 10
53.7308540549
 20
81.7506803382
 30
0.0
 10
53.890693915
 20
81.8429633737
 30
0.0
  0
SPLINE
  5
300
100
AcDbEntity
  8
00_COMPONENTS
100
AcDbSpline
 62
7
  6
BYLAYER
 70
0
 71
3
 72
18
 73
14
 74
0
 42
0.0000001
 43
0.0000001
 44
0.0000000001
 40
0.0
 40
0.0
 40
0.0
 40
0.0
 40
0.1286589586
 40
0.2702085684
 40
0.4173284212
 40
0.5616320941
 40
0.6952663345
 40
0.7562718603
 40
0.8127631831
 40
0.8647118098
 40
0.9125345827
 40
0.9571501866
 40
1.0
 40
1.0
 40
1.0
 40
1.0
 10
50.5859539795
 20
83.6679847334
 30
0.0
 10
50.6874881348
 20
83.6093652876
 30
0.0
 10
50.9173738305
 20
83.5145144774
 30
0.0
 10
51.2920254709
 20
83.4395651702
 30
0.0
 10
51.6883576647
 20
83.4286116416
 30
0.0
 10
52.0736788591
 20
83.4827214701
 30
0.0
 10
52.3689728177
 20
83.5813528521
 30
0.0
 10
52.5705071348
 20
83.6909017171
 30
0.0
 10
52.6956110028
 20
83.7823239304
 30
0.0
 10
52.7965571868
 20
83.8837137206
 30
0.0
 10
52.8710704916
 20
83.9932616311
 30
0.0
 10
52.9169441429
 20
84.1088473051
 30
0.0
 10
52.9274166293
 20
84.1888853723
 30
0.0
 10
52.9274112971
 20
84.2279323992
 30
0.0
  0
SPLINE
  5
301
100
AcDbEntity
  8
00_COMPONENTS
100
AcDbSpline
 62
7
  6
BYLAYER
 70
0
 71
3
 72
20
 73
16
 74
0
 42
0.0000001
 43
0.0000001
 44
0.0000000001
 40
0.0
 40
0.0
 40
0.0
 40
0.0
 40
0.0623999611
 40
0.1288084649
 40
0.2703021167
 40
0.4173611603
 40
0.5616145129
 40
0.6302539381
 40
0.6953795538
 40
0.7563638308
 40
0.8128354907
 40
0.8647654621
 40
0.9125686741
 40
0.9571693266
 40
1.0
 40
1.0
 40
1.0
 40
1.0
 10
33.4696116108
 20
80.0905149646
 30
0.0
 10
33.5553660567
 20
80.0410057322
 30
0.0
 10
33.7392342416
 20
79.9503815865
 30
0.0
 10
34.1431084212
 20
79.8040301578
 30
0.0
 10
34.6989596212
 20
79.6928535422
 30
0.0
 10
35.3883565394
 20
79.6738133556
 30
0.0
 10
35.9573012761
 20
79.7536291334
 30
0.0
 10
36.3818324933
 20
79.8759110393
 30
0.0
 10
36.6690494693
 20
79.9916490952
 30
0.0
 10
36.9242136093
 20
80.1304193148
 30
0.0
 10
37.1419946655
 20
80.2895426649
 30
0.0
 10
37.3177242405
 20
80.4660425239
 30
0.0
 10
37.4474001657
 20
80.6567537985
 30
0.0
 10
37.5273154902
 20
80.8579387824
 30
0.0
 10
37.5454734845
 20
80.9972723268
 30
0.0
 10
37.5454751672
 20
81.065238707
 30
0.0
  0
SPLINE
  5
302
100
AcDbEntity
  8
00_COMPONENTS
100
AcDbSpline
 62
7
  6
BYLAYER
 70
0
 71
3
 72
15
 73
11
 74
0
 42
0.0000001
 43
0.0000001
 44
0.0000000001
 40
0.0
 40
0.0
 40
0.0
 40
0.0
 40
0.1141549974
 40
0.2373268943
 40
0.3669765742
 40
0.5000005394
 40
0.633024429
 40
0.7626738905
 40
0.8858454396
 40
1.0
 40
1.0
 40
1.0
 40
1.0
 10
49.2209607321
 20
66.4130160711
 30
0.0
 10
49.3808018696
 20
66.320733835
 30
0.0
 10
49.7303227839
 20
66.1579779735
 30
0.0
 10
50.2994964248
 20
65.9849867154
 30
0.0
 10
50.9157148889
 20
65.8785052059
 30
0.0
 10
51.5558313442
 20
65.842580732
 30
0.0
 10
52.1959472765
 20
65.8785082598
 30
0.0
 10
52.812164187
 20
65.9849927092
 30
0.0
 10
53.3813353242
 20
66.1579866646
 30
0.0
 10
53.7308540549
 20
66.3207442603
 30
0.0
 10
53.890693915
 20
66.4130272957
 30
0.0
  0
SPLINE
  5
303
100
AcDbEntity
  8
00_COMPONENTS
100
AcDbSpline
 62
7
  6
BYLAYER
 70
0
 71
3
 72
15
 73
11
 74
0
 42
0.0000001
 43
0.0000001
 44
0.0000000001
 40
0.0
 40
0.0
 40
0.0
 40
0.0
 40
0.1141545727
 40
0.2373261359
 40
0.366975604
 40
0.4999994966
 40
0.6330234588
 40
0.7626731321
 40
0.8858450149
 40
1.0
 40
1.0
 40
1.0
 40
1.0
 10
27.336148164
 20
52.8342104535
 30
0.0
 10
27.4966028101
 20
52.9268484336
 30
0.0
 10
27.8474658859
 20
53.0902320316
 30
0.0
 10
28.4188261966
 20
53.2638913567
 30
0.0
 10
29.037413214
 20
53.3707853476
 30
0.0
 10
29.679991142
 20
53.4068510425
 30
0.0
 10
30.3225695723
 20
53.3707883816
 30
0.0
 10
30.9411580656
 20
53.2638973138
 30
0.0
 10
31.5125207822
 20
53.0902407131
 30
0.0
 10
31.8633859653
 20
52.9268588791
 30
0.0
 10
32.0238418591
 20
52.8342217213
 30
0.0
  0
SPLINE
  5
304
100
AcDbEntity
  8
00_COMPONENTS
100
AcDbSpline
 62
7
  6
BYLAYER
 70
0
 71
3
 72
16
 73
12
 74
0
 42
0.0000001
 43
0.0000001
 44
0.0000000001
 40
0.0
 40
0.0
 40
0.0
 40
0.0
 40
0.157657989
 40
0.3087429361
 40
0.4506775583
 40
0.5816482489
 40
0.7007457888
 40
0.808394181
 40
0.9067403747
 40
0.953743151
 40
1.0
 40
1.0
 40
1.0
 40
1.0
 10
16.1917250347
 20
68.3121311261
 30
0.0
 10
16.262960797
 20
68.4760156786
 30
0.0
 10
16.3867621057
 20
68.8041012102
 30
0.0
 10
16.5157067444
 20
69.2994254531
 30
0.0
 10
16.58140418
 20
69.7767731755
 30
0.0
 10
16.5819136166
 20
70.2226865722
 30
0.0
 10
16.5165293422
 20
70.6250364653
 30
0.0
 10
16.3860813216
 20
70.972686163
 30
0.0
 10
16.2209948002
 20
71.2118159041
 30
0.0
 10
16.0613140422
 20
71.3600070346
 30
0.0
 10
15.9736649323
 20
71.4199467692
 30
0.0
 10
15.9282589826
 20
71.4461608481
 30
0.0
  0
SPLINE
  5
305
100
AcDbEntity
  8
00_COMPONENTS
100
AcDbSpline
 62
7
  6
BYLAYER
 70
0
 71
3
 72
16
 73
12
 74
0
 42
0.0000001
 43
0.0000001
 44
0.0000000001
 40
0.0
 40
0.0
 40
0.0
 40
0.0
 40
0.046256488
 40
0.0932590972
 40
0.1916054302
 40
0.2992543235
 40
0.4183524301
 40
0.5493235232
 40
0.6912582257
 40
0.8423428303
 40
1.0
 40
1.0
 40
1.0
 40
1.0
 10
12.71517236
 20
65.8809006753
 30
0.0
 10
12.7605784125
 20
65.854686537
 30
0.0
 10
12.8563143306
 20
65.8087532092
 30
0.0
 10
13.0644958215
 20
65.7445677075
 30
0.0
 10
13.3541355044
 20
65.721171917
 30
0.0
 10
13.7204364507
 20
65.7820346681
 30
0.0
 10
14.1015766784
 20
65.9265935643
 30
0.0
 10
14.4874964211
 20
66.1499989395
 30
0.0
 10
14.8680442346
 20
66.4455748865
 30
0.0
 10
15.2325356305
 20
66.8049115425
 30
0.0
 10
15.4547652959
 20
67.0761722972
 30
0.0
 10
15.5610753721
 20
67.219807805
 30
0.0
  0
SPLINE
  5
306
100
AcDbEntity
  8
00_COMPONENTS
100
AcDbSpline
 62
7
  6
BYLAYER
 70
0
 71
3
 72
15
 73
11
 74
0
 42
0.0000001
 43
0.0000001
 44
0.0000000001
 40
0.0
 40
0.0
 40
0.0
 40
0.0
 40
0.1543750047
 40
0.3002350984
 40
0.436789102
 40
0.5640059305
 40
0.6823778779
 40
0.793075983
 40
0.8981085522
 40
1.0
 40
1.0
 40
1.0
 40
1.0
 10
14.8657918964
 20
76.6936189531
 30
0.0
 10
14.8478900293
 20
76.5814822974
 30
0.0
 10
14.8224256326
 20
76.3617363169
 30
0.0
 10
14.8166090964
 20
76.039940231
 30
0.0
 10
14.8444830148
 20
75.7392039926
 30
0.0
 10
14.9057997253
 20
75.4639877745
 30
0.0
 10
14.9998469195
 20
75.2182116609
 30
0.0
 10
15.1258545722
 20
75.0056178555
 30
0.0
 10
15.282283718
 20
74.8300383627
 30
0.0
 10
15.4061513913
 20
74.7392253791
 30
0.0
 10
15.4710608861
 20
74.7017513778
 30
0.0
  0
SPLINE
  5
307
100
AcDbEntity
  8
00_COMPONENTS
100
AcDbSpline
 62
7
  6
BYLAYER
 70
0
 71
3
 72
15
 73
11
 74
0
 42
0.0000001
 43
0.0000001
 44
0.0000000001
 40
0.0
 40
0.0
 40
0.0
 40
0.0
 40
0.1141545727
 40
0.2373261359
 40
0.366975604
 40
0.4999994966
 40
0.6330234588
 40
0.7626731321
 40
0.8858450149
 40
1.0
 40
1.0
 40
1.0
 40
1.0
 10
53.890693915
 20
67.4499853655
 30
0.0
 10
53.7308540376
 20
67.3577023201
 30
0.0
 10
53.3813352648
 20
67.1949447129
 30
0.0
 10
52.8121640741
 20
67.0219507492
 30
0.0
 10
52.1959471219
 20
66.9154663138
 30
0.0
 10
51.5558311782
 20
66.8795388017
 30
0.0
 10
50.9157147343
 20
66.9154632915
 30
0.0
 10
50.2994963119
 20
67.0219448149
 30
0.0
 10
49.7303227245
 20
67.1949360647
 30
0.0
 10
49.3808018524
 20
67.3576919147
 30
0.0
 10
49.2209607321
 20
67.4499741408
 30
0.0
  0
SPLINE
  5
308
100
AcDbEntity
  8
00_COMPONENTS
100
AcDbSpline
 62
7
  6
BYLAYER
 70
0
 71
3
 72
15
 73
11
 74
0
 42
0.0000001
 43
0.0000001
 44
0.0000000001
 40
0.0
 40
0.0
 40
0.0
 40
0.0
 40
0.1018905671
 40
0.2069228244
 40
0.3176210334
 40
0.4359933199
 40
0.5632105531
 40
0.6997648856
 40
0.8456251214
 40
1.0
 40
1.0
 40
1.0
 40
1.0
 10
18.6841475086
 20
80.2670115506
 30
0.0
 10
18.6192378055
 20
80.3044856723
 30
0.0
 10
18.4786545947
 20
80.3663471423
 30
0.0
 10
18.2483802909
 20
80.4140219171
 30
0.0
 10
18.0012617956
 20
80.4168439636
 30
0.0
 10
17.7413871623
 20
80.3753965936
 30
0.0
 10
17.4723822469
 20
80.2908840936
 30
0.0
 10
17.1979981314
 20
80.1646496851
 30
0.0
 10
16.9222213087
 20
79.9987090387
 30
0.0
 10
16.7446470535
 20
79.8667799909
 30
0.0
 10
16.656484441
 20
79.7952066383
 30
0.0
  0
SPLINE
  5
309
100
AcDbEntity
  8
00_COMPONENTS
100
AcDbSpline
 62
7
  6
BYLAYER
 70
0
 71
3
 72
18
 73
14
 74
0
 42
0.0000001
 43
0.0000001
 44
0.0000000001
 40
0.0
 40
0.0
 40
0.0
 40
0.0
 40
0.1286589586
 40
0.2702085684
 40
0.4173284212
 40
0.5616320941
 40
0.6952663345
 40
0.7562718603
 40
0.8127631831
 40
0.8647118098
 40
0.9125345827
 40
0.9571501866
 40
1.0
 40
1.0
 40
1.0
 40
1.0
 10
52.5256812257
 20
84.7878800963
 30
0.0
 10
52.4241470703
 20
84.8464995421
 30
0.0
 10
52.1942613747
 20
84.9413503523
 30
0.0
 10
51.8196097342
 20
85.0162996595
 30
0.0
 10
51.4232775405
 20
85.0272531881
 30
0.0
 10
51.0379563461
 20
84.9731433596
 30
0.0
 10
50.7426623875
 20
84.8745119775
 30
0.0
 10
50.5411280703
 20
84.7649631126
 30
0.0
 10
50.4160242023
 20
84.6735408993
 30
0.0
 10
50.3150780183
 20
84.5721511091
 30
0.0
 10
50.2405647135
 20
84.4626031986
 30
0.0
 10
50.1946910622
 20
84.3470175246
 30
0.0
 10
50.1842185759
 20
84.2669794574
 30
0.0
 10
50.1842239081
 20
84.2279324305
 30
0.0
  0
SPLINE
  5
30A
100
AcDbEntity
  8
00_COMPONENTS
100
AcDbSpline
 62
7
  6
BYLAYER
 70
0
 71
3
 72
15
 73
11
 74
0
 42
0.0000001
 43
0.0000001
 44
0.0000000001
 40
0.0
 40
0.0
 40
0.0
 40
0.0
 40
0.1141545727
 40
0.2373261359
 40
0.366975604
 40
0.4999994966
 40
0.6330234588
 40
0.7626731321
 40
0.8858450149
 40
1.0
 40
1.0
 40
1.0
 40
1.0
 10
53.890693915
 20
82.8799214434
 30
0.0
 10
53.7308540376
 20
82.7876383981
 30
0.0
 10
53.3813352648
 20
82.6248807908
 30
0.0
 10
52.8121640741
 20
82.4518868272
 30
0.0
 10
52.1959471219
 20
82.3454023918
 30
0.0
 10
51.5558311782
 20
82.3094748797
 30
0.0
 10
50.9157147343
 20
82.3453993694
 30
0.0
 10
50.2994963119
 20
82.4518808929
 30
0.0
 10
49.7303227245
 20
82.6248721427
 30
0.0
 10
49.3808018524
 20
82.7876279926
 30
0.0
 10
49.2209607321
 20
82.8799102188
 30
0.0
  0
SPLINE
  5
30B
100
AcDbEntity
  8
00_COMPONENTS
100
AcDbSpline
 62
7
  6
BYLAYER
 70
0
 71
3
 72
20
 73
16
 74
0
 42
0.0000001
 43
0.0000001
 44
0.0000000001
 40
0.0
 40
0.0
 40
0.0
 40
0.0
 40
0.0623921369
 40
0.1288107638
 40
0.2703049945
 40
0.4173669803
 40
0.5616187136
 40
0.6302551767
 40
0.6953819904
 40
0.7563644167
 40
0.812833572
 40
0.8647660381
 40
0.912567381
 40
0.9571680124
 40
1.0
 40
1.0
 40
1.0
 40
1.0
 10
30.9461243836
 20
84.9796613547
 30
0.0
 10
30.8809045669
 20
85.0173151815
 30
0.0
 10
30.7410398661
 20
85.0862368791
 30
0.0
 10
30.4338445619
 20
85.1975833052
 30
0.0
 10
30.0110197855
 20
85.2821311381
 30
0.0
 10
29.4866413079
 20
85.2966063227
 30
0.0
 10
29.0538751293
 20
85.2359227686
 30
0.0
 10
28.7309768358
 20
85.142874438
 30
0.0
 10
28.5125007164
 20
85.0548735196
 30
0.0
 10
28.3184234152
 20
84.9493039526
 30
0.0
 10
28.1527851096
 20
84.8282603914
 30
0.0
 10
28.0190870402
 20
84.6940381511
 30
0.0
 10
27.9204901916
 20
84.5489493355
 30
0.0
 10
27.8596751453
 20
84.3959341004
 30
0.0
 10
27.8458729121
 20
84.2899484723
 30
0.0
 10
27.8458638507
 20
84.2382491503
 30
0.0
  0
SPLINE
  5
30C
100
AcDbEntity
  8
00_COMPONENTS
100
AcDbSpline
 62
7
  6
BYLAYER
 70
0
 71
3
 72
15
 73
11
 74
0
 42
0.0000001
 43
0.0000001
 44
0.0000000001
 40
0.0
 40
0.0
 40
0.0
 40
0.0
 40
0.1141549974
 40
0.2373268943
 40
0.3669765742
 40
0.5000005394
 40
0.633024429
 40
0.7626738905
 40
0.8858454396
 40
1.0
 40
1.0
 40
1.0
 40
1.0
 10
32.0238418591
 20
72.9512082745
 30
0.0
 10
31.863385948
 20
73.0438454423
 30
0.0
 10
31.5125207226
 20
73.2072272879
 30
0.0
 10
30.9411579523
 20
73.3808838969
 30
0.0
 10
30.3225694171
 20
73.4877749507
 30
0.0
 10
29.6799909755
 20
73.5238375957
 30
0.0
 10
29.0374130588
 20
73.487771885
 30
0.0
 10
28.4188260832
 20
73.3808778801
 30
0.0
 10
27.8474658263
 20
73.2072185633
 30
0.0
 10
27.4966027928
 20
73.0438349769
 30
0.0
 10
27.336148164
 20
72.9511970067
 30
0.0
  0
SPLINE
  5
30D
100
AcDbEntity
  8
00_COMPONENTS
100
AcDbSpline
 62
7
  6
BYLAYER
 70
0
 71
3
 72
11
 73
7
 74
0
 42
0.0000001
 43
0.0000001
 44
0.0000000001
 40
0.0
 40
0.0
 40
0.0
 40
0.0
 40
0.2177822878
 40
0.4509146108
 40
0.7103059136
 40
1.0
 40
1.0
 40
1.0
 40
1.0
 10
52.9274112971
 20
84.2279323992
 30
0.0
 10
52.9274041629
 20
84.2801746802
 30
0.0
 10
52.9081092142
 20
84.3890654615
 30
0.0
 10
52.8255540182
 20
84.5407857264
 30
0.0
 10
52.6950539178
 20
84.6779291993
 30
0.0
 10
52.5858640129
 20
84.753134334
 30
0.0
 10
52.5256812257
 20
84.7878800963
 30
0.0
  0
SPLINE
  5
30E
100
AcDbEntity
  8
00_COMPONENTS
100
AcDbSpline
 62
7
  6
BYLAYER
 70
0
 71
3
 72
15
 73
11
 74
0
 42
0.0000001
 43
0.0000001
 44
0.0000000001
 40
0.0
 40
0.0
 40
0.0
 40
0.0
 40
0.1018905671
 40
0.2069228244
 40
0.3176210334
 40
0.4359933199
 40
0.5632105531
 40
0.6997648856
 40
0.8456251214
 40
1.0
 40
1.0
 40
1.0
 40
1.0
 10
15.9282589826
 20
71.4461608481
 30
0.0
 10
15.8633492794
 20
71.4836349698
 30
0.0
 10
15.7227660687
 20
71.5454964399
 30
0.0
 10
15.4924917648
 20
71.5931712146
 30
0.0
 10
15.2453732696
 20
71.5959932611
 30
0.0
 10
14.9854986362
 20
71.5545458911
 30
0.0
 10
14.7164937208
 20
71.4700333911
 30
0.0
 10
14.4421096053
 20
71.3437989827
 30
0.0
 10
14.1663327826
 20
71.1778583362
 30
0.0
 10
13.9887585274
 20
71.0459292884
 30
0.0
 10
13.9005959149
 20
70.9743559359
 30
0.0
  0
SPLINE
  5
30F
100
AcDbEntity
  8
00_COMPONENTS
100
AcDbSpline
 62
7
  6
BYLAYER
 70
0
 71
3
 72
13
 73
9
 74
0
 42
0.0000001
 43
0.0000001
 44
0.0000000001
 40
0.0
 40
0.0
 40
0.0
 40
0.0
 40
0.1080919153
 40
0.2182309334
 40
0.3322553269
 40
0.4516850958
 40
0.7106253444
 40
1.0
 40
1.0
 40
1.0
 40
1.0
 10
37.5454751672
 20
81.065238707
 30
0.0
 10
37.5454762862
 20
81.1104375776
 30
0.0
 10
37.5376520761
 20
81.2018788986
 30
0.0
 10
37.5025708725
 20
81.3369217276
 30
0.0
 10
37.4447652715
 20
81.4690740548
 30
0.0
 10
37.3353511124
 20
81.6442358485
 30
0.0
 10
37.1410033121
 20
81.8486844416
 30
0.0
 10
36.9509658113
 20
81.9794621523
 30
0.0
 10
36.8461738543
 20
82.0399624482
 30
0.0
  0
SPLINE
  5
310
100
AcDbEntity
  8
00_COMPONENTS
100
AcDbSpline
 62
7
  6
BYLAYER
 70
0
 71
3
 72
15
 73
11
 74
0
 42
0.0000001
 43
0.0000001
 44
0.0000000001
 40
0.0
 40
0.0
 40
0.0
 40
0.0
 40
0.1543750047
 40
0.3002350984
 40
0.436789102
 40
0.5640059305
 40
0.6823778779
 40
0.793075983
 40
0.8981085522
 40
1.0
 40
1.0
 40
1.0
 40
1.0
 10
12.1099033704
 20
67.8727682506
 30
0.0
 10
12.0920015032
 20
67.7606315949
 30
0.0
 10
12.0665371065
 20
67.5408856145
 30
0.0
 10
12.0607205703
 20
67.2190895285
 30
0.0
 10
12.0885944888
 20
66.9183532902
 30
0.0
 10
12.1499111992
 20
66.6431370721
 30
0.0
 10
12.2439583934
 20
66.3973609585
 30
0.0
 10
12.3699660461
 20
66.184767153
 30
0.0
 10
12.5263951919
 20
66.0091876602
 30
0.0
 10
12.6502628652
 20
65.9183746767
 30
0.0
 10
12.71517236
 20
65.8809006753
 30
0.0
  0
SPLINE
  5
311
100
AcDbEntity
  8
00_COMPONENTS
100
AcDbSpline
 62
7
  6
BYLAYER
 70
0
 71
3
 72
12
 73
8
 74
0
 42
0.0000001
 43
0.0000001
 44
0.0000000001
 40
0.0
 40
0.0
 40
0.0
 40
0.0
 40
0.1081620034
 40
0.2183717769
 40
0.4513384358
 40
0.7104781591
 40
1.0
 40
1.0
 40
1.0
 40
1.0
 10
31.4780423589
 20
84.2382491433
 30
0.0
 10
31.4780483849
 20
84.2726300036
 30
0.0
 10
31.4720599206
 20
84.3421875641
 30
0.0
 10
31.4359084743
 20
84.481610881
 30
0.0
 10
31.3431957299
 20
84.6526288413
 30
0.0
 10
31.1704063146
 20
84.8340366183
 30
0.0
 10
31.0258240388
 20
84.9336477782
 30
0.0
 10
30.9461243836
 20
84.9796613547
 30
0.0
  0
SPLINE
  5
312
100
AcDbEntity
  8
00_COMPONENTS
100
AcDbSpline
 62
7
  6
BYLAYER
 70
0
 71
3
 72
13
 73
9
 74
0
 42
0.0000001
 43
0.0000001
 44
0.0000000001
 40
0.0
 40
0.0
 40
0.0
 40
0.0
 40
0.1165488106
 40
0.2344409575
 40
0.3542882207
 40
0.476652277
 40
0.7307232355
 40
1.0
 40
1.0
 40
1.0
 40
1.0
 10
18.7700472145
 20
51.0126452428
 30
0.0
 10
18.7922510583
 20
50.7807485854
 30
0.0
 10
18.8587879656
 20
50.3160934267
 30
0.0
 10
19.0232624989
 20
49.6263697695
 30
0.0
 10
19.2521353312
 20
48.9429501941
 30
0.0
 10
19.647038335
 20
48.0318298706
 30
0.0
 10
20.3063485454
 20
46.9157396991
 30
0.0
 10
20.9670431662
 20
46.0999385931
 30
0.0
 10
21.3313750338
 20
45.7037657488
 30
0.0
  0
SPLINE
  5
313
100
AcDbEntity
  8
00_COMPONENTS
100
AcDbSpline
 62
7
  6
BYLAYER
 70
0
 71
3
 72
23
 73
19
 74
0
 42
0.0000001
 43
0.0000001
 44
0.0000000001
 40
0.0
 40
0.0
 40
0.0
 40
0.0
 40
0.0496494857
 40
0.1026534436
 40
0.158975625
 40
0.2184227219
 40
0.2806751171
 40
0.3453135088
 40
0.4118421675
 40
0.4797091994
 40
0.5483248051
 40
0.6170786109
 40
0.6853564889
 40
0.7525567652
 40
0.8181097229
 40
0.8814885314
 40
0.9422452508
 40
1.0
 40
1.0
 40
1.0
 40
1.0
 10
23.5611778134
 20
42.9569741799
 30
0.0
 10
23.942123868
 20
42.55584826
 30
0.0
 10
24.789101242
 20
41.7816010749
 30
0.0
 10
26.2326040743
 20
40.7491662446
 30
0.0
 10
27.8713260834
 20
39.8203884683
 30
0.0
 10
29.683397502
 20
39.0073550047
 30
0.0
 10
31.6450560103
 20
38.3204132339
 30
0.0
 10
33.73038004
 20
37.7685448839
 30
0.0
 10
35.9117731834
 20
37.3589979851
 30
0.0
 10
38.1602943499
 20
37.097191457
 30
0.0
 10
40.4460683272
 20
36.9866014792
 30
0.0
 10
42.7386975754
 20
37.0287036157
 30
0.0
 10
45.0076783615
 20
37.2229431794
 30
0.0
 10
47.2228671514
 20
37.5667181925
 30
0.0
 10
49.354793163
 20
38.0555041912
 30
0.0
 10
51.3753696256
 20
38.6828205564
 30
0.0
 10
53.2575121861
 20
39.4404237133
 30
0.0
 10
54.4355604014
 20
40.0421333476
 30
0.0
 10
54.992849415
 20
40.3638823891
 30
0.0
  0
SPLINE
  5
314
100
AcDbEntity
  8
00_COMPONENTS
100
AcDbSpline
 62
7
  6
BYLAYER
 70
0
 71
3
 72
11
 73
7
 74
0
 42
0.0000001
 43
0.0000001
 44
0.0000000001
 40
0.0
 40
0.0
 40
0.0
 40
0.0
 40
0.257201538
 40
0.511032429
 40
0.7593157065
 40
1.0
 40
1.0
 40
1.0
 40
1.0
 10
42.167056063
 20
38.908443553
 30
0.0
 10
43.0221674554
 20
38.9352763662
 30
0.0
 10
44.7199711179
 20
39.0453091044
 30
0.0
 10
47.2254026289
 20
39.3799043991
 30
0.0
 10
49.6473321784
 20
39.8789823867
 30
0.0
 10
51.2134051334
 20
40.3250970063
 30
0.0
 10
51.97381517
 20
40.5755410092
 30
0.0
  0
SPLINE
  5
315
100
AcDbEntity
  8
00_COMPONENTS
100
AcDbSpline
 62
7
  6
BYLAYER
 70
0
 71
3
 72
13
 73
9
 74
0
 42
0.0000001
 43
0.0000001
 44
0.0000000001
 40
0.0
 40
0.0
 40
0.0
 40
0.0
 40
0.271201639
 40
0.5257353062
 40
0.6478466231
 40
0.7671689443
 40
0.8843239735
 40
1.0
 40
1.0
 40
1.0
 40
1.0
 10
60.2659373309
 20
45.3629713938
 30
0.0
 10
60.6761879304
 20
45.7781750397
 30
0.0
 10
61.4206972878
 20
46.6359554124
 30
0.0
 10
62.1668056141
 20
47.8217934146
 30
0.0
 10
62.6125583181
 20
48.7931129192
 30
0.0
 10
62.869906318
 20
49.5219335569
 30
0.0
 10
63.0538054087
 20
50.25835248
 30
0.0
 10
63.1272250609
 20
50.7550354918
 30
0.0
 10
63.1512856445
 20
51.0028343103
 30
0.0
  0
SPLINE
  5
316
100
AcDbEntity
  8
00_COMPONENTS
100
AcDbSpline
 62
7
  6
BYLAYER
 70
0
 71
3
 72
23
 73
19
 74
0
 42
0.0000001
 43
0.0000001
 44
0.0000000001
 40
0.0
 40
0.0
 40
0.0
 40
0.0
 40
0.0464750933
 40
0.0964050281
 40
0.1500341308
 40
0.2073498027
 40
0.2681302609
 40
0.3319884017
 40
0.3984095455
 40
0.4667834902
 40
0.5364325402
 40
0.6066370582
 40
0.6766595384
 40
0.7457676359
 40
0.8132611367
 40
0.8784878311
 40
0.9408916185
 40
1.0
 40
1.0
 40
1.0
 40
1.0
 10
26.8553990708
 20
40.3585509079
 30
0.0
 10
27.0746236977
 20
40.0057376849
 30
0.0
 10
27.597196885
 20
39.3147144001
 30
0.0
 10
28.56361652
 20
38.3790548439
 30
0.0
 10
29.7229166953
 20
37.5222085306
 30
0.0
 10
31.0567180728
 20
36.7568848193
 30
0.0
 10
32.5445364335
 20
36.0941477153
 30
0.0
 10
34.1633846773
 20
35.5439918495
 30
0.0
 10
35.8881986333
 20
35.1148042995
 30
0.0
 10
37.6921697625
 20
34.8132137982
 30
0.0
 10
39.547187387
 20
34.6439067365
 30
0.0
 10
41.4242963555
 20
34.6095285368
 30
0.0
 10
43.2941649711
 20
34.7106264117
 30
0.0
 10
45.1276100669
 20
34.9455972652
 30
0.0
 10
46.8959729444
 20
35.3108163558
 30
0.0
 10
48.571896934
 20
35.800578882
 30
0.0
 10
50.1289976303
 20
36.4073500163
 30
0.0
 10
51.1003770286
 20
36.8980815519
 30
0.0
 10
51.5578871477
 20
37.1622235656
 30
0.0
  0
ELLIPSE
  5
317
100
AcDbEntity
  8
00_COMPONENTS
100
AcDbEllipse
 62
7
  6
BYLAYER
 10
19.3009477009
 20
76.2007191322
 30
0.0
 11
1.6066066926
 21
2.7825934927
 31
0.0
 40
0.868896216
 41
-4.1212175638
 42
-3.730386412
  0
ELLIPSE
  5
318
100
AcDbEntity
  8
00_COMPONENTS
100
AcDbEllipse
 62
7
  6
BYLAYER
 10
16.261491243
 20
77.9555697698
 30
0.0
 11
1.6066066926
 21
2.7825934927
 31
0.0
 40
0.868896216
 41
-1.7683280305
 42
-1.3732121943
  0
ELLIPSE
  5
319
100
AcDbEntity
  8
00_COMPONENTS
100
AcDbEllipse
 62
7
  6
BYLAYER
 10
19.3009477009
 20
76.2007191322
 30
0.0
 11
1.6066066926
 21
2.7825934927
 31
0.0
 40
0.868896216
 41
0.5888278944
 42
0.979677339
  0
ELLIPSE
  5
31A
100
AcDbEntity
  8
00_COMPONENTS
100
AcDbEllipse
 62
7
  6
BYLAYER
 10
13.5056027169
 20
69.1347190673
 30
0.0
 11
1.6066066926
 21
2.7825934927
 31
0.0
 40
0.868896216
 41
-1.7683280305
 42
-1.3732121943
  0
ELLIPSE
  5
31B
100
AcDbEntity
  8
00_COMPONENTS
100
AcDbEllipse
 62
7
  6
BYLAYER
 10
16.5450591749
 20
67.3798684297
 30
0.0
 11
1.6066066926
 21
2.7825934927
 31
0.0
 40
0.868896216
 41
0.5888278944
 42
0.979677339
  0
ELLIPSE
  5
31C
100
AcDbEntity
  8
00_COMPONENTS
100
AcDbEllipse
 62
7
  6
BYLAYER
 10
16.5450591749
 20
67.3798684297
 30
0.0
 11
1.6066066926
 21
2.7825934927
 31
0.0
 40
0.868896216
 41
-4.1212175638
 42
-3.730386412
  0
ENDSEC
  0
SECTION
  2
OBJECTS
  0
DICTIONARY
  5
C
100
AcDbDictionary
280
0
281
1
  3
ACAD_GROUP
350
D
  3
ACAD_MLINESTYLE
350
17
  3
ACAD_LAYOUT
350
1A
  3
ACAD_PLOTSETTINGS
350
19
  3
ACAD_PLOTSTYLENAME
350
E
  0
DICTIONARY
  5
D
102
{ACAD_REACTORS
330
C
102
}
100
AcDbDictionary
280
0
281
1
  0
ACDBDICTIONARYWDFLT
  5
E
102
{ACAD_REACTORS
330
C
102
}
100
AcDbDictionary
281
1
  3
Normal
350
F
100
AcDbDictionaryWithDefault
340
F
  0
DICTIONARY
  5
17
102
{ACAD_REACTORS
330
C
102
}
100
AcDbDictionary
280
0
281
1
  3
Standard
350
18
  0
DICTIONARY
  5
19
102
{ACAD_REACTORS
330
C
102
}
100
AcDbDictionary
281
1
  0
DICTIONARY
  5
1A
102
{ACAD_REACTORS
330
C
102
}
100
AcDbDictionary
281
1
  3
Model
350
31D
  3
Layout1
350
31E
  0
ACDBPLACEHOLDER
  5
F
102
{ACAD_REACTORS
330
E
102
}
  0
MLINESTYLE
  5
18
102
{ACAD_REACTORS
330
17
102
}
100
AcDbMlineStyle
  2
STANDARD
 70
0
  3

 62
256
 51
90.0
 52
90.0
 71
2
 49
0.5
 62
256
  6
BYLAYER
 49
-0.5
 62
256
  6
BYLAYER
  0
LAYOUT
  5
31D
102
{ACAD_REACTORS
330
1A
102
}
100
AcDbPlotSettings
  1

  2
none_device
  4

  6

 40
0.0
 41
0.0
 42
0.0
 43
0.0
 44
210.0
 45
297.0
 46
0.0
 47
0.0
 48
0.0
 49
0.0
140
0.0
141
0.0
142
1.0
143
1.0
 70
1024
 72
1
 73
0
 74
0
  7

 75
0
147
1.0
148
0.0
149
0.0
100
AcDbLayout
  1
Model
 70
0
 71
0
 10
0.0
 20
0.0
 11
210.0
 21
297.0
 12
0.0
 22
0.0
 32
0.0
 14
0.0
 24
0.0
 34
0.0
 15
0.0
 25
0.0
 35
0.0
146
0.0
 13
0.0
 23
0.0
 33
0.0
 16
1.0
 26
0.0
 36
0.0
 17
0.0
 27
1.0
 37
0.0
 76
0
330
218
345
0
346
0
  0
LAYOUT
  5
31E
102
{ACAD_REACTORS
330
1A
102
}
100
AcDbPlotSettings
  1

  2
none_device
  4

  6

 40
0.0
 41
0.0
 42
0.0
 43
0.0
 44
210.0
 45
297.0
 46
0.0
 47
0.0
 48
0.0
 49
0.0
140
0.0
141
0.0
142
1.0
143
1.0
 70
0
 72
1
 73
0
 74
0
  7

 75
0
147
1.0
148
0.0
149
0.0
100
AcDbLayout
  1
Layout1
 70
0
 71
1
 10
0.0
 20
0.0
 11
210.0
 21
297.0
 12
0.0
 22
0.0
 32
0.0
 14
0.0
 24
0.0
 34
0.0
 15
0.0
 25
0.0
 35
0.0
146
0.0
 13
0.0
 23
0.0
 33
0.0
 16
1.0
 26
0.0
 36
0.0
 17
0.0
 27
1.0
 37
0.0
 76
0
330
219
345
0
346
0
  0
ENDSEC
  0
EOF
