999
DXF file: C:\Users\sesa63760\Dev\_Creo\CAD\MCADUE0002130_3D-CAD\drw0001_2.dxf
999
Pro/ENGINEER 2019471 by Parametric Technology Corporation
  0
SECTION
  2
HEADER
  9
$ACADVER
  1
AC1024
  9
$DWGCODEPAGE
  3
ANSI_1252
  9
$EXTMAX
 10
1119.7820010849
 20
1583.6916872486
 30
0.0
  9
$EXTMIN
 10
0.0
 20
0.0
 30
0.0
  9
$LIMMIN
 10
0.0
 20
0.0
  9
$LIMMAX
 10
1119.7820010849
 20
1583.6916872486
  9
$VIEWCTR
 10
559.8910005424
 20
791.8458436243
  9
$VIEWSIZE
 40
1583.6916872486
  9
$CLAYER
  8
0
  9
$LTSCALE
 40
103.2332359095
  9
$CELTYPE
  6
BYLAYER
  9
$DIMSCALE
 40
1.0
  9
$DIMASZ
 40
13.3307381082
  9
$DIMEXO
 40
1.0
  9
$DIMDLI
 40
71.3247811739
  9
$DIMEXE
 40
1.0
  9
$DIMCEN
 40
16.8927113307
  9
$DIMLFAC
 40
1.0
  9
$DIMBLK
  1
_FILLED
  9
$DIMALT
 70
0
  9
$DIMALTF
 40
0.0393700787
  9
$DIMTXT
 40
18.6630333514
  9
$DIMTOL
 70
1
  9
$DIMLIM
 70
0
  9
$DIMTFAC
 40
1.0
  9
$DIMTP
 40
0.01
  9
$DIMTM
 40
0.01
  9
$DIMGAP
 40
0.625
  9
$DIMDSEP
 70
46
  9
$AUNITS
 70
0
  9
$PDMODE
 70
3
  9
$PDSIZE
 40
0.3125
  9
$HANDSEED
  5
61C
  9
$TILEMODE
 70
1
  9
$MEASUREMENT
 70
1
  9
$INSUNITS
 70
4
  0
ENDSEC
  0
SECTION
  2
CLASSES
  0
CLASS
  1
ACDBDICTIONARYWDFLT
  2
AcDbDictionaryWithDefault
  3
AutoCAD 2000
 90
0
 91
1
280
0
281
0
  0
CLASS
  1
ACDBPLACEHOLDER
  2
AcDbPlaceHolder
  3
AutoCAD 2000
 90
0
 91
1
280
0
281
0
  0
CLASS
  1
LAYOUT
  2
AcDbLayout
  3
AutoCAD 2000
 90
0
 91
0
280
0
281
0
  0
ENDSEC
  0
SECTION
  2
TABLES
  0
TABLE
  2
VPORT
  5
8
100
AcDbSymbolTable
 70
2
  0
VPORT
  5
1F4
100
AcDbSymbolTableRecord
100
AcDbViewportTableRecord
  2
*ACTIVE
 70
0
 10
0.0
 20
0.0
 11
1.0
 21
1.0
 12
559.8910005424
 22
791.8458436243
 13
0.0
 23
0.0
 14
1.0
 24
1.0
 15
0.0
 25
0.0
 16
0.0
 26
0.0
 36
1.0
 17
0.0
 27
0.0
 37
0.0
 40
1583.6916872486
 41
0.7070707071
 42
50.0
 43
0.0
 44
0.0
 50
0.0
 51
0.0
 71
0
 72
100
 73
1
 74
1
 75
0
 76
0
 77
0
 78
0
  0
ENDTAB
  0
TABLE
  2
LTYPE
  5
5
100
AcDbSymbolTable
 70
6
  0
LTYPE
  5
14
100
AcDbSymbolTableRecord
100
AcDbLinetypeTableRecord
  2
BYBLOCK
 70
0
  3

 72
65
 73
0
 40
0.0
  0
LTYPE
  5
15
100
AcDbSymbolTableRecord
100
AcDbLinetypeTableRecord
  2
BYLAYER
 70
0
  3

 72
65
 73
0
 40
0.0
  0
LTYPE
  5
16
100
AcDbSymbolTableRecord
100
AcDbLinetypeTableRecord
  2
CONTINUOUS
 70
64
  3
Solid line
 72
65
 73
0
 40
0.0
  0
LTYPE
  5
1F5
100
AcDbSymbolTableRecord
100
AcDbLinetypeTableRecord
  2
CENTER
 70
64
  3
____ _ ____ _ ____ _ ____ _ ____ _ ____ _ ____
 72
65
 73
4
 40
0.6
 49
0.375
 74
0
 49
-0.075
 74
0
 49
0.075
 74
0
 49
-0.075
 74
0
  0
LTYPE
  5
1F6
100
AcDbSymbolTableRecord
100
AcDbLinetypeTableRecord
  2
HIDDEN
 70
64
  3
- - - - - - - - - - - - - - - - - - - -
 72
65
 73
2
 40
0.2
 49
0.1
 74
0
 49
-0.1
 74
0
  0
LTYPE
  5
1F7
100
AcDbSymbolTableRecord
100
AcDbLinetypeTableRecord
  2
PHANTOM
 70
64
  3
_____ _ _ _____ _ _ _____ _ _ _____
 72
65
 73
6
 40
0.8
 49
0.45
 74
0
 49
-0.05
 74
0
 49
0.1
 74
0
 49
-0.05
 74
0
 49
0.1
 74
0
 49
-0.05
 74
0
  0
LTYPE
  5
1F8
100
AcDbSymbolTableRecord
100
AcDbLinetypeTableRecord
  2
DOT
 70
64
  3
. . . . . . . . . . . . . . . . . . . .
 72
65
 73
2
 40
0.2
 49
0.1
 74
0
 49
-0.1
 74
0
  0
LTYPE
  5
1F9
100
AcDbSymbolTableRecord
100
AcDbLinetypeTableRecord
  2
DASHED
 70
64
  3
- - - - - - - - - - - - - - - - - - - -
 72
65
 73
2
 40
0.2
 49
0.1
 74
0
 49
-0.1
 74
0
  0
ENDTAB
  0
TABLE
  2
LAYER
  5
2
100
AcDbSymbolTable
 70
36
  0
LAYER
  5
10
100
AcDbSymbolTableRecord
100
AcDbLayerTableRecord
  2
0
 70
0
 62
7
  6
CONTINUOUS
370
-3
390
F
  0
LAYER
  5
1FA
100
AcDbSymbolTableRecord
100
AcDbLayerTableRecord
  2
DEFAULT_1
 70
0
 62
7
  6
CENTER
370
-3
390
F
  0
LAYER
  5
1FB
100
AcDbSymbolTableRecord
100
AcDbLayerTableRecord
  2
DEFAULT_2
 70
0
 62
8
  6
HIDDEN
370
-3
390
F
  0
LAYER
  5
1FC
100
AcDbSymbolTableRecord
100
AcDbLayerTableRecord
  2
DEFAULT_3
 70
0
 62
7
  6
PHANTOM
370
-3
390
F
  0
LAYER
  5
1FD
100
AcDbSymbolTableRecord
100
AcDbLayerTableRecord
  2
00_COMPONENTS
 70
0
 62
7
  6
CONTINUOUS
370
-3
390
F
  0
LAYER
  5
1FE
100
AcDbSymbolTableRecord
100
AcDbLayerTableRecord
  2
01_1_DEFAULT_DATUMS
 70
0
 62
7
  6
CONTINUOUS
370
-3
390
F
  0
LAYER
  5
1FF
100
AcDbSymbolTableRecord
100
AcDbLayerTableRecord
  2
01_PLANES
 70
0
 62
7
  6
CONTINUOUS
370
-3
390
F
  0
LAYER
  5
200
100
AcDbSymbolTableRecord
100
AcDbLayerTableRecord
  2
02_COORD_SYS
 70
0
 62
7
  6
CONTINUOUS
370
-3
390
F
  0
LAYER
  5
201
100
AcDbSymbolTableRecord
100
AcDbLayerTableRecord
  2
03_AXES
 70
0
 62
7
  6
CONTINUOUS
370
-3
390
F
  0
LAYER
  5
202
100
AcDbSymbolTableRecord
100
AcDbLayerTableRecord
  2
04_POINTS
 70
0
 62
7
  6
CONTINUOUS
370
-3
390
F
  0
LAYER
  5
203
100
AcDbSymbolTableRecord
100
AcDbLayerTableRecord
  2
05_CURVES
 70
0
 62
7
  6
CONTINUOUS
370
-3
390
F
  0
LAYER
  5
204
100
AcDbSymbolTableRecord
100
AcDbLayerTableRecord
  2
06_SURFS
 70
0
 62
7
  6
CONTINUOUS
370
-3
390
F
  0
LAYER
  5
205
100
AcDbSymbolTableRecord
100
AcDbLayerTableRecord
  2
07_COSMETICS
 70
0
 62
7
  6
CONTINUOUS
370
-3
390
F
  0
LAYER
  5
206
100
AcDbSymbolTableRecord
100
AcDbLayerTableRecord
  2
10_NOTES
 70
0
 62
7
  6
CONTINUOUS
370
-3
390
F
  0
LAYER
  5
207
100
AcDbSymbolTableRecord
100
AcDbLayerTableRecord
  2
11_NOTES_PUB
 70
0
 62
7
  6
CONTINUOUS
370
-3
390
F
  0
LAYER
  5
208
100
AcDbSymbolTableRecord
100
AcDbLayerTableRecord
  2
13_REF_GTOL
 70
0
 62
7
  6
CONTINUOUS
370
-3
390
F
  0
LAYER
  5
209
100
AcDbSymbolTableRecord
100
AcDbLayerTableRecord
  2
16_MISC
 70
0
 62
7
  6
CONTINUOUS
370
-3
390
F
  0
LAYER
  5
20A
100
AcDbSymbolTableRecord
100
AcDbLayerTableRecord
  2
17_NO_PRINT
 70
0
 62
7
  6
CONTINUOUS
370
-3
390
F
  0
LAYER
  5
20B
100
AcDbSymbolTableRecord
100
AcDbLayerTableRecord
  2
18_DATUM_CAMS_JOINTS
 70
0
 62
7
  6
CONTINUOUS
370
-3
390
F
  0
LAYER
  5
20C
100
AcDbSymbolTableRecord
100
AcDbLayerTableRecord
  2
19_DATUM_FUNCTIONAL
 70
0
 62
7
  6
CONTINUOUS
370
-3
390
F
  0
LAYER
  5
20D
100
AcDbSymbolTableRecord
100
AcDbLayerTableRecord
  2
20_DATUM_KINEMATIC_SCHEME
 70
0
 62
7
  6
CONTINUOUS
370
-3
390
F
  0
ENDTAB
  0
TABLE
  2
STYLE
  5
3
100
AcDbSymbolTable
 70
1
  0
STYLE
  5
11
100
AcDbSymbolTableRecord
100
AcDbTextStyleTableRecord
  2
STANDARD
 70
0
 40
0.0
 41
0.8
 50
0.0
 71
0
 42
0.2
  3
txt
  4

  0
STYLE
  5
20E
100
AcDbSymbolTableRecord
100
AcDbTextStyleTableRecord
  2
TEXTSTYLE_1
 70
0
 40
0.0
 41
0.8
 50
0.0
 71
0
 42
0.2
  3
gdt
  4

  0
ENDTAB
  0
TABLE
  2
VIEW
  5
6
100
AcDbSymbolTable
 70
0
  0
ENDTAB
  0
TABLE
  2
UCS
  5
7
100
AcDbSymbolTable
 70
0
  0
ENDTAB
  0
TABLE
  2
APPID
  5
9
100
AcDbSymbolTable
 70
1
  0
APPID
  5
20F
100
AcDbSymbolTableRecord
100
AcDbRegAppTableRecord
  2
ACAD
 70
0
  0
ENDTAB
  0
TABLE
  2
BLOCK_RECORD
  5
1
100
AcDbSymbolTable
 70
0
  0
BLOCK_RECORD
  5
210
100
AcDbSymbolTableRecord
100
AcDbBlockTableRecord
  2
*Model_Space
  0
BLOCK_RECORD
  5
211
100
AcDbSymbolTableRecord
100
AcDbBlockTableRecord
  2
*Paper_Space
  0
BLOCK_RECORD
  5
212
100
AcDbSymbolTableRecord
100
AcDbBlockTableRecord
  2
_FILLED
  0
ENDTAB
  0
TABLE
  2
DIMSTYLE
  5
A
100
AcDbSymbolTable
 70
1
100
AcDbDimStyleTable
 71
0
  0
DIMSTYLE
105
213
100
AcDbSymbolTableRecord
100
AcDbDimStyleTableRecord
  2
STANDARD
 70
0
  3

  4

 40
1.0
 41
13.3307381082
 42
1.0
 43
0.38
 44
1.0
 45
0.0
 46
0.0
 47
0.01
 48
0.01
140
18.6630333514
141
0.09
142
0.0
143
25.4
144
1.0
145
0.0
146
1.0
147
0.625
 71
1
 72
0
 73
0
 74
0
 75
0
 76
0
 77
1
 78
8
 79
2
170
0
171
1
172
0
173
0
174
0
175
0
176
0
177
0
178
0
270
2
179
2
271
2
272
2
273
2
274
2
275
0
280
0
281
0
282
0
283
1
284
8
285
0
286
0
287
3
288
0
340
11
278
46
341
212
342
212
343
212
344
212
  0
ENDTAB
  0
ENDSEC
  0
SECTION
  2
BLOCKS
  0
BLOCK
  5
20
100
AcDbEntity
  8
0
100
AcDbBlockBegin
  2
*Model_Space
 70
0
 10
0.0
 20
0.0
 30
0.0
  3
*Model_Space
  1

  0
ENDBLK
  5
21
100
AcDbEntity
  8
0
100
AcDbBlockEnd
  0
BLOCK
  5
1C
100
AcDbEntity
  8
0
100
AcDbBlockBegin
  2
*Paper_Space
 70
0
 10
0.0
 20
0.0
 30
0.0
  3
*Paper_Space
  1

  0
ENDBLK
  5
1D
100
AcDbEntity
  8
0
100
AcDbBlockEnd
  0
BLOCK
  5
214
100
AcDbEntity
  8
0
100
AcDbBlockBegin
  2
_FILLED
 70
64
 10
0.0
 20
0.0
  3
_FILLED
  1

  0
SOLID
  5
215
100
AcDbEntity
  8
0
  6
BYBLOCK
 62
0
100
AcDbTrace
 10
0.0
 20
0.0
 11
-1.0
 21
0.25
 12
-1.0
 22
-0.25
 13
-1.0
 23
-0.25
  0
ENDBLK
  5
216
100
AcDbEntity
  8
0
  6
BYBLOCK
 62
0
100
AcDbBlockEnd
  0
ENDSEC
  0
SECTION
  2
ENTITIES
  0
LINE
  5
217
100
AcDbEntity
  8
0
100
AcDbLine
 62
7
  6
CONTINUOUS
 10
286.1391230622
 20
1472.0263193243
 11
285.9546548133
 21
1471.9494295186
  0
LINE
  5
218
100
AcDbEntity
  8
0
100
AcDbLine
 62
7
  6
CONTINUOUS
 10
285.9546548133
 20
105.6462429235
 11
286.1391230622
 21
105.5693531179
  0
LINE
  5
219
100
AcDbEntity
  8
0
100
AcDbLine
 62
7
  6
CONTINUOUS
 10
849.3347312141
 20
107.1077980207
 11
849.1502630729
 21
107.0693531179
  0
LINE
  5
21A
100
AcDbEntity
  8
0
100
AcDbLine
 62
7
  6
CONTINUOUS
 10
286.1391229548
 20
107.0693531179
 11
285.9546548133
 21
107.1077980207
  0
LINE
  5
21B
100
AcDbEntity
  8
0
100
AcDbLine
 62
7
  6
CONTINUOUS
 10
301.4128308505
 20
1405.9359299044
 11
302.0056439317
 21
1406.4604066145
  0
LINE
  5
21C
100
AcDbEntity
  8
0
100
AcDbLine
 62
7
  6
CONTINUOUS
 10
301.4183757691
 20
1405.5392016038
 11
302.1274175391
 21
1406.1665087713
  0
LINE
  5
21D
100
AcDbEntity
  8
0
100
AcDbLine
 62
7
  6
CONTINUOUS
 10
301.6643997919
 20
1405.2231136504
 11
302.5062110232
 21
1405.9678853148
  0
LINE
  5
21E
100
AcDbEntity
  8
0
100
AcDbLine
 62
7
  6
CONTINUOUS
 10
302.8244533004
 20
1405.5378055607
 11
301.8661028309
 21
1404.9505276377
  0
LINE
  5
21F
100
AcDbEntity
  8
0
100
AcDbLine
 62
7
  6
CONTINUOUS
 10
303.0533027361
 20
1405.2091993786
 11
302.096448781
 21
1404.6228385208
  0
LINE
  5
220
100
AcDbEntity
  8
0
100
AcDbLine
 62
7
  6
CONTINUOUS
 10
302.4501551582
 20
1404.4867963368
 11
303.4079297274
 21
1405.0737213476
  0
LINE
  5
221
100
AcDbEntity
  8
0
100
AcDbLine
 62
7
  6
CONTINUOUS
 10
290.8706752583
 20
1398.6023145688
 11
289.8829024231
 21
1398.0659976779
  0
LINE
  5
222
100
AcDbEntity
  8
0
100
AcDbLine
 62
7
  6
CONTINUOUS
 10
291.0392893829
 20
1398.2389845658
 11
290.0530590067
 21
1397.7035051619
  0
LINE
  5
223
100
AcDbEntity
  8
0
100
AcDbLine
 62
7
  6
CONTINUOUS
 10
289.9930729276
 20
1397.3286501631
 11
290.9802521817
 21
1397.8646447657
  0
LINE
  5
224
100
AcDbEntity
  8
0
100
AcDbLine
 62
7
  6
CONTINUOUS
 10
290.2693964399
 20
1399.4960824221
 11
289.2054378381
 21
1399.1400868538
  0
LINE
  5
225
100
AcDbEntity
  8
0
100
AcDbLine
 62
7
  6
CONTINUOUS
 10
289.5204998366
 20
1398.9283074003
 11
290.58473218
 21
1399.2843945613
  0
LINE
  5
226
100
AcDbEntity
  8
0
100
AcDbLine
 62
7
  6
CONTINUOUS
 10
289.669563569
 20
1398.5566434516
 11
290.735460366
 21
1398.9132875309
  0
LINE
  5
227
100
AcDbEntity
  8
0
100
AcDbLine
 62
7
  6
CONTINUOUS
 10
286.1391229178
 20
105.5693531179
 11
849.1502631096
 21
105.5693531179
  0
LINE
  5
228
100
AcDbEntity
  8
0
100
AcDbLine
 62
7
  6
CONTINUOUS
 10
284.4930997161
 20
107.1077980207
 11
286.1391229548
 21
107.1077980207
  0
LINE
  5
229
100
AcDbEntity
  8
0
100
AcDbLine
 62
7
  6
CONTINUOUS
 10
849.1502630729
 20
107.1077980207
 11
850.7962863113
 21
107.1077980207
  0
LINE
  5
22A
100
AcDbEntity
  8
0
100
AcDbLine
 62
7
  6
CONTINUOUS
 10
287.4162099105
 20
108.5693531179
 11
847.8731761169
 21
108.5693531179
  0
LINE
  5
22B
100
AcDbEntity
  8
0
100
AcDbLine
 62
7
  6
CONTINUOUS
 10
289.2054378381
 20
178.4555855884
 11
290.2693964399
 21
178.0995900201
  0
LINE
  5
22C
100
AcDbEntity
  8
0
100
AcDbLine
 62
7
  6
CONTINUOUS
 10
290.58473218
 20
178.3112778809
 11
289.5204998366
 21
178.6673650418
  0
LINE
  5
22D
100
AcDbEntity
  8
0
100
AcDbLine
 62
7
  6
CONTINUOUS
 10
290.7354603087
 20
178.6823847727
 11
289.6695635263
 21
179.0390288856
  0
LINE
  5
22E
100
AcDbEntity
  8
0
100
AcDbLine
 62
7
  6
CONTINUOUS
 10
289.8829024231
 20
179.5296747642
 11
290.8706752583
 21
178.9933578734
  0
LINE
  5
22F
100
AcDbEntity
  8
0
100
AcDbLine
 62
7
  6
CONTINUOUS
 10
290.0530590067
 20
179.8921672803
 11
291.0392893829
 21
179.3566878763
  0
LINE
  5
230
100
AcDbEntity
  8
0
100
AcDbLine
 62
7
  6
CONTINUOUS
 10
290.9802521817
 20
179.7310276765
 11
289.9930729276
 21
180.267022279
  0
LINE
  5
231
100
AcDbEntity
  8
0
100
AcDbLine
 62
7
  6
CONTINUOUS
 10
301.8661028309
 20
172.6451448045
 11
302.8244533004
 21
172.0578668815
  0
LINE
  5
232
100
AcDbEntity
  8
0
100
AcDbLine
 62
7
  6
CONTINUOUS
 10
302.096448781
 20
172.9728339214
 11
303.0533027361
 21
172.3864730635
  0
LINE
  5
233
100
AcDbEntity
  8
0
100
AcDbLine
 62
7
  6
CONTINUOUS
 10
303.4079297274
 20
172.5219510945
 11
302.4501551582
 21
173.1088761054
  0
LINE
  5
234
100
AcDbEntity
  8
0
100
AcDbLine
 62
7
  6
CONTINUOUS
 10
301.412621022
 20
171.6599281784
 11
301.9921050431
 21
171.1472440245
  0
LINE
  5
235
100
AcDbEntity
  8
0
100
AcDbLine
 62
7
  6
CONTINUOUS
 10
302.1146493977
 20
171.4404599681
 11
301.4183757691
 21
172.0564708384
  0
LINE
  5
236
100
AcDbEntity
  8
0
100
AcDbLine
 62
7
  6
CONTINUOUS
 10
302.5062110232
 20
171.6277871274
 11
301.6643997919
 21
172.3725587918
  0
LINE
  5
237
100
AcDbEntity
  8
0
100
AcDbLine
 62
7
  6
CONTINUOUS
 10
294.479646401
 20
174.5478531179
 11
295.3456718048
 21
174.5478531179
  0
LINE
  5
238
100
AcDbEntity
  8
0
100
AcDbLine
 62
7
  6
CONTINUOUS
 10
297.9437480161
 20
174.5478531179
 11
298.8097734199
 21
174.5478531179
  0
LINE
  5
239
100
AcDbEntity
  8
0
100
AcDbLine
 62
7
  6
CONTINUOUS
 10
836.4796126074
 20
174.5478531179
 11
837.3456380112
 21
174.5478531179
  0
LINE
  5
23A
100
AcDbEntity
  8
0
100
AcDbLine
 62
7
  6
CONTINUOUS
 10
839.9437142225
 20
174.5478531179
 11
840.8097396263
 21
174.5478531179
  0
LINE
  5
23B
100
AcDbEntity
  8
0
100
AcDbLine
 62
7
  6
CONTINUOUS
 10
840.8097396263
 20
178.0478531179
 11
839.9437142225
 21
178.0478531179
  0
LINE
  5
23C
100
AcDbEntity
  8
0
100
AcDbLine
 62
7
  6
CONTINUOUS
 10
837.3456380112
 20
178.0478531179
 11
836.4796126074
 21
178.0478531179
  0
LINE
  5
23D
100
AcDbEntity
  8
0
100
AcDbLine
 62
7
  6
CONTINUOUS
 10
298.8097734199
 20
178.0478531179
 11
297.9437480161
 21
178.0478531179
  0
LINE
  5
23E
100
AcDbEntity
  8
0
100
AcDbLine
 62
7
  6
CONTINUOUS
 10
295.3456718048
 20
178.0478531179
 11
294.479646401
 21
178.0478531179
  0
LINE
  5
23F
100
AcDbEntity
  8
0
100
AcDbLine
 62
7
  6
CONTINUOUS
 10
296.2116972086
 20
1404.0478193243
 11
295.7786845067
 21
1403.2978193243
  0
LINE
  5
240
100
AcDbEntity
  8
0
100
AcDbLine
 62
7
  6
CONTINUOUS
 10
294.479646401
 20
1401.0478193243
 11
294.0466336991
 21
1400.2978193243
  0
LINE
  5
241
100
AcDbEntity
  8
0
100
AcDbLine
 62
7
  6
CONTINUOUS
 10
297.0777226124
 20
1398.5478193243
 11
297.5107353143
 21
1399.2978193243
  0
LINE
  5
242
100
AcDbEntity
  8
0
100
AcDbLine
 62
7
  6
CONTINUOUS
 10
298.8097734199
 20
1401.5478193243
 11
299.2427861218
 21
1402.2978193243
  0
LINE
  5
243
100
AcDbEntity
  8
0
100
AcDbLine
 62
7
  6
CONTINUOUS
 10
294.0466336991
 20
177.2978531179
 11
294.479646401
 21
176.5478531179
  0
LINE
  5
244
100
AcDbEntity
  8
0
100
AcDbLine
 62
7
  6
CONTINUOUS
 10
295.7786845067
 20
174.2978531179
 11
296.2116972086
 21
173.5478531179
  0
LINE
  5
245
100
AcDbEntity
  8
0
100
AcDbLine
 62
7
  6
CONTINUOUS
 10
299.2427861218
 20
175.2978531179
 11
298.8097734199
 21
176.0478531179
  0
LINE
  5
246
100
AcDbEntity
  8
0
100
AcDbLine
 62
7
  6
CONTINUOUS
 10
297.5107353143
 20
178.2978531179
 11
297.0777226124
 21
179.0478531179
  0
LINE
  5
247
100
AcDbEntity
  8
0
100
AcDbLine
 62
7
  6
CONTINUOUS
 10
284.4930997161
 20
1470.4878744215
 11
284.4162099105
 21
1470.3034061725
  0
LINE
  5
248
100
AcDbEntity
  8
0
100
AcDbLine
 62
7
  6
CONTINUOUS
 10
832.2693626463
 20
1399.4960824221
 11
831.2054040445
 21
1399.1400868538
  0
LINE
  5
249
100
AcDbEntity
  8
0
100
AcDbLine
 62
7
  6
CONTINUOUS
 10
831.520466043
 20
1398.9283074003
 11
832.5846983864
 21
1399.2843945613
  0
LINE
  5
24A
100
AcDbEntity
  8
0
100
AcDbLine
 62
7
  6
CONTINUOUS
 10
831.6695297754
 20
1398.5566434516
 11
832.7354265724
 21
1398.9132875309
  0
LINE
  5
24B
100
AcDbEntity
  8
0
100
AcDbLine
 62
7
  6
CONTINUOUS
 10
831.2054040445
 20
178.4555855884
 11
832.2693626463
 21
178.0995900201
  0
LINE
  5
24C
100
AcDbEntity
  8
0
100
AcDbLine
 62
7
  6
CONTINUOUS
 10
832.5846983864
 20
178.3112778809
 11
831.520466043
 21
178.6673650418
  0
LINE
  5
24D
100
AcDbEntity
  8
0
100
AcDbLine
 62
7
  6
CONTINUOUS
 10
832.7354265151
 20
178.6823847727
 11
831.6695297327
 21
179.0390288856
  0
LINE
  5
24E
100
AcDbEntity
  8
0
100
AcDbLine
 62
7
  6
CONTINUOUS
 10
284.4162099105
 20
107.2922662696
 11
284.4930997161
 21
107.1077980207
  0
LINE
  5
24F
100
AcDbEntity
  8
0
100
AcDbLine
 62
7
  6
CONTINUOUS
 10
297.7583551392
 20
1408.7090611875
 11
297.5342695735
 21
1407.6076454437
  0
LINE
  5
250
100
AcDbEntity
  8
0
100
AcDbLine
 62
7
  6
CONTINUOUS
 10
285.9162099105
 20
1470.3034062799
 11
285.9546548133
 21
1470.4878744215
  0
LINE
  5
251
100
AcDbEntity
  8
0
100
AcDbLine
 62
7
  6
CONTINUOUS
 10
832.8706414647
 20
1398.6023145688
 11
831.8828686295
 21
1398.0659976779
  0
LINE
  5
252
100
AcDbEntity
  8
0
100
AcDbLine
 62
7
  6
CONTINUOUS
 10
833.0392555893
 20
1398.2389845658
 11
832.0530252131
 21
1397.7035051619
  0
LINE
  5
253
100
AcDbEntity
  8
0
100
AcDbLine
 62
7
  6
CONTINUOUS
 10
831.993039134
 20
1397.3286501631
 11
832.9802183881
 21
1397.8646447657
  0
LINE
  5
254
100
AcDbEntity
  8
0
100
AcDbLine
 62
7
  6
CONTINUOUS
 10
831.8828686295
 20
179.5296747642
 11
832.8706414647
 21
178.9933578734
  0
LINE
  5
255
100
AcDbEntity
  8
0
100
AcDbLine
 62
7
  6
CONTINUOUS
 10
832.0530252131
 20
179.8921672803
 11
833.0392555893
 21
179.3566878763
  0
LINE
  5
256
100
AcDbEntity
  8
0
100
AcDbLine
 62
7
  6
CONTINUOUS
 10
832.9802183881
 20
179.7310276765
 11
831.993039134
 21
180.267022279
  0
LINE
  5
257
100
AcDbEntity
  8
0
100
AcDbLine
 62
7
  6
CONTINUOUS
 10
285.9546548133
 20
107.1077980207
 11
285.9162099105
 21
107.2922661619
  0
LINE
  5
258
100
AcDbEntity
  8
0
100
AcDbLine
 62
7
  6
CONTINUOUS
 10
297.5342695735
 20
169.9880269984
 11
297.7583551392
 21
168.8866112547
  0
LINE
  5
259
100
AcDbEntity
  8
0
100
AcDbLine
 62
7
  6
CONTINUOUS
 10
298.1547574267
 20
1408.6523221921
 11
297.9310217824
 21
1407.5526263667
  0
LINE
  5
25A
100
AcDbEntity
  8
0
100
AcDbLine
 62
7
  6
CONTINUOUS
 10
298.2773151797
 20
1407.7459139715
 11
298.4956948126
 21
1408.8192841599
  0
LINE
  5
25B
100
AcDbEntity
  8
0
100
AcDbLine
 62
7
  6
CONTINUOUS
 10
296.2116972086
 20
1054.0478193243
 11
295.7786845067
 21
1053.2978193243
  0
LINE
  5
25C
100
AcDbEntity
  8
0
100
AcDbLine
 62
7
  6
CONTINUOUS
 10
294.479646401
 20
1051.0478193243
 11
294.0466336991
 21
1050.2978193243
  0
LINE
  5
25D
100
AcDbEntity
  8
0
100
AcDbLine
 62
7
  6
CONTINUOUS
 10
297.0777226124
 20
1048.5478193243
 11
297.5107353143
 21
1049.2978193243
  0
LINE
  5
25E
100
AcDbEntity
  8
0
100
AcDbLine
 62
7
  6
CONTINUOUS
 10
298.8097734199
 20
1051.5478193243
 11
299.2427861218
 21
1052.2978193243
  0
LINE
  5
25F
100
AcDbEntity
  8
0
100
AcDbLine
 62
7
  6
CONTINUOUS
 10
301.4128308505
 20
1055.9359299044
 11
302.0056439317
 21
1056.4604066145
  0
LINE
  5
260
100
AcDbEntity
  8
0
100
AcDbLine
 62
7
  6
CONTINUOUS
 10
301.4183757691
 20
1055.5392016038
 11
302.1274175391
 21
1056.1665087713
  0
LINE
  5
261
100
AcDbEntity
  8
0
100
AcDbLine
 62
7
  6
CONTINUOUS
 10
301.6643997919
 20
1055.2231136504
 11
302.5062110232
 21
1055.9678853148
  0
LINE
  5
262
100
AcDbEntity
  8
0
100
AcDbLine
 62
7
  6
CONTINUOUS
 10
844.8244195068
 20
1405.5378055607
 11
843.8660690373
 21
1404.9505276377
  0
LINE
  5
263
100
AcDbEntity
  8
0
100
AcDbLine
 62
7
  6
CONTINUOUS
 10
845.0532689425
 20
1405.2091993786
 11
844.0964149874
 21
1404.6228385208
  0
LINE
  5
264
100
AcDbEntity
  8
0
100
AcDbLine
 62
7
  6
CONTINUOUS
 10
844.4501213646
 20
1404.4867963368
 11
845.4078959338
 21
1405.0737213476
  0
LINE
  5
265
100
AcDbEntity
  8
0
100
AcDbLine
 62
7
  6
CONTINUOUS
 10
302.8244533004
 20
1055.5378055607
 11
301.8661028309
 21
1054.9505276377
  0
LINE
  5
266
100
AcDbEntity
  8
0
100
AcDbLine
 62
7
  6
CONTINUOUS
 10
303.0533027361
 20
1055.2091993786
 11
302.096448781
 21
1054.6228385208
  0
LINE
  5
267
100
AcDbEntity
  8
0
100
AcDbLine
 62
7
  6
CONTINUOUS
 10
302.4501551582
 20
1054.4867963368
 11
303.4079297274
 21
1055.0737213476
  0
LINE
  5
268
100
AcDbEntity
  8
0
100
AcDbLine
 62
7
  6
CONTINUOUS
 10
290.8706752583
 20
1048.6023145688
 11
289.8829024231
 21
1048.0659976779
  0
LINE
  5
269
100
AcDbEntity
  8
0
100
AcDbLine
 62
7
  6
CONTINUOUS
 10
291.0392893829
 20
1048.2389845658
 11
290.0530590067
 21
1047.7035051619
  0
LINE
  5
26A
100
AcDbEntity
  8
0
100
AcDbLine
 62
7
  6
CONTINUOUS
 10
289.9930729276
 20
1047.3286501631
 11
290.9802521817
 21
1047.8646447657
  0
LINE
  5
26B
100
AcDbEntity
  8
0
100
AcDbLine
 62
7
  6
CONTINUOUS
 10
289.8829024231
 20
529.5296747642
 11
290.8706752583
 21
528.9933578734
  0
LINE
  5
26C
100
AcDbEntity
  8
0
100
AcDbLine
 62
7
  6
CONTINUOUS
 10
290.0530590067
 20
529.8921672803
 11
291.0392893829
 21
529.3566878763
  0
LINE
  5
26D
100
AcDbEntity
  8
0
100
AcDbLine
 62
7
  6
CONTINUOUS
 10
290.9802521817
 20
529.7310276765
 11
289.9930729276
 21
530.267022279
  0
LINE
  5
26E
100
AcDbEntity
  8
0
100
AcDbLine
 62
7
  6
CONTINUOUS
 10
843.8660690373
 20
172.6451448045
 11
844.8244195068
 21
172.0578668815
  0
LINE
  5
26F
100
AcDbEntity
  8
0
100
AcDbLine
 62
7
  6
CONTINUOUS
 10
844.0964149874
 20
172.9728339214
 11
845.0532689425
 21
172.3864730635
  0
LINE
  5
270
100
AcDbEntity
  8
0
100
AcDbLine
 62
7
  6
CONTINUOUS
 10
845.4078959338
 20
172.5219510945
 11
844.4501213646
 21
173.1088761054
  0
LINE
  5
271
100
AcDbEntity
  8
0
100
AcDbLine
 62
7
  6
CONTINUOUS
 10
301.8661028309
 20
522.6451448045
 11
302.8244533004
 21
522.0578668815
  0
LINE
  5
272
100
AcDbEntity
  8
0
100
AcDbLine
 62
7
  6
CONTINUOUS
 10
302.096448781
 20
522.9728339214
 11
303.0533027361
 21
522.3864730635
  0
LINE
  5
273
100
AcDbEntity
  8
0
100
AcDbLine
 62
7
  6
CONTINUOUS
 10
303.4079297274
 20
522.5219510945
 11
302.4501551582
 21
523.1088761054
  0
LINE
  5
274
100
AcDbEntity
  8
0
100
AcDbLine
 62
7
  6
CONTINUOUS
 10
301.412621022
 20
521.6599281784
 11
301.9921050431
 21
521.1472440245
  0
LINE
  5
275
100
AcDbEntity
  8
0
100
AcDbLine
 62
7
  6
CONTINUOUS
 10
302.1146493977
 20
521.4404599681
 11
301.4183757691
 21
522.0564708384
  0
LINE
  5
276
100
AcDbEntity
  8
0
100
AcDbLine
 62
7
  6
CONTINUOUS
 10
302.5062110232
 20
521.6277871274
 11
301.6643997919
 21
522.3725587918
  0
LINE
  5
277
100
AcDbEntity
  8
0
100
AcDbLine
 62
7
  6
CONTINUOUS
 10
294.0466336991
 20
527.2978531179
 11
294.479646401
 21
526.5478531179
  0
LINE
  5
278
100
AcDbEntity
  8
0
100
AcDbLine
 62
7
  6
CONTINUOUS
 10
295.7786845067
 20
524.2978531179
 11
296.2116972086
 21
523.5478531179
  0
LINE
  5
279
100
AcDbEntity
  8
0
100
AcDbLine
 62
7
  6
CONTINUOUS
 10
299.2427861218
 20
525.2978531179
 11
298.8097734199
 21
526.0478531179
  0
LINE
  5
27A
100
AcDbEntity
  8
0
100
AcDbLine
 62
7
  6
CONTINUOUS
 10
297.5107353143
 20
528.2978531179
 11
297.0777226124
 21
529.0478531179
  0
LINE
  5
27B
100
AcDbEntity
  8
0
100
AcDbLine
 62
7
  6
CONTINUOUS
 10
297.9310217824
 20
170.0430460754
 11
298.1547574267
 21
168.94335025
  0
LINE
  5
27C
100
AcDbEntity
  8
0
100
AcDbLine
 62
7
  6
CONTINUOUS
 10
298.2773712044
 20
169.8494831001
 11
298.4956948126
 21
168.7763882823
  0
LINE
  5
27D
100
AcDbEntity
  8
0
100
AcDbLine
 62
7
  6
CONTINUOUS
 10
297.7583551392
 20
1058.7090611875
 11
297.5342695735
 21
1057.6076454437
  0
LINE
  5
27E
100
AcDbEntity
  8
0
100
AcDbLine
 62
7
  6
CONTINUOUS
 10
298.1547574267
 20
1058.6523221921
 11
297.9310217824
 21
1057.5526263667
  0
LINE
  5
27F
100
AcDbEntity
  8
0
100
AcDbLine
 62
7
  6
CONTINUOUS
 10
298.2773151797
 20
1057.7459139715
 11
298.4956948126
 21
1058.8192841599
  0
LINE
  5
280
100
AcDbEntity
  8
0
100
AcDbLine
 62
7
  6
CONTINUOUS
 10
290.2693964399
 20
1049.4960824221
 11
289.2054378381
 21
1049.1400868538
  0
LINE
  5
281
100
AcDbEntity
  8
0
100
AcDbLine
 62
7
  6
CONTINUOUS
 10
289.5204998366
 20
1048.9283074003
 11
290.58473218
 21
1049.2843945613
  0
LINE
  5
282
100
AcDbEntity
  8
0
100
AcDbLine
 62
7
  6
CONTINUOUS
 10
289.669563569
 20
1048.5566434516
 11
290.735460366
 21
1048.9132875309
  0
LINE
  5
283
100
AcDbEntity
  8
0
100
AcDbLine
 62
7
  6
CONTINUOUS
 10
289.2054378381
 20
528.4555855884
 11
290.2693964399
 21
528.0995900201
  0
LINE
  5
284
100
AcDbEntity
  8
0
100
AcDbLine
 62
7
  6
CONTINUOUS
 10
290.58473218
 20
528.3112778809
 11
289.5204998366
 21
528.6673650418
  0
LINE
  5
285
100
AcDbEntity
  8
0
100
AcDbLine
 62
7
  6
CONTINUOUS
 10
290.7354603087
 20
528.6823847727
 11
289.6695635263
 21
529.0390288856
  0
LINE
  5
286
100
AcDbEntity
  8
0
100
AcDbLine
 62
7
  6
CONTINUOUS
 10
297.5342695735
 20
519.9880269984
 11
297.7583551392
 21
518.8866112547
  0
LINE
  5
287
100
AcDbEntity
  8
0
100
AcDbLine
 62
7
  6
CONTINUOUS
 10
297.9310217824
 20
520.0430460754
 11
298.1547574267
 21
518.94335025
  0
LINE
  5
288
100
AcDbEntity
  8
0
100
AcDbLine
 62
7
  6
CONTINUOUS
 10
298.2773712044
 20
519.8494831001
 11
298.4956948126
 21
518.7763882823
  0
LINE
  5
289
100
AcDbEntity
  8
0
100
AcDbLine
 62
7
  6
CONTINUOUS
 10
296.5037223915
 20
169.6757015468
 11
296.5257251943
 21
168.8354484085
  0
LINE
  5
28A
100
AcDbEntity
  8
0
100
AcDbLine
 62
7
  6
CONTINUOUS
 10
296.8253673675
 20
168.8838349188
 11
296.7983915674
 21
169.9139991629
  0
LINE
  5
28B
100
AcDbEntity
  8
0
100
AcDbLine
 62
7
  6
CONTINUOUS
 10
297.2210310857
 20
169.0453585861
 11
297.1973516423
 21
169.949640049
  0
LINE
  5
28C
100
AcDbEntity
  8
0
100
AcDbLine
 62
7
  6
CONTINUOUS
 10
296.5037223915
 20
519.6757015468
 11
296.5257251943
 21
518.8354484085
  0
LINE
  5
28D
100
AcDbEntity
  8
0
100
AcDbLine
 62
7
  6
CONTINUOUS
 10
296.8253673675
 20
518.8838349188
 11
296.7983915674
 21
519.9139991629
  0
LINE
  5
28E
100
AcDbEntity
  8
0
100
AcDbLine
 62
7
  6
CONTINUOUS
 10
297.2210310857
 20
519.0453585861
 11
297.1973516423
 21
519.949640049
  0
LINE
  5
28F
100
AcDbEntity
  8
0
100
AcDbLine
 62
7
  6
CONTINUOUS
 10
296.5037223915
 20
1044.6756677532
 11
296.5257251943
 21
1043.8354146149
  0
LINE
  5
290
100
AcDbEntity
  8
0
100
AcDbLine
 62
7
  6
CONTINUOUS
 10
296.8253673675
 20
1043.8838011252
 11
296.7983915674
 21
1044.9139653693
  0
LINE
  5
291
100
AcDbEntity
  8
0
100
AcDbLine
 62
7
  6
CONTINUOUS
 10
297.2210310857
 20
1044.0453247925
 11
297.1973516423
 21
1044.9496062554
  0
LINE
  5
292
100
AcDbEntity
  8
0
100
AcDbLine
 62
7
  6
CONTINUOUS
 10
296.5037223915
 20
1394.6756677532
 11
296.5257251943
 21
1393.8354146149
  0
LINE
  5
293
100
AcDbEntity
  8
0
100
AcDbLine
 62
7
  6
CONTINUOUS
 10
296.8253673675
 20
1393.8838011252
 11
296.7983915674
 21
1394.9139653693
  0
LINE
  5
294
100
AcDbEntity
  8
0
100
AcDbLine
 62
7
  6
CONTINUOUS
 10
297.2210310857
 20
1394.0453247925
 11
297.1973516423
 21
1394.9496062554
  0
LINE
  5
295
100
AcDbEntity
  8
0
100
AcDbLine
 62
7
  6
CONTINUOUS
 10
284.4162099105
 20
1470.303406317
 11
284.4162099105
 21
107.2922661252
  0
LINE
  5
296
100
AcDbEntity
  8
0
100
AcDbLine
 62
7
  6
CONTINUOUS
 10
285.9546548133
 20
105.6462429235
 11
285.9546548133
 21
107.2922661619
  0
LINE
  5
297
100
AcDbEntity
  8
0
100
AcDbLine
 62
7
  6
CONTINUOUS
 10
285.9546548133
 20
1470.3034062799
 11
285.9546548133
 21
1471.9494295187
  0
LINE
  5
298
100
AcDbEntity
  8
0
100
AcDbLine
 62
7
  6
CONTINUOUS
 10
287.4162099105
 20
1469.0263193243
 11
287.4162099105
 21
108.5693531179
  0
LINE
  5
299
100
AcDbEntity
  8
0
100
AcDbLine
 62
7
  6
CONTINUOUS
 10
296.5251108635
 20
1408.7367636863
 11
296.5037223915
 21
1407.9199708954
  0
LINE
  5
29A
100
AcDbEntity
  8
0
100
AcDbLine
 62
7
  6
CONTINUOUS
 10
296.7983915674
 20
1407.6816732793
 11
296.8259555567
 21
1408.7342995607
  0
LINE
  5
29B
100
AcDbEntity
  8
0
100
AcDbLine
 62
7
  6
CONTINUOUS
 10
297.1973516423
 20
1407.6460323932
 11
297.2215357494
 21
1408.5695861842
  0
LINE
  5
29C
100
AcDbEntity
  8
0
100
AcDbLine
 62
7
  6
CONTINUOUS
 10
296.5251108635
 20
1058.7367636863
 11
296.5037223915
 21
1057.9199708954
  0
LINE
  5
29D
100
AcDbEntity
  8
0
100
AcDbLine
 62
7
  6
CONTINUOUS
 10
296.7983915674
 20
1057.6816732793
 11
296.8259555567
 21
1058.7342995607
  0
LINE
  5
29E
100
AcDbEntity
  8
0
100
AcDbLine
 62
7
  6
CONTINUOUS
 10
297.1973516423
 20
1057.6460323932
 11
297.2215357494
 21
1058.5695861842
  0
LINE
  5
29F
100
AcDbEntity
  8
0
100
AcDbLine
 62
7
  6
CONTINUOUS
 10
296.5251108635
 20
533.7367974799
 11
296.5037223915
 21
532.920004689
  0
LINE
  5
2A0
100
AcDbEntity
  8
0
100
AcDbLine
 62
7
  6
CONTINUOUS
 10
296.7983915674
 20
532.6817070728
 11
296.8259555567
 21
533.7343333543
  0
LINE
  5
2A1
100
AcDbEntity
  8
0
100
AcDbLine
 62
7
  6
CONTINUOUS
 10
297.1973516423
 20
532.6460661868
 11
297.2215357494
 21
533.5696199778
  0
LINE
  5
2A2
100
AcDbEntity
  8
0
100
AcDbLine
 62
7
  6
CONTINUOUS
 10
296.5251108635
 20
183.7367974799
 11
296.5037223915
 21
182.920004689
  0
LINE
  5
2A3
100
AcDbEntity
  8
0
100
AcDbLine
 62
7
  6
CONTINUOUS
 10
296.7983915674
 20
182.6817070728
 11
296.8259555567
 21
183.7343333543
  0
LINE
  5
2A4
100
AcDbEntity
  8
0
100
AcDbLine
 62
7
  6
CONTINUOUS
 10
297.1973516423
 20
182.6460661868
 11
297.2215357494
 21
183.5696199778
  0
LINE
  5
2A5
100
AcDbEntity
  8
0
100
AcDbLine
 62
7
  6
CONTINUOUS
 10
849.3347312141
 20
1470.4878744215
 11
847.8731761169
 21
1469.0263193243
  0
LINE
  5
2A6
100
AcDbEntity
  8
0
100
AcDbLine
 62
7
  6
CONTINUOUS
 10
843.4127970569
 20
1405.9359299044
 11
844.0056101381
 21
1406.4604066145
  0
LINE
  5
2A7
100
AcDbEntity
  8
0
100
AcDbLine
 62
7
  6
CONTINUOUS
 10
843.4183419755
 20
1405.5392016038
 11
844.1273837455
 21
1406.1665087713
  0
LINE
  5
2A8
100
AcDbEntity
  8
0
100
AcDbLine
 62
7
  6
CONTINUOUS
 10
843.6643659983
 20
1405.2231136504
 11
844.5061772296
 21
1405.9678853148
  0
LINE
  5
2A9
100
AcDbEntity
  8
0
100
AcDbLine
 62
7
  6
CONTINUOUS
 10
294.479646401
 20
524.5478531179
 11
295.3456718048
 21
524.5478531179
  0
LINE
  5
2AA
100
AcDbEntity
  8
0
100
AcDbLine
 62
7
  6
CONTINUOUS
 10
297.9437480161
 20
524.5478531179
 11
298.8097734199
 21
524.5478531179
  0
LINE
  5
2AB
100
AcDbEntity
  8
0
100
AcDbLine
 62
7
  6
CONTINUOUS
 10
836.4796126074
 20
524.5478531179
 11
837.3456380112
 21
524.5478531179
  0
LINE
  5
2AC
100
AcDbEntity
  8
0
100
AcDbLine
 62
7
  6
CONTINUOUS
 10
839.9437142225
 20
524.5478531179
 11
840.8097396263
 21
524.5478531179
  0
LINE
  5
2AD
100
AcDbEntity
  8
0
100
AcDbLine
 62
7
  6
CONTINUOUS
 10
840.8097396263
 20
528.0478531179
 11
839.9437142225
 21
528.0478531179
  0
LINE
  5
2AE
100
AcDbEntity
  8
0
100
AcDbLine
 62
7
  6
CONTINUOUS
 10
837.3456380112
 20
528.0478531179
 11
836.4796126074
 21
528.0478531179
  0
LINE
  5
2AF
100
AcDbEntity
  8
0
100
AcDbLine
 62
7
  6
CONTINUOUS
 10
298.8097734199
 20
528.0478531179
 11
297.9437480161
 21
528.0478531179
  0
LINE
  5
2B0
100
AcDbEntity
  8
0
100
AcDbLine
 62
7
  6
CONTINUOUS
 10
295.3456718048
 20
528.0478531179
 11
294.479646401
 21
528.0478531179
  0
LINE
  5
2B1
100
AcDbEntity
  8
0
100
AcDbLine
 62
7
  6
CONTINUOUS
 10
843.4125872284
 20
171.6599281784
 11
843.9920712495
 21
171.1472440245
  0
LINE
  5
2B2
100
AcDbEntity
  8
0
100
AcDbLine
 62
7
  6
CONTINUOUS
 10
844.1146156041
 20
171.4404599681
 11
843.4183419755
 21
172.0564708384
  0
LINE
  5
2B3
100
AcDbEntity
  8
0
100
AcDbLine
 62
7
  6
CONTINUOUS
 10
844.5061772296
 20
171.6277871274
 11
843.6643659983
 21
172.3725587918
  0
LINE
  5
2B4
100
AcDbEntity
  8
0
100
AcDbLine
 62
7
  6
CONTINUOUS
 10
849.3347312141
 20
107.1077980206
 11
847.8731761169
 21
108.5693531179
  0
LINE
  5
2B5
100
AcDbEntity
  8
0
100
AcDbLine
 62
7
  6
CONTINUOUS
 10
297.7583551392
 20
533.7090949811
 11
297.5342695735
 21
532.6076792373
  0
LINE
  5
2B6
100
AcDbEntity
  8
0
100
AcDbLine
 62
7
  6
CONTINUOUS
 10
298.1547574267
 20
533.6523559857
 11
297.9310217824
 21
532.5526601603
  0
LINE
  5
2B7
100
AcDbEntity
  8
0
100
AcDbLine
 62
7
  6
CONTINUOUS
 10
298.2773151797
 20
532.7459477651
 11
298.4956948126
 21
533.8193179535
  0
LINE
  5
2B8
100
AcDbEntity
  8
0
100
AcDbLine
 62
7
  6
CONTINUOUS
 10
297.5342695735
 20
1044.9879932048
 11
297.7583551392
 21
1043.8865774611
  0
LINE
  5
2B9
100
AcDbEntity
  8
0
100
AcDbLine
 62
7
  6
CONTINUOUS
 10
297.9310217824
 20
1045.0430122818
 11
298.1547574267
 21
1043.9433164564
  0
LINE
  5
2BA
100
AcDbEntity
  8
0
100
AcDbLine
 62
7
  6
CONTINUOUS
 10
298.2773712044
 20
1044.8494493065
 11
298.4956948126
 21
1043.7763544887
  0
LINE
  5
2BB
100
AcDbEntity
  8
0
100
AcDbLine
 62
7
  6
CONTINUOUS
 10
297.7583551392
 20
183.7090949811
 11
297.5342695735
 21
182.6076792373
  0
LINE
  5
2BC
100
AcDbEntity
  8
0
100
AcDbLine
 62
7
  6
CONTINUOUS
 10
298.1547574267
 20
183.6523559857
 11
297.9310217824
 21
182.5526601603
  0
LINE
  5
2BD
100
AcDbEntity
  8
0
100
AcDbLine
 62
7
  6
CONTINUOUS
 10
298.2773151797
 20
182.7459477651
 11
298.4956948126
 21
183.8193179535
  0
LINE
  5
2BE
100
AcDbEntity
  8
0
100
AcDbLine
 62
7
  6
CONTINUOUS
 10
832.2693626463
 20
1049.4960824221
 11
831.2054040445
 21
1049.1400868538
  0
LINE
  5
2BF
100
AcDbEntity
  8
0
100
AcDbLine
 62
7
  6
CONTINUOUS
 10
831.520466043
 20
1048.9283074003
 11
832.5846983864
 21
1049.2843945613
  0
LINE
  5
2C0
100
AcDbEntity
  8
0
100
AcDbLine
 62
7
  6
CONTINUOUS
 10
831.6695297754
 20
1048.5566434516
 11
832.7354265724
 21
1048.9132875309
  0
LINE
  5
2C1
100
AcDbEntity
  8
0
100
AcDbLine
 62
7
  6
CONTINUOUS
 10
831.2054040445
 20
528.4555855884
 11
832.2693626463
 21
528.0995900201
  0
LINE
  5
2C2
100
AcDbEntity
  8
0
100
AcDbLine
 62
7
  6
CONTINUOUS
 10
832.5846983864
 20
528.3112778809
 11
831.520466043
 21
528.6673650418
  0
LINE
  5
2C3
100
AcDbEntity
  8
0
100
AcDbLine
 62
7
  6
CONTINUOUS
 10
832.7354265151
 20
528.6823847727
 11
831.6695297327
 21
529.0390288856
  0
LINE
  5
2C4
100
AcDbEntity
  8
0
100
AcDbLine
 62
7
  6
CONTINUOUS
 10
297.5342695735
 20
1394.9879932048
 11
297.7583551392
 21
1393.8865774611
  0
LINE
  5
2C5
100
AcDbEntity
  8
0
100
AcDbLine
 62
7
  6
CONTINUOUS
 10
297.9310217824
 20
1395.0430122818
 11
298.1547574267
 21
1393.9433164564
  0
LINE
  5
2C6
100
AcDbEntity
  8
0
100
AcDbLine
 62
7
  6
CONTINUOUS
 10
298.2773712044
 20
1394.8494493065
 11
298.4956948126
 21
1393.7763544887
  0
LINE
  5
2C7
100
AcDbEntity
  8
0
100
AcDbLine
 62
7
  6
CONTINUOUS
 10
296.2116972086
 20
529.0478531179
 11
295.7786845067
 21
528.2978531179
  0
LINE
  5
2C8
100
AcDbEntity
  8
0
100
AcDbLine
 62
7
  6
CONTINUOUS
 10
294.479646401
 20
526.0478531179
 11
294.0466336991
 21
525.2978531179
  0
LINE
  5
2C9
100
AcDbEntity
  8
0
100
AcDbLine
 62
7
  6
CONTINUOUS
 10
297.0777226124
 20
523.5478531179
 11
297.5107353143
 21
524.2978531179
  0
LINE
  5
2CA
100
AcDbEntity
  8
0
100
AcDbLine
 62
7
  6
CONTINUOUS
 10
298.8097734199
 20
526.5478531179
 11
299.2427861218
 21
527.2978531179
  0
LINE
  5
2CB
100
AcDbEntity
  8
0
100
AcDbLine
 62
7
  6
CONTINUOUS
 10
832.8706414647
 20
1048.6023145688
 11
831.8828686295
 21
1048.0659976779
  0
LINE
  5
2CC
100
AcDbEntity
  8
0
100
AcDbLine
 62
7
  6
CONTINUOUS
 10
833.0392555893
 20
1048.2389845658
 11
832.0530252131
 21
1047.7035051619
  0
LINE
  5
2CD
100
AcDbEntity
  8
0
100
AcDbLine
 62
7
  6
CONTINUOUS
 10
831.993039134
 20
1047.3286501631
 11
832.9802183881
 21
1047.8646447657
  0
LINE
  5
2CE
100
AcDbEntity
  8
0
100
AcDbLine
 62
7
  6
CONTINUOUS
 10
831.8828686295
 20
529.5296747642
 11
832.8706414647
 21
528.9933578734
  0
LINE
  5
2CF
100
AcDbEntity
  8
0
100
AcDbLine
 62
7
  6
CONTINUOUS
 10
832.0530252131
 20
529.8921672803
 11
833.0392555893
 21
529.3566878763
  0
LINE
  5
2D0
100
AcDbEntity
  8
0
100
AcDbLine
 62
7
  6
CONTINUOUS
 10
832.9802183881
 20
529.7310276765
 11
831.993039134
 21
530.267022279
  0
LINE
  5
2D1
100
AcDbEntity
  8
0
100
AcDbLine
 62
7
  6
CONTINUOUS
 10
294.0466336991
 20
1052.2978193243
 11
294.479646401
 21
1051.5478193243
  0
LINE
  5
2D2
100
AcDbEntity
  8
0
100
AcDbLine
 62
7
  6
CONTINUOUS
 10
295.7786845067
 20
1049.2978193243
 11
296.2116972086
 21
1048.5478193243
  0
LINE
  5
2D3
100
AcDbEntity
  8
0
100
AcDbLine
 62
7
  6
CONTINUOUS
 10
299.2427861218
 20
1050.2978193243
 11
298.8097734199
 21
1051.0478193243
  0
LINE
  5
2D4
100
AcDbEntity
  8
0
100
AcDbLine
 62
7
  6
CONTINUOUS
 10
297.5107353143
 20
1053.2978193243
 11
297.0777226124
 21
1054.0478193243
  0
LINE
  5
2D5
100
AcDbEntity
  8
0
100
AcDbLine
 62
7
  6
CONTINUOUS
 10
838.211663415
 20
1404.0478193243
 11
837.7786507131
 21
1403.2978193243
  0
LINE
  5
2D6
100
AcDbEntity
  8
0
100
AcDbLine
 62
7
  6
CONTINUOUS
 10
836.4796126074
 20
1401.0478193243
 11
836.0465999055
 21
1400.2978193243
  0
LINE
  5
2D7
100
AcDbEntity
  8
0
100
AcDbLine
 62
7
  6
CONTINUOUS
 10
839.0776888188
 20
1398.5478193243
 11
839.5107015207
 21
1399.2978193243
  0
LINE
  5
2D8
100
AcDbEntity
  8
0
100
AcDbLine
 62
7
  6
CONTINUOUS
 10
840.8097396263
 20
1401.5478193243
 11
841.2427523282
 21
1402.2978193243
  0
LINE
  5
2D9
100
AcDbEntity
  8
0
100
AcDbLine
 62
7
  6
CONTINUOUS
 10
844.8244195068
 20
1055.5378055607
 11
843.8660690373
 21
1054.9505276377
  0
LINE
  5
2DA
100
AcDbEntity
  8
0
100
AcDbLine
 62
7
  6
CONTINUOUS
 10
845.0532689425
 20
1055.2091993786
 11
844.0964149874
 21
1054.6228385208
  0
LINE
  5
2DB
100
AcDbEntity
  8
0
100
AcDbLine
 62
7
  6
CONTINUOUS
 10
844.4501213646
 20
1054.4867963368
 11
845.4078959338
 21
1055.0737213476
  0
LINE
  5
2DC
100
AcDbEntity
  8
0
100
AcDbLine
 62
7
  6
CONTINUOUS
 10
843.8660690373
 20
522.6451448045
 11
844.8244195068
 21
522.0578668815
  0
LINE
  5
2DD
100
AcDbEntity
  8
0
100
AcDbLine
 62
7
  6
CONTINUOUS
 10
844.0964149874
 20
522.9728339214
 11
845.0532689425
 21
522.3864730635
  0
LINE
  5
2DE
100
AcDbEntity
  8
0
100
AcDbLine
 62
7
  6
CONTINUOUS
 10
845.4078959338
 20
522.5219510945
 11
844.4501213646
 21
523.1088761054
  0
LINE
  5
2DF
100
AcDbEntity
  8
0
100
AcDbLine
 62
7
  6
CONTINUOUS
 10
836.0465999055
 20
177.2978531179
 11
836.4796126074
 21
176.5478531179
  0
LINE
  5
2E0
100
AcDbEntity
  8
0
100
AcDbLine
 62
7
  6
CONTINUOUS
 10
837.7786507131
 20
174.2978531179
 11
838.211663415
 21
173.5478531179
  0
LINE
  5
2E1
100
AcDbEntity
  8
0
100
AcDbLine
 62
7
  6
CONTINUOUS
 10
841.2427523282
 20
175.2978531179
 11
840.8097396263
 21
176.0478531179
  0
LINE
  5
2E2
100
AcDbEntity
  8
0
100
AcDbLine
 62
7
  6
CONTINUOUS
 10
839.5107015207
 20
178.2978531179
 11
839.0776888188
 21
179.0478531179
  0
LINE
  5
2E3
100
AcDbEntity
  8
0
100
AcDbLine
 62
7
  6
CONTINUOUS
 10
843.4127970569
 20
1055.9359299044
 11
844.0056101381
 21
1056.4604066145
  0
LINE
  5
2E4
100
AcDbEntity
  8
0
100
AcDbLine
 62
7
  6
CONTINUOUS
 10
843.4183419755
 20
1055.5392016038
 11
844.1273837455
 21
1056.1665087713
  0
LINE
  5
2E5
100
AcDbEntity
  8
0
100
AcDbLine
 62
7
  6
CONTINUOUS
 10
843.6643659983
 20
1055.2231136504
 11
844.5061772296
 21
1055.9678853148
  0
LINE
  5
2E6
100
AcDbEntity
  8
0
100
AcDbLine
 62
7
  6
CONTINUOUS
 10
843.4125872284
 20
521.6599281784
 11
843.9920712495
 21
521.1472440245
  0
LINE
  5
2E7
100
AcDbEntity
  8
0
100
AcDbLine
 62
7
  6
CONTINUOUS
 10
844.1146156041
 20
521.4404599681
 11
843.4183419755
 21
522.0564708384
  0
LINE
  5
2E8
100
AcDbEntity
  8
0
100
AcDbLine
 62
7
  6
CONTINUOUS
 10
844.5061772296
 20
521.6277871274
 11
843.6643659983
 21
522.3725587918
  0
LINE
  5
2E9
100
AcDbEntity
  8
0
100
AcDbLine
 62
7
  6
CONTINUOUS
 10
301.4128308505
 20
530.935963698
 11
302.0056439317
 21
531.4604404081
  0
LINE
  5
2EA
100
AcDbEntity
  8
0
100
AcDbLine
 62
7
  6
CONTINUOUS
 10
301.4183757691
 20
530.5392353974
 11
302.1274175391
 21
531.1665425649
  0
LINE
  5
2EB
100
AcDbEntity
  8
0
100
AcDbLine
 62
7
  6
CONTINUOUS
 10
301.6643997919
 20
530.223147444
 11
302.5062110232
 21
530.9679191084
  0
LINE
  5
2EC
100
AcDbEntity
  8
0
100
AcDbLine
 62
7
  6
CONTINUOUS
 10
301.412621022
 20
1046.6598943848
 11
301.9921050431
 21
1046.1472102309
  0
LINE
  5
2ED
100
AcDbEntity
  8
0
100
AcDbLine
 62
7
  6
CONTINUOUS
 10
302.1146493977
 20
1046.4404261745
 11
301.4183757691
 21
1047.0564370448
  0
LINE
  5
2EE
100
AcDbEntity
  8
0
100
AcDbLine
 62
7
  6
CONTINUOUS
 10
302.5062110232
 20
1046.6277533338
 11
301.6643997919
 21
1047.3725249982
  0
LINE
  5
2EF
100
AcDbEntity
  8
0
100
AcDbLine
 62
7
  6
CONTINUOUS
 10
296.2116972086
 20
179.0478531179
 11
295.7786845067
 21
178.2978531179
  0
LINE
  5
2F0
100
AcDbEntity
  8
0
100
AcDbLine
 62
7
  6
CONTINUOUS
 10
294.479646401
 20
176.0478531179
 11
294.0466336991
 21
175.2978531179
  0
LINE
  5
2F1
100
AcDbEntity
  8
0
100
AcDbLine
 62
7
  6
CONTINUOUS
 10
297.0777226124
 20
173.5478531179
 11
297.5107353143
 21
174.2978531179
  0
LINE
  5
2F2
100
AcDbEntity
  8
0
100
AcDbLine
 62
7
  6
CONTINUOUS
 10
298.8097734199
 20
176.5478531179
 11
299.2427861218
 21
177.2978531179
  0
LINE
  5
2F3
100
AcDbEntity
  8
0
100
AcDbLine
 62
7
  6
CONTINUOUS
 10
838.211663415
 20
1054.0478193243
 11
837.7786507131
 21
1053.2978193243
  0
LINE
  5
2F4
100
AcDbEntity
  8
0
100
AcDbLine
 62
7
  6
CONTINUOUS
 10
836.4796126074
 20
1051.0478193243
 11
836.0465999055
 21
1050.2978193243
  0
LINE
  5
2F5
100
AcDbEntity
  8
0
100
AcDbLine
 62
7
  6
CONTINUOUS
 10
302.8244533004
 20
530.5378393543
 11
301.8661028309
 21
529.9505614313
  0
LINE
  5
2F6
100
AcDbEntity
  8
0
100
AcDbLine
 62
7
  6
CONTINUOUS
 10
303.0533027361
 20
530.2092331722
 11
302.096448781
 21
529.6228723144
  0
LINE
  5
2F7
100
AcDbEntity
  8
0
100
AcDbLine
 62
7
  6
CONTINUOUS
 10
302.4501551582
 20
529.4868301304
 11
303.4079297274
 21
530.0737551412
  0
LINE
  5
2F8
100
AcDbEntity
  8
0
100
AcDbLine
 62
7
  6
CONTINUOUS
 10
290.8706752583
 20
523.6023483624
 11
289.8829024231
 21
523.0660314715
  0
LINE
  5
2F9
100
AcDbEntity
  8
0
100
AcDbLine
 62
7
  6
CONTINUOUS
 10
291.0392893829
 20
523.2390183594
 11
290.0530590067
 21
522.7035389555
  0
LINE
  5
2FA
100
AcDbEntity
  8
0
100
AcDbLine
 62
7
  6
CONTINUOUS
 10
289.9930729276
 20
522.3286839567
 11
290.9802521817
 21
522.8646785593
  0
LINE
  5
2FB
100
AcDbEntity
  8
0
100
AcDbLine
 62
7
  6
CONTINUOUS
 10
289.8829024231
 20
1054.5296409706
 11
290.8706752583
 21
1053.9933240798
  0
LINE
  5
2FC
100
AcDbEntity
  8
0
100
AcDbLine
 62
7
  6
CONTINUOUS
 10
290.0530590067
 20
1054.8921334867
 11
291.0392893829
 21
1054.3566540827
  0
LINE
  5
2FD
100
AcDbEntity
  8
0
100
AcDbLine
 62
7
  6
CONTINUOUS
 10
290.9802521817
 20
1054.7309938829
 11
289.9930729276
 21
1055.2669884854
  0
LINE
  5
2FE
100
AcDbEntity
  8
0
100
AcDbLine
 62
7
  6
CONTINUOUS
 10
301.8661028309
 20
1047.6451110109
 11
302.8244533004
 21
1047.0578330879
  0
LINE
  5
2FF
100
AcDbEntity
  8
0
100
AcDbLine
 62
7
  6
CONTINUOUS
 10
302.096448781
 20
1047.9728001278
 11
303.0533027361
 21
1047.3864392699
  0
LINE
  5
300
100
AcDbEntity
  8
0
100
AcDbLine
 62
7
  6
CONTINUOUS
 10
303.4079297274
 20
1047.521917301
 11
302.4501551582
 21
1048.1088423118
  0
LINE
  5
301
100
AcDbEntity
  8
0
100
AcDbLine
 62
7
  6
CONTINUOUS
 10
294.0466336991
 20
1402.2978193243
 11
294.479646401
 21
1401.5478193243
  0
LINE
  5
302
100
AcDbEntity
  8
0
100
AcDbLine
 62
7
  6
CONTINUOUS
 10
295.7786845067
 20
1399.2978193243
 11
296.2116972086
 21
1398.5478193243
  0
LINE
  5
303
100
AcDbEntity
  8
0
100
AcDbLine
 62
7
  6
CONTINUOUS
 10
299.2427861218
 20
1400.2978193243
 11
298.8097734199
 21
1401.0478193243
  0
LINE
  5
304
100
AcDbEntity
  8
0
100
AcDbLine
 62
7
  6
CONTINUOUS
 10
297.5107353143
 20
1403.2978193243
 11
297.0777226124
 21
1404.0478193243
  0
LINE
  5
305
100
AcDbEntity
  8
0
100
AcDbLine
 62
7
  6
CONTINUOUS
 10
836.0465999055
 20
527.2978531179
 11
836.4796126074
 21
526.5478531179
  0
LINE
  5
306
100
AcDbEntity
  8
0
100
AcDbLine
 62
7
  6
CONTINUOUS
 10
837.7786507131
 20
524.2978531179
 11
838.211663415
 21
523.5478531179
  0
LINE
  5
307
100
AcDbEntity
  8
0
100
AcDbLine
 62
7
  6
CONTINUOUS
 10
841.2427523282
 20
525.2978531179
 11
840.8097396263
 21
526.0478531179
  0
LINE
  5
308
100
AcDbEntity
  8
0
100
AcDbLine
 62
7
  6
CONTINUOUS
 10
839.5107015207
 20
528.2978531179
 11
839.0776888188
 21
529.0478531179
  0
LINE
  5
309
100
AcDbEntity
  8
0
100
AcDbLine
 62
7
  6
CONTINUOUS
 10
839.7583213456
 20
1408.7090611875
 11
839.5342357799
 21
1407.6076454437
  0
LINE
  5
30A
100
AcDbEntity
  8
0
100
AcDbLine
 62
7
  6
CONTINUOUS
 10
840.1547236331
 20
1408.6523221921
 11
839.9309879888
 21
1407.5526263667
  0
LINE
  5
30B
100
AcDbEntity
  8
0
100
AcDbLine
 62
7
  6
CONTINUOUS
 10
840.2772813861
 20
1407.7459139715
 11
840.495661019
 21
1408.8192841599
  0
LINE
  5
30C
100
AcDbEntity
  8
0
100
AcDbLine
 62
7
  6
CONTINUOUS
 10
839.0776888188
 20
1048.5478193243
 11
839.5107015207
 21
1049.2978193243
  0
LINE
  5
30D
100
AcDbEntity
  8
0
100
AcDbLine
 62
7
  6
CONTINUOUS
 10
840.8097396263
 20
1051.5478193243
 11
841.2427523282
 21
1052.2978193243
  0
LINE
  5
30E
100
AcDbEntity
  8
0
100
AcDbLine
 62
7
  6
CONTINUOUS
 10
839.5342357799
 20
169.9880269984
 11
839.7583213456
 21
168.8866112547
  0
LINE
  5
30F
100
AcDbEntity
  8
0
100
AcDbLine
 62
7
  6
CONTINUOUS
 10
839.9309879888
 20
170.0430460754
 11
840.1547236331
 21
168.94335025
  0
LINE
  5
310
100
AcDbEntity
  8
0
100
AcDbLine
 62
7
  6
CONTINUOUS
 10
840.2773374108
 20
169.8494831001
 11
840.495661019
 21
168.7763882823
  0
LINE
  5
311
100
AcDbEntity
  8
0
100
AcDbLine
 62
7
  6
CONTINUOUS
 10
290.2693964399
 20
524.4961162157
 11
289.2054378381
 21
524.1401206474
  0
LINE
  5
312
100
AcDbEntity
  8
0
100
AcDbLine
 62
7
  6
CONTINUOUS
 10
289.5204998366
 20
523.9283411939
 11
290.58473218
 21
524.2844283549
  0
LINE
  5
313
100
AcDbEntity
  8
0
100
AcDbLine
 62
7
  6
CONTINUOUS
 10
289.669563569
 20
523.5566772452
 11
290.735460366
 21
523.9133213245
  0
LINE
  5
314
100
AcDbEntity
  8
0
100
AcDbLine
 62
7
  6
CONTINUOUS
 10
289.2054378381
 20
1053.4555517948
 11
290.2693964399
 21
1053.0995562265
  0
LINE
  5
315
100
AcDbEntity
  8
0
100
AcDbLine
 62
7
  6
CONTINUOUS
 10
290.58473218
 20
1053.3112440873
 11
289.5204998366
 21
1053.6673312482
  0
LINE
  5
316
100
AcDbEntity
  8
0
100
AcDbLine
 62
7
  6
CONTINUOUS
 10
290.7354603087
 20
1053.6823509791
 11
289.6695635263
 21
1054.038995092
  0
LINE
  5
317
100
AcDbEntity
  8
0
100
AcDbLine
 62
7
  6
CONTINUOUS
 10
839.7583213456
 20
1058.7090611875
 11
839.5342357799
 21
1057.6076454437
  0
LINE
  5
318
100
AcDbEntity
  8
0
100
AcDbLine
 62
7
  6
CONTINUOUS
 10
840.1547236331
 20
1058.6523221921
 11
839.9309879888
 21
1057.5526263667
  0
LINE
  5
319
100
AcDbEntity
  8
0
100
AcDbLine
 62
7
  6
CONTINUOUS
 10
840.2772813861
 20
1057.7459139715
 11
840.495661019
 21
1058.8192841599
  0
LINE
  5
31A
100
AcDbEntity
  8
0
100
AcDbLine
 62
7
  6
CONTINUOUS
 10
839.5342357799
 20
519.9880269984
 11
839.7583213456
 21
518.8866112547
  0
LINE
  5
31B
100
AcDbEntity
  8
0
100
AcDbLine
 62
7
  6
CONTINUOUS
 10
839.9309879888
 20
520.0430460754
 11
840.1547236331
 21
518.94335025
  0
LINE
  5
31C
100
AcDbEntity
  8
0
100
AcDbLine
 62
7
  6
CONTINUOUS
 10
840.2773374108
 20
519.8494831001
 11
840.495661019
 21
518.7763882823
  0
LINE
  5
31D
100
AcDbEntity
  8
0
100
AcDbLine
 62
7
  6
CONTINUOUS
 10
838.5036885979
 20
169.6757015468
 11
838.5256914007
 21
168.8354484085
  0
LINE
  5
31E
100
AcDbEntity
  8
0
100
AcDbLine
 62
7
  6
CONTINUOUS
 10
838.8253335739
 20
168.8838349188
 11
838.7983577738
 21
169.9139991629
  0
LINE
  5
31F
100
AcDbEntity
  8
0
100
AcDbLine
 62
7
  6
CONTINUOUS
 10
839.2209972921
 20
169.0453585861
 11
839.1973178487
 21
169.949640049
  0
LINE
  5
320
100
AcDbEntity
  8
0
100
AcDbLine
 62
7
  6
CONTINUOUS
 10
838.5036885979
 20
519.6757015468
 11
838.5256914007
 21
518.8354484085
  0
LINE
  5
321
100
AcDbEntity
  8
0
100
AcDbLine
 62
7
  6
CONTINUOUS
 10
838.8253335739
 20
518.8838349188
 11
838.7983577738
 21
519.9139991629
  0
LINE
  5
322
100
AcDbEntity
  8
0
100
AcDbLine
 62
7
  6
CONTINUOUS
 10
839.2209972921
 20
519.0453585861
 11
839.1973178487
 21
519.949640049
  0
LINE
  5
323
100
AcDbEntity
  8
0
100
AcDbLine
 62
7
  6
CONTINUOUS
 10
838.5036885979
 20
1044.6756677532
 11
838.5256914007
 21
1043.8354146149
  0
LINE
  5
324
100
AcDbEntity
  8
0
100
AcDbLine
 62
7
  6
CONTINUOUS
 10
838.8253335739
 20
1043.8838011252
 11
838.7983577738
 21
1044.9139653693
  0
LINE
  5
325
100
AcDbEntity
  8
0
100
AcDbLine
 62
7
  6
CONTINUOUS
 10
839.2209972921
 20
1044.0453247925
 11
839.1973178487
 21
1044.9496062554
  0
LINE
  5
326
100
AcDbEntity
  8
0
100
AcDbLine
 62
7
  6
CONTINUOUS
 10
838.5036885979
 20
1394.6756677532
 11
838.5256914007
 21
1393.8354146149
  0
LINE
  5
327
100
AcDbEntity
  8
0
100
AcDbLine
 62
7
  6
CONTINUOUS
 10
838.8253335739
 20
1393.8838011252
 11
838.7983577738
 21
1394.9139653693
  0
LINE
  5
328
100
AcDbEntity
  8
0
100
AcDbLine
 62
7
  6
CONTINUOUS
 10
839.2209972921
 20
1394.0453247925
 11
839.1973178487
 21
1394.9496062554
  0
LINE
  5
329
100
AcDbEntity
  8
0
100
AcDbLine
 62
7
  6
CONTINUOUS
 10
847.8731761169
 20
108.5693531179
 11
847.8731761169
 21
1469.0263193243
  0
LINE
  5
32A
100
AcDbEntity
  8
0
100
AcDbLine
 62
7
  6
CONTINUOUS
 10
849.334731214
 20
105.6462429234
 11
849.3347312141
 21
107.2922661622
  0
LINE
  5
32B
100
AcDbEntity
  8
0
100
AcDbLine
 62
7
  6
CONTINUOUS
 10
849.3347312141
 20
1470.3034062803
 11
849.334731214
 21
1471.9494295187
  0
LINE
  5
32C
100
AcDbEntity
  8
0
100
AcDbLine
 62
7
  6
CONTINUOUS
 10
850.8731761169
 20
107.2922661252
 11
850.8731761169
 21
1470.303406317
  0
LINE
  5
32D
100
AcDbEntity
  8
0
100
AcDbLine
 62
7
  6
CONTINUOUS
 10
838.5250770699
 20
1408.7367636863
 11
838.5036885979
 21
1407.9199708954
  0
LINE
  5
32E
100
AcDbEntity
  8
0
100
AcDbLine
 62
7
  6
CONTINUOUS
 10
838.7983577738
 20
1407.6816732793
 11
838.8259217631
 21
1408.7342995607
  0
LINE
  5
32F
100
AcDbEntity
  8
0
100
AcDbLine
 62
7
  6
CONTINUOUS
 10
839.1973178487
 20
1407.6460323932
 11
839.2215019558
 21
1408.5695861842
  0
LINE
  5
330
100
AcDbEntity
  8
0
100
AcDbLine
 62
7
  6
CONTINUOUS
 10
838.5250770699
 20
1058.7367636863
 11
838.5036885979
 21
1057.9199708954
  0
LINE
  5
331
100
AcDbEntity
  8
0
100
AcDbLine
 62
7
  6
CONTINUOUS
 10
838.7983577738
 20
1057.6816732793
 11
838.8259217631
 21
1058.7342995607
  0
LINE
  5
332
100
AcDbEntity
  8
0
100
AcDbLine
 62
7
  6
CONTINUOUS
 10
839.1973178487
 20
1057.6460323932
 11
839.2215019558
 21
1058.5695861842
  0
LINE
  5
333
100
AcDbEntity
  8
0
100
AcDbLine
 62
7
  6
CONTINUOUS
 10
838.5250770699
 20
533.7367974799
 11
838.5036885979
 21
532.920004689
  0
LINE
  5
334
100
AcDbEntity
  8
0
100
AcDbLine
 62
7
  6
CONTINUOUS
 10
838.7983577738
 20
532.6817070728
 11
838.8259217631
 21
533.7343333543
  0
LINE
  5
335
100
AcDbEntity
  8
0
100
AcDbLine
 62
7
  6
CONTINUOUS
 10
839.1973178487
 20
532.6460661868
 11
839.2215019558
 21
533.5696199778
  0
LINE
  5
336
100
AcDbEntity
  8
0
100
AcDbLine
 62
7
  6
CONTINUOUS
 10
838.5250770699
 20
183.7367974799
 11
838.5036885979
 21
182.920004689
  0
LINE
  5
337
100
AcDbEntity
  8
0
100
AcDbLine
 62
7
  6
CONTINUOUS
 10
838.7983577738
 20
182.6817070728
 11
838.8259217631
 21
183.7343333543
  0
LINE
  5
338
100
AcDbEntity
  8
0
100
AcDbLine
 62
7
  6
CONTINUOUS
 10
839.1973178487
 20
182.6460661868
 11
839.2215019558
 21
183.5696199778
  0
LINE
  5
339
100
AcDbEntity
  8
0
100
AcDbLine
 62
7
  6
CONTINUOUS
 10
287.4162099105
 20
108.5693531179
 11
285.9546548133
 21
107.1077980207
  0
LINE
  5
33A
100
AcDbEntity
  8
0
100
AcDbLine
 62
7
  6
CONTINUOUS
 10
301.4128308505
 20
180.935963698
 11
302.0056439317
 21
181.4604404081
  0
LINE
  5
33B
100
AcDbEntity
  8
0
100
AcDbLine
 62
7
  6
CONTINUOUS
 10
301.4183757691
 20
180.5392353974
 11
302.1274175391
 21
181.1665425649
  0
LINE
  5
33C
100
AcDbEntity
  8
0
100
AcDbLine
 62
7
  6
CONTINUOUS
 10
301.6643997919
 20
180.223147444
 11
302.5062110232
 21
180.9679191084
  0
LINE
  5
33D
100
AcDbEntity
  8
0
100
AcDbLine
 62
7
  6
CONTINUOUS
 10
294.479646401
 20
1049.5478193243
 11
295.3456718048
 21
1049.5478193243
  0
LINE
  5
33E
100
AcDbEntity
  8
0
100
AcDbLine
 62
7
  6
CONTINUOUS
 10
297.9437480161
 20
1049.5478193243
 11
298.8097734199
 21
1049.5478193243
  0
LINE
  5
33F
100
AcDbEntity
  8
0
100
AcDbLine
 62
7
  6
CONTINUOUS
 10
836.4796126074
 20
1049.5478193243
 11
837.3456380112
 21
1049.5478193243
  0
LINE
  5
340
100
AcDbEntity
  8
0
100
AcDbLine
 62
7
  6
CONTINUOUS
 10
839.9437142225
 20
1049.5478193243
 11
840.8097396263
 21
1049.5478193243
  0
LINE
  5
341
100
AcDbEntity
  8
0
100
AcDbLine
 62
7
  6
CONTINUOUS
 10
840.8097396263
 20
1053.0478193243
 11
839.9437142225
 21
1053.0478193243
  0
LINE
  5
342
100
AcDbEntity
  8
0
100
AcDbLine
 62
7
  6
CONTINUOUS
 10
837.3456380112
 20
1053.0478193243
 11
836.4796126074
 21
1053.0478193243
  0
LINE
  5
343
100
AcDbEntity
  8
0
100
AcDbLine
 62
7
  6
CONTINUOUS
 10
298.8097734199
 20
1053.0478193243
 11
297.9437480161
 21
1053.0478193243
  0
LINE
  5
344
100
AcDbEntity
  8
0
100
AcDbLine
 62
7
  6
CONTINUOUS
 10
295.3456718048
 20
1053.0478193243
 11
294.479646401
 21
1053.0478193243
  0
LINE
  5
345
100
AcDbEntity
  8
0
100
AcDbLine
 62
7
  6
CONTINUOUS
 10
301.412621022
 20
1396.6598943848
 11
301.9921050431
 21
1396.1472102309
  0
LINE
  5
346
100
AcDbEntity
  8
0
100
AcDbLine
 62
7
  6
CONTINUOUS
 10
302.1146493977
 20
1396.4404261745
 11
301.4183757691
 21
1397.0564370448
  0
LINE
  5
347
100
AcDbEntity
  8
0
100
AcDbLine
 62
7
  6
CONTINUOUS
 10
302.5062110232
 20
1396.6277533338
 11
301.6643997919
 21
1397.3725249982
  0
LINE
  5
348
100
AcDbEntity
  8
0
100
AcDbLine
 62
7
  6
CONTINUOUS
 10
285.9546548133
 20
1470.4878744215
 11
287.4162099105
 21
1469.0263193243
  0
LINE
  5
349
100
AcDbEntity
  8
0
100
AcDbLine
 62
7
  6
CONTINUOUS
 10
839.7583213456
 20
533.7090949811
 11
839.5342357799
 21
532.6076792373
  0
LINE
  5
34A
100
AcDbEntity
  8
0
100
AcDbLine
 62
7
  6
CONTINUOUS
 10
840.1547236331
 20
533.6523559857
 11
839.9309879888
 21
532.5526601603
  0
LINE
  5
34B
100
AcDbEntity
  8
0
100
AcDbLine
 62
7
  6
CONTINUOUS
 10
840.2772813861
 20
532.7459477651
 11
840.495661019
 21
533.8193179535
  0
LINE
  5
34C
100
AcDbEntity
  8
0
100
AcDbLine
 62
7
  6
CONTINUOUS
 10
832.2693626463
 20
524.4961162157
 11
831.2054040445
 21
524.1401206474
  0
LINE
  5
34D
100
AcDbEntity
  8
0
100
AcDbLine
 62
7
  6
CONTINUOUS
 10
831.520466043
 20
523.9283411939
 11
832.5846983864
 21
524.2844283549
  0
LINE
  5
34E
100
AcDbEntity
  8
0
100
AcDbLine
 62
7
  6
CONTINUOUS
 10
831.6695297754
 20
523.5566772452
 11
832.7354265724
 21
523.9133213245
  0
LINE
  5
34F
100
AcDbEntity
  8
0
100
AcDbLine
 62
7
  6
CONTINUOUS
 10
831.2054040445
 20
1053.4555517948
 11
832.2693626463
 21
1053.0995562265
  0
LINE
  5
350
100
AcDbEntity
  8
0
100
AcDbLine
 62
7
  6
CONTINUOUS
 10
832.5846983864
 20
1053.3112440873
 11
831.520466043
 21
1053.6673312482
  0
LINE
  5
351
100
AcDbEntity
  8
0
100
AcDbLine
 62
7
  6
CONTINUOUS
 10
832.7354265151
 20
1053.6823509791
 11
831.6695297327
 21
1054.038995092
  0
LINE
  5
352
100
AcDbEntity
  8
0
100
AcDbLine
 62
7
  6
CONTINUOUS
 10
839.5342357799
 20
1044.9879932048
 11
839.7583213456
 21
1043.8865774611
  0
LINE
  5
353
100
AcDbEntity
  8
0
100
AcDbLine
 62
7
  6
CONTINUOUS
 10
839.9309879888
 20
1045.0430122818
 11
840.1547236331
 21
1043.9433164564
  0
LINE
  5
354
100
AcDbEntity
  8
0
100
AcDbLine
 62
7
  6
CONTINUOUS
 10
840.2773374108
 20
1044.8494493065
 11
840.495661019
 21
1043.7763544887
  0
LINE
  5
355
100
AcDbEntity
  8
0
100
AcDbLine
 62
7
  6
CONTINUOUS
 10
839.7583213456
 20
183.7090949811
 11
839.5342357799
 21
182.6076792373
  0
LINE
  5
356
100
AcDbEntity
  8
0
100
AcDbLine
 62
7
  6
CONTINUOUS
 10
840.1547236331
 20
183.6523559857
 11
839.9309879888
 21
182.5526601603
  0
LINE
  5
357
100
AcDbEntity
  8
0
100
AcDbLine
 62
7
  6
CONTINUOUS
 10
840.2772813861
 20
182.7459477651
 11
840.495661019
 21
183.8193179535
  0
LINE
  5
358
100
AcDbEntity
  8
0
100
AcDbLine
 62
7
  6
CONTINUOUS
 10
838.211663415
 20
529.0478531179
 11
837.7786507131
 21
528.2978531179
  0
LINE
  5
359
100
AcDbEntity
  8
0
100
AcDbLine
 62
7
  6
CONTINUOUS
 10
836.4796126074
 20
526.0478531179
 11
836.0465999055
 21
525.2978531179
  0
LINE
  5
35A
100
AcDbEntity
  8
0
100
AcDbLine
 62
7
  6
CONTINUOUS
 10
839.0776888188
 20
523.5478531179
 11
839.5107015207
 21
524.2978531179
  0
LINE
  5
35B
100
AcDbEntity
  8
0
100
AcDbLine
 62
7
  6
CONTINUOUS
 10
840.8097396263
 20
526.5478531179
 11
841.2427523282
 21
527.2978531179
  0
LINE
  5
35C
100
AcDbEntity
  8
0
100
AcDbLine
 62
7
  6
CONTINUOUS
 10
843.4127970569
 20
530.935963698
 11
844.0056101381
 21
531.4604404081
  0
LINE
  5
35D
100
AcDbEntity
  8
0
100
AcDbLine
 62
7
  6
CONTINUOUS
 10
843.4183419755
 20
530.5392353974
 11
844.1273837455
 21
531.1665425649
  0
LINE
  5
35E
100
AcDbEntity
  8
0
100
AcDbLine
 62
7
  6
CONTINUOUS
 10
843.6643659983
 20
530.223147444
 11
844.5061772296
 21
530.9679191084
  0
LINE
  5
35F
100
AcDbEntity
  8
0
100
AcDbLine
 62
7
  6
CONTINUOUS
 10
844.8244195068
 20
530.5378393543
 11
843.8660690373
 21
529.9505614313
  0
LINE
  5
360
100
AcDbEntity
  8
0
100
AcDbLine
 62
7
  6
CONTINUOUS
 10
845.0532689425
 20
530.2092331722
 11
844.0964149874
 21
529.6228723144
  0
LINE
  5
361
100
AcDbEntity
  8
0
100
AcDbLine
 62
7
  6
CONTINUOUS
 10
844.4501213646
 20
529.4868301304
 11
845.4078959338
 21
530.0737551412
  0
LINE
  5
362
100
AcDbEntity
  8
0
100
AcDbLine
 62
7
  6
CONTINUOUS
 10
302.8244533004
 20
180.5378393543
 11
301.8661028309
 21
179.9505614313
  0
LINE
  5
363
100
AcDbEntity
  8
0
100
AcDbLine
 62
7
  6
CONTINUOUS
 10
303.0533027361
 20
180.2092331722
 11
302.096448781
 21
179.6228723144
  0
LINE
  5
364
100
AcDbEntity
  8
0
100
AcDbLine
 62
7
  6
CONTINUOUS
 10
302.4501551582
 20
179.4868301304
 11
303.4079297274
 21
180.0737551412
  0
LINE
  5
365
100
AcDbEntity
  8
0
100
AcDbLine
 62
7
  6
CONTINUOUS
 10
832.8706414647
 20
523.6023483624
 11
831.8828686295
 21
523.0660314715
  0
LINE
  5
366
100
AcDbEntity
  8
0
100
AcDbLine
 62
7
  6
CONTINUOUS
 10
833.0392555893
 20
523.2390183594
 11
832.0530252131
 21
522.7035389555
  0
LINE
  5
367
100
AcDbEntity
  8
0
100
AcDbLine
 62
7
  6
CONTINUOUS
 10
831.993039134
 20
522.3286839567
 11
832.9802183881
 21
522.8646785593
  0
LINE
  5
368
100
AcDbEntity
  8
0
100
AcDbLine
 62
7
  6
CONTINUOUS
 10
831.8828686295
 20
1054.5296409706
 11
832.8706414647
 21
1053.9933240798
  0
LINE
  5
369
100
AcDbEntity
  8
0
100
AcDbLine
 62
7
  6
CONTINUOUS
 10
832.0530252131
 20
1054.8921334867
 11
833.0392555893
 21
1054.3566540827
  0
LINE
  5
36A
100
AcDbEntity
  8
0
100
AcDbLine
 62
7
  6
CONTINUOUS
 10
832.9802183881
 20
1054.7309938829
 11
831.993039134
 21
1055.2669884854
  0
LINE
  5
36B
100
AcDbEntity
  8
0
100
AcDbLine
 62
7
  6
CONTINUOUS
 10
843.8660690373
 20
1047.6451110109
 11
844.8244195068
 21
1047.0578330879
  0
LINE
  5
36C
100
AcDbEntity
  8
0
100
AcDbLine
 62
7
  6
CONTINUOUS
 10
844.0964149874
 20
1047.9728001278
 11
845.0532689425
 21
1047.3864392699
  0
LINE
  5
36D
100
AcDbEntity
  8
0
100
AcDbLine
 62
7
  6
CONTINUOUS
 10
845.4078959338
 20
1047.521917301
 11
844.4501213646
 21
1048.1088423118
  0
LINE
  5
36E
100
AcDbEntity
  8
0
100
AcDbLine
 62
7
  6
CONTINUOUS
 10
301.8661028309
 20
1397.6451110109
 11
302.8244533004
 21
1397.0578330879
  0
LINE
  5
36F
100
AcDbEntity
  8
0
100
AcDbLine
 62
7
  6
CONTINUOUS
 10
302.096448781
 20
1397.9728001278
 11
303.0533027361
 21
1397.3864392699
  0
LINE
  5
370
100
AcDbEntity
  8
0
100
AcDbLine
 62
7
  6
CONTINUOUS
 10
303.4079297274
 20
1397.521917301
 11
302.4501551582
 21
1398.1088423118
  0
LINE
  5
371
100
AcDbEntity
  8
0
100
AcDbLine
 62
7
  6
CONTINUOUS
 10
843.4125872284
 20
1046.6598943848
 11
843.9920712495
 21
1046.1472102309
  0
LINE
  5
372
100
AcDbEntity
  8
0
100
AcDbLine
 62
7
  6
CONTINUOUS
 10
844.1146156041
 20
1046.4404261745
 11
843.4183419755
 21
1047.0564370448
  0
LINE
  5
373
100
AcDbEntity
  8
0
100
AcDbLine
 62
7
  6
CONTINUOUS
 10
844.5061772296
 20
1046.6277533338
 11
843.6643659983
 21
1047.3725249982
  0
LINE
  5
374
100
AcDbEntity
  8
0
100
AcDbLine
 62
7
  6
CONTINUOUS
 10
836.0465999055
 20
1052.2978193243
 11
836.4796126074
 21
1051.5478193243
  0
LINE
  5
375
100
AcDbEntity
  8
0
100
AcDbLine
 62
7
  6
CONTINUOUS
 10
837.7786507131
 20
1049.2978193243
 11
838.211663415
 21
1048.5478193243
  0
LINE
  5
376
100
AcDbEntity
  8
0
100
AcDbLine
 62
7
  6
CONTINUOUS
 10
841.2427523282
 20
1050.2978193243
 11
840.8097396263
 21
1051.0478193243
  0
LINE
  5
377
100
AcDbEntity
  8
0
100
AcDbLine
 62
7
  6
CONTINUOUS
 10
839.5107015207
 20
1053.2978193243
 11
839.0776888188
 21
1054.0478193243
  0
LINE
  5
378
100
AcDbEntity
  8
0
100
AcDbLine
 62
7
  6
CONTINUOUS
 10
839.5342357799
 20
1394.9879932048
 11
839.7583213456
 21
1393.8865774611
  0
LINE
  5
379
100
AcDbEntity
  8
0
100
AcDbLine
 62
7
  6
CONTINUOUS
 10
839.9309879888
 20
1395.0430122818
 11
840.1547236331
 21
1393.9433164564
  0
LINE
  5
37A
100
AcDbEntity
  8
0
100
AcDbLine
 62
7
  6
CONTINUOUS
 10
840.2773374108
 20
1394.8494493065
 11
840.495661019
 21
1393.7763544887
  0
LINE
  5
37B
100
AcDbEntity
  8
0
100
AcDbLine
 62
7
  6
CONTINUOUS
 10
849.3731761169
 20
107.2922661622
 11
849.334731214
 21
107.1077980207
  0
LINE
  5
37C
100
AcDbEntity
  8
0
100
AcDbLine
 62
7
  6
CONTINUOUS
 10
290.8706752583
 20
173.6023483624
 11
289.8829024231
 21
173.0660314715
  0
LINE
  5
37D
100
AcDbEntity
  8
0
100
AcDbLine
 62
7
  6
CONTINUOUS
 10
291.0392893829
 20
173.2390183594
 11
290.0530590067
 21
172.7035389555
  0
LINE
  5
37E
100
AcDbEntity
  8
0
100
AcDbLine
 62
7
  6
CONTINUOUS
 10
289.9930729276
 20
172.3286839567
 11
290.9802521817
 21
172.8646785593
  0
LINE
  5
37F
100
AcDbEntity
  8
0
100
AcDbLine
 62
7
  6
CONTINUOUS
 10
289.8829024231
 20
1404.5296409706
 11
290.8706752583
 21
1403.9933240798
  0
LINE
  5
380
100
AcDbEntity
  8
0
100
AcDbLine
 62
7
  6
CONTINUOUS
 10
290.0530590067
 20
1404.8921334867
 11
291.0392893829
 21
1404.3566540827
  0
LINE
  5
381
100
AcDbEntity
  8
0
100
AcDbLine
 62
7
  6
CONTINUOUS
 10
290.9802521817
 20
1404.7309938829
 11
289.9930729276
 21
1405.2669884854
  0
LINE
  5
382
100
AcDbEntity
  8
0
100
AcDbLine
 62
7
  6
CONTINUOUS
 10
849.334731214
 20
1470.4878744215
 11
849.3731761169
 21
1470.3034062803
  0
LINE
  5
383
100
AcDbEntity
  8
0
100
AcDbLine
 62
7
  6
CONTINUOUS
 10
290.2693964399
 20
174.4961162157
 11
289.2054378381
 21
174.1401206474
  0
LINE
  5
384
100
AcDbEntity
  8
0
100
AcDbLine
 62
7
  6
CONTINUOUS
 10
289.5204998366
 20
173.9283411939
 11
290.58473218
 21
174.2844283549
  0
LINE
  5
385
100
AcDbEntity
  8
0
100
AcDbLine
 62
7
  6
CONTINUOUS
 10
289.669563569
 20
173.5566772452
 11
290.735460366
 21
173.9133213245
  0
LINE
  5
386
100
AcDbEntity
  8
0
100
AcDbLine
 62
7
  6
CONTINUOUS
 10
289.2054378381
 20
1403.4555517948
 11
290.2693964399
 21
1403.0995562265
  0
LINE
  5
387
100
AcDbEntity
  8
0
100
AcDbLine
 62
7
  6
CONTINUOUS
 10
290.58473218
 20
1403.3112440873
 11
289.5204998366
 21
1403.6673312482
  0
LINE
  5
388
100
AcDbEntity
  8
0
100
AcDbLine
 62
7
  6
CONTINUOUS
 10
290.7354603087
 20
1403.6823509791
 11
289.6695635263
 21
1404.038995092
  0
LINE
  5
389
100
AcDbEntity
  8
0
100
AcDbLine
 62
7
  6
CONTINUOUS
 10
850.7962863112
 20
107.1077980207
 11
850.8731761169
 21
107.2922662696
  0
LINE
  5
38A
100
AcDbEntity
  8
0
100
AcDbLine
 62
7
  6
CONTINUOUS
 10
838.211663415
 20
179.0478531179
 11
837.7786507131
 21
178.2978531179
  0
LINE
  5
38B
100
AcDbEntity
  8
0
100
AcDbLine
 62
7
  6
CONTINUOUS
 10
836.4796126074
 20
176.0478531179
 11
836.0465999055
 21
175.2978531179
  0
LINE
  5
38C
100
AcDbEntity
  8
0
100
AcDbLine
 62
7
  6
CONTINUOUS
 10
839.0776888188
 20
173.5478531179
 11
839.5107015207
 21
174.2978531179
  0
LINE
  5
38D
100
AcDbEntity
  8
0
100
AcDbLine
 62
7
  6
CONTINUOUS
 10
840.8097396263
 20
176.5478531179
 11
841.2427523282
 21
177.2978531179
  0
LINE
  5
38E
100
AcDbEntity
  8
0
100
AcDbLine
 62
7
  6
CONTINUOUS
 10
836.0465999055
 20
1402.2978193243
 11
836.4796126074
 21
1401.5478193243
  0
LINE
  5
38F
100
AcDbEntity
  8
0
100
AcDbLine
 62
7
  6
CONTINUOUS
 10
837.7786507131
 20
1399.2978193243
 11
838.211663415
 21
1398.5478193243
  0
LINE
  5
390
100
AcDbEntity
  8
0
100
AcDbLine
 62
7
  6
CONTINUOUS
 10
841.2427523282
 20
1400.2978193243
 11
840.8097396263
 21
1401.0478193243
  0
LINE
  5
391
100
AcDbEntity
  8
0
100
AcDbLine
 62
7
  6
CONTINUOUS
 10
839.5107015207
 20
1403.2978193243
 11
839.0776888188
 21
1404.0478193243
  0
LINE
  5
392
100
AcDbEntity
  8
0
100
AcDbLine
 62
7
  6
CONTINUOUS
 10
850.8731761169
 20
1470.3034061725
 11
850.7962863112
 21
1470.4878744215
  0
LINE
  5
393
100
AcDbEntity
  8
0
100
AcDbLine
 62
7
  6
CONTINUOUS
 10
843.4127970569
 20
180.935963698
 11
844.0056101381
 21
181.4604404081
  0
LINE
  5
394
100
AcDbEntity
  8
0
100
AcDbLine
 62
7
  6
CONTINUOUS
 10
843.4183419755
 20
180.5392353974
 11
844.1273837455
 21
181.1665425649
  0
LINE
  5
395
100
AcDbEntity
  8
0
100
AcDbLine
 62
7
  6
CONTINUOUS
 10
843.6643659983
 20
180.223147444
 11
844.5061772296
 21
180.9679191084
  0
LINE
  5
396
100
AcDbEntity
  8
0
100
AcDbLine
 62
7
  6
CONTINUOUS
 10
294.479646401
 20
1399.5478193243
 11
295.3456718048
 21
1399.5478193243
  0
LINE
  5
397
100
AcDbEntity
  8
0
100
AcDbLine
 62
7
  6
CONTINUOUS
 10
297.9437480161
 20
1399.5478193243
 11
298.8097734199
 21
1399.5478193243
  0
LINE
  5
398
100
AcDbEntity
  8
0
100
AcDbLine
 62
7
  6
CONTINUOUS
 10
836.4796126074
 20
1399.5478193243
 11
837.3456380112
 21
1399.5478193243
  0
LINE
  5
399
100
AcDbEntity
  8
0
100
AcDbLine
 62
7
  6
CONTINUOUS
 10
839.9437142225
 20
1399.5478193243
 11
840.8097396263
 21
1399.5478193243
  0
LINE
  5
39A
100
AcDbEntity
  8
0
100
AcDbLine
 62
7
  6
CONTINUOUS
 10
840.8097396263
 20
1403.0478193243
 11
839.9437142225
 21
1403.0478193243
  0
LINE
  5
39B
100
AcDbEntity
  8
0
100
AcDbLine
 62
7
  6
CONTINUOUS
 10
837.3456380112
 20
1403.0478193243
 11
836.4796126074
 21
1403.0478193243
  0
LINE
  5
39C
100
AcDbEntity
  8
0
100
AcDbLine
 62
7
  6
CONTINUOUS
 10
298.8097734199
 20
1403.0478193243
 11
297.9437480161
 21
1403.0478193243
  0
LINE
  5
39D
100
AcDbEntity
  8
0
100
AcDbLine
 62
7
  6
CONTINUOUS
 10
295.3456718048
 20
1403.0478193243
 11
294.479646401
 21
1403.0478193243
  0
LINE
  5
39E
100
AcDbEntity
  8
0
100
AcDbLine
 62
7
  6
CONTINUOUS
 10
843.4125872284
 20
1396.6598943848
 11
843.9920712495
 21
1396.1472102309
  0
LINE
  5
39F
100
AcDbEntity
  8
0
100
AcDbLine
 62
7
  6
CONTINUOUS
 10
844.1146156041
 20
1396.4404261745
 11
843.4183419755
 21
1397.0564370448
  0
LINE
  5
3A0
100
AcDbEntity
  8
0
100
AcDbLine
 62
7
  6
CONTINUOUS
 10
844.5061772296
 20
1396.6277533338
 11
843.6643659983
 21
1397.3725249982
  0
LINE
  5
3A1
100
AcDbEntity
  8
0
100
AcDbLine
 62
7
  6
CONTINUOUS
 10
844.8244195068
 20
180.5378393543
 11
843.8660690373
 21
179.9505614313
  0
LINE
  5
3A2
100
AcDbEntity
  8
0
100
AcDbLine
 62
7
  6
CONTINUOUS
 10
845.0532689425
 20
180.2092331722
 11
844.0964149874
 21
179.6228723144
  0
LINE
  5
3A3
100
AcDbEntity
  8
0
100
AcDbLine
 62
7
  6
CONTINUOUS
 10
844.4501213646
 20
179.4868301304
 11
845.4078959338
 21
180.0737551412
  0
LINE
  5
3A4
100
AcDbEntity
  8
0
100
AcDbLine
 62
7
  6
CONTINUOUS
 10
832.8706414647
 20
173.6023483624
 11
831.8828686295
 21
173.0660314715
  0
LINE
  5
3A5
100
AcDbEntity
  8
0
100
AcDbLine
 62
7
  6
CONTINUOUS
 10
833.0392555893
 20
173.2390183594
 11
832.0530252131
 21
172.7035389555
  0
LINE
  5
3A6
100
AcDbEntity
  8
0
100
AcDbLine
 62
7
  6
CONTINUOUS
 10
831.993039134
 20
172.3286839567
 11
832.9802183881
 21
172.8646785593
  0
LINE
  5
3A7
100
AcDbEntity
  8
0
100
AcDbLine
 62
7
  6
CONTINUOUS
 10
849.1502629651
 20
105.5693531179
 11
849.3347312141
 21
105.6462429235
  0
LINE
  5
3A8
100
AcDbEntity
  8
0
100
AcDbLine
 62
7
  6
CONTINUOUS
 10
832.2693626463
 20
174.4961162157
 11
831.2054040445
 21
174.1401206474
  0
LINE
  5
3A9
100
AcDbEntity
  8
0
100
AcDbLine
 62
7
  6
CONTINUOUS
 10
831.520466043
 20
173.9283411939
 11
832.5846983864
 21
174.2844283549
  0
LINE
  5
3AA
100
AcDbEntity
  8
0
100
AcDbLine
 62
7
  6
CONTINUOUS
 10
831.6695297754
 20
173.5566772452
 11
832.7354265724
 21
173.9133213245
  0
LINE
  5
3AB
100
AcDbEntity
  8
0
100
AcDbLine
 62
7
  6
CONTINUOUS
 10
285.9546548133
 20
1470.4878744215
 11
286.1391229545
 21
1470.5263193243
  0
LINE
  5
3AC
100
AcDbEntity
  8
0
100
AcDbLine
 62
7
  6
CONTINUOUS
 10
847.8731761169
 20
1469.0263193243
 11
287.4162099105
 21
1469.0263193243
  0
LINE
  5
3AD
100
AcDbEntity
  8
0
100
AcDbLine
 62
7
  6
CONTINUOUS
 10
284.4930997161
 20
1470.4878744215
 11
286.1391229545
 21
1470.4878744215
  0
LINE
  5
3AE
100
AcDbEntity
  8
0
100
AcDbLine
 62
7
  6
CONTINUOUS
 10
849.1502630725
 20
1470.4878744215
 11
850.7962863113
 21
1470.4878744215
  0
LINE
  5
3AF
100
AcDbEntity
  8
0
100
AcDbLine
 62
7
  6
CONTINUOUS
 10
849.1502631096
 20
1472.0263193243
 11
286.1391229178
 21
1472.0263193243
  0
LINE
  5
3B0
100
AcDbEntity
  8
0
100
AcDbLine
 62
7
  6
CONTINUOUS
 10
849.1502630725
 20
1470.5263193243
 11
849.3347312141
 21
1470.4878744215
  0
LINE
  5
3B1
100
AcDbEntity
  8
0
100
AcDbLine
 62
7
  6
CONTINUOUS
 10
831.2054040445
 20
1403.4555517948
 11
832.2693626463
 21
1403.0995562265
  0
LINE
  5
3B2
100
AcDbEntity
  8
0
100
AcDbLine
 62
7
  6
CONTINUOUS
 10
832.5846983864
 20
1403.3112440873
 11
831.520466043
 21
1403.6673312482
  0
LINE
  5
3B3
100
AcDbEntity
  8
0
100
AcDbLine
 62
7
  6
CONTINUOUS
 10
832.7354265151
 20
1403.6823509791
 11
831.6695297327
 21
1404.038995092
  0
LINE
  5
3B4
100
AcDbEntity
  8
0
100
AcDbLine
 62
7
  6
CONTINUOUS
 10
849.3347312141
 20
1471.9494295186
 11
849.1502629651
 21
1472.0263193243
  0
LINE
  5
3B5
100
AcDbEntity
  8
0
100
AcDbLine
 62
7
  6
CONTINUOUS
 10
831.8828686295
 20
1404.5296409706
 11
832.8706414647
 21
1403.9933240798
  0
LINE
  5
3B6
100
AcDbEntity
  8
0
100
AcDbLine
 62
7
  6
CONTINUOUS
 10
832.0530252131
 20
1404.8921334867
 11
833.0392555893
 21
1404.3566540827
  0
LINE
  5
3B7
100
AcDbEntity
  8
0
100
AcDbLine
 62
7
  6
CONTINUOUS
 10
832.9802183881
 20
1404.7309938829
 11
831.993039134
 21
1405.2669884854
  0
LINE
  5
3B8
100
AcDbEntity
  8
0
100
AcDbLine
 62
7
  6
CONTINUOUS
 10
843.8660690373
 20
1397.6451110109
 11
844.8244195068
 21
1397.0578330879
  0
LINE
  5
3B9
100
AcDbEntity
  8
0
100
AcDbLine
 62
7
  6
CONTINUOUS
 10
844.0964149874
 20
1397.9728001278
 11
845.0532689425
 21
1397.3864392699
  0
LINE
  5
3BA
100
AcDbEntity
  8
0
100
AcDbLine
 62
7
  6
CONTINUOUS
 10
845.4078959338
 20
1397.521917301
 11
844.4501213646
 21
1398.1088423118
  0
ARC
  5
3BB
100
AcDbEntity
  8
0
100
AcDbCircle
 62
7
  6
CONTINUOUS
 10
276.4725383042
 20
110.3015946206
 40
11.0028083819
100
AcDbArc
 50
340.801284106
 51
341.6144869005
  0
ARC
  5
3BC
100
AcDbEntity
  8
0
100
AcDbCircle
 62
7
  6
CONTINUOUS
 10
283.3331545416
 20
182.7211789757
 40
18.5832306911
100
AcDbArc
 50
315.4075959765
 51
316.4348135291
  0
ARC
  5
3BD
100
AcDbEntity
  8
0
100
AcDbCircle
 62
7
  6
CONTINUOUS
 10
283.3331545423
 20
169.8745272607
 40
18.5832306902
100
AcDbArc
 50
43.5651864709
 51
44.5924040236
  0
ARC
  5
3BE
100
AcDbEntity
  8
0
100
AcDbCircle
 62
7
  6
CONTINUOUS
 10
282.8832049346
 20
170.9438901112
 40
18.5685323528
100
AcDbArc
 50
2.4368830135
 51
3.4350794788
  0
ARC
  5
3BF
100
AcDbEntity
  8
0
100
AcDbCircle
 62
7
  6
CONTINUOUS
 10
282.88320508
 20
181.6518161167
 40
18.5685322072
100
AcDbArc
 50
356.5649205186
 51
357.563116984
  0
ARC
  5
3C0
100
AcDbEntity
  8
0
100
AcDbCircle
 62
7
  6
CONTINUOUS
 10
297.7377242251
 20
161.5580450753
 40
18.5832306915
100
AcDbArc
 50
75.4075959764
 51
76.434813529
  0
ARC
  5
3C1
100
AcDbEntity
  8
0
100
AcDbCircle
 62
7
  6
CONTINUOUS
 10
298.8887697691
 20
161.7031073153
 40
18.568477854
100
AcDbArc
 50
116.5649195479
 51
117.5630323359
  0
ARC
  5
3C2
100
AcDbEntity
  8
0
100
AcDbCircle
 62
7
  6
CONTINUOUS
 10
294.479646401
 20
175.0478531179
 40
0.5
100
AcDbArc
 50
150.0
 51
270.0
  0
ARC
  5
3C3
100
AcDbEntity
  8
0
100
AcDbCircle
 62
7
  6
CONTINUOUS
 10
295.3456718048
 20
174.0478531179
 40
0.5
100
AcDbArc
 50
30.0
 51
90.0
  0
ARC
  5
3C4
100
AcDbEntity
  8
0
100
AcDbCircle
 62
7
  6
CONTINUOUS
 10
297.9437480161
 20
174.0478531179
 40
0.5
100
AcDbArc
 50
90.0
 51
150.0
  0
ARC
  5
3C5
100
AcDbEntity
  8
0
100
AcDbCircle
 62
7
  6
CONTINUOUS
 10
298.8097734199
 20
175.0478531179
 40
0.5
100
AcDbArc
 50
270.0
 51
30.0
  0
ARC
  5
3C6
100
AcDbEntity
  8
0
100
AcDbCircle
 62
7
  6
CONTINUOUS
 10
296.6447099105
 20
173.7978531179
 40
0.5
100
AcDbArc
 50
210.0
 51
330.0
  0
ARC
  5
3C7
100
AcDbEntity
  8
0
100
AcDbCircle
 62
7
  6
CONTINUOUS
 10
295.3456718048
 20
178.5478531179
 40
0.5
100
AcDbArc
 50
270.0
 51
330.0
  0
ARC
  5
3C8
100
AcDbEntity
  8
0
100
AcDbCircle
 62
7
  6
CONTINUOUS
 10
294.479646401
 20
177.5478531179
 40
0.5
100
AcDbArc
 50
90.0
 51
210.0
  0
ARC
  5
3C9
100
AcDbEntity
  8
0
100
AcDbCircle
 62
7
  6
CONTINUOUS
 10
294.0466336991
 20
176.2978531179
 40
0.5
100
AcDbArc
 50
330.0
 51
30.0
  0
CIRCLE
  5
3CA
100
AcDbEntity
  8
0
100
AcDbCircle
 62
7
  6
CONTINUOUS
 10
296.6447099105
 20
176.2978531179
 40
7.5
  0
ARC
  5
3CB
100
AcDbEntity
  8
0
100
AcDbCircle
 62
7
  6
CONTINUOUS
 10
296.6447099105
 20
176.2978531179
 40
6.6250190726
100
AcDbArc
 50
164.2190979027
 51
195.7809020973
  0
ARC
  5
3CC
100
AcDbEntity
  8
0
100
AcDbCircle
 62
7
  6
CONTINUOUS
 10
296.6447099105
 20
176.2978531179
 40
6.6236522336
100
AcDbArc
 50
210.6754332562
 51
269.3245667438
  0
ARC
  5
3CD
100
AcDbEntity
  8
0
100
AcDbCircle
 62
7
  6
CONTINUOUS
 10
296.6447099105
 20
176.2978531179
 40
6.6236522336
100
AcDbArc
 50
330.6754332562
 51
29.3245667438
  0
ARC
  5
3CE
100
AcDbEntity
  8
0
100
AcDbCircle
 62
7
  6
CONTINUOUS
 10
296.6447099105
 20
176.2978531179
 40
6.6236522336
100
AcDbArc
 50
90.6754332562
 51
149.3245667438
  0
ARC
  5
3CF
100
AcDbEntity
  8
0
100
AcDbCircle
 62
7
  6
CONTINUOUS
 10
296.6447099105
 20
176.2978531179
 40
6.3722226932
100
AcDbArc
 50
34.9753231955
 51
38.0246768045
  0
ARC
  5
3D0
100
AcDbEntity
  8
0
100
AcDbCircle
 62
7
  6
CONTINUOUS
 10
296.6447099105
 20
176.2978531179
 40
6.3722226932
100
AcDbArc
 50
321.9753231955
 51
325.0246768045
  0
ARC
  5
3D1
100
AcDbEntity
  8
0
100
AcDbCircle
 62
7
  6
CONTINUOUS
 10
296.6447099105
 20
176.2978531179
 40
6.3722226932
100
AcDbArc
 50
274.9753231955
 51
278.0246768045
  0
ARC
  5
3D2
100
AcDbEntity
  8
0
100
AcDbCircle
 62
7
  6
CONTINUOUS
 10
296.6447099105
 20
176.2978531179
 40
6.3722226932
100
AcDbArc
 50
81.9753231955
 51
85.0246768045
  0
ARC
  5
3D3
100
AcDbEntity
  8
0
100
AcDbCircle
 62
7
  6
CONTINUOUS
 10
296.6447099105
 20
176.2978531179
 40
6.3722226932
100
AcDbArc
 50
154.9753231955
 51
158.0246781527
  0
ARC
  5
3D4
100
AcDbEntity
  8
0
100
AcDbCircle
 62
7
  6
CONTINUOUS
 10
296.6447099105
 20
176.2978531179
 40
6.3722226932
100
AcDbArc
 50
201.9753231955
 51
205.0246768045
  0
ARC
  5
3D5
100
AcDbEntity
  8
0
100
AcDbCircle
 62
7
  6
CONTINUOUS
 10
296.6447099105
 20
176.2978531179
 40
6.25
100
AcDbArc
 50
76.2187165556
 51
163.806876838
  0
ARC
  5
3D6
100
AcDbEntity
  8
0
100
AcDbCircle
 62
7
  6
CONTINUOUS
 10
296.6447099105
 20
176.2978531179
 40
6.25
100
AcDbArc
 50
316.1652248287
 51
43.8379871778
  0
ARC
  5
3D7
100
AcDbEntity
  8
0
100
AcDbCircle
 62
7
  6
CONTINUOUS
 10
296.6447099105
 20
176.2978531179
 40
6.25
100
AcDbArc
 50
196.1987930203
 51
283.7721180935
  0
ARC
  5
3D8
100
AcDbEntity
  8
0
100
AcDbCircle
 62
7
  6
CONTINUOUS
 10
296.6447099105
 20
176.2978531179
 40
6.0
100
AcDbArc
 50
313.927644044
 51
46.0723307091
  0
ARC
  5
3D9
100
AcDbEntity
  8
0
100
AcDbCircle
 62
7
  6
CONTINUOUS
 10
296.6447099105
 20
176.2978531179
 40
6.0
100
AcDbArc
 50
199.3907038649
 51
283.2897442989
  0
ARC
  5
3DA
100
AcDbEntity
  8
0
100
AcDbCircle
 62
7
  6
CONTINUOUS
 10
296.6447099105
 20
176.2978531179
 40
6.0
100
AcDbArc
 50
76.7102311725
 51
160.6092699794
  0
ARC
  5
3DB
100
AcDbEntity
  8
0
100
AcDbCircle
 62
7
  6
CONTINUOUS
 10
296.6447099105
 20
176.2978531179
 40
5.6515888492
100
AcDbArc
 50
44.333367366
 51
75.666632634
  0
ARC
  5
3DC
100
AcDbEntity
  8
0
100
AcDbCircle
 62
7
  6
CONTINUOUS
 10
296.6447099105
 20
176.2978531179
 40
5.6515888492
100
AcDbArc
 50
284.333367366
 51
315.666632634
  0
ARC
  5
3DD
100
AcDbEntity
  8
0
100
AcDbCircle
 62
7
  6
CONTINUOUS
 10
296.6447099105
 20
176.2978531179
 40
5.6250190726
100
AcDbArc
 50
164.3467617741
 51
195.6532382259
  0
CIRCLE
  5
3DE
100
AcDbEntity
  8
0
100
AcDbCircle
 62
7
  6
CONTINUOUS
 10
296.6447099105
 20
176.2978531179
 40
5.5434781454
  0
ARC
  5
3DF
100
AcDbEntity
  8
0
100
AcDbCircle
 62
7
  6
CONTINUOUS
 10
296.6447099105
 20
178.7978531179
 40
0.5
100
AcDbArc
 50
30.0
 51
150.0
  0
ARC
  5
3E0
100
AcDbEntity
  8
0
100
AcDbCircle
 62
7
  6
CONTINUOUS
 10
299.2427861218
 20
176.2978531179
 40
0.5
100
AcDbArc
 50
150.0
 51
210.0
  0
ARC
  5
3E1
100
AcDbEntity
  8
0
100
AcDbCircle
 62
7
  6
CONTINUOUS
 10
298.8097734199
 20
177.5478531179
 40
0.5
100
AcDbArc
 50
330.0
 51
90.0
  0
ARC
  5
3E2
100
AcDbEntity
  8
0
100
AcDbCircle
 62
7
  6
CONTINUOUS
 10
297.9437480161
 20
178.5478531179
 40
0.5
100
AcDbArc
 50
210.0
 51
270.0
  0
ARC
  5
3E3
100
AcDbEntity
  8
0
100
AcDbCircle
 62
7
  6
CONTINUOUS
 10
297.737724225
 20
191.0376611611
 40
18.5832306921
100
AcDbArc
 50
283.565186471
 51
284.5924040236
  0
ARC
  5
3E4
100
AcDbEntity
  8
0
100
AcDbCircle
 62
7
  6
CONTINUOUS
 10
298.8887698579
 20
190.8925990955
 40
18.5684780503
100
AcDbArc
 50
242.4369676604
 51
243.4350804486
  0
ARC
  5
3E5
100
AcDbEntity
  8
0
100
AcDbCircle
 62
7
  6
CONTINUOUS
 10
308.8632509632
 20
167.9813709339
 40
18.5832306897
100
AcDbArc
 50
163.5651864709
 51
164.5924040236
  0
ARC
  5
3E6
100
AcDbEntity
  8
0
100
AcDbCircle
 62
7
  6
CONTINUOUS
 10
308.1621301106
 20
167.0570221204
 40
18.5685318722
100
AcDbArc
 50
122.4368830219
 51
123.4350794873
  0
ARC
  5
3E7
100
AcDbEntity
  8
0
100
AcDbCircle
 62
7
  6
CONTINUOUS
 10
308.8632509633
 20
184.6143353019
 40
18.5832306898
100
AcDbArc
 50
195.4075959764
 51
196.4348135291
  0
ARC
  5
3E8
100
AcDbEntity
  8
0
100
AcDbCircle
 62
7
  6
CONTINUOUS
 10
308.1621303828
 20
185.5386845329
 40
18.5685323706
100
AcDbArc
 50
236.5649205216
 51
237.563116987
  0
ARC
  5
3E9
100
AcDbEntity
  8
0
100
AcDbCircle
 62
7
  6
CONTINUOUS
 10
283.3331545431
 20
519.8745272615
 40
18.583230689
100
AcDbArc
 50
43.5651864708
 51
44.5924040236
  0
ARC
  5
3EA
100
AcDbEntity
  8
0
100
AcDbCircle
 62
7
  6
CONTINUOUS
 10
282.8832049346
 20
520.9438901112
 40
18.5685323528
100
AcDbArc
 50
2.4368830135
 51
3.4350794788
  0
ARC
  5
3EB
100
AcDbEntity
  8
0
100
AcDbCircle
 62
7
  6
CONTINUOUS
 10
294.479646401
 20
525.0478531179
 40
0.5
100
AcDbArc
 50
150.0
 51
270.0
  0
ARC
  5
3EC
100
AcDbEntity
  8
0
100
AcDbCircle
 62
7
  6
CONTINUOUS
 10
295.3456718048
 20
524.0478531179
 40
0.5
100
AcDbArc
 50
30.0
 51
90.0
  0
ARC
  5
3ED
100
AcDbEntity
  8
0
100
AcDbCircle
 62
7
  6
CONTINUOUS
 10
283.3331545424
 20
532.7211789749
 40
18.58323069
100
AcDbArc
 50
315.4075959764
 51
316.4348135291
  0
ARC
  5
3EE
100
AcDbEntity
  8
0
100
AcDbCircle
 62
7
  6
CONTINUOUS
 10
282.88320508
 20
531.6518161167
 40
18.5685322072
100
AcDbArc
 50
356.5649205186
 51
357.563116984
  0
ARC
  5
3EF
100
AcDbEntity
  8
0
100
AcDbCircle
 62
7
  6
CONTINUOUS
 10
295.3456718048
 20
528.5478531179
 40
0.5
100
AcDbArc
 50
270.0
 51
330.0
  0
ARC
  5
3F0
100
AcDbEntity
  8
0
100
AcDbCircle
 62
7
  6
CONTINUOUS
 10
294.479646401
 20
527.5478531179
 40
0.5
100
AcDbArc
 50
90.0
 51
210.0
  0
ARC
  5
3F1
100
AcDbEntity
  8
0
100
AcDbCircle
 62
7
  6
CONTINUOUS
 10
294.0466336991
 20
526.2978531179
 40
0.5
100
AcDbArc
 50
330.0
 51
30.0
  0
ARC
  5
3F2
100
AcDbEntity
  8
0
100
AcDbCircle
 62
7
  6
CONTINUOUS
 10
297.7377242247
 20
511.5580450737
 40
18.5832306931
100
AcDbArc
 50
75.4075959765
 51
76.434813529
  0
ARC
  5
3F3
100
AcDbEntity
  8
0
100
AcDbCircle
 62
7
  6
CONTINUOUS
 10
308.8632509635
 20
517.9813709338
 40
18.58323069
100
AcDbArc
 50
163.5651864709
 51
164.5924040236
  0
ARC
  5
3F4
100
AcDbEntity
  8
0
100
AcDbCircle
 62
7
  6
CONTINUOUS
 10
308.1621301108
 20
517.0570221201
 40
18.5685318725
100
AcDbArc
 50
122.4368830219
 51
123.4350794873
  0
ARC
  5
3F5
100
AcDbEntity
  8
0
100
AcDbCircle
 62
7
  6
CONTINUOUS
 10
298.8887697691
 20
511.7031073153
 40
18.568477854
100
AcDbArc
 50
116.5649195479
 51
117.5630323359
  0
ARC
  5
3F6
100
AcDbEntity
  8
0
100
AcDbCircle
 62
7
  6
CONTINUOUS
 10
297.9437480161
 20
524.0478531179
 40
0.5
100
AcDbArc
 50
90.0
 51
150.0
  0
ARC
  5
3F7
100
AcDbEntity
  8
0
100
AcDbCircle
 62
7
  6
CONTINUOUS
 10
298.8097734199
 20
525.0478531179
 40
0.5
100
AcDbArc
 50
270.0
 51
30.0
  0
ARC
  5
3F8
100
AcDbEntity
  8
0
100
AcDbCircle
 62
7
  6
CONTINUOUS
 10
296.6447099105
 20
523.7978531179
 40
0.5
100
AcDbArc
 50
210.0
 51
330.0
  0
CIRCLE
  5
3F9
100
AcDbEntity
  8
0
100
AcDbCircle
 62
7
  6
CONTINUOUS
 10
296.6447099105
 20
526.2978531179
 40
7.5
  0
ARC
  5
3FA
100
AcDbEntity
  8
0
100
AcDbCircle
 62
7
  6
CONTINUOUS
 10
296.6447099105
 20
526.2978531179
 40
6.6250190726
100
AcDbArc
 50
164.2190979027
 51
195.7809020973
  0
ARC
  5
3FB
100
AcDbEntity
  8
0
100
AcDbCircle
 62
7
  6
CONTINUOUS
 10
296.6447099105
 20
526.2978531179
 40
6.6236522336
100
AcDbArc
 50
210.6754332562
 51
269.3245667438
  0
ARC
  5
3FC
100
AcDbEntity
  8
0
100
AcDbCircle
 62
7
  6
CONTINUOUS
 10
296.6447099105
 20
526.2978531179
 40
6.6236522336
100
AcDbArc
 50
330.6754332562
 51
29.3245667438
  0
ARC
  5
3FD
100
AcDbEntity
  8
0
100
AcDbCircle
 62
7
  6
CONTINUOUS
 10
296.6447099105
 20
526.2978531179
 40
6.6236522336
100
AcDbArc
 50
90.6754332562
 51
149.3245667438
  0
ARC
  5
3FE
100
AcDbEntity
  8
0
100
AcDbCircle
 62
7
  6
CONTINUOUS
 10
296.6447099105
 20
526.2978531179
 40
6.3722226932
100
AcDbArc
 50
34.9753231955
 51
38.0246768045
  0
ARC
  5
3FF
100
AcDbEntity
  8
0
100
AcDbCircle
 62
7
  6
CONTINUOUS
 10
296.6447099105
 20
526.2978531179
 40
6.3722226932
100
AcDbArc
 50
321.9753231955
 51
325.0246768045
  0
ARC
  5
400
100
AcDbEntity
  8
0
100
AcDbCircle
 62
7
  6
CONTINUOUS
 10
296.6447099105
 20
526.2978531179
 40
6.3722226932
100
AcDbArc
 50
274.9753231955
 51
278.0246768045
  0
ARC
  5
401
100
AcDbEntity
  8
0
100
AcDbCircle
 62
7
  6
CONTINUOUS
 10
296.6447099105
 20
526.2978531179
 40
6.3722226932
100
AcDbArc
 50
81.9753231955
 51
85.0246768045
  0
ARC
  5
402
100
AcDbEntity
  8
0
100
AcDbCircle
 62
7
  6
CONTINUOUS
 10
296.6447099105
 20
526.2978531179
 40
6.3722226932
100
AcDbArc
 50
154.9753231955
 51
158.0246781527
  0
ARC
  5
403
100
AcDbEntity
  8
0
100
AcDbCircle
 62
7
  6
CONTINUOUS
 10
296.6447099105
 20
526.2978531179
 40
6.3722226932
100
AcDbArc
 50
201.9753231955
 51
205.0246768045
  0
ARC
  5
404
100
AcDbEntity
  8
0
100
AcDbCircle
 62
7
  6
CONTINUOUS
 10
296.6447099105
 20
526.2978531179
 40
6.25
100
AcDbArc
 50
76.2187165556
 51
163.806876838
  0
ARC
  5
405
100
AcDbEntity
  8
0
100
AcDbCircle
 62
7
  6
CONTINUOUS
 10
296.6447099105
 20
526.2978531179
 40
6.25
100
AcDbArc
 50
316.1652248287
 51
43.8379871778
  0
ARC
  5
406
100
AcDbEntity
  8
0
100
AcDbCircle
 62
7
  6
CONTINUOUS
 10
296.6447099105
 20
526.2978531179
 40
6.25
100
AcDbArc
 50
196.1987930203
 51
283.7721180935
  0
ARC
  5
407
100
AcDbEntity
  8
0
100
AcDbCircle
 62
7
  6
CONTINUOUS
 10
296.6447099105
 20
526.2978531179
 40
6.0
100
AcDbArc
 50
313.927644044
 51
46.0723307091
  0
ARC
  5
408
100
AcDbEntity
  8
0
100
AcDbCircle
 62
7
  6
CONTINUOUS
 10
296.6447099105
 20
526.2978531179
 40
6.0
100
AcDbArc
 50
199.3907038649
 51
283.2897442989
  0
ARC
  5
409
100
AcDbEntity
  8
0
100
AcDbCircle
 62
7
  6
CONTINUOUS
 10
296.6447099105
 20
526.2978531179
 40
6.0
100
AcDbArc
 50
76.7102311725
 51
160.6092699794
  0
ARC
  5
40A
100
AcDbEntity
  8
0
100
AcDbCircle
 62
7
  6
CONTINUOUS
 10
296.6447099105
 20
526.2978531179
 40
5.6515888492
100
AcDbArc
 50
44.333367366
 51
75.666632634
  0
ARC
  5
40B
100
AcDbEntity
  8
0
100
AcDbCircle
 62
7
  6
CONTINUOUS
 10
296.6447099105
 20
526.2978531179
 40
5.6515888492
100
AcDbArc
 50
284.333367366
 51
315.666632634
  0
ARC
  5
40C
100
AcDbEntity
  8
0
100
AcDbCircle
 62
7
  6
CONTINUOUS
 10
296.6447099105
 20
526.2978531179
 40
5.6250190726
100
AcDbArc
 50
164.3467617741
 51
195.6532382259
  0
CIRCLE
  5
40D
100
AcDbEntity
  8
0
100
AcDbCircle
 62
7
  6
CONTINUOUS
 10
296.6447099105
 20
526.2978531179
 40
5.5434781454
  0
ARC
  5
40E
100
AcDbEntity
  8
0
100
AcDbCircle
 62
7
  6
CONTINUOUS
 10
296.6447099105
 20
528.7978531179
 40
0.5
100
AcDbArc
 50
30.0
 51
150.0
  0
ARC
  5
40F
100
AcDbEntity
  8
0
100
AcDbCircle
 62
7
  6
CONTINUOUS
 10
299.2427861218
 20
526.2978531179
 40
0.5
100
AcDbArc
 50
150.0
 51
210.0
  0
ARC
  5
410
100
AcDbEntity
  8
0
100
AcDbCircle
 62
7
  6
CONTINUOUS
 10
298.8097734199
 20
527.5478531179
 40
0.5
100
AcDbArc
 50
330.0
 51
90.0
  0
ARC
  5
411
100
AcDbEntity
  8
0
100
AcDbCircle
 62
7
  6
CONTINUOUS
 10
297.9437480161
 20
528.5478531179
 40
0.5
100
AcDbArc
 50
210.0
 51
270.0
  0
ARC
  5
412
100
AcDbEntity
  8
0
100
AcDbCircle
 62
7
  6
CONTINUOUS
 10
297.7377242256
 20
541.0376611586
 40
18.5832306896
100
AcDbArc
 50
283.5651864709
 51
284.5924040236
  0
ARC
  5
413
100
AcDbEntity
  8
0
100
AcDbCircle
 62
7
  6
CONTINUOUS
 10
298.8887698577
 20
540.8925990952
 40
18.56847805
100
AcDbArc
 50
242.4369676604
 51
243.4350804486
  0
ARC
  5
414
100
AcDbEntity
  8
0
100
AcDbCircle
 62
7
  6
CONTINUOUS
 10
308.8632509642
 20
534.6143353022
 40
18.5832306907
100
AcDbArc
 50
195.4075959764
 51
196.4348135291
  0
ARC
  5
415
100
AcDbEntity
  8
0
100
AcDbCircle
 62
7
  6
CONTINUOUS
 10
308.1621303833
 20
535.5386845336
 40
18.5685323715
100
AcDbArc
 50
236.5649205216
 51
237.563116987
  0
CIRCLE
  5
416
100
AcDbEntity
  8
0
100
AcDbCircle
 62
7
  6
CONTINUOUS
 10
384.1162099105
 20
190.4143755162
 40
3.7
  0
ARC
  5
417
100
AcDbEntity
  8
0
100
AcDbCircle
 62
7
  6
CONTINUOUS
 10
283.3331545431
 20
1057.7211451807
 40
18.583230689
100
AcDbArc
 50
315.4075959764
 51
316.4348135292
  0
ARC
  5
418
100
AcDbEntity
  8
0
100
AcDbCircle
 62
7
  6
CONTINUOUS
 10
283.3331545438
 20
1044.8744934686
 40
18.5832306881
100
AcDbArc
 50
43.5651864708
 51
44.5924040236
  0
ARC
  5
419
100
AcDbEntity
  8
0
100
AcDbCircle
 62
7
  6
CONTINUOUS
 10
282.8832049344
 20
1045.9438563176
 40
18.568532353
100
AcDbArc
 50
2.4368830135
 51
3.4350794788
  0
ARC
  5
41A
100
AcDbEntity
  8
0
100
AcDbCircle
 62
7
  6
CONTINUOUS
 10
282.8832050801
 20
1056.6517823231
 40
18.5685322071
100
AcDbArc
 50
356.5649205186
 51
357.563116984
  0
ARC
  5
41B
100
AcDbEntity
  8
0
100
AcDbCircle
 62
7
  6
CONTINUOUS
 10
295.3456718048
 20
1053.5478193243
 40
0.5
100
AcDbArc
 50
270.0
 51
330.0
  0
ARC
  5
41C
100
AcDbEntity
  8
0
100
AcDbCircle
 62
7
  6
CONTINUOUS
 10
294.479646401
 20
1052.5478193243
 40
0.5
100
AcDbArc
 50
90.0
 51
210.0
  0
ARC
  5
41D
100
AcDbEntity
  8
0
100
AcDbCircle
 62
7
  6
CONTINUOUS
 10
294.0466336991
 20
1051.2978193243
 40
0.5
100
AcDbArc
 50
330.0
 51
30.0
  0
ARC
  5
41E
100
AcDbEntity
  8
0
100
AcDbCircle
 62
7
  6
CONTINUOUS
 10
294.479646401
 20
1050.0478193243
 40
0.5
100
AcDbArc
 50
150.0
 51
270.0
  0
ARC
  5
41F
100
AcDbEntity
  8
0
100
AcDbCircle
 62
7
  6
CONTINUOUS
 10
295.3456718048
 20
1049.0478193243
 40
0.5
100
AcDbArc
 50
30.0
 51
90.0
  0
ARC
  5
420
100
AcDbEntity
  8
0
100
AcDbCircle
 62
7
  6
CONTINUOUS
 10
283.3331545431
 20
1407.7211451807
 40
18.583230689
100
AcDbArc
 50
315.4075959764
 51
316.4348135292
  0
ARC
  5
421
100
AcDbEntity
  8
0
100
AcDbCircle
 62
7
  6
CONTINUOUS
 10
283.3331545438
 20
1394.8744934686
 40
18.5832306881
100
AcDbArc
 50
43.5651864708
 51
44.5924040236
  0
ARC
  5
422
100
AcDbEntity
  8
0
100
AcDbCircle
 62
7
  6
CONTINUOUS
 10
282.8832049344
 20
1395.9438563176
 40
18.568532353
100
AcDbArc
 50
2.4368830135
 51
3.4350794788
  0
ARC
  5
423
100
AcDbEntity
  8
0
100
AcDbCircle
 62
7
  6
CONTINUOUS
 10
282.8832050801
 20
1406.6517823231
 40
18.5685322071
100
AcDbArc
 50
356.5649205186
 51
357.563116984
  0
ARC
  5
424
100
AcDbEntity
  8
0
100
AcDbCircle
 62
7
  6
CONTINUOUS
 10
289.1484514117
 20
1479.969990926
 40
11.002808377
100
AcDbArc
 50
250.8012841058
 51
251.6144869006
  0
ARC
  5
425
100
AcDbEntity
  8
0
100
AcDbCircle
 62
7
  6
CONTINUOUS
 10
295.3456718048
 20
1403.5478193243
 40
0.5
100
AcDbArc
 50
270.0
 51
330.0
  0
ARC
  5
426
100
AcDbEntity
  8
0
100
AcDbCircle
 62
7
  6
CONTINUOUS
 10
294.479646401
 20
1402.5478193243
 40
0.5
100
AcDbArc
 50
90.0
 51
210.0
  0
ARC
  5
427
100
AcDbEntity
  8
0
100
AcDbCircle
 62
7
  6
CONTINUOUS
 10
294.0466336991
 20
1401.2978193243
 40
0.5
100
AcDbArc
 50
330.0
 51
30.0
  0
ARC
  5
428
100
AcDbEntity
  8
0
100
AcDbCircle
 62
7
  6
CONTINUOUS
 10
294.479646401
 20
1400.0478193243
 40
0.5
100
AcDbArc
 50
150.0
 51
270.0
  0
ARC
  5
429
100
AcDbEntity
  8
0
100
AcDbCircle
 62
7
  6
CONTINUOUS
 10
295.3456718048
 20
1399.0478193243
 40
0.5
100
AcDbArc
 50
30.0
 51
90.0
  0
ARC
  5
42A
100
AcDbEntity
  8
0
100
AcDbCircle
 62
7
  6
CONTINUOUS
 10
297.7377242247
 20
1036.5580112801
 40
18.5832306931
100
AcDbArc
 50
75.4075959764
 51
76.434813529
  0
ARC
  5
42B
100
AcDbEntity
  8
0
100
AcDbCircle
 62
7
  6
CONTINUOUS
 10
298.8887697691
 20
1036.7030735217
 40
18.568477854
100
AcDbArc
 50
116.5649195479
 51
117.5630323359
  0
ARC
  5
42C
100
AcDbEntity
  8
0
100
AcDbCircle
 62
7
  6
CONTINUOUS
 10
297.9437480161
 20
1049.0478193243
 40
0.5
100
AcDbArc
 50
90.0
 51
150.0
  0
ARC
  5
42D
100
AcDbEntity
  8
0
100
AcDbCircle
 62
7
  6
CONTINUOUS
 10
298.8097734199
 20
1050.0478193243
 40
0.5
100
AcDbArc
 50
270.0
 51
30.0
  0
ARC
  5
42E
100
AcDbEntity
  8
0
100
AcDbCircle
 62
7
  6
CONTINUOUS
 10
296.6447099105
 20
1048.7978193243
 40
0.5
100
AcDbArc
 50
210.0
 51
330.0
  0
CIRCLE
  5
42F
100
AcDbEntity
  8
0
100
AcDbCircle
 62
7
  6
CONTINUOUS
 10
296.6447099105
 20
1051.2978193243
 40
7.5
  0
ARC
  5
430
100
AcDbEntity
  8
0
100
AcDbCircle
 62
7
  6
CONTINUOUS
 10
296.6447099105
 20
1051.2978193243
 40
6.6250190726
100
AcDbArc
 50
164.2190979027
 51
195.7809020973
  0
ARC
  5
431
100
AcDbEntity
  8
0
100
AcDbCircle
 62
7
  6
CONTINUOUS
 10
296.6447099105
 20
1051.2978193243
 40
6.6236522336
100
AcDbArc
 50
210.6754332562
 51
269.3245667438
  0
ARC
  5
432
100
AcDbEntity
  8
0
100
AcDbCircle
 62
7
  6
CONTINUOUS
 10
296.6447099105
 20
1051.2978193243
 40
6.6236522336
100
AcDbArc
 50
330.6754332562
 51
29.3245667438
  0
ARC
  5
433
100
AcDbEntity
  8
0
100
AcDbCircle
 62
7
  6
CONTINUOUS
 10
296.6447099105
 20
1051.2978193243
 40
6.6236522336
100
AcDbArc
 50
90.6754332562
 51
149.3245667438
  0
ARC
  5
434
100
AcDbEntity
  8
0
100
AcDbCircle
 62
7
  6
CONTINUOUS
 10
296.6447099105
 20
1051.2978193243
 40
6.3722226932
100
AcDbArc
 50
34.9753231955
 51
38.0246768045
  0
ARC
  5
435
100
AcDbEntity
  8
0
100
AcDbCircle
 62
7
  6
CONTINUOUS
 10
296.6447099105
 20
1051.2978193243
 40
6.3722226932
100
AcDbArc
 50
321.9753231955
 51
325.0246768045
  0
ARC
  5
436
100
AcDbEntity
  8
0
100
AcDbCircle
 62
7
  6
CONTINUOUS
 10
296.6447099105
 20
1051.2978193243
 40
6.3722226932
100
AcDbArc
 50
274.9753231955
 51
278.0246768045
  0
ARC
  5
437
100
AcDbEntity
  8
0
100
AcDbCircle
 62
7
  6
CONTINUOUS
 10
296.6447099105
 20
1051.2978193243
 40
6.3722226932
100
AcDbArc
 50
81.9753231955
 51
85.0246768045
  0
ARC
  5
438
100
AcDbEntity
  8
0
100
AcDbCircle
 62
7
  6
CONTINUOUS
 10
296.6447099105
 20
1051.2978193243
 40
6.3722226932
100
AcDbArc
 50
154.9753231955
 51
158.0246781527
  0
ARC
  5
439
100
AcDbEntity
  8
0
100
AcDbCircle
 62
7
  6
CONTINUOUS
 10
296.6447099105
 20
1051.2978193243
 40
6.3722226932
100
AcDbArc
 50
201.9753231955
 51
205.0246768045
  0
ARC
  5
43A
100
AcDbEntity
  8
0
100
AcDbCircle
 62
7
  6
CONTINUOUS
 10
296.6447099105
 20
1051.2978193243
 40
6.25
100
AcDbArc
 50
76.2187165556
 51
163.806876838
  0
ARC
  5
43B
100
AcDbEntity
  8
0
100
AcDbCircle
 62
7
  6
CONTINUOUS
 10
296.6447099105
 20
1051.2978193243
 40
6.25
100
AcDbArc
 50
316.1652248287
 51
43.8379871778
  0
ARC
  5
43C
100
AcDbEntity
  8
0
100
AcDbCircle
 62
7
  6
CONTINUOUS
 10
296.6447099105
 20
1051.2978193243
 40
6.25
100
AcDbArc
 50
196.1987930203
 51
283.7721180935
  0
ARC
  5
43D
100
AcDbEntity
  8
0
100
AcDbCircle
 62
7
  6
CONTINUOUS
 10
296.6447099105
 20
1051.2978193243
 40
6.0
100
AcDbArc
 50
313.927644044
 51
46.0723307091
  0
ARC
  5
43E
100
AcDbEntity
  8
0
100
AcDbCircle
 62
7
  6
CONTINUOUS
 10
296.6447099105
 20
1051.2978193243
 40
6.0
100
AcDbArc
 50
199.3907038649
 51
283.2897442989
  0
ARC
  5
43F
100
AcDbEntity
  8
0
100
AcDbCircle
 62
7
  6
CONTINUOUS
 10
296.6447099105
 20
1051.2978193243
 40
6.0
100
AcDbArc
 50
76.7102311725
 51
160.6092699794
  0
ARC
  5
440
100
AcDbEntity
  8
0
100
AcDbCircle
 62
7
  6
CONTINUOUS
 10
296.6447099105
 20
1051.2978193243
 40
5.6515888492
100
AcDbArc
 50
44.333367366
 51
75.666632634
  0
ARC
  5
441
100
AcDbEntity
  8
0
100
AcDbCircle
 62
7
  6
CONTINUOUS
 10
296.6447099105
 20
1051.2978193243
 40
5.6515888492
100
AcDbArc
 50
284.333367366
 51
315.666632634
  0
ARC
  5
442
100
AcDbEntity
  8
0
100
AcDbCircle
 62
7
  6
CONTINUOUS
 10
296.6447099105
 20
1051.2978193243
 40
5.6250190726
100
AcDbArc
 50
164.3467617741
 51
195.6532382259
  0
CIRCLE
  5
443
100
AcDbEntity
  8
0
100
AcDbCircle
 62
7
  6
CONTINUOUS
 10
296.6447099105
 20
1051.2978193243
 40
5.5434781454
  0
ARC
  5
444
100
AcDbEntity
  8
0
100
AcDbCircle
 62
7
  6
CONTINUOUS
 10
296.6447099105
 20
1053.7978193243
 40
0.5
100
AcDbArc
 50
30.0
 51
150.0
  0
ARC
  5
445
100
AcDbEntity
  8
0
100
AcDbCircle
 62
7
  6
CONTINUOUS
 10
297.737724224
 20
1066.0376273713
 40
18.583230696
100
AcDbArc
 50
283.5651864711
 51
284.5924040234
  0
ARC
  5
446
100
AcDbEntity
  8
0
100
AcDbCircle
 62
7
  6
CONTINUOUS
 10
299.2427861218
 20
1051.2978193243
 40
0.5
100
AcDbArc
 50
150.0
 51
210.0
  0
ARC
  5
447
100
AcDbEntity
  8
0
100
AcDbCircle
 62
7
  6
CONTINUOUS
 10
298.8097734199
 20
1052.5478193243
 40
0.5
100
AcDbArc
 50
330.0
 51
90.0
  0
ARC
  5
448
100
AcDbEntity
  8
0
100
AcDbCircle
 62
7
  6
CONTINUOUS
 10
297.9437480161
 20
1053.5478193243
 40
0.5
100
AcDbArc
 50
210.0
 51
270.0
  0
ARC
  5
449
100
AcDbEntity
  8
0
100
AcDbCircle
 62
7
  6
CONTINUOUS
 10
298.8887698572
 20
1065.8925653005
 40
18.5684780488
100
AcDbArc
 50
242.4369676604
 51
243.4350804486
  0
ARC
  5
44A
100
AcDbEntity
  8
0
100
AcDbCircle
 62
7
  6
CONTINUOUS
 10
308.8632509663
 20
1042.9813371394
 40
18.5832306929
100
AcDbArc
 50
163.5651864709
 51
164.5924040235
  0
ARC
  5
44B
100
AcDbEntity
  8
0
100
AcDbCircle
 62
7
  6
CONTINUOUS
 10
308.1621301095
 20
1042.0569883285
 40
18.5685318702
100
AcDbArc
 50
122.4368830219
 51
123.4350794874
  0
ARC
  5
44C
100
AcDbEntity
  8
0
100
AcDbCircle
 62
7
  6
CONTINUOUS
 10
308.8632509649
 20
1059.6143015088
 40
18.5832306914
100
AcDbArc
 50
195.4075959765
 51
196.4348135291
  0
ARC
  5
44D
100
AcDbEntity
  8
0
100
AcDbCircle
 62
7
  6
CONTINUOUS
 10
308.1621303861
 20
1060.5386507443
 40
18.5685323766
100
AcDbArc
 50
236.5649205218
 51
237.5631169868
  0
ARC
  5
44E
100
AcDbEntity
  8
0
100
AcDbCircle
 62
7
  6
CONTINUOUS
 10
297.7377242247
 20
1386.5580112801
 40
18.5832306931
100
AcDbArc
 50
75.4075959764
 51
76.434813529
  0
ARC
  5
44F
100
AcDbEntity
  8
0
100
AcDbCircle
 62
7
  6
CONTINUOUS
 10
298.8887697691
 20
1386.7030735217
 40
18.568477854
100
AcDbArc
 50
116.5649195479
 51
117.5630323359
  0
ARC
  5
450
100
AcDbEntity
  8
0
100
AcDbCircle
 62
7
  6
CONTINUOUS
 10
297.9437480161
 20
1399.0478193243
 40
0.5
100
AcDbArc
 50
90.0
 51
150.0
  0
ARC
  5
451
100
AcDbEntity
  8
0
100
AcDbCircle
 62
7
  6
CONTINUOUS
 10
298.8097734199
 20
1400.0478193243
 40
0.5
100
AcDbArc
 50
270.0
 51
30.0
  0
ARC
  5
452
100
AcDbEntity
  8
0
100
AcDbCircle
 62
7
  6
CONTINUOUS
 10
296.6447099105
 20
1398.7978193243
 40
0.5
100
AcDbArc
 50
210.0
 51
330.0
  0
CIRCLE
  5
453
100
AcDbEntity
  8
0
100
AcDbCircle
 62
7
  6
CONTINUOUS
 10
296.6447099105
 20
1401.2978193243
 40
7.5
  0
ARC
  5
454
100
AcDbEntity
  8
0
100
AcDbCircle
 62
7
  6
CONTINUOUS
 10
296.6447099105
 20
1401.2978193243
 40
6.6250190726
100
AcDbArc
 50
164.2190979027
 51
195.7809020973
  0
ARC
  5
455
100
AcDbEntity
  8
0
100
AcDbCircle
 62
7
  6
CONTINUOUS
 10
296.6447099105
 20
1401.2978193243
 40
6.6236522336
100
AcDbArc
 50
210.6754332562
 51
269.3245667438
  0
ARC
  5
456
100
AcDbEntity
  8
0
100
AcDbCircle
 62
7
  6
CONTINUOUS
 10
296.6447099105
 20
1401.2978193243
 40
6.6236522336
100
AcDbArc
 50
330.6754332562
 51
29.3245667438
  0
ARC
  5
457
100
AcDbEntity
  8
0
100
AcDbCircle
 62
7
  6
CONTINUOUS
 10
296.6447099105
 20
1401.2978193243
 40
6.6236522336
100
AcDbArc
 50
90.6754332562
 51
149.3245667438
  0
ARC
  5
458
100
AcDbEntity
  8
0
100
AcDbCircle
 62
7
  6
CONTINUOUS
 10
296.6447099105
 20
1401.2978193243
 40
6.3722226932
100
AcDbArc
 50
34.9753231955
 51
38.0246768045
  0
ARC
  5
459
100
AcDbEntity
  8
0
100
AcDbCircle
 62
7
  6
CONTINUOUS
 10
296.6447099105
 20
1401.2978193243
 40
6.3722226932
100
AcDbArc
 50
321.9753231955
 51
325.0246768045
  0
ARC
  5
45A
100
AcDbEntity
  8
0
100
AcDbCircle
 62
7
  6
CONTINUOUS
 10
296.6447099105
 20
1401.2978193243
 40
6.3722226932
100
AcDbArc
 50
274.9753231955
 51
278.0246768045
  0
ARC
  5
45B
100
AcDbEntity
  8
0
100
AcDbCircle
 62
7
  6
CONTINUOUS
 10
296.6447099105
 20
1401.2978193243
 40
6.3722226932
100
AcDbArc
 50
81.9753231955
 51
85.0246768045
  0
ARC
  5
45C
100
AcDbEntity
  8
0
100
AcDbCircle
 62
7
  6
CONTINUOUS
 10
296.6447099105
 20
1401.2978193243
 40
6.3722226932
100
AcDbArc
 50
154.9753231955
 51
158.0246781527
  0
ARC
  5
45D
100
AcDbEntity
  8
0
100
AcDbCircle
 62
7
  6
CONTINUOUS
 10
296.6447099105
 20
1401.2978193243
 40
6.3722226932
100
AcDbArc
 50
201.9753231955
 51
205.0246768045
  0
ARC
  5
45E
100
AcDbEntity
  8
0
100
AcDbCircle
 62
7
  6
CONTINUOUS
 10
296.6447099105
 20
1401.2978193243
 40
6.25
100
AcDbArc
 50
76.2187165556
 51
163.806876838
  0
ARC
  5
45F
100
AcDbEntity
  8
0
100
AcDbCircle
 62
7
  6
CONTINUOUS
 10
296.6447099105
 20
1401.2978193243
 40
6.25
100
AcDbArc
 50
316.1652248287
 51
43.8379871778
  0
ARC
  5
460
100
AcDbEntity
  8
0
100
AcDbCircle
 62
7
  6
CONTINUOUS
 10
296.6447099105
 20
1401.2978193243
 40
6.25
100
AcDbArc
 50
196.1987930203
 51
283.7721180935
  0
ARC
  5
461
100
AcDbEntity
  8
0
100
AcDbCircle
 62
7
  6
CONTINUOUS
 10
296.6447099105
 20
1401.2978193243
 40
6.0
100
AcDbArc
 50
313.927644044
 51
46.0723307091
  0
ARC
  5
462
100
AcDbEntity
  8
0
100
AcDbCircle
 62
7
  6
CONTINUOUS
 10
296.6447099105
 20
1401.2978193243
 40
6.0
100
AcDbArc
 50
199.3907038649
 51
283.2897442989
  0
ARC
  5
463
100
AcDbEntity
  8
0
100
AcDbCircle
 62
7
  6
CONTINUOUS
 10
296.6447099105
 20
1401.2978193243
 40
6.0
100
AcDbArc
 50
76.7102311725
 51
160.6092699794
  0
ARC
  5
464
100
AcDbEntity
  8
0
100
AcDbCircle
 62
7
  6
CONTINUOUS
 10
296.6447099105
 20
1401.2978193243
 40
5.6515888492
100
AcDbArc
 50
44.333367366
 51
75.666632634
  0
ARC
  5
465
100
AcDbEntity
  8
0
100
AcDbCircle
 62
7
  6
CONTINUOUS
 10
296.6447099105
 20
1401.2978193243
 40
5.6515888492
100
AcDbArc
 50
284.333367366
 51
315.666632634
  0
ARC
  5
466
100
AcDbEntity
  8
0
100
AcDbCircle
 62
7
  6
CONTINUOUS
 10
296.6447099105
 20
1401.2978193243
 40
5.6250190726
100
AcDbArc
 50
164.3467617741
 51
195.6532382259
  0
CIRCLE
  5
467
100
AcDbEntity
  8
0
100
AcDbCircle
 62
7
  6
CONTINUOUS
 10
296.6447099105
 20
1401.2978193243
 40
5.5434781454
  0
ARC
  5
468
100
AcDbEntity
  8
0
100
AcDbCircle
 62
7
  6
CONTINUOUS
 10
296.6447099105
 20
1403.7978193243
 40
0.5
100
AcDbArc
 50
30.0
 51
150.0
  0
ARC
  5
469
100
AcDbEntity
  8
0
100
AcDbCircle
 62
7
  6
CONTINUOUS
 10
297.737724224
 20
1416.0376273713
 40
18.583230696
100
AcDbArc
 50
283.5651864711
 51
284.5924040234
  0
ARC
  5
46A
100
AcDbEntity
  8
0
100
AcDbCircle
 62
7
  6
CONTINUOUS
 10
299.2427861218
 20
1401.2978193243
 40
0.5
100
AcDbArc
 50
150.0
 51
210.0
  0
ARC
  5
46B
100
AcDbEntity
  8
0
100
AcDbCircle
 62
7
  6
CONTINUOUS
 10
298.8097734199
 20
1402.5478193243
 40
0.5
100
AcDbArc
 50
330.0
 51
90.0
  0
ARC
  5
46C
100
AcDbEntity
  8
0
100
AcDbCircle
 62
7
  6
CONTINUOUS
 10
297.9437480161
 20
1403.5478193243
 40
0.5
100
AcDbArc
 50
210.0
 51
270.0
  0
ARC
  5
46D
100
AcDbEntity
  8
0
100
AcDbCircle
 62
7
  6
CONTINUOUS
 10
298.8887698572
 20
1415.8925653005
 40
18.5684780488
100
AcDbArc
 50
242.4369676604
 51
243.4350804486
  0
ARC
  5
46E
100
AcDbEntity
  8
0
100
AcDbCircle
 62
7
  6
CONTINUOUS
 10
308.8632509663
 20
1392.9813371394
 40
18.5832306929
100
AcDbArc
 50
163.5651864709
 51
164.5924040235
  0
ARC
  5
46F
100
AcDbEntity
  8
0
100
AcDbCircle
 62
7
  6
CONTINUOUS
 10
308.1621301095
 20
1392.0569883285
 40
18.5685318702
100
AcDbArc
 50
122.4368830219
 51
123.4350794874
  0
ARC
  5
470
100
AcDbEntity
  8
0
100
AcDbCircle
 62
7
  6
CONTINUOUS
 10
308.8632509649
 20
1409.6143015088
 40
18.5832306914
100
AcDbArc
 50
195.4075959765
 51
196.4348135291
  0
ARC
  5
471
100
AcDbEntity
  8
0
100
AcDbCircle
 62
7
  6
CONTINUOUS
 10
308.1621303861
 20
1410.5386507443
 40
18.5685323766
100
AcDbArc
 50
236.5649205218
 51
237.5631169868
  0
ARC
  5
472
100
AcDbEntity
  8
0
100
AcDbCircle
 62
7
  6
CONTINUOUS
 10
825.333120748
 20
182.7211789757
 40
18.5832306911
100
AcDbArc
 50
315.4075959765
 51
316.4348135291
  0
ARC
  5
473
100
AcDbEntity
  8
0
100
AcDbCircle
 62
7
  6
CONTINUOUS
 10
825.333120748
 20
169.8745272601
 40
18.5832306911
100
AcDbArc
 50
43.5651864709
 51
44.5924040235
  0
ARC
  5
474
100
AcDbEntity
  8
0
100
AcDbCircle
 62
7
  6
CONTINUOUS
 10
824.8831711466
 20
170.9438901115
 40
18.5685323472
100
AcDbArc
 50
2.4368830134
 51
3.435079479
  0
ARC
  5
475
100
AcDbEntity
  8
0
100
AcDbCircle
 62
7
  6
CONTINUOUS
 10
824.8831712892
 20
181.6518161166
 40
18.5685322044
100
AcDbArc
 50
356.5649205185
 51
357.5631169841
  0
ARC
  5
476
100
AcDbEntity
  8
0
100
AcDbCircle
 62
7
  6
CONTINUOUS
 10
837.3456380112
 20
178.5478531179
 40
0.5
100
AcDbArc
 50
270.0
 51
330.0
  0
ARC
  5
477
100
AcDbEntity
  8
0
100
AcDbCircle
 62
7
  6
CONTINUOUS
 10
836.4796126074
 20
177.5478531179
 40
0.5
100
AcDbArc
 50
90.0
 51
210.0
  0
ARC
  5
478
100
AcDbEntity
  8
0
100
AcDbCircle
 62
7
  6
CONTINUOUS
 10
836.0465999055
 20
176.2978531179
 40
0.5
100
AcDbArc
 50
330.0
 51
30.0
  0
ARC
  5
479
100
AcDbEntity
  8
0
100
AcDbCircle
 62
7
  6
CONTINUOUS
 10
836.4796126074
 20
175.0478531179
 40
0.5
100
AcDbArc
 50
150.0
 51
270.0
  0
ARC
  5
47A
100
AcDbEntity
  8
0
100
AcDbCircle
 62
7
  6
CONTINUOUS
 10
837.3456380112
 20
174.0478531179
 40
0.5
100
AcDbArc
 50
30.0
 51
90.0
  0
ARC
  5
47B
100
AcDbEntity
  8
0
100
AcDbCircle
 62
7
  6
CONTINUOUS
 10
825.3331207488
 20
532.7211789749
 40
18.58323069
100
AcDbArc
 50
315.4075959764
 51
316.4348135291
  0
ARC
  5
47C
100
AcDbEntity
  8
0
100
AcDbCircle
 62
7
  6
CONTINUOUS
 10
825.3331207488
 20
519.8745272609
 40
18.58323069
100
AcDbArc
 50
43.5651864709
 51
44.5924040236
  0
ARC
  5
47D
100
AcDbEntity
  8
0
100
AcDbCircle
 62
7
  6
CONTINUOUS
 10
824.8831711466
 20
520.9438901115
 40
18.5685323471
100
AcDbArc
 50
2.4368830134
 51
3.435079479
  0
ARC
  5
47E
100
AcDbEntity
  8
0
100
AcDbCircle
 62
7
  6
CONTINUOUS
 10
824.8831712892
 20
531.6518161166
 40
18.5685322044
100
AcDbArc
 50
356.5649205185
 51
357.563116984
  0
ARC
  5
47F
100
AcDbEntity
  8
0
100
AcDbCircle
 62
7
  6
CONTINUOUS
 10
837.3456380112
 20
528.5478531179
 40
0.5
100
AcDbArc
 50
270.0
 51
330.0
  0
ARC
  5
480
100
AcDbEntity
  8
0
100
AcDbCircle
 62
7
  6
CONTINUOUS
 10
836.4796126074
 20
527.5478531179
 40
0.5
100
AcDbArc
 50
90.0
 51
210.0
  0
ARC
  5
481
100
AcDbEntity
  8
0
100
AcDbCircle
 62
7
  6
CONTINUOUS
 10
836.0465999055
 20
526.2978531179
 40
0.5
100
AcDbArc
 50
330.0
 51
30.0
  0
ARC
  5
482
100
AcDbEntity
  8
0
100
AcDbCircle
 62
7
  6
CONTINUOUS
 10
836.4796126074
 20
525.0478531179
 40
0.5
100
AcDbArc
 50
150.0
 51
270.0
  0
ARC
  5
483
100
AcDbEntity
  8
0
100
AcDbCircle
 62
7
  6
CONTINUOUS
 10
837.3456380112
 20
524.0478531179
 40
0.5
100
AcDbArc
 50
30.0
 51
90.0
  0
ARC
  5
484
100
AcDbEntity
  8
0
100
AcDbCircle
 62
7
  6
CONTINUOUS
 10
839.7376904315
 20
161.5580450753
 40
18.5832306915
100
AcDbArc
 50
75.4075959764
 51
76.434813529
  0
ARC
  5
485
100
AcDbEntity
  8
0
100
AcDbCircle
 62
7
  6
CONTINUOUS
 10
838.6446761169
 20
173.7978531179
 40
0.5
100
AcDbArc
 50
210.0
 51
330.0
  0
CIRCLE
  5
486
100
AcDbEntity
  8
0
100
AcDbCircle
 62
7
  6
CONTINUOUS
 10
838.6446761169
 20
176.2978531179
 40
7.5
  0
ARC
  5
487
100
AcDbEntity
  8
0
100
AcDbCircle
 62
7
  6
CONTINUOUS
 10
838.6446761169
 20
176.2978531179
 40
6.6250190726
100
AcDbArc
 50
164.2190979027
 51
195.7809020973
  0
ARC
  5
488
100
AcDbEntity
  8
0
100
AcDbCircle
 62
7
  6
CONTINUOUS
 10
838.6446761169
 20
176.2978531179
 40
6.6236522336
100
AcDbArc
 50
210.6754332562
 51
269.3245667438
  0
ARC
  5
489
100
AcDbEntity
  8
0
100
AcDbCircle
 62
7
  6
CONTINUOUS
 10
838.6446761169
 20
176.2978531179
 40
6.6236522336
100
AcDbArc
 50
330.6754332562
 51
29.3245667438
  0
ARC
  5
48A
100
AcDbEntity
  8
0
100
AcDbCircle
 62
7
  6
CONTINUOUS
 10
838.6446761169
 20
176.2978531179
 40
6.6236522336
100
AcDbArc
 50
90.6754332562
 51
149.3245667438
  0
ARC
  5
48B
100
AcDbEntity
  8
0
100
AcDbCircle
 62
7
  6
CONTINUOUS
 10
838.6446761169
 20
176.2978531179
 40
6.3722226932
100
AcDbArc
 50
34.9753231955
 51
38.0246768045
  0
ARC
  5
48C
100
AcDbEntity
  8
0
100
AcDbCircle
 62
7
  6
CONTINUOUS
 10
838.6446761169
 20
176.2978531179
 40
6.3722226932
100
AcDbArc
 50
321.9753231955
 51
325.0246768045
  0
ARC
  5
48D
100
AcDbEntity
  8
0
100
AcDbCircle
 62
7
  6
CONTINUOUS
 10
838.6446761169
 20
176.2978531179
 40
6.3722226932
100
AcDbArc
 50
274.9753231955
 51
278.0246768045
  0
ARC
  5
48E
100
AcDbEntity
  8
0
100
AcDbCircle
 62
7
  6
CONTINUOUS
 10
838.6446761169
 20
176.2978531179
 40
6.3722226932
100
AcDbArc
 50
81.9753231955
 51
85.0246768045
  0
ARC
  5
48F
100
AcDbEntity
  8
0
100
AcDbCircle
 62
7
  6
CONTINUOUS
 10
838.6446761169
 20
176.2978531179
 40
6.3722226932
100
AcDbArc
 50
154.9753231955
 51
158.0246781527
  0
ARC
  5
490
100
AcDbEntity
  8
0
100
AcDbCircle
 62
7
  6
CONTINUOUS
 10
838.6446761169
 20
176.2978531179
 40
6.3722226932
100
AcDbArc
 50
201.9753231955
 51
205.0246768045
  0
ARC
  5
491
100
AcDbEntity
  8
0
100
AcDbCircle
 62
7
  6
CONTINUOUS
 10
838.6446761169
 20
176.2978531179
 40
6.25
100
AcDbArc
 50
76.2187165556
 51
163.806876838
  0
ARC
  5
492
100
AcDbEntity
  8
0
100
AcDbCircle
 62
7
  6
CONTINUOUS
 10
838.6446761169
 20
176.2978531179
 40
6.25
100
AcDbArc
 50
316.1652248287
 51
43.8379871778
  0
ARC
  5
493
100
AcDbEntity
  8
0
100
AcDbCircle
 62
7
  6
CONTINUOUS
 10
838.6446761169
 20
176.2978531179
 40
6.25
100
AcDbArc
 50
196.1987930203
 51
283.7721180935
  0
ARC
  5
494
100
AcDbEntity
  8
0
100
AcDbCircle
 62
7
  6
CONTINUOUS
 10
838.6446761169
 20
176.2978531179
 40
6.0
100
AcDbArc
 50
313.927644044
 51
46.0723307091
  0
ARC
  5
495
100
AcDbEntity
  8
0
100
AcDbCircle
 62
7
  6
CONTINUOUS
 10
838.6446761169
 20
176.2978531179
 40
6.0
100
AcDbArc
 50
199.3907038649
 51
283.2897442989
  0
ARC
  5
496
100
AcDbEntity
  8
0
100
AcDbCircle
 62
7
  6
CONTINUOUS
 10
838.6446761169
 20
176.2978531179
 40
6.0
100
AcDbArc
 50
76.7102311725
 51
160.6092699794
  0
ARC
  5
497
100
AcDbEntity
  8
0
100
AcDbCircle
 62
7
  6
CONTINUOUS
 10
838.6446761169
 20
176.2978531179
 40
5.6515888492
100
AcDbArc
 50
44.333367366
 51
75.666632634
  0
ARC
  5
498
100
AcDbEntity
  8
0
100
AcDbCircle
 62
7
  6
CONTINUOUS
 10
838.6446761169
 20
176.2978531179
 40
5.6515888492
100
AcDbArc
 50
284.333367366
 51
315.666632634
  0
ARC
  5
499
100
AcDbEntity
  8
0
100
AcDbCircle
 62
7
  6
CONTINUOUS
 10
838.6446761169
 20
176.2978531179
 40
5.6250190726
100
AcDbArc
 50
164.3467617741
 51
195.6532382259
  0
CIRCLE
  5
49A
100
AcDbEntity
  8
0
100
AcDbCircle
 62
7
  6
CONTINUOUS
 10
838.6446761169
 20
176.2978531179
 40
5.5434781454
  0
ARC
  5
49B
100
AcDbEntity
  8
0
100
AcDbCircle
 62
7
  6
CONTINUOUS
 10
838.6446761169
 20
178.7978531179
 40
0.5
100
AcDbArc
 50
30.0
 51
150.0
  0
ARC
  5
49C
100
AcDbEntity
  8
0
100
AcDbCircle
 62
7
  6
CONTINUOUS
 10
839.7376904313
 20
191.0376611614
 40
18.5832306925
100
AcDbArc
 50
283.565186471
 51
284.5924040236
  0
ARC
  5
49D
100
AcDbEntity
  8
0
100
AcDbCircle
 62
7
  6
CONTINUOUS
 10
840.8887359755
 20
161.7031073153
 40
18.568477854
100
AcDbArc
 50
116.5649195479
 51
117.5630323359
  0
ARC
  5
49E
100
AcDbEntity
  8
0
100
AcDbCircle
 62
7
  6
CONTINUOUS
 10
839.9437142225
 20
174.0478531179
 40
0.5
100
AcDbArc
 50
90.0
 51
150.0
  0
ARC
  5
49F
100
AcDbEntity
  8
0
100
AcDbCircle
 62
7
  6
CONTINUOUS
 10
840.8097396263
 20
175.0478531179
 40
0.5
100
AcDbArc
 50
270.0
 51
30.0
  0
ARC
  5
4A0
100
AcDbEntity
  8
0
100
AcDbCircle
 62
7
  6
CONTINUOUS
 10
840.8887360652
 20
190.8925990972
 40
18.5684780522
100
AcDbArc
 50
242.4369676605
 51
243.4350804486
  0
ARC
  5
4A1
100
AcDbEntity
  8
0
100
AcDbCircle
 62
7
  6
CONTINUOUS
 10
841.2427523282
 20
176.2978531179
 40
0.5
100
AcDbArc
 50
150.0
 51
210.0
  0
ARC
  5
4A2
100
AcDbEntity
  8
0
100
AcDbCircle
 62
7
  6
CONTINUOUS
 10
840.8097396263
 20
177.5478531179
 40
0.5
100
AcDbArc
 50
330.0
 51
90.0
  0
ARC
  5
4A3
100
AcDbEntity
  8
0
100
AcDbCircle
 62
7
  6
CONTINUOUS
 10
839.9437142225
 20
178.5478531179
 40
0.5
100
AcDbArc
 50
210.0
 51
270.0
  0
ARC
  5
4A4
100
AcDbEntity
  8
0
100
AcDbCircle
 62
7
  6
CONTINUOUS
 10
846.1409346151
 20
97.6256815146
 40
11.0028083787
100
AcDbArc
 50
70.8012841058
 51
71.6144869006
  0
ARC
  5
4A5
100
AcDbEntity
  8
0
100
AcDbCircle
 62
7
  6
CONTINUOUS
 10
850.8632171711
 20
184.6143353023
 40
18.5832306912
100
AcDbArc
 50
195.4075959764
 51
196.4348135291
  0
ARC
  5
4A6
100
AcDbEntity
  8
0
100
AcDbCircle
 62
7
  6
CONTINUOUS
 10
850.8632171659
 20
167.9813709349
 40
18.5832306859
100
AcDbArc
 50
163.5651864708
 51
164.5924040237
  0
ARC
  5
4A7
100
AcDbEntity
  8
0
100
AcDbCircle
 62
7
  6
CONTINUOUS
 10
850.1620965905
 20
185.5386845348
 40
18.5685323729
100
AcDbArc
 50
236.5649205217
 51
237.5631169869
  0
ARC
  5
4A8
100
AcDbEntity
  8
0
100
AcDbCircle
 62
7
  6
CONTINUOUS
 10
850.1620963174
 20
167.0570221198
 40
18.568531873
100
AcDbArc
 50
122.4368830219
 51
123.4350794873
  0
ARC
  5
4A9
100
AcDbEntity
  8
0
100
AcDbCircle
 62
7
  6
CONTINUOUS
 10
839.7376904318
 20
511.5580450762
 40
18.5832306905
100
AcDbArc
 50
75.4075959764
 51
76.4348135291
  0
ARC
  5
4AA
100
AcDbEntity
  8
0
100
AcDbCircle
 62
7
  6
CONTINUOUS
 10
840.8887359758
 20
511.7031073147
 40
18.5684778547
100
AcDbArc
 50
116.5649195479
 51
117.5630323359
  0
ARC
  5
4AB
100
AcDbEntity
  8
0
100
AcDbCircle
 62
7
  6
CONTINUOUS
 10
839.9437142225
 20
524.0478531179
 40
0.5
100
AcDbArc
 50
90.0
 51
150.0
  0
ARC
  5
4AC
100
AcDbEntity
  8
0
100
AcDbCircle
 62
7
  6
CONTINUOUS
 10
840.8097396263
 20
525.0478531179
 40
0.5
100
AcDbArc
 50
270.0
 51
30.0
  0
ARC
  5
4AD
100
AcDbEntity
  8
0
100
AcDbCircle
 62
7
  6
CONTINUOUS
 10
838.6446761169
 20
523.7978531179
 40
0.5
100
AcDbArc
 50
210.0
 51
330.0
  0
CIRCLE
  5
4AE
100
AcDbEntity
  8
0
100
AcDbCircle
 62
7
  6
CONTINUOUS
 10
838.6446761169
 20
526.2978531179
 40
7.5
  0
ARC
  5
4AF
100
AcDbEntity
  8
0
100
AcDbCircle
 62
7
  6
CONTINUOUS
 10
838.6446761169
 20
526.2978531179
 40
6.6250190726
100
AcDbArc
 50
164.2190979027
 51
195.7809020973
  0
ARC
  5
4B0
100
AcDbEntity
  8
0
100
AcDbCircle
 62
7
  6
CONTINUOUS
 10
838.6446761169
 20
526.2978531179
 40
6.6236522336
100
AcDbArc
 50
210.6754332562
 51
269.3245667438
  0
ARC
  5
4B1
100
AcDbEntity
  8
0
100
AcDbCircle
 62
7
  6
CONTINUOUS
 10
838.6446761169
 20
526.2978531179
 40
6.6236522336
100
AcDbArc
 50
330.6754332562
 51
29.3245667438
  0
ARC
  5
4B2
100
AcDbEntity
  8
0
100
AcDbCircle
 62
7
  6
CONTINUOUS
 10
838.6446761169
 20
526.2978531179
 40
6.6236522336
100
AcDbArc
 50
90.6754332562
 51
149.3245667438
  0
ARC
  5
4B3
100
AcDbEntity
  8
0
100
AcDbCircle
 62
7
  6
CONTINUOUS
 10
838.6446761169
 20
526.2978531179
 40
6.3722226932
100
AcDbArc
 50
34.9753231955
 51
38.0246768045
  0
ARC
  5
4B4
100
AcDbEntity
  8
0
100
AcDbCircle
 62
7
  6
CONTINUOUS
 10
838.6446761169
 20
526.2978531179
 40
6.3722226932
100
AcDbArc
 50
321.9753231955
 51
325.0246768045
  0
ARC
  5
4B5
100
AcDbEntity
  8
0
100
AcDbCircle
 62
7
  6
CONTINUOUS
 10
838.6446761169
 20
526.2978531179
 40
6.3722226932
100
AcDbArc
 50
274.9753231955
 51
278.0246768045
  0
ARC
  5
4B6
100
AcDbEntity
  8
0
100
AcDbCircle
 62
7
  6
CONTINUOUS
 10
838.6446761169
 20
526.2978531179
 40
6.3722226932
100
AcDbArc
 50
81.9753231955
 51
85.0246768045
  0
ARC
  5
4B7
100
AcDbEntity
  8
0
100
AcDbCircle
 62
7
  6
CONTINUOUS
 10
838.6446761169
 20
526.2978531179
 40
6.3722226932
100
AcDbArc
 50
154.9753231955
 51
158.0246781527
  0
ARC
  5
4B8
100
AcDbEntity
  8
0
100
AcDbCircle
 62
7
  6
CONTINUOUS
 10
838.6446761169
 20
526.2978531179
 40
6.3722226932
100
AcDbArc
 50
201.9753231955
 51
205.0246768045
  0
ARC
  5
4B9
100
AcDbEntity
  8
0
100
AcDbCircle
 62
7
  6
CONTINUOUS
 10
838.6446761169
 20
526.2978531179
 40
6.25
100
AcDbArc
 50
76.2187165556
 51
163.806876838
  0
ARC
  5
4BA
100
AcDbEntity
  8
0
100
AcDbCircle
 62
7
  6
CONTINUOUS
 10
838.6446761169
 20
526.2978531179
 40
6.25
100
AcDbArc
 50
316.1652248287
 51
43.8379871778
  0
ARC
  5
4BB
100
AcDbEntity
  8
0
100
AcDbCircle
 62
7
  6
CONTINUOUS
 10
838.6446761169
 20
526.2978531179
 40
6.25
100
AcDbArc
 50
196.1987930203
 51
283.7721180935
  0
ARC
  5
4BC
100
AcDbEntity
  8
0
100
AcDbCircle
 62
7
  6
CONTINUOUS
 10
838.6446761169
 20
526.2978531179
 40
6.0
100
AcDbArc
 50
313.927644044
 51
46.0723307091
  0
ARC
  5
4BD
100
AcDbEntity
  8
0
100
AcDbCircle
 62
7
  6
CONTINUOUS
 10
838.6446761169
 20
526.2978531179
 40
6.0
100
AcDbArc
 50
199.3907038649
 51
283.2897442989
  0
ARC
  5
4BE
100
AcDbEntity
  8
0
100
AcDbCircle
 62
7
  6
CONTINUOUS
 10
838.6446761169
 20
526.2978531179
 40
6.0
100
AcDbArc
 50
76.7102311725
 51
160.6092699794
  0
ARC
  5
4BF
100
AcDbEntity
  8
0
100
AcDbCircle
 62
7
  6
CONTINUOUS
 10
838.6446761169
 20
526.2978531179
 40
5.6515888492
100
AcDbArc
 50
44.333367366
 51
75.666632634
  0
ARC
  5
4C0
100
AcDbEntity
  8
0
100
AcDbCircle
 62
7
  6
CONTINUOUS
 10
838.6446761169
 20
526.2978531179
 40
5.6515888492
100
AcDbArc
 50
284.333367366
 51
315.666632634
  0
ARC
  5
4C1
100
AcDbEntity
  8
0
100
AcDbCircle
 62
7
  6
CONTINUOUS
 10
838.6446761169
 20
526.2978531179
 40
5.6250190726
100
AcDbArc
 50
164.3467617741
 51
195.6532382259
  0
CIRCLE
  5
4C2
100
AcDbEntity
  8
0
100
AcDbCircle
 62
7
  6
CONTINUOUS
 10
838.6446761169
 20
526.2978531179
 40
5.5434781454
  0
ARC
  5
4C3
100
AcDbEntity
  8
0
100
AcDbCircle
 62
7
  6
CONTINUOUS
 10
838.6446761169
 20
528.7978531179
 40
0.5
100
AcDbArc
 50
30.0
 51
150.0
  0
ARC
  5
4C4
100
AcDbEntity
  8
0
100
AcDbCircle
 62
7
  6
CONTINUOUS
 10
839.7376904319
 20
541.0376611589
 40
18.5832306899
100
AcDbArc
 50
283.5651864709
 51
284.5924040236
  0
ARC
  5
4C5
100
AcDbEntity
  8
0
100
AcDbCircle
 62
7
  6
CONTINUOUS
 10
841.2427523282
 20
526.2978531179
 40
0.5
100
AcDbArc
 50
150.0
 51
210.0
  0
ARC
  5
4C6
100
AcDbEntity
  8
0
100
AcDbCircle
 62
7
  6
CONTINUOUS
 10
840.8097396263
 20
527.5478531179
 40
0.5
100
AcDbArc
 50
330.0
 51
90.0
  0
ARC
  5
4C7
100
AcDbEntity
  8
0
100
AcDbCircle
 62
7
  6
CONTINUOUS
 10
839.9437142225
 20
528.5478531179
 40
0.5
100
AcDbArc
 50
210.0
 51
270.0
  0
ARC
  5
4C8
100
AcDbEntity
  8
0
100
AcDbCircle
 62
7
  6
CONTINUOUS
 10
840.888736065
 20
540.892599097
 40
18.5684780519
100
AcDbArc
 50
242.4369676605
 51
243.4350804486
  0
ARC
  5
4C9
100
AcDbEntity
  8
0
100
AcDbCircle
 62
7
  6
CONTINUOUS
 10
850.8632171662
 20
517.9813709348
 40
18.5832306861
100
AcDbArc
 50
163.5651864708
 51
164.5924040237
  0
ARC
  5
4CA
100
AcDbEntity
  8
0
100
AcDbCircle
 62
7
  6
CONTINUOUS
 10
850.1620963176
 20
517.0570221195
 40
18.5685318733
100
AcDbArc
 50
122.4368830219
 51
123.4350794873
  0
ARC
  5
4CB
100
AcDbEntity
  8
0
100
AcDbCircle
 62
7
  6
CONTINUOUS
 10
850.8632171718
 20
534.6143353025
 40
18.583230692
100
AcDbArc
 50
195.4075959765
 51
196.4348135291
  0
ARC
  5
4CC
100
AcDbEntity
  8
0
100
AcDbCircle
 62
7
  6
CONTINUOUS
 10
850.1620965909
 20
535.5386845355
 40
18.5685323738
100
AcDbArc
 50
236.5649205217
 51
237.5631169869
  0
ARC
  5
4CD
100
AcDbEntity
  8
0
100
AcDbCircle
 62
7
  6
CONTINUOUS
 10
825.3331207495
 20
1044.8744934679
 40
18.583230689
100
AcDbArc
 50
43.5651864708
 51
44.5924040236
  0
ARC
  5
4CE
100
AcDbEntity
  8
0
100
AcDbCircle
 62
7
  6
CONTINUOUS
 10
824.8831711464
 20
1045.9438563179
 40
18.5685323474
100
AcDbArc
 50
2.4368830134
 51
3.435079479
  0
ARC
  5
4CF
100
AcDbEntity
  8
0
100
AcDbCircle
 62
7
  6
CONTINUOUS
 10
825.3331207495
 20
1057.7211451807
 40
18.583230689
100
AcDbArc
 50
315.4075959764
 51
316.4348135292
  0
ARC
  5
4D0
100
AcDbEntity
  8
0
100
AcDbCircle
 62
7
  6
CONTINUOUS
 10
824.8831712893
 20
1056.651782323
 40
18.5685322043
100
AcDbArc
 50
356.5649205185
 51
357.5631169841
  0
ARC
  5
4D1
100
AcDbEntity
  8
0
100
AcDbCircle
 62
7
  6
CONTINUOUS
 10
839.7376904311
 20
1036.5580112801
 40
18.5832306931
100
AcDbArc
 50
75.4075959764
 51
76.434813529
  0
ARC
  5
4D2
100
AcDbEntity
  8
0
100
AcDbCircle
 62
7
  6
CONTINUOUS
 10
840.8887359758
 20
1036.7030735211
 40
18.5684778547
100
AcDbArc
 50
116.5649195479
 51
117.5630323359
  0
ARC
  5
4D3
100
AcDbEntity
  8
0
100
AcDbCircle
 62
7
  6
CONTINUOUS
 10
836.4796126074
 20
1050.0478193243
 40
0.5
100
AcDbArc
 50
150.0
 51
270.0
  0
ARC
  5
4D4
100
AcDbEntity
  8
0
100
AcDbCircle
 62
7
  6
CONTINUOUS
 10
837.3456380112
 20
1049.0478193243
 40
0.5
100
AcDbArc
 50
30.0
 51
90.0
  0
ARC
  5
4D5
100
AcDbEntity
  8
0
100
AcDbCircle
 62
7
  6
CONTINUOUS
 10
839.9437142225
 20
1049.0478193243
 40
0.5
100
AcDbArc
 50
90.0
 51
150.0
  0
ARC
  5
4D6
100
AcDbEntity
  8
0
100
AcDbCircle
 62
7
  6
CONTINUOUS
 10
840.8097396263
 20
1050.0478193243
 40
0.5
100
AcDbArc
 50
270.0
 51
30.0
  0
ARC
  5
4D7
100
AcDbEntity
  8
0
100
AcDbCircle
 62
7
  6
CONTINUOUS
 10
838.6446761169
 20
1048.7978193243
 40
0.5
100
AcDbArc
 50
210.0
 51
330.0
  0
ARC
  5
4D8
100
AcDbEntity
  8
0
100
AcDbCircle
 62
7
  6
CONTINUOUS
 10
837.3456380112
 20
1053.5478193243
 40
0.5
100
AcDbArc
 50
270.0
 51
330.0
  0
ARC
  5
4D9
100
AcDbEntity
  8
0
100
AcDbCircle
 62
7
  6
CONTINUOUS
 10
836.4796126074
 20
1052.5478193243
 40
0.5
100
AcDbArc
 50
90.0
 51
210.0
  0
ARC
  5
4DA
100
AcDbEntity
  8
0
100
AcDbCircle
 62
7
  6
CONTINUOUS
 10
836.0465999055
 20
1051.2978193243
 40
0.5
100
AcDbArc
 50
330.0
 51
30.0
  0
CIRCLE
  5
4DB
100
AcDbEntity
  8
0
100
AcDbCircle
 62
7
  6
CONTINUOUS
 10
838.6446761169
 20
1051.2978193243
 40
7.5
  0
ARC
  5
4DC
100
AcDbEntity
  8
0
100
AcDbCircle
 62
7
  6
CONTINUOUS
 10
838.6446761169
 20
1051.2978193243
 40
6.6250190726
100
AcDbArc
 50
164.2190979027
 51
195.7809020973
  0
ARC
  5
4DD
100
AcDbEntity
  8
0
100
AcDbCircle
 62
7
  6
CONTINUOUS
 10
838.6446761169
 20
1051.2978193243
 40
6.6236522336
100
AcDbArc
 50
210.6754332562
 51
269.3245667438
  0
ARC
  5
4DE
100
AcDbEntity
  8
0
100
AcDbCircle
 62
7
  6
CONTINUOUS
 10
838.6446761169
 20
1051.2978193243
 40
6.6236522336
100
AcDbArc
 50
330.6754332562
 51
29.3245667438
  0
ARC
  5
4DF
100
AcDbEntity
  8
0
100
AcDbCircle
 62
7
  6
CONTINUOUS
 10
838.6446761169
 20
1051.2978193243
 40
6.6236522336
100
AcDbArc
 50
90.6754332562
 51
149.3245667438
  0
ARC
  5
4E0
100
AcDbEntity
  8
0
100
AcDbCircle
 62
7
  6
CONTINUOUS
 10
838.6446761169
 20
1051.2978193243
 40
6.3722226932
100
AcDbArc
 50
34.9753231955
 51
38.0246768045
  0
ARC
  5
4E1
100
AcDbEntity
  8
0
100
AcDbCircle
 62
7
  6
CONTINUOUS
 10
838.6446761169
 20
1051.2978193243
 40
6.3722226932
100
AcDbArc
 50
321.9753231955
 51
325.0246768045
  0
ARC
  5
4E2
100
AcDbEntity
  8
0
100
AcDbCircle
 62
7
  6
CONTINUOUS
 10
838.6446761169
 20
1051.2978193243
 40
6.3722226932
100
AcDbArc
 50
274.9753231955
 51
278.0246768045
  0
ARC
  5
4E3
100
AcDbEntity
  8
0
100
AcDbCircle
 62
7
  6
CONTINUOUS
 10
838.6446761169
 20
1051.2978193243
 40
6.3722226932
100
AcDbArc
 50
81.9753231955
 51
85.0246768045
  0
ARC
  5
4E4
100
AcDbEntity
  8
0
100
AcDbCircle
 62
7
  6
CONTINUOUS
 10
838.6446761169
 20
1051.2978193243
 40
6.3722226932
100
AcDbArc
 50
154.9753231955
 51
158.0246781527
  0
ARC
  5
4E5
100
AcDbEntity
  8
0
100
AcDbCircle
 62
7
  6
CONTINUOUS
 10
838.6446761169
 20
1051.2978193243
 40
6.3722226932
100
AcDbArc
 50
201.9753231955
 51
205.0246768045
  0
ARC
  5
4E6
100
AcDbEntity
  8
0
100
AcDbCircle
 62
7
  6
CONTINUOUS
 10
838.6446761169
 20
1051.2978193243
 40
6.25
100
AcDbArc
 50
76.2187165556
 51
163.806876838
  0
ARC
  5
4E7
100
AcDbEntity
  8
0
100
AcDbCircle
 62
7
  6
CONTINUOUS
 10
838.6446761169
 20
1051.2978193243
 40
6.25
100
AcDbArc
 50
316.1652248287
 51
43.8379871778
  0
ARC
  5
4E8
100
AcDbEntity
  8
0
100
AcDbCircle
 62
7
  6
CONTINUOUS
 10
838.6446761169
 20
1051.2978193243
 40
6.25
100
AcDbArc
 50
196.1987930203
 51
283.7721180935
  0
ARC
  5
4E9
100
AcDbEntity
  8
0
100
AcDbCircle
 62
7
  6
CONTINUOUS
 10
838.6446761169
 20
1051.2978193243
 40
6.0
100
AcDbArc
 50
313.927644044
 51
46.0723307091
  0
ARC
  5
4EA
100
AcDbEntity
  8
0
100
AcDbCircle
 62
7
  6
CONTINUOUS
 10
838.6446761169
 20
1051.2978193243
 40
6.0
100
AcDbArc
 50
199.3907038649
 51
283.2897442989
  0
ARC
  5
4EB
100
AcDbEntity
  8
0
100
AcDbCircle
 62
7
  6
CONTINUOUS
 10
838.6446761169
 20
1051.2978193243
 40
6.0
100
AcDbArc
 50
76.7102311725
 51
160.6092699794
  0
ARC
  5
4EC
100
AcDbEntity
  8
0
100
AcDbCircle
 62
7
  6
CONTINUOUS
 10
838.6446761169
 20
1051.2978193243
 40
5.6515888492
100
AcDbArc
 50
44.333367366
 51
75.666632634
  0
ARC
  5
4ED
100
AcDbEntity
  8
0
100
AcDbCircle
 62
7
  6
CONTINUOUS
 10
838.6446761169
 20
1051.2978193243
 40
5.6515888492
100
AcDbArc
 50
284.333367366
 51
315.666632634
  0
ARC
  5
4EE
100
AcDbEntity
  8
0
100
AcDbCircle
 62
7
  6
CONTINUOUS
 10
838.6446761169
 20
1051.2978193243
 40
5.6250190726
100
AcDbArc
 50
164.3467617741
 51
195.6532382259
  0
CIRCLE
  5
4EF
100
AcDbEntity
  8
0
100
AcDbCircle
 62
7
  6
CONTINUOUS
 10
838.6446761169
 20
1051.2978193243
 40
5.5434781454
  0
ARC
  5
4F0
100
AcDbEntity
  8
0
100
AcDbCircle
 62
7
  6
CONTINUOUS
 10
838.6446761169
 20
1053.7978193243
 40
0.5
100
AcDbArc
 50
30.0
 51
150.0
  0
ARC
  5
4F1
100
AcDbEntity
  8
0
100
AcDbCircle
 62
7
  6
CONTINUOUS
 10
841.2427523282
 20
1051.2978193243
 40
0.5
100
AcDbArc
 50
150.0
 51
210.0
  0
ARC
  5
4F2
100
AcDbEntity
  8
0
100
AcDbCircle
 62
7
  6
CONTINUOUS
 10
840.8097396263
 20
1052.5478193243
 40
0.5
100
AcDbArc
 50
330.0
 51
90.0
  0
ARC
  5
4F3
100
AcDbEntity
  8
0
100
AcDbCircle
 62
7
  6
CONTINUOUS
 10
839.9437142225
 20
1053.5478193243
 40
0.5
100
AcDbArc
 50
210.0
 51
270.0
  0
ARC
  5
4F4
100
AcDbEntity
  8
0
100
AcDbCircle
 62
7
  6
CONTINUOUS
 10
839.7376904304
 20
1066.0376273716
 40
18.5832306963
100
AcDbArc
 50
283.5651864711
 51
284.5924040234
  0
ARC
  5
4F5
100
AcDbEntity
  8
0
100
AcDbCircle
 62
7
  6
CONTINUOUS
 10
840.8887360644
 20
1065.8925653022
 40
18.5684780507
100
AcDbArc
 50
242.4369676604
 51
243.4350804486
  0
ARC
  5
4F6
100
AcDbEntity
  8
0
100
AcDbCircle
 62
7
  6
CONTINUOUS
 10
825.3331207495
 20
1394.8744934679
 40
18.583230689
100
AcDbArc
 50
43.5651864708
 51
44.5924040236
  0
ARC
  5
4F7
100
AcDbEntity
  8
0
100
AcDbCircle
 62
7
  6
CONTINUOUS
 10
824.8831711464
 20
1395.9438563179
 40
18.5685323474
100
AcDbArc
 50
2.4368830134
 51
3.435079479
  0
ARC
  5
4F8
100
AcDbEntity
  8
0
100
AcDbCircle
 62
7
  6
CONTINUOUS
 10
825.3331207495
 20
1407.7211451807
 40
18.583230689
100
AcDbArc
 50
315.4075959764
 51
316.4348135292
  0
ARC
  5
4F9
100
AcDbEntity
  8
0
100
AcDbCircle
 62
7
  6
CONTINUOUS
 10
824.8831712893
 20
1406.651782323
 40
18.5685322043
100
AcDbArc
 50
356.5649205185
 51
357.5631169841
  0
ARC
  5
4FA
100
AcDbEntity
  8
0
100
AcDbCircle
 62
7
  6
CONTINUOUS
 10
839.7376904311
 20
1386.5580112801
 40
18.5832306931
100
AcDbArc
 50
75.4075959764
 51
76.434813529
  0
ARC
  5
4FB
100
AcDbEntity
  8
0
100
AcDbCircle
 62
7
  6
CONTINUOUS
 10
840.8887359758
 20
1386.7030735211
 40
18.5684778547
100
AcDbArc
 50
116.5649195479
 51
117.5630323359
  0
ARC
  5
4FC
100
AcDbEntity
  8
0
100
AcDbCircle
 62
7
  6
CONTINUOUS
 10
836.4796126074
 20
1400.0478193243
 40
0.5
100
AcDbArc
 50
150.0
 51
270.0
  0
ARC
  5
4FD
100
AcDbEntity
  8
0
100
AcDbCircle
 62
7
  6
CONTINUOUS
 10
837.3456380112
 20
1399.0478193243
 40
0.5
100
AcDbArc
 50
30.0
 51
90.0
  0
ARC
  5
4FE
100
AcDbEntity
  8
0
100
AcDbCircle
 62
7
  6
CONTINUOUS
 10
839.9437142225
 20
1399.0478193243
 40
0.5
100
AcDbArc
 50
90.0
 51
150.0
  0
ARC
  5
4FF
100
AcDbEntity
  8
0
100
AcDbCircle
 62
7
  6
CONTINUOUS
 10
840.8097396263
 20
1400.0478193243
 40
0.5
100
AcDbArc
 50
270.0
 51
30.0
  0
ARC
  5
500
100
AcDbEntity
  8
0
100
AcDbCircle
 62
7
  6
CONTINUOUS
 10
838.6446761169
 20
1398.7978193243
 40
0.5
100
AcDbArc
 50
210.0
 51
330.0
  0
ARC
  5
501
100
AcDbEntity
  8
0
100
AcDbCircle
 62
7
  6
CONTINUOUS
 10
837.3456380112
 20
1403.5478193243
 40
0.5
100
AcDbArc
 50
270.0
 51
330.0
  0
ARC
  5
502
100
AcDbEntity
  8
0
100
AcDbCircle
 62
7
  6
CONTINUOUS
 10
836.4796126074
 20
1402.5478193243
 40
0.5
100
AcDbArc
 50
90.0
 51
210.0
  0
ARC
  5
503
100
AcDbEntity
  8
0
100
AcDbCircle
 62
7
  6
CONTINUOUS
 10
836.0465999055
 20
1401.2978193243
 40
0.5
100
AcDbArc
 50
330.0
 51
30.0
  0
CIRCLE
  5
504
100
AcDbEntity
  8
0
100
AcDbCircle
 62
7
  6
CONTINUOUS
 10
838.6446761169
 20
1401.2978193243
 40
7.5
  0
ARC
  5
505
100
AcDbEntity
  8
0
100
AcDbCircle
 62
7
  6
CONTINUOUS
 10
838.6446761169
 20
1401.2978193243
 40
6.6250190726
100
AcDbArc
 50
164.2190979027
 51
195.7809020973
  0
ARC
  5
506
100
AcDbEntity
  8
0
100
AcDbCircle
 62
7
  6
CONTINUOUS
 10
838.6446761169
 20
1401.2978193243
 40
6.6236522336
100
AcDbArc
 50
210.6754332562
 51
269.3245667438
  0
ARC
  5
507
100
AcDbEntity
  8
0
100
AcDbCircle
 62
7
  6
CONTINUOUS
 10
838.6446761169
 20
1401.2978193243
 40
6.6236522336
100
AcDbArc
 50
330.6754332562
 51
29.3245667438
  0
ARC
  5
508
100
AcDbEntity
  8
0
100
AcDbCircle
 62
7
  6
CONTINUOUS
 10
838.6446761169
 20
1401.2978193243
 40
6.6236522336
100
AcDbArc
 50
90.6754332562
 51
149.3245667438
  0
ARC
  5
509
100
AcDbEntity
  8
0
100
AcDbCircle
 62
7
  6
CONTINUOUS
 10
838.6446761169
 20
1401.2978193243
 40
6.3722226932
100
AcDbArc
 50
34.9753231955
 51
38.0246768045
  0
ARC
  5
50A
100
AcDbEntity
  8
0
100
AcDbCircle
 62
7
  6
CONTINUOUS
 10
838.6446761169
 20
1401.2978193243
 40
6.3722226932
100
AcDbArc
 50
321.9753231955
 51
325.0246768045
  0
ARC
  5
50B
100
AcDbEntity
  8
0
100
AcDbCircle
 62
7
  6
CONTINUOUS
 10
838.6446761169
 20
1401.2978193243
 40
6.3722226932
100
AcDbArc
 50
274.9753231955
 51
278.0246768045
  0
ARC
  5
50C
100
AcDbEntity
  8
0
100
AcDbCircle
 62
7
  6
CONTINUOUS
 10
838.6446761169
 20
1401.2978193243
 40
6.3722226932
100
AcDbArc
 50
81.9753231955
 51
85.0246768045
  0
ARC
  5
50D
100
AcDbEntity
  8
0
100
AcDbCircle
 62
7
  6
CONTINUOUS
 10
838.6446761169
 20
1401.2978193243
 40
6.3722226932
100
AcDbArc
 50
154.9753231955
 51
158.0246781527
  0
ARC
  5
50E
100
AcDbEntity
  8
0
100
AcDbCircle
 62
7
  6
CONTINUOUS
 10
838.6446761169
 20
1401.2978193243
 40
6.3722226932
100
AcDbArc
 50
201.9753231955
 51
205.0246768045
  0
ARC
  5
50F
100
AcDbEntity
  8
0
100
AcDbCircle
 62
7
  6
CONTINUOUS
 10
838.6446761169
 20
1401.2978193243
 40
6.25
100
AcDbArc
 50
76.2187165556
 51
163.806876838
  0
ARC
  5
510
100
AcDbEntity
  8
0
100
AcDbCircle
 62
7
  6
CONTINUOUS
 10
838.6446761169
 20
1401.2978193243
 40
6.25
100
AcDbArc
 50
316.1652248287
 51
43.8379871778
  0
ARC
  5
511
100
AcDbEntity
  8
0
100
AcDbCircle
 62
7
  6
CONTINUOUS
 10
838.6446761169
 20
1401.2978193243
 40
6.25
100
AcDbArc
 50
196.1987930203
 51
283.7721180935
  0
ARC
  5
512
100
AcDbEntity
  8
0
100
AcDbCircle
 62
7
  6
CONTINUOUS
 10
838.6446761169
 20
1401.2978193243
 40
6.0
100
AcDbArc
 50
313.927644044
 51
46.0723307091
  0
ARC
  5
513
100
AcDbEntity
  8
0
100
AcDbCircle
 62
7
  6
CONTINUOUS
 10
838.6446761169
 20
1401.2978193243
 40
6.0
100
AcDbArc
 50
199.3907038649
 51
283.2897442989
  0
ARC
  5
514
100
AcDbEntity
  8
0
100
AcDbCircle
 62
7
  6
CONTINUOUS
 10
838.6446761169
 20
1401.2978193243
 40
6.0
100
AcDbArc
 50
76.7102311725
 51
160.6092699794
  0
ARC
  5
515
100
AcDbEntity
  8
0
100
AcDbCircle
 62
7
  6
CONTINUOUS
 10
838.6446761169
 20
1401.2978193243
 40
5.6515888492
100
AcDbArc
 50
44.333367366
 51
75.666632634
  0
ARC
  5
516
100
AcDbEntity
  8
0
100
AcDbCircle
 62
7
  6
CONTINUOUS
 10
838.6446761169
 20
1401.2978193243
 40
5.6515888492
100
AcDbArc
 50
284.333367366
 51
315.666632634
  0
ARC
  5
517
100
AcDbEntity
  8
0
100
AcDbCircle
 62
7
  6
CONTINUOUS
 10
838.6446761169
 20
1401.2978193243
 40
5.6250190726
100
AcDbArc
 50
164.3467617741
 51
195.6532382259
  0
CIRCLE
  5
518
100
AcDbEntity
  8
0
100
AcDbCircle
 62
7
  6
CONTINUOUS
 10
838.6446761169
 20
1401.2978193243
 40
5.5434781454
  0
ARC
  5
519
100
AcDbEntity
  8
0
100
AcDbCircle
 62
7
  6
CONTINUOUS
 10
838.6446761169
 20
1403.7978193243
 40
0.5
100
AcDbArc
 50
30.0
 51
150.0
  0
ARC
  5
51A
100
AcDbEntity
  8
0
100
AcDbCircle
 62
7
  6
CONTINUOUS
 10
841.2427523282
 20
1401.2978193243
 40
0.5
100
AcDbArc
 50
150.0
 51
210.0
  0
ARC
  5
51B
100
AcDbEntity
  8
0
100
AcDbCircle
 62
7
  6
CONTINUOUS
 10
840.8097396263
 20
1402.5478193243
 40
0.5
100
AcDbArc
 50
330.0
 51
90.0
  0
ARC
  5
51C
100
AcDbEntity
  8
0
100
AcDbCircle
 62
7
  6
CONTINUOUS
 10
839.9437142225
 20
1403.5478193243
 40
0.5
100
AcDbArc
 50
210.0
 51
270.0
  0
ARC
  5
51D
100
AcDbEntity
  8
0
100
AcDbCircle
 62
7
  6
CONTINUOUS
 10
839.7376904304
 20
1416.0376273716
 40
18.5832306963
100
AcDbArc
 50
283.5651864711
 51
284.5924040234
  0
ARC
  5
51E
100
AcDbEntity
  8
0
100
AcDbCircle
 62
7
  6
CONTINUOUS
 10
840.8887360644
 20
1415.8925653022
 40
18.5684780507
100
AcDbArc
 50
242.4369676604
 51
243.4350804486
  0
ARC
  5
51F
100
AcDbEntity
  8
0
100
AcDbCircle
 62
7
  6
CONTINUOUS
 10
850.86321717
 20
1059.6143015084
 40
18.5832306901
100
AcDbArc
 50
195.4075959764
 51
196.4348135291
  0
ARC
  5
520
100
AcDbEntity
  8
0
100
AcDbCircle
 62
7
  6
CONTINUOUS
 10
850.8632171665
 20
1042.9813371412
 40
18.5832306865
100
AcDbArc
 50
163.5651864708
 51
164.5924040237
  0
ARC
  5
521
100
AcDbEntity
  8
0
100
AcDbCircle
 62
7
  6
CONTINUOUS
 10
850.1620965929
 20
1060.5386507449
 40
18.5685323773
100
AcDbArc
 50
236.5649205218
 51
237.5631169868
  0
ARC
  5
522
100
AcDbEntity
  8
0
100
AcDbCircle
 62
7
  6
CONTINUOUS
 10
850.1620963138
 20
1042.0569883319
 40
18.5685318662
100
AcDbArc
 50
122.4368830218
 51
123.4350794875
  0
ARC
  5
523
100
AcDbEntity
  8
0
100
AcDbCircle
 62
7
  6
CONTINUOUS
 10
850.86321717
 20
1409.6143015084
 40
18.5832306901
100
AcDbArc
 50
195.4075959764
 51
196.4348135291
  0
ARC
  5
524
100
AcDbEntity
  8
0
100
AcDbCircle
 62
7
  6
CONTINUOUS
 10
850.8632171665
 20
1392.9813371412
 40
18.5832306865
100
AcDbArc
 50
163.5651864708
 51
164.5924040237
  0
ARC
  5
525
100
AcDbEntity
  8
0
100
AcDbCircle
 62
7
  6
CONTINUOUS
 10
850.1620965929
 20
1410.5386507449
 40
18.5685323773
100
AcDbArc
 50
236.5649205218
 51
237.5631169868
  0
ARC
  5
526
100
AcDbEntity
  8
0
100
AcDbCircle
 62
7
  6
CONTINUOUS
 10
850.1620963138
 20
1392.0569883319
 40
18.5685318662
100
AcDbArc
 50
122.4368830218
 51
123.4350794875
  0
ARC
  5
527
100
AcDbEntity
  8
0
100
AcDbCircle
 62
7
  6
CONTINUOUS
 10
858.8168477225
 20
1467.2940778217
 40
11.0028083812
100
AcDbArc
 50
160.8012841059
 51
161.6144869005
  0
SPLINE
  5
528
100
AcDbEntity
  8
0
100
AcDbSpline
 62
7
  6
CONTINUOUS
 70
0
 71
3
 72
11
 73
7
 74
0
 42
0.0000001
 43
0.0000001
 44
0.0000000001
 40
0.0
 40
0.0
 40
0.0
 40
0.0
 40
0.2253961398
 40
0.469012392
 40
0.7295955345
 40
1.0
 40
1.0
 40
1.0
 40
1.0
 10
569.3694808976
 20
1472.0347430301
 30
0.0
 10
569.2437558321
 20
1472.0708846518
 30
0.0
 10
568.9777198279
 20
1472.1308727367
 30
0.0
 10
568.558257987
 20
1472.1908563818
 30
0.0
 10
568.1098709402
 20
1472.2267180865
 30
0.0
 10
567.8016319026
 20
1472.2346630666
 30
0.0
 10
567.6446930137
 20
1472.2346630666
 30
0.0
  0
SPLINE
  5
529
100
AcDbEntity
  8
0
100
AcDbSpline
 62
7
  6
CONTINUOUS
 70
0
 71
3
 72
11
 73
7
 74
0
 42
0.0000001
 43
0.0000001
 44
0.0000000001
 40
0.0
 40
0.0
 40
0.0
 40
0.0
 40
0.2703020794
 40
0.5308442714
 40
0.7745212777
 40
1.0
 40
1.0
 40
1.0
 40
1.0
 10
567.6446930137
 20
1472.2346630666
 30
0.0
 10
567.488289572
 20
1472.2346630666
 30
0.0
 10
567.181069033
 20
1472.2267716397
 30
0.0
 10
566.7340828707
 20
1472.1911471176
 30
0.0
 10
566.3158015314
 20
1472.1315827863
 30
0.0
 10
566.0504398657
 20
1472.0720288153
 30
0.0
 10
565.9249906988
 20
1472.0361918744
 30
0.0
  0
SPLINE
  5
52A
100
AcDbEntity
  8
0
100
AcDbSpline
 62
7
  6
CONTINUOUS
 70
0
 71
3
 72
18
 73
14
 74
0
 42
0.0000001
 43
0.0000001
 44
0.0000000001
 40
0.0
 40
0.0
 40
0.0
 40
0.0
 40
0.1961804525
 40
0.3838937309
 40
0.5561895389
 40
0.7068378531
 40
0.8303214666
 40
0.8804368482
 40
0.9221627787
 40
0.9551433427
 40
0.9791242444
 40
0.993957304
 40
1.0
 40
1.0
 40
1.0
 40
1.0
 10
840.2024891094
 20
1394.867128374
 30
0.0
 10
840.1899207264
 20
1394.9292915908
 30
0.0
 10
840.1657288622
 20
1395.0510173784
 30
0.0
 10
840.1319000296
 20
1395.2276102528
 30
0.0
 10
840.1021061689
 20
1395.3899933342
 30
0.0
 10
840.0774361922
 20
1395.5321719477
 30
0.0
 10
840.060828223
 20
1395.6357252844
 30
0.0
 10
840.0509712338
 20
1395.7045581987
 30
0.0
 10
840.0458237219
 20
1395.7447509778
 30
0.0
 10
840.0425340279
 20
1395.7760460137
 30
0.0
 10
840.0407695247
 20
1395.8002183703
 30
0.0
 10
840.0410492916
 20
1395.8128711773
 30
0.0
 10
840.0418906397
 20
1395.8217637461
 30
0.0
 10
840.0437828476
 20
1395.8222491574
 30
0.0
  0
SPLINE
  5
52B
100
AcDbEntity
  8
0
100
AcDbSpline
 62
7
  6
CONTINUOUS
 70
0
 71
3
 72
18
 73
14
 74
0
 42
0.0000001
 43
0.0000001
 44
0.0000000001
 40
0.0
 40
0.0
 40
0.0
 40
0.0
 40
0.1961839298
 40
0.3838987166
 40
0.5561923213
 40
0.7068370835
 40
0.8303261037
 40
0.880444258
 40
0.922166141
 40
0.9551380607
 40
0.9791168631
 40
0.9939559934
 40
1.0
 40
1.0
 40
1.0
 40
1.0
 10
843.4349113474
 20
1396.7333682236
 30
0.0
 10
843.3873597862
 20
1396.7753351015
 30
0.0
 10
843.2940375979
 20
1396.8571505846
 30
0.0
 10
843.1580174289
 20
1396.9747441601
 30
0.0
 10
843.0322870919
 20
1397.0817364871
 30
0.0
 10
842.9214915039
 20
1397.174189933
 30
0.0
 10
842.8401144056
 20
1397.240350529
 30
0.0
 10
842.7854311976
 20
1397.2833042888
 30
0.0
 10
842.7531990008
 20
1397.3078567271
 30
0.0
 10
842.7277457311
 20
1397.3263486652
 30
0.0
 10
842.7076924874
 20
1397.339963422
 30
0.0
 10
842.6965989995
 20
1397.3460447905
 30
0.0
 10
842.6884696552
 20
1397.3497701442
 30
0.0
 10
842.6871050873
 20
1397.348371687
 30
0.0
  0
SPLINE
  5
52C
100
AcDbEntity
  8
0
100
AcDbSpline
 62
7
  6
CONTINUOUS
 70
0
 71
3
 72
18
 73
14
 74
0
 42
0.0000001
 43
0.0000001
 44
0.0000000001
 40
0.0
 40
0.0
 40
0.0
 40
0.0
 40
0.1961804269
 40
0.3838936765
 40
0.5561894655
 40
0.7068377261
 40
0.8303214052
 40
0.8804367776
 40
0.922162465
 40
0.9551428687
 40
0.9791243752
 40
0.9939583257
 40
1.0
 40
1.0
 40
1.0
 40
1.0
 10
843.4349113473
 20
1405.8622704225
 30
0.0
 10
843.387360614
 20
1405.8203042752
 30
0.0
 10
843.2940389221
 20
1405.7384906135
 30
0.0
 10
843.1580194258
 20
1405.6208975499
 30
0.0
 10
843.0322884825
 20
1405.5139037727
 30
0.0
 10
842.9214931935
 20
1405.4214496409
 30
0.0
 10
842.840117279
 20
1405.3552900152
 30
0.0
 10
842.7854348748
 20
1405.31233722
 30
0.0
 10
842.7532005196
 20
1405.287782961
 30
0.0
 10
842.7277436209
 20
1405.2692866914
 30
0.0
 10
842.7076901709
 20
1405.2556716146
 30
0.0
 10
842.6965953537
 20
1405.2495882442
 30
0.0
 10
842.6884706176
 20
1405.2458693936
 30
0.0
 10
842.6871056619
 20
1405.2472664196
 30
0.0
  0
SPLINE
  5
52D
100
AcDbEntity
  8
0
100
AcDbSpline
 62
7
  6
CONTINUOUS
 70
0
 71
3
 72
18
 73
14
 74
0
 42
0.0000001
 43
0.0000001
 44
0.0000000001
 40
0.0
 40
0.0
 40
0.0
 40
0.0
 40
0.196183933
 40
0.3838987393
 40
0.5561923672
 40
0.7068371455
 40
0.8303261736
 40
0.8804443302
 40
0.9221662206
 40
0.9551381436
 40
0.9791169252
 40
0.9939560132
 40
1.0
 40
1.0
 40
1.0
 40
1.0
 10
840.2024891021
 20
1407.7285102699
 30
0.0
 10
840.1899205009
 20
1407.6663459739
 30
0.0
 10
840.1657273153
 20
1407.5446188457
 30
0.0
 10
840.131898375
 20
1407.3680251329
 30
0.0
 10
840.1021054679
 20
1407.2056432954
 30
0.0
 10
840.0774362287
 20
1407.0634647724
 30
0.0
 10
840.0608280211
 20
1406.9599098383
 30
0.0
 10
840.0509705779
 20
1406.8910759094
 30
0.0
 10
840.0458236418
 20
1406.8508857881
 30
0.0
 10
840.0425357857
 20
1406.8195966444
 30
0.0
 10
840.0407716922
 20
1406.7954226735
 30
0.0
 10
840.0410518096
 20
1406.7827747608
 30
0.0
 10
840.0418902548
 20
1406.7738719048
 30
0.0
 10
840.0437836319
 20
1406.7733893844
 30
0.0
  0
SPLINE
  5
52E
100
AcDbEntity
  8
0
100
AcDbSpline
 62
7
  6
CONTINUOUS
 70
0
 71
3
 72
18
 73
14
 74
0
 42
0.0000001
 43
0.0000001
 44
0.0000000001
 40
0.0
 40
0.0
 40
0.0
 40
0.0
 40
0.1948131937
 40
0.3819626402
 40
0.5542778745
 40
0.7053109958
 40
0.8293376439
 40
0.8797269162
 40
0.9217020588
 40
0.9548914324
 40
0.9790276077
 40
0.9939501934
 40
1.0
 40
1.0
 40
1.0
 40
1.0
 10
832.2966527774
 20
1403.1640721589
 30
0.0
 10
832.3580082336
 20
1403.1435230286
 30
0.0
 10
832.478170514
 20
1403.1028271032
 30
0.0
 10
832.6521235771
 20
1403.0425608473
 30
0.0
 10
832.8119076107
 20
1402.9858018249
 30
0.0
 10
832.9514250094
 20
1402.9347272756
 30
0.0
 10
833.0525065799
 20
1402.896266579
 30
0.0
 10
833.1191735518
 20
1402.8696254088
 30
0.0
 10
833.1578320109
 20
1402.8535200116
 30
0.0
 10
833.1875623922
 20
1402.8403377014
 30
0.0
 10
833.2101683658
 20
1402.8294801227
 30
0.0
 10
833.2213212886
 20
1402.8227213049
 30
0.0
 10
833.2289137905
 20
1402.8174348539
 30
0.0
 10
833.2283719519
 20
1402.8154999071
 30
0.0
  0
SPLINE
  5
52F
100
AcDbEntity
  8
0
100
AcDbSpline
 62
7
  6
CONTINUOUS
 70
0
 71
3
 72
18
 73
14
 74
0
 42
0.0000001
 43
0.0000001
 44
0.0000000001
 40
0.0
 40
0.0
 40
0.0
 40
0.0
 40
0.1948172442
 40
0.3819694145
 40
0.5542831195
 40
0.705311792
 40
0.8293422499
 40
0.8797333494
 40
0.9217032658
 40
0.9548828624
 40
0.9790165761
 40
0.9939462702
 40
1.0
 40
1.0
 40
1.0
 40
1.0
 10
832.2966527743
 20
1399.4315664913
 30
0.0
 10
832.3580096777
 20
1399.4521161062
 30
0.0
 10
832.4781747945
 20
1399.4928117759
 30
0.0
 10
832.6521299886
 20
1399.5530787791
 30
0.0
 10
832.8119131994
 20
1399.6098383375
 30
0.0
 10
832.9514299772
 20
1399.6609136085
 30
0.0
 10
833.0525122242
 20
1399.6993746847
 30
0.0
 10
833.1191794356
 20
1399.7260158505
 30
0.0
 10
833.1578340954
 20
1399.7421198659
 30
0.0
 10
833.1875580807
 20
1399.7553013317
 30
0.0
 10
833.2101639205
 20
1399.7661584981
 30
0.0
 10
833.2213154262
 20
1399.7729186949
 30
0.0
 10
833.2289177653
 20
1399.7782050708
 30
0.0
 10
833.2283749785
 20
1399.7801411111
 30
0.0
  0
SPLINE
  5
530
100
AcDbEntity
  8
0
100
AcDbSpline
 62
7
  6
CONTINUOUS
 70
0
 71
3
 72
14
 73
10
 74
0
 42
0.0000001
 43
0.0000001
 44
0.0000000001
 40
0.0
 40
0.0
 40
0.0
 40
0.0
 40
0.3742865272
 40
0.5441798204
 40
0.694089719
 40
0.8185998599
 40
0.9130740531
 40
0.9741507225
 40
1.0
 40
1.0
 40
1.0
 40
1.0
 10
839.1973178487
 20
1394.9496062554
 30
0.0
 10
839.1475035517
 20
1394.9452696871
 30
0.0
 10
839.0750257024
 20
1394.9393855073
 30
0.0
 10
838.9826052844
 20
1394.9323325399
 30
0.0
 10
838.9233149873
 20
1394.9280023366
 30
0.0
 10
838.8744629335
 20
1394.9238294907
 30
0.0
 10
838.8365112593
 20
1394.9212280026
 30
0.0
 10
838.813778752
 20
1394.9168886757
 30
0.0
 10
838.8007375299
 20
1394.9164678135
 30
0.0
 10
838.7983577738
 20
1394.9139653693
 30
0.0
  0
SPLINE
  5
531
100
AcDbEntity
  8
0
100
AcDbSpline
 62
7
  6
CONTINUOUS
 70
0
 71
3
 72
18
 73
14
 74
0
 42
0.0000001
 43
0.0000001
 44
0.0000000001
 40
0.0
 40
0.0
 40
0.0
 40
0.0
 40
0.0057917787
 40
0.0204563263
 40
0.0443815319
 40
0.0774196916
 40
0.1193178674
 40
0.1697052641
 40
0.2939042462
 40
0.4452503833
 40
0.6178905772
 40
0.8052379927
 40
1.0
 40
1.0
 40
1.0
 40
1.0
 10
842.6871050873
 20
1397.348371687
 30
0.0
 10
842.6857538962
 20
1397.3469869388
 30
0.0
 10
842.6905263384
 20
1397.3389484638
 30
0.0
 10
842.6980398067
 20
1397.3287546782
 30
0.0
 10
842.7145492832
 20
1397.309802827
 30
0.0
 10
842.7367842062
 20
1397.2860862627
 30
0.0
 10
842.7661917175
 20
1397.2560105748
 30
0.0
 10
842.8174692674
 20
1397.2051433958
 30
0.0
 10
842.896068382
 20
1397.1297090037
 30
0.0
 10
843.0053834424
 20
1397.027440198
 30
0.0
 10
843.1312410898
 20
1396.9119422109
 30
0.0
 10
843.268753919
 20
1396.7877193233
 30
0.0
 10
843.364070472
 20
1396.7028184555
 30
0.0
 10
843.4127977601
 20
1396.659708122
 30
0.0
  0
SPLINE
  5
532
100
AcDbEntity
  8
0
100
AcDbSpline
 62
7
  6
CONTINUOUS
 70
0
 71
3
 72
14
 73
10
 74
0
 42
0.0000001
 43
0.0000001
 44
0.0000000001
 40
0.0
 40
0.0
 40
0.0
 40
0.0
 40
0.0258511517
 40
0.0869304149
 40
0.1814087942
 40
0.3059211178
 40
0.4558327394
 40
0.6257241893
 40
1.0
 40
1.0
 40
1.0
 40
1.0
 10
833.0392555893
 20
1398.2389845658
 30
0.0
 10
833.0402329623
 20
1398.2422969571
 30
0.0
 10
833.0340761009
 20
1398.2538019115
 30
0.0
 10
833.0264678826
 20
1398.2756596793
 30
0.0
 10
833.0097440786
 20
1398.3098284871
 30
0.0
 10
832.9889315731
 20
1398.3542230766
 30
0.0
 10
832.9630362328
 20
1398.4077352657
 30
0.0
 10
832.9229348729
 20
1398.4912989512
 30
0.0
 10
832.8917924282
 20
1398.5570071375
 30
0.0
 10
832.8706414647
 20
1398.6023145688
 30
0.0
  0
SPLINE
  5
533
100
AcDbEntity
  8
0
100
AcDbSpline
 62
7
  6
CONTINUOUS
 70
0
 71
3
 72
14
 73
10
 74
0
 42
0.0000001
 43
0.0000001
 44
0.0000000001
 40
0.0
 40
0.0
 40
0.0
 40
0.0
 40
0.3742865272
 40
0.5441798204
 40
0.694089719
 40
0.8185998599
 40
0.9130740531
 40
0.9741507225
 40
1.0
 40
1.0
 40
1.0
 40
1.0
 10
832.7354265724
 20
1398.9132875309
 30
0.0
 10
832.7167152006
 20
1398.9596572902
 30
0.0
 10
832.6898976591
 20
1399.0272478345
 30
0.0
 10
832.6561317578
 20
1399.1135678316
 30
0.0
 10
832.6346559584
 20
1399.1690013959
 30
0.0
 10
832.6163824878
 20
1399.2144988252
 30
0.0
 10
832.6027986767
 20
1399.2500315901
 30
0.0
 10
832.5920026158
 20
1399.2705020986
 30
0.0
 10
832.587787259
 20
1399.2828504332
 30
0.0
 10
832.5846983864
 20
1399.2843945613
 30
0.0
  0
SPLINE
  5
534
100
AcDbEntity
  8
0
100
AcDbSpline
 62
7
  6
CONTINUOUS
 70
0
 71
3
 72
14
 73
10
 74
0
 42
0.0000001
 43
0.0000001
 44
0.0000000001
 40
0.0
 40
0.0
 40
0.0
 40
0.0
 40
0.0258511516
 40
0.0869304145
 40
0.1814087936
 40
0.3059211173
 40
0.4558327377
 40
0.6257241855
 40
1.0
 40
1.0
 40
1.0
 40
1.0
 10
832.5846983864
 20
1403.3112440873
 30
0.0
 10
832.5877874828
 20
1403.3127883273
 30
0.0
 10
832.5920027044
 20
1403.3251375307
 30
0.0
 10
832.6027996713
 20
1403.3456087911
 30
0.0
 10
832.6163835484
 20
1403.3811428778
 30
0.0
 10
832.6346576011
 20
1403.4266412178
 30
0.0
 10
832.656133359
 20
1403.4820750956
 30
0.0
 10
832.689898908
 20
1403.5683936701
 30
0.0
 10
832.7167157371
 20
1403.6359826878
 30
0.0
 10
832.7354265713
 20
1403.682351118
 30
0.0
  0
SPLINE
  5
535
100
AcDbEntity
  8
0
100
AcDbSpline
 62
7
  6
CONTINUOUS
 70
0
 71
3
 72
14
 73
10
 74
0
 42
0.0000001
 43
0.0000001
 44
0.0000000001
 40
0.0
 40
0.0
 40
0.0
 40
0.0
 40
0.0258511517
 40
0.0869304149
 40
0.1814087942
 40
0.3059211178
 40
0.4558327394
 40
0.6257241893
 40
1.0
 40
1.0
 40
1.0
 40
1.0
 10
844.0964149874
 20
1397.9728001278
 30
0.0
 10
844.093057686
 20
1397.971990362
 30
0.0
 10
844.0861725339
 20
1397.9609058864
 30
0.0
 10
844.0710472609
 20
1397.9433880921
 30
0.0
 10
844.0498181073
 20
1397.9118204491
 30
0.0
 10
844.0217775178
 20
1397.8715989959
 30
0.0
 10
843.9883822727
 20
1397.8224168788
 30
0.0
 10
843.9360646782
 20
1397.7459062397
 30
0.0
 10
843.894730942
 20
1397.6860819983
 30
0.0
 10
843.8660690373
 20
1397.6451110109
 30
0.0
  0
SPLINE
  5
536
100
AcDbEntity
  8
0
100
AcDbSpline
 62
7
  6
CONTINUOUS
 70
0
 71
3
 72
14
 73
10
 74
0
 42
0.0000001
 43
0.0000001
 44
0.0000000001
 40
0.0
 40
0.0
 40
0.0
 40
0.0
 40
0.3742865272
 40
0.5441798204
 40
0.694089719
 40
0.8185998599
 40
0.9130740531
 40
0.9741507225
 40
1.0
 40
1.0
 40
1.0
 40
1.0
 10
843.6643659983
 20
1397.3725249982
 30
0.0
 10
843.6335642947
 20
1397.3331355952
 30
0.0
 10
843.588437937
 20
1397.2761156509
 30
0.0
 10
843.5305655773
 20
1397.2037135239
 30
0.0
 10
843.4932966021
 20
1397.157398154
 30
0.0
 10
843.4630314079
 20
1397.1188241496
 30
0.0
 10
843.4390510363
 20
1397.0892938416
 30
0.0
 10
843.4267210863
 20
1397.0697089244
 30
0.0
 10
843.4181347934
 20
1397.059884151
 30
0.0
 10
843.4183419755
 20
1397.0564370448
 30
0.0
  0
SPLINE
  5
537
100
AcDbEntity
  8
0
100
AcDbSpline
 62
7
  6
CONTINUOUS
 70
0
 71
3
 72
18
 73
14
 74
0
 42
0.0000001
 43
0.0000001
 44
0.0000000001
 40
0.0
 40
0.0
 40
0.0
 40
0.0
 40
0.0057917668
 40
0.0204562897
 40
0.0443814859
 40
0.0774196514
 40
0.1193178332
 40
0.1697052292
 40
0.2939042058
 40
0.4452503405
 40
0.6178905369
 40
0.8052379649
 40
1.0
 40
1.0
 40
1.0
 40
1.0
 10
840.0437836319
 20
1406.7733893844
 30
0.0
 10
840.0456584495
 20
1406.7729115938
 30
0.0
 10
840.0502337544
 20
1406.7810638528
 30
0.0
 10
840.0553050871
 20
1406.7926675896
 30
0.0
 10
840.0634631294
 20
1406.816441112
 30
0.0
 10
840.0728848077
 20
1406.847555386
 30
0.0
 10
840.0842273567
 20
1406.8880608597
 30
0.0
 10
840.1026408408
 20
1406.9579020669
 30
0.0
 10
840.1286693685
 20
1407.0636880244
 30
0.0
 10
840.1625792032
 20
1407.2094919546
 30
0.0
 10
840.1996745508
 20
1407.376236769
 30
0.0
 10
840.2384982946
 20
1407.557437718
 30
0.0
 10
840.264366317
 20
1407.6824346436
 30
0.0
 10
840.2773373106
 20
1407.7461888496
 30
0.0
  0
SPLINE
  5
538
100
AcDbEntity
  8
0
100
AcDbSpline
 62
7
  6
CONTINUOUS
 70
0
 71
3
 72
18
 73
14
 74
0
 42
0.0000001
 43
0.0000001
 44
0.0000000001
 40
0.0
 40
0.0
 40
0.0
 40
0.0
 40
0.0057780236
 40
0.020422109
 40
0.0443547142
 40
0.0774233717
 40
0.119347274
 40
0.1697441115
 40
0.2939358151
 40
0.4452615606
 40
0.6178841483
 40
0.8052317743
 40
1.0
 40
1.0
 40
1.0
 40
1.0
 10
840.0437836139
 20
1395.8222493537
 30
0.0
 10
840.0456535488
 20
1395.8227277432
 30
0.0
 10
840.0502364704
 20
1395.8146019117
 30
0.0
 10
840.05529876
 20
1395.8029976216
 30
0.0
 10
840.0634610485
 20
1395.7792209026
 30
0.0
 10
840.0728831846
 20
1395.748084055
 30
0.0
 10
840.0842306377
 20
1395.7075572192
 30
0.0
 10
840.1026454945
 20
1395.6377062669
 30
0.0
 10
840.1286736064
 20
1395.5319261311
 30
0.0
 10
840.162581414
 20
1395.3861365503
 30
0.0
 10
840.1996757569
 20
1395.2194037243
 30
0.0
 10
840.2384989702
 20
1395.0382056788
 30
0.0
 10
840.2643659499
 20
1394.9132058089
 30
0.0
 10
840.2773374108
 20
1394.8494493065
 30
0.0
  0
SPLINE
  5
539
100
AcDbEntity
  8
0
100
AcDbSpline
 62
7
  6
CONTINUOUS
 70
0
 71
3
 72
9
 73
5
 74
0
 42
0.0000001
 43
0.0000001
 44
0.0000000001
 40
0.0
 40
0.0
 40
0.0
 40
0.0
 40
0.5
 40
1.0
 40
1.0
 40
1.0
 40
1.0
 10
843.4125872284
 20
1396.6598943848
 30
0.0
 10
842.9972169926
 20
1396.2128774463
 30
0.0
 10
842.0281504425
 20
1395.4374698863
 30
0.0
 10
840.8720945221
 20
1394.9859374159
 30
0.0
 10
840.2772813796
 20
1394.8497247089
 30
0.0
  0
SPLINE
  5
53A
100
AcDbEntity
  8
0
100
AcDbSpline
 62
7
  6
CONTINUOUS
 70
0
 71
3
 72
9
 73
5
 74
0
 42
0.0000001
 43
0.0000001
 44
0.0000000001
 40
0.0
 40
0.0
 40
0.0
 40
0.0
 40
0.5
 40
1.0
 40
1.0
 40
1.0
 40
1.0
 10
840.2772813861
 20
1407.7459139715
 30
0.0
 10
840.8720945323
 20
1407.6097012647
 30
0.0
 10
842.02815046
 20
1407.1581687928
 30
0.0
 10
842.9972170153
 20
1406.3827612271
 30
0.0
 10
843.4125872528
 20
1405.9357442854
 30
0.0
  0
SPLINE
  5
53B
100
AcDbEntity
  8
0
100
AcDbSpline
 62
7
  6
CONTINUOUS
 70
0
 71
3
 72
14
 73
10
 74
0
 42
0.0000001
 43
0.0000001
 44
0.0000000001
 40
0.0
 40
0.0
 40
0.0
 40
0.0
 40
0.0258511517
 40
0.0869304149
 40
0.1814087942
 40
0.3059211178
 40
0.4558327394
 40
0.6257241893
 40
1.0
 40
1.0
 40
1.0
 40
1.0
 10
843.4183419755
 20
1405.5392016038
 30
0.0
 10
843.4181347784
 20
1405.5357542478
 30
0.0
 10
843.4267218915
 20
1405.5259291571
 30
0.0
 10
843.4390520396
 20
1405.5063430792
 30
0.0
 10
843.4630335229
 20
1405.4768120531
 30
0.0
 10
843.493299215
 20
1405.4382370891
 30
0.0
 10
843.5305684827
 20
1405.391921598
 30
0.0
 10
843.5884397865
 20
1405.3195204875
 30
0.0
 10
843.6335651781
 20
1405.2625019236
 30
0.0
 10
843.6643659983
 20
1405.2231136504
 30
0.0
  0
SPLINE
  5
53C
100
AcDbEntity
  8
0
100
AcDbSpline
 62
7
  6
CONTINUOUS
 70
0
 71
3
 72
18
 73
14
 74
0
 42
0.0000001
 43
0.0000001
 44
0.0000000001
 40
0.0
 40
0.0
 40
0.0
 40
0.0
 40
0.0057779355
 40
0.0204214192
 40
0.044353178
 40
0.0774209755
 40
0.1193441834
 40
0.1697405821
 40
0.2939319764
 40
0.4452580437
 40
0.6178814943
 40
0.8052303485
 40
1.0
 40
1.0
 40
1.0
 40
1.0
 10
833.2283718982
 20
1402.8154997154
 30
0.0
 10
833.2278511201
 20
1402.8136411601
 30
0.0
 10
833.2185230571
 20
1402.8137348943
 30
0.0
 10
833.2059423589
 20
1402.8151528805
 30
0.0
 10
833.1812707727
 20
1402.8199721696
 30
0.0
 10
833.1495949178
 20
1402.8273805575
 30
0.0
 10
833.1088243657
 20
1402.8378165907
 30
0.0
 10
833.0391243138
 20
1402.8567942269
 30
0.0
 10
832.9345015651
 20
1402.8871433413
 30
0.0
 10
832.7912891514
 20
1402.9306733644
 30
0.0
 10
832.6283455111
 20
1402.9819156175
 30
0.0
 10
832.4520097717
 20
1403.0388933891
 30
0.0
 10
832.3308217437
 20
1403.0789923002
 30
0.0
 10
832.2691205127
 20
1403.0996372433
 30
0.0
  0
SPLINE
  5
53D
100
AcDbEntity
  8
0
100
AcDbSpline
 62
7
  6
CONTINUOUS
 70
0
 71
3
 72
14
 73
10
 74
0
 42
0.0000001
 43
0.0000001
 44
0.0000000001
 40
0.0
 40
0.0
 40
0.0
 40
0.0
 40
0.3742865272
 40
0.5441798204
 40
0.694089719
 40
0.8185998599
 40
0.9130740531
 40
0.9741507225
 40
1.0
 40
1.0
 40
1.0
 40
1.0
 10
843.8660690373
 20
1404.9505276377
 30
0.0
 10
843.8947317641
 20
1404.9095554751
 30
0.0
 10
843.9360665379
 20
1404.8497299063
 30
0.0
 10
843.9883847958
 20
1404.7732179603
 30
0.0
 10
844.0217800105
 20
1404.7240361584
 30
0.0
 10
844.0498198279
 20
1404.6838154617
 30
0.0
 10
844.0710486198
 20
1404.6522490918
 30
0.0
 10
844.0861728408
 20
1404.6347318264
 30
0.0
 10
844.0930579292
 20
1404.6236482279
 30
0.0
 10
844.0964149874
 20
1404.6228385208
 30
0.0
  0
SPLINE
  5
53E
100
AcDbEntity
  8
0
100
AcDbSpline
 62
7
  6
CONTINUOUS
 70
0
 71
3
 72
14
 73
10
 74
0
 42
0.0000001
 43
0.0000001
 44
0.0000000001
 40
0.0
 40
0.0
 40
0.0
 40
0.0
 40
0.3742865272
 40
0.5441798204
 40
0.694089719
 40
0.8185998599
 40
0.9130740531
 40
0.9741507225
 40
1.0
 40
1.0
 40
1.0
 40
1.0
 10
832.8706414647
 20
1403.9933240798
 30
0.0
 10
832.8917930349
 20
1404.0386328106
 30
0.0
 10
832.9229361103
 20
1404.1043425592
 30
0.0
 10
832.9630382704
 20
1404.1879074727
 30
0.0
 10
832.9889333529
 20
1404.2414194779
 30
0.0
 10
833.0097455892
 20
1404.2858130204
 30
0.0
 10
833.0264684715
 20
1404.3199808784
 30
0.0
 10
833.0340767578
 20
1404.3418374707
 30
0.0
 10
833.0402328915
 20
1404.3533419315
 30
0.0
 10
833.0392555893
 20
1404.3566540827
 30
0.0
  0
SPLINE
  5
53F
100
AcDbEntity
  8
0
100
AcDbSpline
 62
7
  6
CONTINUOUS
 70
0
 71
3
 72
14
 73
10
 74
0
 42
0.0000001
 43
0.0000001
 44
0.0000000001
 40
0.0
 40
0.0
 40
0.0
 40
0.0
 40
0.0258511517
 40
0.0869304149
 40
0.1814087942
 40
0.3059211178
 40
0.4558327394
 40
0.6257241893
 40
1.0
 40
1.0
 40
1.0
 40
1.0
 10
838.7983577738
 20
1407.6816732793
 30
0.0
 10
838.8007377023
 20
1407.6791706538
 30
0.0
 10
838.8137797158
 20
1407.678750175
 30
0.0
 10
838.8365132072
 20
1407.6744102014
 30
0.0
 10
838.8744661647
 20
1407.6718090366
 30
0.0
 10
838.9233192598
 20
1407.6676359004
 30
0.0
 10
838.9826098451
 20
1407.6633058283
 30
0.0
 10
839.0750287995
 20
1407.656252782
 30
0.0
 10
839.1475049805
 20
1407.6503688371
 30
0.0
 10
839.1973178487
 20
1407.6460323932
 30
0.0
  0
SPLINE
  5
540
100
AcDbEntity
  8
0
100
AcDbSpline
 62
7
  6
CONTINUOUS
 70
0
 71
3
 72
14
 73
10
 74
0
 42
0.0000001
 43
0.0000001
 44
0.0000000001
 40
0.0
 40
0.0
 40
0.0
 40
0.0
 40
0.3742865272
 40
0.5441798204
 40
0.694089719
 40
0.8185998599
 40
0.9130740531
 40
0.9741507225
 40
1.0
 40
1.0
 40
1.0
 40
1.0
 10
839.5342357799
 20
1407.6076454437
 30
0.0
 10
839.5837488553
 20
1407.6006650874
 30
0.0
 10
839.6556927545
 20
1407.5900944875
 30
0.0
 10
839.7473310155
 20
1407.5761766173
 30
0.0
 10
839.80607579
 20
1407.5670584229
 30
0.0
 10
839.8546144549
 20
1407.5601349981
 30
0.0
 10
839.8921786376
 20
1407.5541325411
 30
0.0
 10
839.9153046485
 20
1407.5532469498
 30
0.0
 10
839.9281062983
 20
1407.5507233887
 30
0.0
 10
839.9309879888
 20
1407.5526263667
 30
0.0
  0
SPLINE
  5
541
100
AcDbEntity
  8
0
100
AcDbSpline
 62
7
  6
CONTINUOUS
 70
0
 71
3
 72
18
 73
14
 74
0
 42
0.0000001
 43
0.0000001
 44
0.0000000001
 40
0.0
 40
0.0
 40
0.0
 40
0.0
 40
0.005793269
 40
0.0204631835
 40
0.0443908387
 40
0.0774279479
 40
0.1193245516
 40
0.1697112181
 40
0.2939086994
 40
0.4452525587
 40
0.6178909205
 40
0.8052372857
 40
1.0
 40
1.0
 40
1.0
 40
1.0
 10
833.2283749785
 20
1399.7801411111
 30
0.0
 10
833.2278525916
 20
1399.782004388
 30
0.0
 10
833.2184986669
 20
1399.781887647
 30
0.0
 10
833.2059155789
 20
1399.7804779817
 30
0.0
 10
833.1812455964
 20
1399.7756554234
 30
0.0
 10
833.1495917424
 20
1399.7682587034
 30
0.0
 10
833.1088450825
 20
1399.7578298918
 30
0.0
 10
833.0391598475
 20
1399.7388575399
 30
0.0
 10
832.934540249
 20
1399.7085084267
 30
0.0
 10
832.791326299
 20
1399.6649768673
 30
0.0
 10
832.6283853368
 20
1399.6137340118
 30
0.0
 10
832.452060688
 20
1399.556760107
 30
0.0
 10
832.3308838451
 20
1399.5166671272
 30
0.0
 10
832.2691893253
 20
1399.4960244297
 30
0.0
  0
SPLINE
  5
542
100
AcDbEntity
  8
0
100
AcDbSpline
 62
7
  6
CONTINUOUS
 70
0
 71
3
 72
18
 73
14
 74
0
 42
0.0000001
 43
0.0000001
 44
0.0000000001
 40
0.0
 40
0.0
 40
0.0
 40
0.0
 40
0.0057789989
 40
0.0204221755
 40
0.0443541562
 40
0.0774229496
 40
0.1193470719
 40
0.1697439007
 40
0.293935515
 40
0.4452613102
 40
0.6178839387
 40
0.8052316491
 40
1.0
 40
1.0
 40
1.0
 40
1.0
 10
842.6871051142
 20
1405.2472669806
 30
0.0
 10
842.6857568973
 20
1405.2486486729
 30
0.0
 10
842.690501402
 20
1405.2566775184
 30
0.0
 10
842.6980206291
 20
1405.26686664
 30
0.0
 10
842.7145298174
 20
1405.2858217915
 30
0.0
 10
842.7367842189
 20
1405.3095505937
 30
0.0
 10
842.7662077289
 20
1405.3396409769
 30
0.0
 10
842.8174930024
 20
1405.3905142849
 30
0.0
 10
842.8960870992
 20
1405.4659451914
 30
0.0
 10
843.0053905592
 20
1405.568204921
 30
0.0
 10
843.1312381416
 20
1405.6836958797
 30
0.0
 10
843.2687485472
 20
1405.8079167128
 30
0.0
 10
843.3640680611
 20
1405.8928180602
 30
0.0
 10
843.4127970569
 20
1405.9359299044
 30
0.0
  0
SPLINE
  5
543
100
AcDbEntity
  8
0
100
AcDbSpline
 62
7
  6
CONTINUOUS
 70
0
 71
3
 72
14
 73
10
 74
0
 42
0.0000001
 43
0.0000001
 44
0.0000000001
 40
0.0
 40
0.0
 40
0.0
 40
0.0
 40
0.0258511517
 40
0.0869304149
 40
0.1814087942
 40
0.3059211178
 40
0.4558327394
 40
0.6257241893
 40
1.0
 40
1.0
 40
1.0
 40
1.0
 10
839.9309879888
 20
1395.0430122818
 30
0.0
 10
839.9281060895
 20
1395.0449153977
 30
0.0
 10
839.9153037548
 20
1395.042391285
 30
0.0
 10
839.8921766397
 20
1395.0415061025
 30
0.0
 10
839.8546112792
 20
1395.0355030418
 30
0.0
 10
839.8060715344
 20
1395.0285796656
 30
0.0
 10
839.7473265087
 20
1395.0194612785
 30
0.0
 10
839.6556896559
 20
1395.0055438145
 30
0.0
 10
839.5837474352
 20
1394.9949733609
 30
0.0
 10
839.5342357799
 20
1394.9879932048
 30
0.0
  0
SPLINE
  5
544
100
AcDbEntity
  8
0
100
AcDbSpline
 62
7
  6
CONTINUOUS
 70
0
 71
3
 72
18
 73
14
 74
0
 42
0.0000001
 43
0.0000001
 44
0.0000000001
 40
0.0
 40
0.0
 40
0.0
 40
0.0
 40
0.1961804525
 40
0.3838937309
 40
0.5561895389
 40
0.7068378531
 40
0.8303214666
 40
0.8804368482
 40
0.9221627787
 40
0.9551433427
 40
0.9791242444
 40
0.993957304
 40
1.0
 40
1.0
 40
1.0
 40
1.0
 10
840.2024891094
 20
1044.867128374
 30
0.0
 10
840.1899207264
 20
1044.9292915908
 30
0.0
 10
840.1657288622
 20
1045.0510173784
 30
0.0
 10
840.1319000296
 20
1045.2276102528
 30
0.0
 10
840.1021061689
 20
1045.3899933342
 30
0.0
 10
840.0774361922
 20
1045.5321719477
 30
0.0
 10
840.060828223
 20
1045.6357252844
 30
0.0
 10
840.0509712338
 20
1045.7045581987
 30
0.0
 10
840.0458237219
 20
1045.7447509778
 30
0.0
 10
840.0425340279
 20
1045.7760460137
 30
0.0
 10
840.0407695247
 20
1045.8002183703
 30
0.0
 10
840.0410492916
 20
1045.8128711773
 30
0.0
 10
840.0418906397
 20
1045.8217637461
 30
0.0
 10
840.0437828476
 20
1045.8222491574
 30
0.0
  0
SPLINE
  5
545
100
AcDbEntity
  8
0
100
AcDbSpline
 62
7
  6
CONTINUOUS
 70
0
 71
3
 72
18
 73
14
 74
0
 42
0.0000001
 43
0.0000001
 44
0.0000000001
 40
0.0
 40
0.0
 40
0.0
 40
0.0
 40
0.1961839298
 40
0.3838987166
 40
0.5561923213
 40
0.7068370835
 40
0.8303261037
 40
0.880444258
 40
0.922166141
 40
0.9551380607
 40
0.9791168631
 40
0.9939559934
 40
1.0
 40
1.0
 40
1.0
 40
1.0
 10
843.4349113474
 20
1046.7333682236
 30
0.0
 10
843.3873597862
 20
1046.7753351015
 30
0.0
 10
843.2940375979
 20
1046.8571505846
 30
0.0
 10
843.1580174289
 20
1046.9747441601
 30
0.0
 10
843.0322870919
 20
1047.0817364871
 30
0.0
 10
842.921491504
 20
1047.174189933
 30
0.0
 10
842.8401144056
 20
1047.240350529
 30
0.0
 10
842.7854311976
 20
1047.2833042888
 30
0.0
 10
842.7531990008
 20
1047.3078567271
 30
0.0
 10
842.7277457311
 20
1047.3263486652
 30
0.0
 10
842.7076924874
 20
1047.339963422
 30
0.0
 10
842.6965989995
 20
1047.3460447905
 30
0.0
 10
842.6884696552
 20
1047.3497701442
 30
0.0
 10
842.6871050873
 20
1047.348371687
 30
0.0
  0
SPLINE
  5
546
100
AcDbEntity
  8
0
100
AcDbSpline
 62
7
  6
CONTINUOUS
 70
0
 71
3
 72
18
 73
14
 74
0
 42
0.0000001
 43
0.0000001
 44
0.0000000001
 40
0.0
 40
0.0
 40
0.0
 40
0.0
 40
0.1961804269
 40
0.3838936765
 40
0.5561894655
 40
0.7068377261
 40
0.8303214052
 40
0.8804367776
 40
0.922162465
 40
0.9551428687
 40
0.9791243752
 40
0.9939583257
 40
1.0
 40
1.0
 40
1.0
 40
1.0
 10
843.4349113473
 20
1055.8622704225
 30
0.0
 10
843.387360614
 20
1055.8203042752
 30
0.0
 10
843.2940389221
 20
1055.7384906135
 30
0.0
 10
843.1580194258
 20
1055.6208975499
 30
0.0
 10
843.0322884825
 20
1055.5139037727
 30
0.0
 10
842.9214931935
 20
1055.4214496409
 30
0.0
 10
842.840117279
 20
1055.3552900152
 30
0.0
 10
842.7854348748
 20
1055.31233722
 30
0.0
 10
842.7532005196
 20
1055.287782961
 30
0.0
 10
842.7277436209
 20
1055.2692866914
 30
0.0
 10
842.7076901709
 20
1055.2556716146
 30
0.0
 10
842.6965953537
 20
1055.2495882442
 30
0.0
 10
842.6884706176
 20
1055.2458693936
 30
0.0
 10
842.6871056619
 20
1055.2472664196
 30
0.0
  0
SPLINE
  5
547
100
AcDbEntity
  8
0
100
AcDbSpline
 62
7
  6
CONTINUOUS
 70
0
 71
3
 72
18
 73
14
 74
0
 42
0.0000001
 43
0.0000001
 44
0.0000000001
 40
0.0
 40
0.0
 40
0.0
 40
0.0
 40
0.196183933
 40
0.3838987393
 40
0.5561923672
 40
0.7068371455
 40
0.8303261736
 40
0.8804443302
 40
0.9221662206
 40
0.9551381436
 40
0.9791169252
 40
0.9939560132
 40
1.0
 40
1.0
 40
1.0
 40
1.0
 10
840.2024891021
 20
1057.7285102699
 30
0.0
 10
840.1899205009
 20
1057.6663459739
 30
0.0
 10
840.1657273153
 20
1057.5446188457
 30
0.0
 10
840.131898375
 20
1057.3680251329
 30
0.0
 10
840.1021054679
 20
1057.2056432954
 30
0.0
 10
840.0774362287
 20
1057.0634647724
 30
0.0
 10
840.0608280211
 20
1056.9599098383
 30
0.0
 10
840.0509705779
 20
1056.8910759094
 30
0.0
 10
840.0458236418
 20
1056.8508857881
 30
0.0
 10
840.0425357857
 20
1056.8195966444
 30
0.0
 10
840.0407716922
 20
1056.7954226735
 30
0.0
 10
840.0410518096
 20
1056.7827747608
 30
0.0
 10
840.0418902548
 20
1056.7738719048
 30
0.0
 10
840.0437836319
 20
1056.7733893844
 30
0.0
  0
SPLINE
  5
548
100
AcDbEntity
  8
0
100
AcDbSpline
 62
7
  6
CONTINUOUS
 70
0
 71
3
 72
18
 73
14
 74
0
 42
0.0000001
 43
0.0000001
 44
0.0000000001
 40
0.0
 40
0.0
 40
0.0
 40
0.0
 40
0.1948131937
 40
0.3819626402
 40
0.5542778745
 40
0.7053109958
 40
0.8293376439
 40
0.8797269162
 40
0.9217020588
 40
0.9548914324
 40
0.9790276077
 40
0.9939501934
 40
1.0
 40
1.0
 40
1.0
 40
1.0
 10
832.2966527774
 20
1053.1640721589
 30
0.0
 10
832.3580082336
 20
1053.1435230286
 30
0.0
 10
832.478170514
 20
1053.1028271032
 30
0.0
 10
832.6521235771
 20
1053.0425608473
 30
0.0
 10
832.8119076107
 20
1052.9858018249
 30
0.0
 10
832.9514250094
 20
1052.9347272756
 30
0.0
 10
833.0525065799
 20
1052.896266579
 30
0.0
 10
833.1191735518
 20
1052.8696254088
 30
0.0
 10
833.1578320109
 20
1052.8535200116
 30
0.0
 10
833.1875623922
 20
1052.8403377014
 30
0.0
 10
833.2101683658
 20
1052.8294801227
 30
0.0
 10
833.2213212886
 20
1052.8227213049
 30
0.0
 10
833.2289137905
 20
1052.8174348539
 30
0.0
 10
833.2283719519
 20
1052.8154999071
 30
0.0
  0
SPLINE
  5
549
100
AcDbEntity
  8
0
100
AcDbSpline
 62
7
  6
CONTINUOUS
 70
0
 71
3
 72
18
 73
14
 74
0
 42
0.0000001
 43
0.0000001
 44
0.0000000001
 40
0.0
 40
0.0
 40
0.0
 40
0.0
 40
0.1948172442
 40
0.3819694145
 40
0.5542831195
 40
0.705311792
 40
0.8293422499
 40
0.8797333494
 40
0.9217032658
 40
0.9548828624
 40
0.9790165761
 40
0.9939462702
 40
1.0
 40
1.0
 40
1.0
 40
1.0
 10
832.2966527743
 20
1049.4315664913
 30
0.0
 10
832.3580096777
 20
1049.4521161062
 30
0.0
 10
832.4781747945
 20
1049.4928117759
 30
0.0
 10
832.6521299886
 20
1049.5530787791
 30
0.0
 10
832.8119131994
 20
1049.6098383375
 30
0.0
 10
832.9514299772
 20
1049.6609136085
 30
0.0
 10
833.0525122242
 20
1049.6993746847
 30
0.0
 10
833.1191794356
 20
1049.7260158505
 30
0.0
 10
833.1578340954
 20
1049.7421198659
 30
0.0
 10
833.1875580807
 20
1049.7553013317
 30
0.0
 10
833.2101639205
 20
1049.7661584981
 30
0.0
 10
833.2213154262
 20
1049.7729186949
 30
0.0
 10
833.2289177653
 20
1049.7782050708
 30
0.0
 10
833.2283749785
 20
1049.7801411111
 30
0.0
  0
SPLINE
  5
54A
100
AcDbEntity
  8
0
100
AcDbSpline
 62
7
  6
CONTINUOUS
 70
0
 71
3
 72
14
 73
10
 74
0
 42
0.0000001
 43
0.0000001
 44
0.0000000001
 40
0.0
 40
0.0
 40
0.0
 40
0.0
 40
0.3742865272
 40
0.5441798204
 40
0.694089719
 40
0.8185998599
 40
0.9130740531
 40
0.9741507225
 40
1.0
 40
1.0
 40
1.0
 40
1.0
 10
839.1973178487
 20
1044.9496062554
 30
0.0
 10
839.1475035517
 20
1044.9452696871
 30
0.0
 10
839.0750257024
 20
1044.9393855073
 30
0.0
 10
838.9826052844
 20
1044.9323325399
 30
0.0
 10
838.9233149873
 20
1044.9280023366
 30
0.0
 10
838.8744629335
 20
1044.9238294907
 30
0.0
 10
838.8365112593
 20
1044.9212280026
 30
0.0
 10
838.813778752
 20
1044.9168886757
 30
0.0
 10
838.8007375299
 20
1044.9164678135
 30
0.0
 10
838.7983577738
 20
1044.9139653693
 30
0.0
  0
SPLINE
  5
54B
100
AcDbEntity
  8
0
100
AcDbSpline
 62
7
  6
CONTINUOUS
 70
0
 71
3
 72
18
 73
14
 74
0
 42
0.0000001
 43
0.0000001
 44
0.0000000001
 40
0.0
 40
0.0
 40
0.0
 40
0.0
 40
0.0057917787
 40
0.0204563263
 40
0.0443815319
 40
0.0774196916
 40
0.1193178674
 40
0.1697052641
 40
0.2939042462
 40
0.4452503833
 40
0.6178905772
 40
0.8052379927
 40
1.0
 40
1.0
 40
1.0
 40
1.0
 10
842.6871050873
 20
1047.348371687
 30
0.0
 10
842.6857538962
 20
1047.3469869388
 30
0.0
 10
842.6905263384
 20
1047.3389484638
 30
0.0
 10
842.6980398067
 20
1047.3287546782
 30
0.0
 10
842.7145492832
 20
1047.309802827
 30
0.0
 10
842.7367842062
 20
1047.2860862627
 30
0.0
 10
842.7661917175
 20
1047.2560105748
 30
0.0
 10
842.8174692674
 20
1047.2051433958
 30
0.0
 10
842.896068382
 20
1047.1297090037
 30
0.0
 10
843.0053834424
 20
1047.027440198
 30
0.0
 10
843.1312410898
 20
1046.9119422109
 30
0.0
 10
843.268753919
 20
1046.7877193233
 30
0.0
 10
843.364070472
 20
1046.7028184555
 30
0.0
 10
843.4127977601
 20
1046.659708122
 30
0.0
  0
SPLINE
  5
54C
100
AcDbEntity
  8
0
100
AcDbSpline
 62
7
  6
CONTINUOUS
 70
0
 71
3
 72
14
 73
10
 74
0
 42
0.0000001
 43
0.0000001
 44
0.0000000001
 40
0.0
 40
0.0
 40
0.0
 40
0.0
 40
0.0258511517
 40
0.0869304149
 40
0.1814087942
 40
0.3059211178
 40
0.4558327394
 40
0.6257241893
 40
1.0
 40
1.0
 40
1.0
 40
1.0
 10
833.0392555893
 20
1048.2389845658
 30
0.0
 10
833.0402329623
 20
1048.2422969571
 30
0.0
 10
833.0340761009
 20
1048.2538019115
 30
0.0
 10
833.0264678826
 20
1048.2756596793
 30
0.0
 10
833.0097440786
 20
1048.3098284871
 30
0.0
 10
832.9889315731
 20
1048.3542230766
 30
0.0
 10
832.9630362328
 20
1048.4077352657
 30
0.0
 10
832.9229348729
 20
1048.4912989512
 30
0.0
 10
832.8917924282
 20
1048.5570071375
 30
0.0
 10
832.8706414647
 20
1048.6023145688
 30
0.0
  0
SPLINE
  5
54D
100
AcDbEntity
  8
0
100
AcDbSpline
 62
7
  6
CONTINUOUS
 70
0
 71
3
 72
14
 73
10
 74
0
 42
0.0000001
 43
0.0000001
 44
0.0000000001
 40
0.0
 40
0.0
 40
0.0
 40
0.0
 40
0.3742865272
 40
0.5441798204
 40
0.694089719
 40
0.8185998599
 40
0.9130740531
 40
0.9741507225
 40
1.0
 40
1.0
 40
1.0
 40
1.0
 10
832.7354265724
 20
1048.9132875309
 30
0.0
 10
832.7167152006
 20
1048.9596572902
 30
0.0
 10
832.6898976591
 20
1049.0272478345
 30
0.0
 10
832.6561317578
 20
1049.1135678316
 30
0.0
 10
832.6346559584
 20
1049.1690013959
 30
0.0
 10
832.6163824878
 20
1049.2144988252
 30
0.0
 10
832.6027986767
 20
1049.2500315901
 30
0.0
 10
832.5920026158
 20
1049.2705020986
 30
0.0
 10
832.587787259
 20
1049.2828504332
 30
0.0
 10
832.5846983864
 20
1049.2843945613
 30
0.0
  0
SPLINE
  5
54E
100
AcDbEntity
  8
0
100
AcDbSpline
 62
7
  6
CONTINUOUS
 70
0
 71
3
 72
14
 73
10
 74
0
 42
0.0000001
 43
0.0000001
 44
0.0000000001
 40
0.0
 40
0.0
 40
0.0
 40
0.0
 40
0.0258511516
 40
0.0869304145
 40
0.1814087936
 40
0.3059211173
 40
0.4558327377
 40
0.6257241855
 40
1.0
 40
1.0
 40
1.0
 40
1.0
 10
832.5846983864
 20
1053.3112440873
 30
0.0
 10
832.5877874828
 20
1053.3127883273
 30
0.0
 10
832.5920027044
 20
1053.3251375307
 30
0.0
 10
832.6027996713
 20
1053.3456087911
 30
0.0
 10
832.6163835484
 20
1053.3811428778
 30
0.0
 10
832.6346576011
 20
1053.4266412178
 30
0.0
 10
832.656133359
 20
1053.4820750956
 30
0.0
 10
832.689898908
 20
1053.5683936701
 30
0.0
 10
832.7167157371
 20
1053.6359826878
 30
0.0
 10
832.7354265713
 20
1053.682351118
 30
0.0
  0
SPLINE
  5
54F
100
AcDbEntity
  8
0
100
AcDbSpline
 62
7
  6
CONTINUOUS
 70
0
 71
3
 72
14
 73
10
 74
0
 42
0.0000001
 43
0.0000001
 44
0.0000000001
 40
0.0
 40
0.0
 40
0.0
 40
0.0
 40
0.0258511517
 40
0.0869304149
 40
0.1814087942
 40
0.3059211178
 40
0.4558327394
 40
0.6257241893
 40
1.0
 40
1.0
 40
1.0
 40
1.0
 10
844.0964149874
 20
1047.9728001278
 30
0.0
 10
844.093057686
 20
1047.971990362
 30
0.0
 10
844.0861725339
 20
1047.9609058864
 30
0.0
 10
844.0710472609
 20
1047.9433880921
 30
0.0
 10
844.0498181073
 20
1047.9118204491
 30
0.0
 10
844.0217775178
 20
1047.8715989959
 30
0.0
 10
843.9883822727
 20
1047.8224168788
 30
0.0
 10
843.9360646782
 20
1047.7459062397
 30
0.0
 10
843.894730942
 20
1047.6860819983
 30
0.0
 10
843.8660690373
 20
1047.6451110109
 30
0.0
  0
SPLINE
  5
550
100
AcDbEntity
  8
0
100
AcDbSpline
 62
7
  6
CONTINUOUS
 70
0
 71
3
 72
14
 73
10
 74
0
 42
0.0000001
 43
0.0000001
 44
0.0000000001
 40
0.0
 40
0.0
 40
0.0
 40
0.0
 40
0.3742865272
 40
0.5441798204
 40
0.694089719
 40
0.8185998599
 40
0.9130740531
 40
0.9741507225
 40
1.0
 40
1.0
 40
1.0
 40
1.0
 10
843.6643659983
 20
1047.3725249982
 30
0.0
 10
843.6335642947
 20
1047.3331355952
 30
0.0
 10
843.588437937
 20
1047.2761156509
 30
0.0
 10
843.5305655773
 20
1047.2037135239
 30
0.0
 10
843.4932966021
 20
1047.157398154
 30
0.0
 10
843.4630314079
 20
1047.1188241496
 30
0.0
 10
843.4390510363
 20
1047.0892938416
 30
0.0
 10
843.4267210863
 20
1047.0697089244
 30
0.0
 10
843.4181347934
 20
1047.059884151
 30
0.0
 10
843.4183419755
 20
1047.0564370448
 30
0.0
  0
SPLINE
  5
551
100
AcDbEntity
  8
0
100
AcDbSpline
 62
7
  6
CONTINUOUS
 70
0
 71
3
 72
18
 73
14
 74
0
 42
0.0000001
 43
0.0000001
 44
0.0000000001
 40
0.0
 40
0.0
 40
0.0
 40
0.0
 40
0.0057917668
 40
0.0204562897
 40
0.0443814859
 40
0.0774196514
 40
0.1193178332
 40
0.1697052292
 40
0.2939042058
 40
0.4452503405
 40
0.6178905369
 40
0.8052379649
 40
1.0
 40
1.0
 40
1.0
 40
1.0
 10
840.0437836319
 20
1056.7733893844
 30
0.0
 10
840.0456584495
 20
1056.7729115938
 30
0.0
 10
840.0502337544
 20
1056.7810638528
 30
0.0
 10
840.0553050871
 20
1056.7926675896
 30
0.0
 10
840.0634631294
 20
1056.816441112
 30
0.0
 10
840.0728848077
 20
1056.847555386
 30
0.0
 10
840.0842273567
 20
1056.8880608597
 30
0.0
 10
840.1026408408
 20
1056.9579020669
 30
0.0
 10
840.1286693685
 20
1057.0636880244
 30
0.0
 10
840.1625792032
 20
1057.2094919546
 30
0.0
 10
840.1996745508
 20
1057.376236769
 30
0.0
 10
840.2384982946
 20
1057.557437718
 30
0.0
 10
840.264366317
 20
1057.6824346436
 30
0.0
 10
840.2773373106
 20
1057.7461888496
 30
0.0
  0
SPLINE
  5
552
100
AcDbEntity
  8
0
100
AcDbSpline
 62
7
  6
CONTINUOUS
 70
0
 71
3
 72
18
 73
14
 74
0
 42
0.0000001
 43
0.0000001
 44
0.0000000001
 40
0.0
 40
0.0
 40
0.0
 40
0.0
 40
0.0057780236
 40
0.020422109
 40
0.0443547142
 40
0.0774233717
 40
0.119347274
 40
0.1697441115
 40
0.2939358151
 40
0.4452615606
 40
0.6178841483
 40
0.8052317743
 40
1.0
 40
1.0
 40
1.0
 40
1.0
 10
840.0437836139
 20
1045.8222493537
 30
0.0
 10
840.0456535488
 20
1045.8227277432
 30
0.0
 10
840.0502364704
 20
1045.8146019117
 30
0.0
 10
840.05529876
 20
1045.8029976216
 30
0.0
 10
840.0634610485
 20
1045.7792209026
 30
0.0
 10
840.0728831846
 20
1045.748084055
 30
0.0
 10
840.0842306377
 20
1045.7075572192
 30
0.0
 10
840.1026454945
 20
1045.6377062669
 30
0.0
 10
840.1286736064
 20
1045.5319261311
 30
0.0
 10
840.162581414
 20
1045.3861365503
 30
0.0
 10
840.1996757569
 20
1045.2194037243
 30
0.0
 10
840.2384989702
 20
1045.0382056788
 30
0.0
 10
840.2643659499
 20
1044.9132058089
 30
0.0
 10
840.2773374108
 20
1044.8494493065
 30
0.0
  0
SPLINE
  5
553
100
AcDbEntity
  8
0
100
AcDbSpline
 62
7
  6
CONTINUOUS
 70
0
 71
3
 72
9
 73
5
 74
0
 42
0.0000001
 43
0.0000001
 44
0.0000000001
 40
0.0
 40
0.0
 40
0.0
 40
0.0
 40
0.5
 40
1.0
 40
1.0
 40
1.0
 40
1.0
 10
843.4125872284
 20
1046.6598943848
 30
0.0
 10
842.9972169926
 20
1046.2128774463
 30
0.0
 10
842.0281504425
 20
1045.4374698863
 30
0.0
 10
840.8720945221
 20
1044.9859374159
 30
0.0
 10
840.2772813796
 20
1044.8497247089
 30
0.0
  0
SPLINE
  5
554
100
AcDbEntity
  8
0
100
AcDbSpline
 62
7
  6
CONTINUOUS
 70
0
 71
3
 72
9
 73
5
 74
0
 42
0.0000001
 43
0.0000001
 44
0.0000000001
 40
0.0
 40
0.0
 40
0.0
 40
0.0
 40
0.5
 40
1.0
 40
1.0
 40
1.0
 40
1.0
 10
840.2772813861
 20
1057.7459139715
 30
0.0
 10
840.8720945323
 20
1057.6097012647
 30
0.0
 10
842.02815046
 20
1057.1581687928
 30
0.0
 10
842.9972170153
 20
1056.3827612271
 30
0.0
 10
843.4125872528
 20
1055.9357442854
 30
0.0
  0
SPLINE
  5
555
100
AcDbEntity
  8
0
100
AcDbSpline
 62
7
  6
CONTINUOUS
 70
0
 71
3
 72
14
 73
10
 74
0
 42
0.0000001
 43
0.0000001
 44
0.0000000001
 40
0.0
 40
0.0
 40
0.0
 40
0.0
 40
0.0258511517
 40
0.0869304149
 40
0.1814087942
 40
0.3059211178
 40
0.4558327394
 40
0.6257241893
 40
1.0
 40
1.0
 40
1.0
 40
1.0
 10
843.4183419755
 20
1055.5392016038
 30
0.0
 10
843.4181347784
 20
1055.5357542478
 30
0.0
 10
843.4267218915
 20
1055.5259291571
 30
0.0
 10
843.4390520396
 20
1055.5063430792
 30
0.0
 10
843.4630335229
 20
1055.4768120531
 30
0.0
 10
843.493299215
 20
1055.4382370891
 30
0.0
 10
843.5305684827
 20
1055.391921598
 30
0.0
 10
843.5884397865
 20
1055.3195204875
 30
0.0
 10
843.6335651781
 20
1055.2625019236
 30
0.0
 10
843.6643659983
 20
1055.2231136504
 30
0.0
  0
SPLINE
  5
556
100
AcDbEntity
  8
0
100
AcDbSpline
 62
7
  6
CONTINUOUS
 70
0
 71
3
 72
18
 73
14
 74
0
 42
0.0000001
 43
0.0000001
 44
0.0000000001
 40
0.0
 40
0.0
 40
0.0
 40
0.0
 40
0.0057779355
 40
0.0204214192
 40
0.044353178
 40
0.0774209755
 40
0.1193441834
 40
0.1697405821
 40
0.2939319764
 40
0.4452580437
 40
0.6178814943
 40
0.8052303485
 40
1.0
 40
1.0
 40
1.0
 40
1.0
 10
833.2283718982
 20
1052.8154997154
 30
0.0
 10
833.2278511201
 20
1052.8136411601
 30
0.0
 10
833.2185230571
 20
1052.8137348943
 30
0.0
 10
833.2059423589
 20
1052.8151528805
 30
0.0
 10
833.1812707727
 20
1052.8199721696
 30
0.0
 10
833.1495949178
 20
1052.8273805575
 30
0.0
 10
833.1088243657
 20
1052.8378165907
 30
0.0
 10
833.0391243138
 20
1052.8567942269
 30
0.0
 10
832.9345015651
 20
1052.8871433413
 30
0.0
 10
832.7912891514
 20
1052.9306733644
 30
0.0
 10
832.6283455111
 20
1052.9819156175
 30
0.0
 10
832.4520097717
 20
1053.0388933891
 30
0.0
 10
832.3308217437
 20
1053.0789923002
 30
0.0
 10
832.2691205127
 20
1053.0996372433
 30
0.0
  0
SPLINE
  5
557
100
AcDbEntity
  8
0
100
AcDbSpline
 62
7
  6
CONTINUOUS
 70
0
 71
3
 72
14
 73
10
 74
0
 42
0.0000001
 43
0.0000001
 44
0.0000000001
 40
0.0
 40
0.0
 40
0.0
 40
0.0
 40
0.3742865272
 40
0.5441798204
 40
0.694089719
 40
0.8185998599
 40
0.9130740531
 40
0.9741507225
 40
1.0
 40
1.0
 40
1.0
 40
1.0
 10
843.8660690373
 20
1054.9505276377
 30
0.0
 10
843.8947317641
 20
1054.9095554751
 30
0.0
 10
843.9360665379
 20
1054.8497299063
 30
0.0
 10
843.9883847958
 20
1054.7732179603
 30
0.0
 10
844.0217800105
 20
1054.7240361584
 30
0.0
 10
844.0498198279
 20
1054.6838154617
 30
0.0
 10
844.0710486198
 20
1054.6522490918
 30
0.0
 10
844.0861728408
 20
1054.6347318264
 30
0.0
 10
844.0930579292
 20
1054.6236482279
 30
0.0
 10
844.0964149874
 20
1054.6228385208
 30
0.0
  0
SPLINE
  5
558
100
AcDbEntity
  8
0
100
AcDbSpline
 62
7
  6
CONTINUOUS
 70
0
 71
3
 72
14
 73
10
 74
0
 42
0.0000001
 43
0.0000001
 44
0.0000000001
 40
0.0
 40
0.0
 40
0.0
 40
0.0
 40
0.3742865272
 40
0.5441798204
 40
0.694089719
 40
0.8185998599
 40
0.9130740531
 40
0.9741507225
 40
1.0
 40
1.0
 40
1.0
 40
1.0
 10
832.8706414647
 20
1053.9933240798
 30
0.0
 10
832.8917930349
 20
1054.0386328106
 30
0.0
 10
832.9229361103
 20
1054.1043425592
 30
0.0
 10
832.9630382704
 20
1054.1879074727
 30
0.0
 10
832.9889333529
 20
1054.2414194779
 30
0.0
 10
833.0097455892
 20
1054.2858130204
 30
0.0
 10
833.0264684715
 20
1054.3199808784
 30
0.0
 10
833.0340767578
 20
1054.3418374707
 30
0.0
 10
833.0402328915
 20
1054.3533419315
 30
0.0
 10
833.0392555893
 20
1054.3566540827
 30
0.0
  0
SPLINE
  5
559
100
AcDbEntity
  8
0
100
AcDbSpline
 62
7
  6
CONTINUOUS
 70
0
 71
3
 72
14
 73
10
 74
0
 42
0.0000001
 43
0.0000001
 44
0.0000000001
 40
0.0
 40
0.0
 40
0.0
 40
0.0
 40
0.0258511517
 40
0.0869304149
 40
0.1814087942
 40
0.3059211178
 40
0.4558327394
 40
0.6257241893
 40
1.0
 40
1.0
 40
1.0
 40
1.0
 10
838.7983577738
 20
1057.6816732793
 30
0.0
 10
838.8007377023
 20
1057.6791706538
 30
0.0
 10
838.8137797158
 20
1057.678750175
 30
0.0
 10
838.8365132072
 20
1057.6744102014
 30
0.0
 10
838.8744661647
 20
1057.6718090366
 30
0.0
 10
838.9233192598
 20
1057.6676359004
 30
0.0
 10
838.9826098451
 20
1057.6633058283
 30
0.0
 10
839.0750287995
 20
1057.656252782
 30
0.0
 10
839.1475049805
 20
1057.6503688371
 30
0.0
 10
839.1973178487
 20
1057.6460323932
 30
0.0
  0
SPLINE
  5
55A
100
AcDbEntity
  8
0
100
AcDbSpline
 62
7
  6
CONTINUOUS
 70
0
 71
3
 72
14
 73
10
 74
0
 42
0.0000001
 43
0.0000001
 44
0.0000000001
 40
0.0
 40
0.0
 40
0.0
 40
0.0
 40
0.3742865272
 40
0.5441798204
 40
0.694089719
 40
0.8185998599
 40
0.9130740531
 40
0.9741507225
 40
1.0
 40
1.0
 40
1.0
 40
1.0
 10
839.5342357799
 20
1057.6076454437
 30
0.0
 10
839.5837488553
 20
1057.6006650874
 30
0.0
 10
839.6556927545
 20
1057.5900944875
 30
0.0
 10
839.7473310155
 20
1057.5761766173
 30
0.0
 10
839.80607579
 20
1057.5670584229
 30
0.0
 10
839.8546144549
 20
1057.5601349981
 30
0.0
 10
839.8921786376
 20
1057.5541325411
 30
0.0
 10
839.9153046485
 20
1057.5532469498
 30
0.0
 10
839.9281062983
 20
1057.5507233887
 30
0.0
 10
839.9309879888
 20
1057.5526263667
 30
0.0
  0
SPLINE
  5
55B
100
AcDbEntity
  8
0
100
AcDbSpline
 62
7
  6
CONTINUOUS
 70
0
 71
3
 72
18
 73
14
 74
0
 42
0.0000001
 43
0.0000001
 44
0.0000000001
 40
0.0
 40
0.0
 40
0.0
 40
0.0
 40
0.005793269
 40
0.0204631835
 40
0.0443908387
 40
0.0774279479
 40
0.1193245516
 40
0.1697112181
 40
0.2939086994
 40
0.4452525587
 40
0.6178909205
 40
0.8052372857
 40
1.0
 40
1.0
 40
1.0
 40
1.0
 10
833.2283749785
 20
1049.7801411111
 30
0.0
 10
833.2278525916
 20
1049.782004388
 30
0.0
 10
833.2184986669
 20
1049.781887647
 30
0.0
 10
833.2059155789
 20
1049.7804779817
 30
0.0
 10
833.1812455964
 20
1049.7756554234
 30
0.0
 10
833.1495917424
 20
1049.7682587034
 30
0.0
 10
833.1088450825
 20
1049.7578298918
 30
0.0
 10
833.0391598475
 20
1049.7388575399
 30
0.0
 10
832.934540249
 20
1049.7085084267
 30
0.0
 10
832.791326299
 20
1049.6649768673
 30
0.0
 10
832.6283853368
 20
1049.6137340118
 30
0.0
 10
832.452060688
 20
1049.556760107
 30
0.0
 10
832.3308838451
 20
1049.5166671272
 30
0.0
 10
832.2691893253
 20
1049.4960244297
 30
0.0
  0
SPLINE
  5
55C
100
AcDbEntity
  8
0
100
AcDbSpline
 62
7
  6
CONTINUOUS
 70
0
 71
3
 72
18
 73
14
 74
0
 42
0.0000001
 43
0.0000001
 44
0.0000000001
 40
0.0
 40
0.0
 40
0.0
 40
0.0
 40
0.0057789989
 40
0.0204221755
 40
0.0443541562
 40
0.0774229496
 40
0.1193470719
 40
0.1697439007
 40
0.293935515
 40
0.4452613102
 40
0.6178839387
 40
0.8052316491
 40
1.0
 40
1.0
 40
1.0
 40
1.0
 10
842.6871051142
 20
1055.2472669806
 30
0.0
 10
842.6857568973
 20
1055.2486486729
 30
0.0
 10
842.690501402
 20
1055.2566775184
 30
0.0
 10
842.6980206291
 20
1055.26686664
 30
0.0
 10
842.7145298174
 20
1055.2858217915
 30
0.0
 10
842.7367842189
 20
1055.3095505937
 30
0.0
 10
842.7662077289
 20
1055.3396409769
 30
0.0
 10
842.8174930024
 20
1055.3905142849
 30
0.0
 10
842.8960870992
 20
1055.4659451914
 30
0.0
 10
843.0053905592
 20
1055.568204921
 30
0.0
 10
843.1312381416
 20
1055.6836958797
 30
0.0
 10
843.2687485472
 20
1055.8079167128
 30
0.0
 10
843.3640680611
 20
1055.8928180602
 30
0.0
 10
843.4127970569
 20
1055.9359299044
 30
0.0
  0
SPLINE
  5
55D
100
AcDbEntity
  8
0
100
AcDbSpline
 62
7
  6
CONTINUOUS
 70
0
 71
3
 72
14
 73
10
 74
0
 42
0.0000001
 43
0.0000001
 44
0.0000000001
 40
0.0
 40
0.0
 40
0.0
 40
0.0
 40
0.0258511517
 40
0.0869304149
 40
0.1814087942
 40
0.3059211178
 40
0.4558327394
 40
0.6257241893
 40
1.0
 40
1.0
 40
1.0
 40
1.0
 10
839.9309879888
 20
1045.0430122818
 30
0.0
 10
839.9281060895
 20
1045.0449153977
 30
0.0
 10
839.9153037548
 20
1045.042391285
 30
0.0
 10
839.8921766397
 20
1045.0415061025
 30
0.0
 10
839.8546112792
 20
1045.0355030418
 30
0.0
 10
839.8060715344
 20
1045.0285796656
 30
0.0
 10
839.7473265087
 20
1045.0194612785
 30
0.0
 10
839.6556896559
 20
1045.0055438145
 30
0.0
 10
839.5837474352
 20
1044.9949733609
 30
0.0
 10
839.5342357799
 20
1044.9879932048
 30
0.0
  0
SPLINE
  5
55E
100
AcDbEntity
  8
0
100
AcDbSpline
 62
7
  6
CONTINUOUS
 70
0
 71
3
 72
18
 73
14
 74
0
 42
0.0000001
 43
0.0000001
 44
0.0000000001
 40
0.0
 40
0.0
 40
0.0
 40
0.0
 40
0.1961804525
 40
0.3838937309
 40
0.5561895389
 40
0.7068378531
 40
0.8303214666
 40
0.8804368482
 40
0.9221627787
 40
0.9551433427
 40
0.9791242444
 40
0.993957304
 40
1.0
 40
1.0
 40
1.0
 40
1.0
 10
840.2024891094
 20
519.8671621676
 30
0.0
 10
840.1899207264
 20
519.9293253844
 30
0.0
 10
840.1657288622
 20
520.051051172
 30
0.0
 10
840.1319000296
 20
520.2276440464
 30
0.0
 10
840.1021061689
 20
520.3900271278
 30
0.0
 10
840.0774361922
 20
520.5322057413
 30
0.0
 10
840.060828223
 20
520.635759078
 30
0.0
 10
840.0509712338
 20
520.7045919923
 30
0.0
 10
840.0458237219
 20
520.7447847714
 30
0.0
 10
840.0425340279
 20
520.7760798073
 30
0.0
 10
840.0407695247
 20
520.8002521639
 30
0.0
 10
840.0410492916
 20
520.8129049709
 30
0.0
 10
840.0418906397
 20
520.8217975397
 30
0.0
 10
840.0437828476
 20
520.822282951
 30
0.0
  0
SPLINE
  5
55F
100
AcDbEntity
  8
0
100
AcDbSpline
 62
7
  6
CONTINUOUS
 70
0
 71
3
 72
18
 73
14
 74
0
 42
0.0000001
 43
0.0000001
 44
0.0000000001
 40
0.0
 40
0.0
 40
0.0
 40
0.0
 40
0.1961839298
 40
0.3838987166
 40
0.5561923213
 40
0.7068370835
 40
0.8303261037
 40
0.880444258
 40
0.922166141
 40
0.9551380607
 40
0.9791168631
 40
0.9939559934
 40
1.0
 40
1.0
 40
1.0
 40
1.0
 10
843.4349113474
 20
521.7334020172
 30
0.0
 10
843.3873597862
 20
521.7753688951
 30
0.0
 10
843.2940375979
 20
521.8571843782
 30
0.0
 10
843.1580174289
 20
521.9747779537
 30
0.0
 10
843.0322870919
 20
522.0817702807
 30
0.0
 10
842.9214915039
 20
522.1742237266
 30
0.0
 10
842.8401144056
 20
522.2403843226
 30
0.0
 10
842.7854311976
 20
522.2833380824
 30
0.0
 10
842.7531990008
 20
522.3078905207
 30
0.0
 10
842.7277457311
 20
522.3263824588
 30
0.0
 10
842.7076924874
 20
522.3399972156
 30
0.0
 10
842.6965989995
 20
522.3460785841
 30
0.0
 10
842.6884696552
 20
522.3498039378
 30
0.0
 10
842.6871050873
 20
522.3484054806
 30
0.0
  0
SPLINE
  5
560
100
AcDbEntity
  8
0
100
AcDbSpline
 62
7
  6
CONTINUOUS
 70
0
 71
3
 72
18
 73
14
 74
0
 42
0.0000001
 43
0.0000001
 44
0.0000000001
 40
0.0
 40
0.0
 40
0.0
 40
0.0
 40
0.1961804269
 40
0.3838936765
 40
0.5561894655
 40
0.7068377261
 40
0.8303214052
 40
0.8804367776
 40
0.922162465
 40
0.9551428687
 40
0.9791243752
 40
0.9939583257
 40
1.0
 40
1.0
 40
1.0
 40
1.0
 10
843.4349113473
 20
530.8623042161
 30
0.0
 10
843.387360614
 20
530.8203380688
 30
0.0
 10
843.2940389221
 20
530.7385244071
 30
0.0
 10
843.1580194258
 20
530.6209313435
 30
0.0
 10
843.0322884825
 20
530.5139375663
 30
0.0
 10
842.9214931935
 20
530.4214834345
 30
0.0
 10
842.840117279
 20
530.3553238088
 30
0.0
 10
842.7854348748
 20
530.3123710136
 30
0.0
 10
842.7532005196
 20
530.2878167546
 30
0.0
 10
842.7277436209
 20
530.269320485
 30
0.0
 10
842.7076901709
 20
530.2557054082
 30
0.0
 10
842.6965953537
 20
530.2496220378
 30
0.0
 10
842.6884706176
 20
530.2459031872
 30
0.0
 10
842.6871056619
 20
530.2473002132
 30
0.0
  0
SPLINE
  5
561
100
AcDbEntity
  8
0
100
AcDbSpline
 62
7
  6
CONTINUOUS
 70
0
 71
3
 72
18
 73
14
 74
0
 42
0.0000001
 43
0.0000001
 44
0.0000000001
 40
0.0
 40
0.0
 40
0.0
 40
0.0
 40
0.196183933
 40
0.3838987393
 40
0.5561923672
 40
0.7068371455
 40
0.8303261736
 40
0.8804443302
 40
0.9221662206
 40
0.9551381436
 40
0.9791169252
 40
0.9939560132
 40
1.0
 40
1.0
 40
1.0
 40
1.0
 10
840.2024891021
 20
532.7285440635
 30
0.0
 10
840.1899205009
 20
532.6663797675
 30
0.0
 10
840.1657273153
 20
532.5446526393
 30
0.0
 10
840.131898375
 20
532.3680589265
 30
0.0
 10
840.1021054679
 20
532.205677089
 30
0.0
 10
840.0774362287
 20
532.063498566
 30
0.0
 10
840.0608280211
 20
531.9599436319
 30
0.0
 10
840.0509705779
 20
531.891109703
 30
0.0
 10
840.0458236418
 20
531.8509195817
 30
0.0
 10
840.0425357857
 20
531.819630438
 30
0.0
 10
840.0407716922
 20
531.7954564671
 30
0.0
 10
840.0410518096
 20
531.7828085544
 30
0.0
 10
840.0418902548
 20
531.7739056984
 30
0.0
 10
840.0437836319
 20
531.773423178
 30
0.0
  0
SPLINE
  5
562
100
AcDbEntity
  8
0
100
AcDbSpline
 62
7
  6
CONTINUOUS
 70
0
 71
3
 72
18
 73
14
 74
0
 42
0.0000001
 43
0.0000001
 44
0.0000000001
 40
0.0
 40
0.0
 40
0.0
 40
0.0
 40
0.1948131937
 40
0.3819626402
 40
0.5542778745
 40
0.7053109958
 40
0.8293376439
 40
0.8797269162
 40
0.9217020588
 40
0.9548914324
 40
0.9790276077
 40
0.9939501934
 40
1.0
 40
1.0
 40
1.0
 40
1.0
 10
832.2966527774
 20
528.1641059525
 30
0.0
 10
832.3580082336
 20
528.1435568222
 30
0.0
 10
832.478170514
 20
528.1028608968
 30
0.0
 10
832.6521235771
 20
528.0425946409
 30
0.0
 10
832.8119076107
 20
527.9858356185
 30
0.0
 10
832.9514250094
 20
527.9347610692
 30
0.0
 10
833.0525065799
 20
527.8963003726
 30
0.0
 10
833.1191735518
 20
527.8696592024
 30
0.0
 10
833.1578320109
 20
527.8535538052
 30
0.0
 10
833.1875623922
 20
527.840371495
 30
0.0
 10
833.2101683658
 20
527.8295139163
 30
0.0
 10
833.2213212886
 20
527.8227550985
 30
0.0
 10
833.2289137905
 20
527.8174686475
 30
0.0
 10
833.2283719519
 20
527.8155337007
 30
0.0
  0
SPLINE
  5
563
100
AcDbEntity
  8
0
100
AcDbSpline
 62
7
  6
CONTINUOUS
 70
0
 71
3
 72
18
 73
14
 74
0
 42
0.0000001
 43
0.0000001
 44
0.0000000001
 40
0.0
 40
0.0
 40
0.0
 40
0.0
 40
0.1948172442
 40
0.3819694145
 40
0.5542831195
 40
0.705311792
 40
0.8293422499
 40
0.8797333494
 40
0.9217032658
 40
0.9548828624
 40
0.9790165761
 40
0.9939462702
 40
1.0
 40
1.0
 40
1.0
 40
1.0
 10
832.2966527743
 20
524.4316002849
 30
0.0
 10
832.3580096777
 20
524.4521498998
 30
0.0
 10
832.4781747945
 20
524.4928455695
 30
0.0
 10
832.6521299886
 20
524.5531125727
 30
0.0
 10
832.8119131994
 20
524.6098721311
 30
0.0
 10
832.9514299772
 20
524.6609474021
 30
0.0
 10
833.0525122242
 20
524.6994084783
 30
0.0
 10
833.1191794356
 20
524.7260496441
 30
0.0
 10
833.1578340954
 20
524.7421536595
 30
0.0
 10
833.1875580807
 20
524.7553351253
 30
0.0
 10
833.2101639205
 20
524.7661922917
 30
0.0
 10
833.2213154262
 20
524.7729524885
 30
0.0
 10
833.2289177653
 20
524.7782388644
 30
0.0
 10
833.2283749785
 20
524.7801749047
 30
0.0
  0
SPLINE
  5
564
100
AcDbEntity
  8
0
100
AcDbSpline
 62
7
  6
CONTINUOUS
 70
0
 71
3
 72
14
 73
10
 74
0
 42
0.0000001
 43
0.0000001
 44
0.0000000001
 40
0.0
 40
0.0
 40
0.0
 40
0.0
 40
0.3742865272
 40
0.5441798204
 40
0.694089719
 40
0.8185998599
 40
0.9130740531
 40
0.9741507225
 40
1.0
 40
1.0
 40
1.0
 40
1.0
 10
839.1973178487
 20
519.949640049
 30
0.0
 10
839.1475035517
 20
519.9453034807
 30
0.0
 10
839.0750257024
 20
519.9394193009
 30
0.0
 10
838.9826052844
 20
519.9323663335
 30
0.0
 10
838.9233149873
 20
519.9280361302
 30
0.0
 10
838.8744629335
 20
519.9238632843
 30
0.0
 10
838.8365112593
 20
519.9212617962
 30
0.0
 10
838.813778752
 20
519.9169224693
 30
0.0
 10
838.8007375299
 20
519.9165016071
 30
0.0
 10
838.7983577738
 20
519.9139991629
 30
0.0
  0
SPLINE
  5
565
100
AcDbEntity
  8
0
100
AcDbSpline
 62
7
  6
CONTINUOUS
 70
0
 71
3
 72
18
 73
14
 74
0
 42
0.0000001
 43
0.0000001
 44
0.0000000001
 40
0.0
 40
0.0
 40
0.0
 40
0.0
 40
0.0057917787
 40
0.0204563263
 40
0.0443815319
 40
0.0774196916
 40
0.1193178674
 40
0.1697052641
 40
0.2939042462
 40
0.4452503833
 40
0.6178905772
 40
0.8052379927
 40
1.0
 40
1.0
 40
1.0
 40
1.0
 10
842.6871050873
 20
522.3484054806
 30
0.0
 10
842.6857538962
 20
522.3470207324
 30
0.0
 10
842.6905263384
 20
522.3389822574
 30
0.0
 10
842.6980398067
 20
522.3287884718
 30
0.0
 10
842.7145492832
 20
522.3098366206
 30
0.0
 10
842.7367842062
 20
522.2861200563
 30
0.0
 10
842.7661917175
 20
522.2560443684
 30
0.0
 10
842.8174692674
 20
522.2051771894
 30
0.0
 10
842.896068382
 20
522.1297427973
 30
0.0
 10
843.0053834424
 20
522.0274739916
 30
0.0
 10
843.1312410898
 20
521.9119760045
 30
0.0
 10
843.268753919
 20
521.7877531169
 30
0.0
 10
843.364070472
 20
521.7028522491
 30
0.0
 10
843.4127977601
 20
521.6597419156
 30
0.0
  0
SPLINE
  5
566
100
AcDbEntity
  8
0
100
AcDbSpline
 62
7
  6
CONTINUOUS
 70
0
 71
3
 72
14
 73
10
 74
0
 42
0.0000001
 43
0.0000001
 44
0.0000000001
 40
0.0
 40
0.0
 40
0.0
 40
0.0
 40
0.0258511517
 40
0.0869304149
 40
0.1814087942
 40
0.3059211178
 40
0.4558327394
 40
0.6257241893
 40
1.0
 40
1.0
 40
1.0
 40
1.0
 10
833.0392555893
 20
523.2390183594
 30
0.0
 10
833.0402329623
 20
523.2423307507
 30
0.0
 10
833.0340761009
 20
523.2538357051
 30
0.0
 10
833.0264678826
 20
523.2756934729
 30
0.0
 10
833.0097440786
 20
523.3098622807
 30
0.0
 10
832.9889315731
 20
523.3542568702
 30
0.0
 10
832.9630362328
 20
523.4077690593
 30
0.0
 10
832.9229348729
 20
523.4913327448
 30
0.0
 10
832.8917924282
 20
523.5570409311
 30
0.0
 10
832.8706414647
 20
523.6023483624
 30
0.0
  0
SPLINE
  5
567
100
AcDbEntity
  8
0
100
AcDbSpline
 62
7
  6
CONTINUOUS
 70
0
 71
3
 72
14
 73
10
 74
0
 42
0.0000001
 43
0.0000001
 44
0.0000000001
 40
0.0
 40
0.0
 40
0.0
 40
0.0
 40
0.3742865272
 40
0.5441798204
 40
0.694089719
 40
0.8185998599
 40
0.9130740531
 40
0.9741507225
 40
1.0
 40
1.0
 40
1.0
 40
1.0
 10
832.7354265724
 20
523.9133213245
 30
0.0
 10
832.7167152006
 20
523.9596910838
 30
0.0
 10
832.6898976591
 20
524.0272816281
 30
0.0
 10
832.6561317578
 20
524.1136016252
 30
0.0
 10
832.6346559584
 20
524.1690351895
 30
0.0
 10
832.6163824878
 20
524.2145326188
 30
0.0
 10
832.6027986767
 20
524.2500653837
 30
0.0
 10
832.5920026158
 20
524.2705358922
 30
0.0
 10
832.587787259
 20
524.2828842268
 30
0.0
 10
832.5846983864
 20
524.2844283549
 30
0.0
  0
SPLINE
  5
568
100
AcDbEntity
  8
0
100
AcDbSpline
 62
7
  6
CONTINUOUS
 70
0
 71
3
 72
14
 73
10
 74
0
 42
0.0000001
 43
0.0000001
 44
0.0000000001
 40
0.0
 40
0.0
 40
0.0
 40
0.0
 40
0.0258511516
 40
0.0869304145
 40
0.1814087936
 40
0.3059211173
 40
0.4558327377
 40
0.6257241855
 40
1.0
 40
1.0
 40
1.0
 40
1.0
 10
832.5846983864
 20
528.3112778809
 30
0.0
 10
832.5877874828
 20
528.3128221209
 30
0.0
 10
832.5920027044
 20
528.3251713243
 30
0.0
 10
832.6027996713
 20
528.3456425847
 30
0.0
 10
832.6163835484
 20
528.3811766714
 30
0.0
 10
832.6346576011
 20
528.4266750114
 30
0.0
 10
832.656133359
 20
528.4821088892
 30
0.0
 10
832.689898908
 20
528.5684274637
 30
0.0
 10
832.7167157371
 20
528.6360164814
 30
0.0
 10
832.7354265713
 20
528.6823849116
 30
0.0
  0
SPLINE
  5
569
100
AcDbEntity
  8
0
100
AcDbSpline
 62
7
  6
CONTINUOUS
 70
0
 71
3
 72
14
 73
10
 74
0
 42
0.0000001
 43
0.0000001
 44
0.0000000001
 40
0.0
 40
0.0
 40
0.0
 40
0.0
 40
0.0258511517
 40
0.0869304149
 40
0.1814087942
 40
0.3059211178
 40
0.4558327394
 40
0.6257241893
 40
1.0
 40
1.0
 40
1.0
 40
1.0
 10
844.0964149874
 20
522.9728339214
 30
0.0
 10
844.093057686
 20
522.9720241556
 30
0.0
 10
844.0861725339
 20
522.96093968
 30
0.0
 10
844.0710472609
 20
522.9434218857
 30
0.0
 10
844.0498181073
 20
522.9118542427
 30
0.0
 10
844.0217775178
 20
522.8716327895
 30
0.0
 10
843.9883822727
 20
522.8224506724
 30
0.0
 10
843.9360646782
 20
522.7459400333
 30
0.0
 10
843.894730942
 20
522.6861157919
 30
0.0
 10
843.8660690373
 20
522.6451448045
 30
0.0
  0
SPLINE
  5
56A
100
AcDbEntity
  8
0
100
AcDbSpline
 62
7
  6
CONTINUOUS
 70
0
 71
3
 72
14
 73
10
 74
0
 42
0.0000001
 43
0.0000001
 44
0.0000000001
 40
0.0
 40
0.0
 40
0.0
 40
0.0
 40
0.3742865272
 40
0.5441798204
 40
0.694089719
 40
0.8185998599
 40
0.9130740531
 40
0.9741507225
 40
1.0
 40
1.0
 40
1.0
 40
1.0
 10
843.6643659983
 20
522.3725587918
 30
0.0
 10
843.6335642947
 20
522.3331693888
 30
0.0
 10
843.588437937
 20
522.2761494445
 30
0.0
 10
843.5305655773
 20
522.2037473175
 30
0.0
 10
843.4932966021
 20
522.1574319476
 30
0.0
 10
843.4630314079
 20
522.1188579432
 30
0.0
 10
843.4390510363
 20
522.0893276352
 30
0.0
 10
843.4267210863
 20
522.069742718
 30
0.0
 10
843.4181347934
 20
522.0599179446
 30
0.0
 10
843.4183419755
 20
522.0564708384
 30
0.0
  0
SPLINE
  5
56B
100
AcDbEntity
  8
0
100
AcDbSpline
 62
7
  6
CONTINUOUS
 70
0
 71
3
 72
18
 73
14
 74
0
 42
0.0000001
 43
0.0000001
 44
0.0000000001
 40
0.0
 40
0.0
 40
0.0
 40
0.0
 40
0.0057917668
 40
0.0204562897
 40
0.0443814859
 40
0.0774196514
 40
0.1193178332
 40
0.1697052292
 40
0.2939042058
 40
0.4452503405
 40
0.6178905369
 40
0.8052379649
 40
1.0
 40
1.0
 40
1.0
 40
1.0
 10
840.0437836319
 20
531.773423178
 30
0.0
 10
840.0456584495
 20
531.7729453874
 30
0.0
 10
840.0502337544
 20
531.7810976464
 30
0.0
 10
840.0553050871
 20
531.7927013832
 30
0.0
 10
840.0634631294
 20
531.8164749056
 30
0.0
 10
840.0728848077
 20
531.8475891796
 30
0.0
 10
840.0842273567
 20
531.8880946533
 30
0.0
 10
840.1026408408
 20
531.9579358605
 30
0.0
 10
840.1286693685
 20
532.063721818
 30
0.0
 10
840.1625792032
 20
532.2095257482
 30
0.0
 10
840.1996745508
 20
532.3762705626
 30
0.0
 10
840.2384982946
 20
532.5574715116
 30
0.0
 10
840.264366317
 20
532.6824684372
 30
0.0
 10
840.2773373106
 20
532.7462226432
 30
0.0
  0
SPLINE
  5
56C
100
AcDbEntity
  8
0
100
AcDbSpline
 62
7
  6
CONTINUOUS
 70
0
 71
3
 72
18
 73
14
 74
0
 42
0.0000001
 43
0.0000001
 44
0.0000000001
 40
0.0
 40
0.0
 40
0.0
 40
0.0
 40
0.0057780236
 40
0.020422109
 40
0.0443547142
 40
0.0774233717
 40
0.119347274
 40
0.1697441115
 40
0.2939358151
 40
0.4452615606
 40
0.6178841483
 40
0.8052317743
 40
1.0
 40
1.0
 40
1.0
 40
1.0
 10
840.0437836139
 20
520.8222831473
 30
0.0
 10
840.0456535488
 20
520.8227615368
 30
0.0
 10
840.0502364704
 20
520.8146357053
 30
0.0
 10
840.05529876
 20
520.8030314152
 30
0.0
 10
840.0634610485
 20
520.7792546962
 30
0.0
 10
840.0728831846
 20
520.7481178486
 30
0.0
 10
840.0842306377
 20
520.7075910128
 30
0.0
 10
840.1026454945
 20
520.6377400605
 30
0.0
 10
840.1286736064
 20
520.5319599247
 30
0.0
 10
840.162581414
 20
520.3861703439
 30
0.0
 10
840.1996757569
 20
520.2194375179
 30
0.0
 10
840.2384989702
 20
520.0382394724
 30
0.0
 10
840.2643659499
 20
519.9132396025
 30
0.0
 10
840.2773374108
 20
519.8494831001
 30
0.0
  0
SPLINE
  5
56D
100
AcDbEntity
  8
0
100
AcDbSpline
 62
7
  6
CONTINUOUS
 70
0
 71
3
 72
9
 73
5
 74
0
 42
0.0000001
 43
0.0000001
 44
0.0000000001
 40
0.0
 40
0.0
 40
0.0
 40
0.0
 40
0.5
 40
1.0
 40
1.0
 40
1.0
 40
1.0
 10
843.4125872284
 20
521.6599281784
 30
0.0
 10
842.9972169926
 20
521.2129112399
 30
0.0
 10
842.0281504425
 20
520.4375036799
 30
0.0
 10
840.8720945221
 20
519.9859712095
 30
0.0
 10
840.2772813796
 20
519.8497585025
 30
0.0
  0
SPLINE
  5
56E
100
AcDbEntity
  8
0
100
AcDbSpline
 62
7
  6
CONTINUOUS
 70
0
 71
3
 72
9
 73
5
 74
0
 42
0.0000001
 43
0.0000001
 44
0.0000000001
 40
0.0
 40
0.0
 40
0.0
 40
0.0
 40
0.5
 40
1.0
 40
1.0
 40
1.0
 40
1.0
 10
840.2772813861
 20
532.7459477651
 30
0.0
 10
840.8720945323
 20
532.6097350583
 30
0.0
 10
842.02815046
 20
532.1582025864
 30
0.0
 10
842.9972170153
 20
531.3827950207
 30
0.0
 10
843.4125872528
 20
530.935778079
 30
0.0
  0
SPLINE
  5
56F
100
AcDbEntity
  8
0
100
AcDbSpline
 62
7
  6
CONTINUOUS
 70
0
 71
3
 72
14
 73
10
 74
0
 42
0.0000001
 43
0.0000001
 44
0.0000000001
 40
0.0
 40
0.0
 40
0.0
 40
0.0
 40
0.0258511517
 40
0.0869304149
 40
0.1814087942
 40
0.3059211178
 40
0.4558327394
 40
0.6257241893
 40
1.0
 40
1.0
 40
1.0
 40
1.0
 10
843.4183419755
 20
530.5392353974
 30
0.0
 10
843.4181347784
 20
530.5357880414
 30
0.0
 10
843.4267218915
 20
530.5259629507
 30
0.0
 10
843.4390520396
 20
530.5063768728
 30
0.0
 10
843.4630335229
 20
530.4768458467
 30
0.0
 10
843.493299215
 20
530.4382708827
 30
0.0
 10
843.5305684827
 20
530.3919553916
 30
0.0
 10
843.5884397865
 20
530.3195542811
 30
0.0
 10
843.6335651781
 20
530.2625357172
 30
0.0
 10
843.6643659983
 20
530.223147444
 30
0.0
  0
SPLINE
  5
570
100
AcDbEntity
  8
0
100
AcDbSpline
 62
7
  6
CONTINUOUS
 70
0
 71
3
 72
18
 73
14
 74
0
 42
0.0000001
 43
0.0000001
 44
0.0000000001
 40
0.0
 40
0.0
 40
0.0
 40
0.0
 40
0.0057779355
 40
0.0204214192
 40
0.044353178
 40
0.0774209755
 40
0.1193441834
 40
0.1697405821
 40
0.2939319764
 40
0.4452580437
 40
0.6178814943
 40
0.8052303485
 40
1.0
 40
1.0
 40
1.0
 40
1.0
 10
833.2283718982
 20
527.815533509
 30
0.0
 10
833.2278511201
 20
527.8136749537
 30
0.0
 10
833.2185230571
 20
527.8137686879
 30
0.0
 10
833.2059423589
 20
527.8151866741
 30
0.0
 10
833.1812707727
 20
527.8200059632
 30
0.0
 10
833.1495949178
 20
527.8274143511
 30
0.0
 10
833.1088243657
 20
527.8378503843
 30
0.0
 10
833.0391243138
 20
527.8568280205
 30
0.0
 10
832.9345015651
 20
527.8871771349
 30
0.0
 10
832.7912891514
 20
527.930707158
 30
0.0
 10
832.6283455111
 20
527.9819494111
 30
0.0
 10
832.4520097717
 20
528.0389271827
 30
0.0
 10
832.3308217437
 20
528.0790260938
 30
0.0
 10
832.2691205127
 20
528.0996710369
 30
0.0
  0
SPLINE
  5
571
100
AcDbEntity
  8
0
100
AcDbSpline
 62
7
  6
CONTINUOUS
 70
0
 71
3
 72
14
 73
10
 74
0
 42
0.0000001
 43
0.0000001
 44
0.0000000001
 40
0.0
 40
0.0
 40
0.0
 40
0.0
 40
0.3742865272
 40
0.5441798204
 40
0.694089719
 40
0.8185998599
 40
0.9130740531
 40
0.9741507225
 40
1.0
 40
1.0
 40
1.0
 40
1.0
 10
843.8660690373
 20
529.9505614313
 30
0.0
 10
843.8947317641
 20
529.9095892687
 30
0.0
 10
843.9360665379
 20
529.8497636999
 30
0.0
 10
843.9883847958
 20
529.7732517539
 30
0.0
 10
844.0217800105
 20
529.724069952
 30
0.0
 10
844.0498198279
 20
529.6838492553
 30
0.0
 10
844.0710486198
 20
529.6522828854
 30
0.0
 10
844.0861728408
 20
529.63476562
 30
0.0
 10
844.0930579292
 20
529.6236820215
 30
0.0
 10
844.0964149874
 20
529.6228723144
 30
0.0
  0
SPLINE
  5
572
100
AcDbEntity
  8
0
100
AcDbSpline
 62
7
  6
CONTINUOUS
 70
0
 71
3
 72
14
 73
10
 74
0
 42
0.0000001
 43
0.0000001
 44
0.0000000001
 40
0.0
 40
0.0
 40
0.0
 40
0.0
 40
0.3742865272
 40
0.5441798204
 40
0.694089719
 40
0.8185998599
 40
0.9130740531
 40
0.9741507225
 40
1.0
 40
1.0
 40
1.0
 40
1.0
 10
832.8706414647
 20
528.9933578734
 30
0.0
 10
832.8917930349
 20
529.0386666042
 30
0.0
 10
832.9229361103
 20
529.1043763528
 30
0.0
 10
832.9630382704
 20
529.1879412663
 30
0.0
 10
832.9889333529
 20
529.2414532715
 30
0.0
 10
833.0097455892
 20
529.285846814
 30
0.0
 10
833.0264684715
 20
529.320014672
 30
0.0
 10
833.0340767578
 20
529.3418712643
 30
0.0
 10
833.0402328915
 20
529.3533757251
 30
0.0
 10
833.0392555893
 20
529.3566878763
 30
0.0
  0
SPLINE
  5
573
100
AcDbEntity
  8
0
100
AcDbSpline
 62
7
  6
CONTINUOUS
 70
0
 71
3
 72
14
 73
10
 74
0
 42
0.0000001
 43
0.0000001
 44
0.0000000001
 40
0.0
 40
0.0
 40
0.0
 40
0.0
 40
0.0258511517
 40
0.0869304149
 40
0.1814087942
 40
0.3059211178
 40
0.4558327394
 40
0.6257241893
 40
1.0
 40
1.0
 40
1.0
 40
1.0
 10
838.7983577738
 20
532.6817070729
 30
0.0
 10
838.8007377023
 20
532.6792044474
 30
0.0
 10
838.8137797158
 20
532.6787839686
 30
0.0
 10
838.8365132072
 20
532.674443995
 30
0.0
 10
838.8744661647
 20
532.6718428302
 30
0.0
 10
838.9233192598
 20
532.667669694
 30
0.0
 10
838.9826098451
 20
532.6633396219
 30
0.0
 10
839.0750287995
 20
532.6562865756
 30
0.0
 10
839.1475049805
 20
532.6504026307
 30
0.0
 10
839.1973178487
 20
532.6460661868
 30
0.0
  0
SPLINE
  5
574
100
AcDbEntity
  8
0
100
AcDbSpline
 62
7
  6
CONTINUOUS
 70
0
 71
3
 72
14
 73
10
 74
0
 42
0.0000001
 43
0.0000001
 44
0.0000000001
 40
0.0
 40
0.0
 40
0.0
 40
0.0
 40
0.3742865272
 40
0.5441798204
 40
0.694089719
 40
0.8185998599
 40
0.9130740531
 40
0.9741507225
 40
1.0
 40
1.0
 40
1.0
 40
1.0
 10
839.5342357799
 20
532.6076792373
 30
0.0
 10
839.5837488553
 20
532.600698881
 30
0.0
 10
839.6556927545
 20
532.5901282811
 30
0.0
 10
839.7473310155
 20
532.5762104109
 30
0.0
 10
839.80607579
 20
532.5670922165
 30
0.0
 10
839.8546144549
 20
532.5601687917
 30
0.0
 10
839.8921786376
 20
532.5541663347
 30
0.0
 10
839.9153046485
 20
532.5532807434
 30
0.0
 10
839.9281062983
 20
532.5507571823
 30
0.0
 10
839.9309879888
 20
532.5526601603
 30
0.0
  0
SPLINE
  5
575
100
AcDbEntity
  8
0
100
AcDbSpline
 62
7
  6
CONTINUOUS
 70
0
 71
3
 72
18
 73
14
 74
0
 42
0.0000001
 43
0.0000001
 44
0.0000000001
 40
0.0
 40
0.0
 40
0.0
 40
0.0
 40
0.005793269
 40
0.0204631835
 40
0.0443908387
 40
0.0774279479
 40
0.1193245516
 40
0.1697112181
 40
0.2939086994
 40
0.4452525587
 40
0.6178909205
 40
0.8052372857
 40
1.0
 40
1.0
 40
1.0
 40
1.0
 10
833.2283749785
 20
524.7801749047
 30
0.0
 10
833.2278525916
 20
524.7820381816
 30
0.0
 10
833.2184986669
 20
524.7819214406
 30
0.0
 10
833.2059155789
 20
524.7805117753
 30
0.0
 10
833.1812455964
 20
524.775689217
 30
0.0
 10
833.1495917424
 20
524.768292497
 30
0.0
 10
833.1088450825
 20
524.7578636854
 30
0.0
 10
833.0391598475
 20
524.7388913335
 30
0.0
 10
832.934540249
 20
524.7085422203
 30
0.0
 10
832.791326299
 20
524.6650106609
 30
0.0
 10
832.6283853368
 20
524.6137678054
 30
0.0
 10
832.452060688
 20
524.5567939006
 30
0.0
 10
832.3308838451
 20
524.5167009208
 30
0.0
 10
832.2691893253
 20
524.4960582233
 30
0.0
  0
SPLINE
  5
576
100
AcDbEntity
  8
0
100
AcDbSpline
 62
7
  6
CONTINUOUS
 70
0
 71
3
 72
18
 73
14
 74
0
 42
0.0000001
 43
0.0000001
 44
0.0000000001
 40
0.0
 40
0.0
 40
0.0
 40
0.0
 40
0.0057789989
 40
0.0204221755
 40
0.0443541562
 40
0.0774229496
 40
0.1193470719
 40
0.1697439007
 40
0.293935515
 40
0.4452613102
 40
0.6178839387
 40
0.8052316491
 40
1.0
 40
1.0
 40
1.0
 40
1.0
 10
842.6871051142
 20
530.2473007742
 30
0.0
 10
842.6857568973
 20
530.2486824665
 30
0.0
 10
842.690501402
 20
530.256711312
 30
0.0
 10
842.6980206291
 20
530.2669004336
 30
0.0
 10
842.7145298174
 20
530.2858555851
 30
0.0
 10
842.7367842189
 20
530.3095843873
 30
0.0
 10
842.7662077289
 20
530.3396747705
 30
0.0
 10
842.8174930024
 20
530.3905480785
 30
0.0
 10
842.8960870992
 20
530.465978985
 30
0.0
 10
843.0053905592
 20
530.5682387146
 30
0.0
 10
843.1312381416
 20
530.6837296733
 30
0.0
 10
843.2687485472
 20
530.8079505064
 30
0.0
 10
843.3640680611
 20
530.8928518538
 30
0.0
 10
843.4127970569
 20
530.935963698
 30
0.0
  0
SPLINE
  5
577
100
AcDbEntity
  8
0
100
AcDbSpline
 62
7
  6
CONTINUOUS
 70
0
 71
3
 72
14
 73
10
 74
0
 42
0.0000001
 43
0.0000001
 44
0.0000000001
 40
0.0
 40
0.0
 40
0.0
 40
0.0
 40
0.0258511517
 40
0.0869304149
 40
0.1814087942
 40
0.3059211178
 40
0.4558327394
 40
0.6257241893
 40
1.0
 40
1.0
 40
1.0
 40
1.0
 10
839.9309879888
 20
520.0430460754
 30
0.0
 10
839.9281060895
 20
520.0449491913
 30
0.0
 10
839.9153037548
 20
520.0424250786
 30
0.0
 10
839.8921766397
 20
520.0415398961
 30
0.0
 10
839.8546112792
 20
520.0355368354
 30
0.0
 10
839.8060715344
 20
520.0286134592
 30
0.0
 10
839.7473265087
 20
520.0194950721
 30
0.0
 10
839.6556896559
 20
520.0055776081
 30
0.0
 10
839.5837474352
 20
519.9950071545
 30
0.0
 10
839.5342357799
 20
519.9880269984
 30
0.0
  0
SPLINE
  5
578
100
AcDbEntity
  8
0
100
AcDbSpline
 62
7
  6
CONTINUOUS
 70
0
 71
3
 72
18
 73
14
 74
0
 42
0.0000001
 43
0.0000001
 44
0.0000000001
 40
0.0
 40
0.0
 40
0.0
 40
0.0
 40
0.1961804525
 40
0.3838937309
 40
0.5561895389
 40
0.7068378531
 40
0.8303214666
 40
0.8804368482
 40
0.9221627787
 40
0.9551433427
 40
0.9791242444
 40
0.993957304
 40
1.0
 40
1.0
 40
1.0
 40
1.0
 10
840.2024891094
 20
169.8671621676
 30
0.0
 10
840.1899207264
 20
169.9293253844
 30
0.0
 10
840.1657288622
 20
170.051051172
 30
0.0
 10
840.1319000296
 20
170.2276440464
 30
0.0
 10
840.1021061689
 20
170.3900271278
 30
0.0
 10
840.0774361922
 20
170.5322057413
 30
0.0
 10
840.060828223
 20
170.635759078
 30
0.0
 10
840.0509712338
 20
170.7045919923
 30
0.0
 10
840.0458237219
 20
170.7447847714
 30
0.0
 10
840.0425340279
 20
170.7760798073
 30
0.0
 10
840.0407695247
 20
170.8002521639
 30
0.0
 10
840.0410492916
 20
170.8129049709
 30
0.0
 10
840.0418906397
 20
170.8217975397
 30
0.0
 10
840.0437828476
 20
170.822282951
 30
0.0
  0
SPLINE
  5
579
100
AcDbEntity
  8
0
100
AcDbSpline
 62
7
  6
CONTINUOUS
 70
0
 71
3
 72
18
 73
14
 74
0
 42
0.0000001
 43
0.0000001
 44
0.0000000001
 40
0.0
 40
0.0
 40
0.0
 40
0.0
 40
0.1961839298
 40
0.3838987166
 40
0.5561923213
 40
0.7068370835
 40
0.8303261037
 40
0.880444258
 40
0.922166141
 40
0.9551380607
 40
0.9791168631
 40
0.9939559934
 40
1.0
 40
1.0
 40
1.0
 40
1.0
 10
843.4349113474
 20
171.7334020172
 30
0.0
 10
843.3873597862
 20
171.7753688951
 30
0.0
 10
843.2940375979
 20
171.8571843782
 30
0.0
 10
843.1580174289
 20
171.9747779537
 30
0.0
 10
843.0322870919
 20
172.0817702807
 30
0.0
 10
842.9214915039
 20
172.1742237266
 30
0.0
 10
842.8401144056
 20
172.2403843226
 30
0.0
 10
842.7854311976
 20
172.2833380824
 30
0.0
 10
842.7531990008
 20
172.3078905207
 30
0.0
 10
842.7277457311
 20
172.3263824588
 30
0.0
 10
842.7076924874
 20
172.3399972156
 30
0.0
 10
842.6965989995
 20
172.3460785841
 30
0.0
 10
842.6884696552
 20
172.3498039378
 30
0.0
 10
842.6871050873
 20
172.3484054806
 30
0.0
  0
SPLINE
  5
57A
100
AcDbEntity
  8
0
100
AcDbSpline
 62
7
  6
CONTINUOUS
 70
0
 71
3
 72
18
 73
14
 74
0
 42
0.0000001
 43
0.0000001
 44
0.0000000001
 40
0.0
 40
0.0
 40
0.0
 40
0.0
 40
0.1961804269
 40
0.3838936765
 40
0.5561894655
 40
0.7068377261
 40
0.8303214052
 40
0.8804367776
 40
0.922162465
 40
0.9551428687
 40
0.9791243752
 40
0.9939583257
 40
1.0
 40
1.0
 40
1.0
 40
1.0
 10
843.4349113473
 20
180.8623042161
 30
0.0
 10
843.387360614
 20
180.8203380688
 30
0.0
 10
843.2940389221
 20
180.7385244071
 30
0.0
 10
843.1580194258
 20
180.6209313435
 30
0.0
 10
843.0322884825
 20
180.5139375663
 30
0.0
 10
842.9214931935
 20
180.4214834345
 30
0.0
 10
842.840117279
 20
180.3553238088
 30
0.0
 10
842.7854348748
 20
180.3123710136
 30
0.0
 10
842.7532005196
 20
180.2878167546
 30
0.0
 10
842.7277436209
 20
180.269320485
 30
0.0
 10
842.7076901709
 20
180.2557054082
 30
0.0
 10
842.6965953537
 20
180.2496220378
 30
0.0
 10
842.6884706176
 20
180.2459031872
 30
0.0
 10
842.6871056619
 20
180.2473002132
 30
0.0
  0
SPLINE
  5
57B
100
AcDbEntity
  8
0
100
AcDbSpline
 62
7
  6
CONTINUOUS
 70
0
 71
3
 72
18
 73
14
 74
0
 42
0.0000001
 43
0.0000001
 44
0.0000000001
 40
0.0
 40
0.0
 40
0.0
 40
0.0
 40
0.196183933
 40
0.3838987393
 40
0.5561923672
 40
0.7068371455
 40
0.8303261736
 40
0.8804443302
 40
0.9221662206
 40
0.9551381436
 40
0.9791169252
 40
0.9939560132
 40
1.0
 40
1.0
 40
1.0
 40
1.0
 10
840.2024891021
 20
182.7285440635
 30
0.0
 10
840.1899205009
 20
182.6663797675
 30
0.0
 10
840.1657273153
 20
182.5446526393
 30
0.0
 10
840.131898375
 20
182.3680589265
 30
0.0
 10
840.1021054679
 20
182.205677089
 30
0.0
 10
840.0774362287
 20
182.063498566
 30
0.0
 10
840.0608280211
 20
181.9599436319
 30
0.0
 10
840.0509705779
 20
181.891109703
 30
0.0
 10
840.0458236418
 20
181.8509195817
 30
0.0
 10
840.0425357857
 20
181.819630438
 30
0.0
 10
840.0407716922
 20
181.7954564671
 30
0.0
 10
840.0410518096
 20
181.7828085544
 30
0.0
 10
840.0418902548
 20
181.7739056984
 30
0.0
 10
840.0437836319
 20
181.773423178
 30
0.0
  0
SPLINE
  5
57C
100
AcDbEntity
  8
0
100
AcDbSpline
 62
7
  6
CONTINUOUS
 70
0
 71
3
 72
18
 73
14
 74
0
 42
0.0000001
 43
0.0000001
 44
0.0000000001
 40
0.0
 40
0.0
 40
0.0
 40
0.0
 40
0.1948131937
 40
0.3819626402
 40
0.5542778745
 40
0.7053109958
 40
0.8293376439
 40
0.8797269162
 40
0.9217020588
 40
0.9548914324
 40
0.9790276077
 40
0.9939501934
 40
1.0
 40
1.0
 40
1.0
 40
1.0
 10
832.2966527774
 20
178.1641059525
 30
0.0
 10
832.3580082336
 20
178.1435568222
 30
0.0
 10
832.478170514
 20
178.1028608968
 30
0.0
 10
832.6521235771
 20
178.0425946409
 30
0.0
 10
832.8119076107
 20
177.9858356185
 30
0.0
 10
832.9514250094
 20
177.9347610692
 30
0.0
 10
833.0525065799
 20
177.8963003726
 30
0.0
 10
833.1191735518
 20
177.8696592024
 30
0.0
 10
833.1578320109
 20
177.8535538052
 30
0.0
 10
833.1875623922
 20
177.840371495
 30
0.0
 10
833.2101683658
 20
177.8295139163
 30
0.0
 10
833.2213212886
 20
177.8227550985
 30
0.0
 10
833.2289137905
 20
177.8174686475
 30
0.0
 10
833.2283719519
 20
177.8155337007
 30
0.0
  0
SPLINE
  5
57D
100
AcDbEntity
  8
0
100
AcDbSpline
 62
7
  6
CONTINUOUS
 70
0
 71
3
 72
18
 73
14
 74
0
 42
0.0000001
 43
0.0000001
 44
0.0000000001
 40
0.0
 40
0.0
 40
0.0
 40
0.0
 40
0.1948172442
 40
0.3819694145
 40
0.5542831195
 40
0.705311792
 40
0.8293422499
 40
0.8797333494
 40
0.9217032658
 40
0.9548828624
 40
0.9790165761
 40
0.9939462702
 40
1.0
 40
1.0
 40
1.0
 40
1.0
 10
832.2966527743
 20
174.4316002849
 30
0.0
 10
832.3580096777
 20
174.4521498998
 30
0.0
 10
832.4781747945
 20
174.4928455695
 30
0.0
 10
832.6521299886
 20
174.5531125727
 30
0.0
 10
832.8119131994
 20
174.6098721311
 30
0.0
 10
832.9514299772
 20
174.6609474021
 30
0.0
 10
833.0525122242
 20
174.6994084783
 30
0.0
 10
833.1191794356
 20
174.7260496441
 30
0.0
 10
833.1578340954
 20
174.7421536595
 30
0.0
 10
833.1875580807
 20
174.7553351253
 30
0.0
 10
833.2101639205
 20
174.7661922917
 30
0.0
 10
833.2213154262
 20
174.7729524885
 30
0.0
 10
833.2289177653
 20
174.7782388644
 30
0.0
 10
833.2283749785
 20
174.7801749047
 30
0.0
  0
SPLINE
  5
57E
100
AcDbEntity
  8
0
100
AcDbSpline
 62
7
  6
CONTINUOUS
 70
0
 71
3
 72
14
 73
10
 74
0
 42
0.0000001
 43
0.0000001
 44
0.0000000001
 40
0.0
 40
0.0
 40
0.0
 40
0.0
 40
0.3742865272
 40
0.5441798204
 40
0.694089719
 40
0.8185998599
 40
0.9130740531
 40
0.9741507225
 40
1.0
 40
1.0
 40
1.0
 40
1.0
 10
839.1973178487
 20
169.949640049
 30
0.0
 10
839.1475035517
 20
169.9453034807
 30
0.0
 10
839.0750257024
 20
169.9394193009
 30
0.0
 10
838.9826052844
 20
169.9323663335
 30
0.0
 10
838.9233149873
 20
169.9280361302
 30
0.0
 10
838.8744629335
 20
169.9238632843
 30
0.0
 10
838.8365112593
 20
169.9212617962
 30
0.0
 10
838.813778752
 20
169.9169224693
 30
0.0
 10
838.8007375299
 20
169.9165016071
 30
0.0
 10
838.7983577738
 20
169.9139991629
 30
0.0
  0
SPLINE
  5
57F
100
AcDbEntity
  8
0
100
AcDbSpline
 62
7
  6
CONTINUOUS
 70
0
 71
3
 72
18
 73
14
 74
0
 42
0.0000001
 43
0.0000001
 44
0.0000000001
 40
0.0
 40
0.0
 40
0.0
 40
0.0
 40
0.0057917787
 40
0.0204563263
 40
0.0443815319
 40
0.0774196916
 40
0.1193178674
 40
0.1697052641
 40
0.2939042462
 40
0.4452503833
 40
0.6178905772
 40
0.8052379927
 40
1.0
 40
1.0
 40
1.0
 40
1.0
 10
842.6871050873
 20
172.3484054806
 30
0.0
 10
842.6857538962
 20
172.3470207324
 30
0.0
 10
842.6905263384
 20
172.3389822574
 30
0.0
 10
842.6980398067
 20
172.3287884718
 30
0.0
 10
842.7145492832
 20
172.3098366206
 30
0.0
 10
842.7367842062
 20
172.2861200563
 30
0.0
 10
842.7661917175
 20
172.2560443684
 30
0.0
 10
842.8174692674
 20
172.2051771894
 30
0.0
 10
842.896068382
 20
172.1297427973
 30
0.0
 10
843.0053834424
 20
172.0274739916
 30
0.0
 10
843.1312410898
 20
171.9119760045
 30
0.0
 10
843.268753919
 20
171.7877531169
 30
0.0
 10
843.364070472
 20
171.7028522491
 30
0.0
 10
843.4127977601
 20
171.6597419156
 30
0.0
  0
SPLINE
  5
580
100
AcDbEntity
  8
0
100
AcDbSpline
 62
7
  6
CONTINUOUS
 70
0
 71
3
 72
14
 73
10
 74
0
 42
0.0000001
 43
0.0000001
 44
0.0000000001
 40
0.0
 40
0.0
 40
0.0
 40
0.0
 40
0.0258511517
 40
0.0869304149
 40
0.1814087942
 40
0.3059211178
 40
0.4558327394
 40
0.6257241893
 40
1.0
 40
1.0
 40
1.0
 40
1.0
 10
833.0392555893
 20
173.2390183594
 30
0.0
 10
833.0402329623
 20
173.2423307507
 30
0.0
 10
833.0340761009
 20
173.2538357051
 30
0.0
 10
833.0264678826
 20
173.2756934729
 30
0.0
 10
833.0097440786
 20
173.3098622807
 30
0.0
 10
832.9889315731
 20
173.3542568702
 30
0.0
 10
832.9630362328
 20
173.4077690593
 30
0.0
 10
832.9229348729
 20
173.4913327448
 30
0.0
 10
832.8917924282
 20
173.5570409311
 30
0.0
 10
832.8706414647
 20
173.6023483624
 30
0.0
  0
SPLINE
  5
581
100
AcDbEntity
  8
0
100
AcDbSpline
 62
7
  6
CONTINUOUS
 70
0
 71
3
 72
14
 73
10
 74
0
 42
0.0000001
 43
0.0000001
 44
0.0000000001
 40
0.0
 40
0.0
 40
0.0
 40
0.0
 40
0.3742865272
 40
0.5441798204
 40
0.694089719
 40
0.8185998599
 40
0.9130740531
 40
0.9741507225
 40
1.0
 40
1.0
 40
1.0
 40
1.0
 10
832.7354265724
 20
173.9133213245
 30
0.0
 10
832.7167152006
 20
173.9596910838
 30
0.0
 10
832.6898976591
 20
174.0272816281
 30
0.0
 10
832.6561317578
 20
174.1136016252
 30
0.0
 10
832.6346559584
 20
174.1690351895
 30
0.0
 10
832.6163824878
 20
174.2145326188
 30
0.0
 10
832.6027986767
 20
174.2500653837
 30
0.0
 10
832.5920026158
 20
174.2705358922
 30
0.0
 10
832.587787259
 20
174.2828842268
 30
0.0
 10
832.5846983864
 20
174.2844283549
 30
0.0
  0
SPLINE
  5
582
100
AcDbEntity
  8
0
100
AcDbSpline
 62
7
  6
CONTINUOUS
 70
0
 71
3
 72
14
 73
10
 74
0
 42
0.0000001
 43
0.0000001
 44
0.0000000001
 40
0.0
 40
0.0
 40
0.0
 40
0.0
 40
0.0258511516
 40
0.0869304145
 40
0.1814087936
 40
0.3059211173
 40
0.4558327377
 40
0.6257241855
 40
1.0
 40
1.0
 40
1.0
 40
1.0
 10
832.5846983864
 20
178.3112778809
 30
0.0
 10
832.5877874828
 20
178.3128221209
 30
0.0
 10
832.5920027044
 20
178.3251713243
 30
0.0
 10
832.6027996713
 20
178.3456425847
 30
0.0
 10
832.6163835484
 20
178.3811766714
 30
0.0
 10
832.6346576011
 20
178.4266750114
 30
0.0
 10
832.656133359
 20
178.4821088892
 30
0.0
 10
832.689898908
 20
178.5684274637
 30
0.0
 10
832.7167157371
 20
178.6360164814
 30
0.0
 10
832.7354265713
 20
178.6823849116
 30
0.0
  0
SPLINE
  5
583
100
AcDbEntity
  8
0
100
AcDbSpline
 62
7
  6
CONTINUOUS
 70
0
 71
3
 72
14
 73
10
 74
0
 42
0.0000001
 43
0.0000001
 44
0.0000000001
 40
0.0
 40
0.0
 40
0.0
 40
0.0
 40
0.0258511517
 40
0.0869304149
 40
0.1814087942
 40
0.3059211178
 40
0.4558327394
 40
0.6257241893
 40
1.0
 40
1.0
 40
1.0
 40
1.0
 10
844.0964149874
 20
172.9728339214
 30
0.0
 10
844.093057686
 20
172.9720241556
 30
0.0
 10
844.0861725339
 20
172.96093968
 30
0.0
 10
844.0710472609
 20
172.9434218857
 30
0.0
 10
844.0498181073
 20
172.9118542427
 30
0.0
 10
844.0217775178
 20
172.8716327895
 30
0.0
 10
843.9883822727
 20
172.8224506724
 30
0.0
 10
843.9360646782
 20
172.7459400333
 30
0.0
 10
843.894730942
 20
172.6861157919
 30
0.0
 10
843.8660690373
 20
172.6451448045
 30
0.0
  0
SPLINE
  5
584
100
AcDbEntity
  8
0
100
AcDbSpline
 62
7
  6
CONTINUOUS
 70
0
 71
3
 72
14
 73
10
 74
0
 42
0.0000001
 43
0.0000001
 44
0.0000000001
 40
0.0
 40
0.0
 40
0.0
 40
0.0
 40
0.3742865272
 40
0.5441798204
 40
0.694089719
 40
0.8185998599
 40
0.9130740531
 40
0.9741507225
 40
1.0
 40
1.0
 40
1.0
 40
1.0
 10
843.6643659983
 20
172.3725587918
 30
0.0
 10
843.6335642947
 20
172.3331693888
 30
0.0
 10
843.588437937
 20
172.2761494445
 30
0.0
 10
843.5305655773
 20
172.2037473175
 30
0.0
 10
843.4932966021
 20
172.1574319476
 30
0.0
 10
843.4630314079
 20
172.1188579432
 30
0.0
 10
843.4390510363
 20
172.0893276352
 30
0.0
 10
843.4267210863
 20
172.069742718
 30
0.0
 10
843.4181347934
 20
172.0599179446
 30
0.0
 10
843.4183419755
 20
172.0564708384
 30
0.0
  0
SPLINE
  5
585
100
AcDbEntity
  8
0
100
AcDbSpline
 62
7
  6
CONTINUOUS
 70
0
 71
3
 72
18
 73
14
 74
0
 42
0.0000001
 43
0.0000001
 44
0.0000000001
 40
0.0
 40
0.0
 40
0.0
 40
0.0
 40
0.0057917668
 40
0.0204562897
 40
0.0443814859
 40
0.0774196514
 40
0.1193178332
 40
0.1697052292
 40
0.2939042058
 40
0.4452503405
 40
0.6178905369
 40
0.8052379649
 40
1.0
 40
1.0
 40
1.0
 40
1.0
 10
840.0437836319
 20
181.773423178
 30
0.0
 10
840.0456584495
 20
181.7729453874
 30
0.0
 10
840.0502337544
 20
181.7810976464
 30
0.0
 10
840.0553050871
 20
181.7927013832
 30
0.0
 10
840.0634631294
 20
181.8164749056
 30
0.0
 10
840.0728848077
 20
181.8475891796
 30
0.0
 10
840.0842273567
 20
181.8880946533
 30
0.0
 10
840.1026408408
 20
181.9579358605
 30
0.0
 10
840.1286693685
 20
182.063721818
 30
0.0
 10
840.1625792032
 20
182.2095257482
 30
0.0
 10
840.1996745508
 20
182.3762705626
 30
0.0
 10
840.2384982946
 20
182.5574715116
 30
0.0
 10
840.264366317
 20
182.6824684372
 30
0.0
 10
840.2773373106
 20
182.7462226432
 30
0.0
  0
SPLINE
  5
586
100
AcDbEntity
  8
0
100
AcDbSpline
 62
7
  6
CONTINUOUS
 70
0
 71
3
 72
18
 73
14
 74
0
 42
0.0000001
 43
0.0000001
 44
0.0000000001
 40
0.0
 40
0.0
 40
0.0
 40
0.0
 40
0.0057780236
 40
0.020422109
 40
0.0443547142
 40
0.0774233717
 40
0.119347274
 40
0.1697441115
 40
0.2939358151
 40
0.4452615606
 40
0.6178841483
 40
0.8052317743
 40
1.0
 40
1.0
 40
1.0
 40
1.0
 10
840.0437836139
 20
170.8222831473
 30
0.0
 10
840.0456535488
 20
170.8227615368
 30
0.0
 10
840.0502364704
 20
170.8146357053
 30
0.0
 10
840.05529876
 20
170.8030314152
 30
0.0
 10
840.0634610485
 20
170.7792546962
 30
0.0
 10
840.0728831846
 20
170.7481178486
 30
0.0
 10
840.0842306377
 20
170.7075910128
 30
0.0
 10
840.1026454945
 20
170.6377400605
 30
0.0
 10
840.1286736064
 20
170.5319599247
 30
0.0
 10
840.162581414
 20
170.3861703439
 30
0.0
 10
840.1996757569
 20
170.2194375179
 30
0.0
 10
840.2384989702
 20
170.0382394724
 30
0.0
 10
840.2643659499
 20
169.9132396025
 30
0.0
 10
840.2773374108
 20
169.8494831001
 30
0.0
  0
SPLINE
  5
587
100
AcDbEntity
  8
0
100
AcDbSpline
 62
7
  6
CONTINUOUS
 70
0
 71
3
 72
9
 73
5
 74
0
 42
0.0000001
 43
0.0000001
 44
0.0000000001
 40
0.0
 40
0.0
 40
0.0
 40
0.0
 40
0.5
 40
1.0
 40
1.0
 40
1.0
 40
1.0
 10
843.4125872284
 20
171.6599281784
 30
0.0
 10
842.9972169926
 20
171.2129112399
 30
0.0
 10
842.0281504425
 20
170.4375036799
 30
0.0
 10
840.8720945221
 20
169.9859712095
 30
0.0
 10
840.2772813796
 20
169.8497585025
 30
0.0
  0
SPLINE
  5
588
100
AcDbEntity
  8
0
100
AcDbSpline
 62
7
  6
CONTINUOUS
 70
0
 71
3
 72
9
 73
5
 74
0
 42
0.0000001
 43
0.0000001
 44
0.0000000001
 40
0.0
 40
0.0
 40
0.0
 40
0.0
 40
0.5
 40
1.0
 40
1.0
 40
1.0
 40
1.0
 10
840.2772813861
 20
182.7459477651
 30
0.0
 10
840.8720945323
 20
182.6097350583
 30
0.0
 10
842.02815046
 20
182.1582025864
 30
0.0
 10
842.9972170153
 20
181.3827950207
 30
0.0
 10
843.4125872528
 20
180.935778079
 30
0.0
  0
SPLINE
  5
589
100
AcDbEntity
  8
0
100
AcDbSpline
 62
7
  6
CONTINUOUS
 70
0
 71
3
 72
14
 73
10
 74
0
 42
0.0000001
 43
0.0000001
 44
0.0000000001
 40
0.0
 40
0.0
 40
0.0
 40
0.0
 40
0.0258511517
 40
0.0869304149
 40
0.1814087942
 40
0.3059211178
 40
0.4558327394
 40
0.6257241893
 40
1.0
 40
1.0
 40
1.0
 40
1.0
 10
843.4183419755
 20
180.5392353974
 30
0.0
 10
843.4181347784
 20
180.5357880414
 30
0.0
 10
843.4267218915
 20
180.5259629507
 30
0.0
 10
843.4390520396
 20
180.5063768728
 30
0.0
 10
843.4630335229
 20
180.4768458467
 30
0.0
 10
843.493299215
 20
180.4382708827
 30
0.0
 10
843.5305684827
 20
180.3919553916
 30
0.0
 10
843.5884397865
 20
180.3195542811
 30
0.0
 10
843.6335651781
 20
180.2625357172
 30
0.0
 10
843.6643659983
 20
180.223147444
 30
0.0
  0
SPLINE
  5
58A
100
AcDbEntity
  8
0
100
AcDbSpline
 62
7
  6
CONTINUOUS
 70
0
 71
3
 72
18
 73
14
 74
0
 42
0.0000001
 43
0.0000001
 44
0.0000000001
 40
0.0
 40
0.0
 40
0.0
 40
0.0
 40
0.0057779355
 40
0.0204214192
 40
0.044353178
 40
0.0774209755
 40
0.1193441834
 40
0.1697405821
 40
0.2939319764
 40
0.4452580437
 40
0.6178814943
 40
0.8052303485
 40
1.0
 40
1.0
 40
1.0
 40
1.0
 10
833.2283718982
 20
177.815533509
 30
0.0
 10
833.2278511201
 20
177.8136749537
 30
0.0
 10
833.2185230571
 20
177.8137686879
 30
0.0
 10
833.2059423589
 20
177.8151866741
 30
0.0
 10
833.1812707727
 20
177.8200059632
 30
0.0
 10
833.1495949178
 20
177.8274143511
 30
0.0
 10
833.1088243657
 20
177.8378503843
 30
0.0
 10
833.0391243138
 20
177.8568280205
 30
0.0
 10
832.9345015651
 20
177.8871771349
 30
0.0
 10
832.7912891514
 20
177.930707158
 30
0.0
 10
832.6283455111
 20
177.9819494111
 30
0.0
 10
832.4520097717
 20
178.0389271827
 30
0.0
 10
832.3308217437
 20
178.0790260938
 30
0.0
 10
832.2691205127
 20
178.0996710369
 30
0.0
  0
SPLINE
  5
58B
100
AcDbEntity
  8
0
100
AcDbSpline
 62
7
  6
CONTINUOUS
 70
0
 71
3
 72
14
 73
10
 74
0
 42
0.0000001
 43
0.0000001
 44
0.0000000001
 40
0.0
 40
0.0
 40
0.0
 40
0.0
 40
0.3742865272
 40
0.5441798204
 40
0.694089719
 40
0.8185998599
 40
0.9130740531
 40
0.9741507225
 40
1.0
 40
1.0
 40
1.0
 40
1.0
 10
843.8660690373
 20
179.9505614313
 30
0.0
 10
843.8947317641
 20
179.9095892687
 30
0.0
 10
843.9360665379
 20
179.8497636999
 30
0.0
 10
843.9883847958
 20
179.7732517539
 30
0.0
 10
844.0217800105
 20
179.724069952
 30
0.0
 10
844.0498198279
 20
179.6838492553
 30
0.0
 10
844.0710486198
 20
179.6522828854
 30
0.0
 10
844.0861728408
 20
179.63476562
 30
0.0
 10
844.0930579292
 20
179.6236820215
 30
0.0
 10
844.0964149874
 20
179.6228723144
 30
0.0
  0
SPLINE
  5
58C
100
AcDbEntity
  8
0
100
AcDbSpline
 62
7
  6
CONTINUOUS
 70
0
 71
3
 72
14
 73
10
 74
0
 42
0.0000001
 43
0.0000001
 44
0.0000000001
 40
0.0
 40
0.0
 40
0.0
 40
0.0
 40
0.3742865272
 40
0.5441798204
 40
0.694089719
 40
0.8185998599
 40
0.9130740531
 40
0.9741507225
 40
1.0
 40
1.0
 40
1.0
 40
1.0
 10
832.8706414647
 20
178.9933578734
 30
0.0
 10
832.8917930349
 20
179.0386666042
 30
0.0
 10
832.9229361103
 20
179.1043763528
 30
0.0
 10
832.9630382704
 20
179.1879412663
 30
0.0
 10
832.9889333529
 20
179.2414532715
 30
0.0
 10
833.0097455892
 20
179.285846814
 30
0.0
 10
833.0264684715
 20
179.320014672
 30
0.0
 10
833.0340767578
 20
179.3418712643
 30
0.0
 10
833.0402328915
 20
179.3533757251
 30
0.0
 10
833.0392555893
 20
179.3566878763
 30
0.0
  0
SPLINE
  5
58D
100
AcDbEntity
  8
0
100
AcDbSpline
 62
7
  6
CONTINUOUS
 70
0
 71
3
 72
14
 73
10
 74
0
 42
0.0000001
 43
0.0000001
 44
0.0000000001
 40
0.0
 40
0.0
 40
0.0
 40
0.0
 40
0.0258511517
 40
0.0869304149
 40
0.1814087942
 40
0.3059211178
 40
0.4558327394
 40
0.6257241893
 40
1.0
 40
1.0
 40
1.0
 40
1.0
 10
838.7983577738
 20
182.6817070729
 30
0.0
 10
838.8007377023
 20
182.6792044474
 30
0.0
 10
838.8137797158
 20
182.6787839686
 30
0.0
 10
838.8365132072
 20
182.674443995
 30
0.0
 10
838.8744661647
 20
182.6718428302
 30
0.0
 10
838.9233192598
 20
182.667669694
 30
0.0
 10
838.9826098451
 20
182.6633396219
 30
0.0
 10
839.0750287995
 20
182.6562865756
 30
0.0
 10
839.1475049805
 20
182.6504026307
 30
0.0
 10
839.1973178487
 20
182.6460661868
 30
0.0
  0
SPLINE
  5
58E
100
AcDbEntity
  8
0
100
AcDbSpline
 62
7
  6
CONTINUOUS
 70
0
 71
3
 72
14
 73
10
 74
0
 42
0.0000001
 43
0.0000001
 44
0.0000000001
 40
0.0
 40
0.0
 40
0.0
 40
0.0
 40
0.3742865272
 40
0.5441798204
 40
0.694089719
 40
0.8185998599
 40
0.9130740531
 40
0.9741507225
 40
1.0
 40
1.0
 40
1.0
 40
1.0
 10
839.5342357799
 20
182.6076792373
 30
0.0
 10
839.5837488553
 20
182.600698881
 30
0.0
 10
839.6556927545
 20
182.5901282811
 30
0.0
 10
839.7473310155
 20
182.5762104109
 30
0.0
 10
839.80607579
 20
182.5670922165
 30
0.0
 10
839.8546144549
 20
182.5601687917
 30
0.0
 10
839.8921786376
 20
182.5541663347
 30
0.0
 10
839.9153046485
 20
182.5532807434
 30
0.0
 10
839.9281062983
 20
182.5507571823
 30
0.0
 10
839.9309879888
 20
182.5526601603
 30
0.0
  0
SPLINE
  5
58F
100
AcDbEntity
  8
0
100
AcDbSpline
 62
7
  6
CONTINUOUS
 70
0
 71
3
 72
18
 73
14
 74
0
 42
0.0000001
 43
0.0000001
 44
0.0000000001
 40
0.0
 40
0.0
 40
0.0
 40
0.0
 40
0.005793269
 40
0.0204631835
 40
0.0443908387
 40
0.0774279479
 40
0.1193245516
 40
0.1697112181
 40
0.2939086994
 40
0.4452525587
 40
0.6178909205
 40
0.8052372857
 40
1.0
 40
1.0
 40
1.0
 40
1.0
 10
833.2283749785
 20
174.7801749047
 30
0.0
 10
833.2278525916
 20
174.7820381816
 30
0.0
 10
833.2184986669
 20
174.7819214406
 30
0.0
 10
833.2059155789
 20
174.7805117753
 30
0.0
 10
833.1812455964
 20
174.775689217
 30
0.0
 10
833.1495917424
 20
174.768292497
 30
0.0
 10
833.1088450825
 20
174.7578636854
 30
0.0
 10
833.0391598475
 20
174.7388913335
 30
0.0
 10
832.934540249
 20
174.7085422203
 30
0.0
 10
832.791326299
 20
174.6650106609
 30
0.0
 10
832.6283853368
 20
174.6137678054
 30
0.0
 10
832.452060688
 20
174.5567939006
 30
0.0
 10
832.3308838451
 20
174.5167009208
 30
0.0
 10
832.2691893253
 20
174.4960582233
 30
0.0
  0
SPLINE
  5
590
100
AcDbEntity
  8
0
100
AcDbSpline
 62
7
  6
CONTINUOUS
 70
0
 71
3
 72
18
 73
14
 74
0
 42
0.0000001
 43
0.0000001
 44
0.0000000001
 40
0.0
 40
0.0
 40
0.0
 40
0.0
 40
0.0057789989
 40
0.0204221755
 40
0.0443541562
 40
0.0774229496
 40
0.1193470719
 40
0.1697439007
 40
0.293935515
 40
0.4452613102
 40
0.6178839387
 40
0.8052316491
 40
1.0
 40
1.0
 40
1.0
 40
1.0
 10
842.6871051142
 20
180.2473007742
 30
0.0
 10
842.6857568973
 20
180.2486824665
 30
0.0
 10
842.690501402
 20
180.256711312
 30
0.0
 10
842.6980206291
 20
180.2669004336
 30
0.0
 10
842.7145298174
 20
180.2858555851
 30
0.0
 10
842.7367842189
 20
180.3095843873
 30
0.0
 10
842.7662077289
 20
180.3396747705
 30
0.0
 10
842.8174930024
 20
180.3905480785
 30
0.0
 10
842.8960870992
 20
180.465978985
 30
0.0
 10
843.0053905592
 20
180.5682387146
 30
0.0
 10
843.1312381416
 20
180.6837296733
 30
0.0
 10
843.2687485472
 20
180.8079505064
 30
0.0
 10
843.3640680611
 20
180.8928518538
 30
0.0
 10
843.4127970569
 20
180.935963698
 30
0.0
  0
SPLINE
  5
591
100
AcDbEntity
  8
0
100
AcDbSpline
 62
7
  6
CONTINUOUS
 70
0
 71
3
 72
14
 73
10
 74
0
 42
0.0000001
 43
0.0000001
 44
0.0000000001
 40
0.0
 40
0.0
 40
0.0
 40
0.0
 40
0.0258511517
 40
0.0869304149
 40
0.1814087942
 40
0.3059211178
 40
0.4558327394
 40
0.6257241893
 40
1.0
 40
1.0
 40
1.0
 40
1.0
 10
839.9309879888
 20
170.0430460754
 30
0.0
 10
839.9281060895
 20
170.0449491913
 30
0.0
 10
839.9153037548
 20
170.0424250786
 30
0.0
 10
839.8921766397
 20
170.0415398961
 30
0.0
 10
839.8546112792
 20
170.0355368354
 30
0.0
 10
839.8060715344
 20
170.0286134592
 30
0.0
 10
839.7473265087
 20
170.0194950721
 30
0.0
 10
839.6556896559
 20
170.0055776081
 30
0.0
 10
839.5837474352
 20
169.9950071545
 30
0.0
 10
839.5342357799
 20
169.9880269984
 30
0.0
  0
SPLINE
  5
592
100
AcDbEntity
  8
0
100
AcDbSpline
 62
7
  6
CONTINUOUS
 70
0
 71
3
 72
18
 73
14
 74
0
 42
0.0000001
 43
0.0000001
 44
0.0000000001
 40
0.0
 40
0.0
 40
0.0
 40
0.0
 40
0.1961804525
 40
0.3838937309
 40
0.5561895389
 40
0.7068378531
 40
0.8303214666
 40
0.8804368482
 40
0.9221627787
 40
0.9551433427
 40
0.9791242444
 40
0.993957304
 40
1.0
 40
1.0
 40
1.0
 40
1.0
 10
298.202522903
 20
1394.867128374
 30
0.0
 10
298.18995452
 20
1394.9292915908
 30
0.0
 10
298.1657626558
 20
1395.0510173784
 30
0.0
 10
298.1319338232
 20
1395.2276102528
 30
0.0
 10
298.1021399625
 20
1395.3899933342
 30
0.0
 10
298.0774699858
 20
1395.5321719477
 30
0.0
 10
298.0608620166
 20
1395.6357252844
 30
0.0
 10
298.0510050274
 20
1395.7045581987
 30
0.0
 10
298.0458575155
 20
1395.7447509778
 30
0.0
 10
298.0425678215
 20
1395.7760460137
 30
0.0
 10
298.0408033183
 20
1395.8002183703
 30
0.0
 10
298.0410830852
 20
1395.8128711773
 30
0.0
 10
298.0419244333
 20
1395.8217637461
 30
0.0
 10
298.0438166412
 20
1395.8222491574
 30
0.0
  0
SPLINE
  5
593
100
AcDbEntity
  8
0
100
AcDbSpline
 62
7
  6
CONTINUOUS
 70
0
 71
3
 72
18
 73
14
 74
0
 42
0.0000001
 43
0.0000001
 44
0.0000000001
 40
0.0
 40
0.0
 40
0.0
 40
0.0
 40
0.1961839298
 40
0.3838987166
 40
0.5561923213
 40
0.7068370835
 40
0.8303261037
 40
0.880444258
 40
0.922166141
 40
0.9551380607
 40
0.9791168631
 40
0.9939559934
 40
1.0
 40
1.0
 40
1.0
 40
1.0
 10
301.434945141
 20
1396.7333682236
 30
0.0
 10
301.3873935798
 20
1396.7753351015
 30
0.0
 10
301.2940713915
 20
1396.8571505846
 30
0.0
 10
301.1580512225
 20
1396.9747441601
 30
0.0
 10
301.0323208855
 20
1397.0817364871
 30
0.0
 10
300.9215252975
 20
1397.174189933
 30
0.0
 10
300.8401481992
 20
1397.240350529
 30
0.0
 10
300.7854649912
 20
1397.2833042888
 30
0.0
 10
300.7532327944
 20
1397.3078567271
 30
0.0
 10
300.7277795247
 20
1397.3263486652
 30
0.0
 10
300.707726281
 20
1397.339963422
 30
0.0
 10
300.6966327931
 20
1397.3460447905
 30
0.0
 10
300.6885034488
 20
1397.3497701442
 30
0.0
 10
300.6871388809
 20
1397.348371687
 30
0.0
  0
SPLINE
  5
594
100
AcDbEntity
  8
0
100
AcDbSpline
 62
7
  6
CONTINUOUS
 70
0
 71
3
 72
18
 73
14
 74
0
 42
0.0000001
 43
0.0000001
 44
0.0000000001
 40
0.0
 40
0.0
 40
0.0
 40
0.0
 40
0.1961804269
 40
0.3838936765
 40
0.5561894655
 40
0.7068377261
 40
0.8303214052
 40
0.8804367776
 40
0.922162465
 40
0.9551428687
 40
0.9791243752
 40
0.9939583257
 40
1.0
 40
1.0
 40
1.0
 40
1.0
 10
301.4349451409
 20
1405.8622704225
 30
0.0
 10
301.3873944076
 20
1405.8203042752
 30
0.0
 10
301.2940727157
 20
1405.7384906135
 30
0.0
 10
301.1580532194
 20
1405.6208975499
 30
0.0
 10
301.0323222761
 20
1405.5139037727
 30
0.0
 10
300.9215269871
 20
1405.4214496409
 30
0.0
 10
300.8401510726
 20
1405.3552900152
 30
0.0
 10
300.7854686684
 20
1405.31233722
 30
0.0
 10
300.7532343132
 20
1405.287782961
 30
0.0
 10
300.7277774145
 20
1405.2692866914
 30
0.0
 10
300.7077239645
 20
1405.2556716146
 30
0.0
 10
300.6966291473
 20
1405.2495882442
 30
0.0
 10
300.6885044112
 20
1405.2458693936
 30
0.0
 10
300.6871394555
 20
1405.2472664196
 30
0.0
  0
SPLINE
  5
595
100
AcDbEntity
  8
0
100
AcDbSpline
 62
7
  6
CONTINUOUS
 70
0
 71
3
 72
18
 73
14
 74
0
 42
0.0000001
 43
0.0000001
 44
0.0000000001
 40
0.0
 40
0.0
 40
0.0
 40
0.0
 40
0.196183933
 40
0.3838987393
 40
0.5561923672
 40
0.7068371455
 40
0.8303261736
 40
0.8804443302
 40
0.9221662206
 40
0.9551381436
 40
0.9791169253
 40
0.9939560132
 40
1.0
 40
1.0
 40
1.0
 40
1.0
 10
298.2025228957
 20
1407.7285102699
 30
0.0
 10
298.1899542945
 20
1407.6663459739
 30
0.0
 10
298.1657611089
 20
1407.5446188457
 30
0.0
 10
298.1319321686
 20
1407.3680251329
 30
0.0
 10
298.1021392615
 20
1407.2056432954
 30
0.0
 10
298.0774700223
 20
1407.0634647724
 30
0.0
 10
298.0608618147
 20
1406.9599098383
 30
0.0
 10
298.0510043715
 20
1406.8910759094
 30
0.0
 10
298.0458574354
 20
1406.8508857881
 30
0.0
 10
298.0425695793
 20
1406.8195966444
 30
0.0
 10
298.0408054858
 20
1406.7954226735
 30
0.0
 10
298.0410856032
 20
1406.7827747608
 30
0.0
 10
298.0419240484
 20
1406.7738719048
 30
0.0
 10
298.0438174255
 20
1406.7733893844
 30
0.0
  0
SPLINE
  5
596
100
AcDbEntity
  8
0
100
AcDbSpline
 62
7
  6
CONTINUOUS
 70
0
 71
3
 72
18
 73
14
 74
0
 42
0.0000001
 43
0.0000001
 44
0.0000000001
 40
0.0
 40
0.0
 40
0.0
 40
0.0
 40
0.1948131937
 40
0.3819626402
 40
0.5542778745
 40
0.7053109958
 40
0.8293376439
 40
0.8797269162
 40
0.9217020588
 40
0.9548914324
 40
0.9790276077
 40
0.9939501934
 40
1.0
 40
1.0
 40
1.0
 40
1.0
 10
290.296686571
 20
1403.1640721589
 30
0.0
 10
290.3580420272
 20
1403.1435230286
 30
0.0
 10
290.4782043076
 20
1403.1028271032
 30
0.0
 10
290.6521573707
 20
1403.0425608473
 30
0.0
 10
290.8119414043
 20
1402.9858018249
 30
0.0
 10
290.951458803
 20
1402.9347272756
 30
0.0
 10
291.0525403735
 20
1402.896266579
 30
0.0
 10
291.1192073454
 20
1402.8696254088
 30
0.0
 10
291.1578658045
 20
1402.8535200116
 30
0.0
 10
291.1875961858
 20
1402.8403377014
 30
0.0
 10
291.2102021594
 20
1402.8294801227
 30
0.0
 10
291.2213550822
 20
1402.8227213049
 30
0.0
 10
291.2289475841
 20
1402.8174348539
 30
0.0
 10
291.2284057455
 20
1402.8154999071
 30
0.0
  0
SPLINE
  5
597
100
AcDbEntity
  8
0
100
AcDbSpline
 62
7
  6
CONTINUOUS
 70
0
 71
3
 72
18
 73
14
 74
0
 42
0.0000001
 43
0.0000001
 44
0.0000000001
 40
0.0
 40
0.0
 40
0.0
 40
0.0
 40
0.1948172442
 40
0.3819694145
 40
0.5542831195
 40
0.705311792
 40
0.8293422499
 40
0.8797333494
 40
0.9217032658
 40
0.9548828624
 40
0.9790165761
 40
0.9939462702
 40
1.0
 40
1.0
 40
1.0
 40
1.0
 10
290.2966865679
 20
1399.4315664913
 30
0.0
 10
290.3580434713
 20
1399.4521161062
 30
0.0
 10
290.4782085881
 20
1399.4928117759
 30
0.0
 10
290.6521637822
 20
1399.5530787791
 30
0.0
 10
290.811946993
 20
1399.6098383375
 30
0.0
 10
290.9514637708
 20
1399.6609136085
 30
0.0
 10
291.0525460178
 20
1399.6993746847
 30
0.0
 10
291.1192132292
 20
1399.7260158505
 30
0.0
 10
291.157867889
 20
1399.7421198659
 30
0.0
 10
291.1875918743
 20
1399.7553013317
 30
0.0
 10
291.2101977141
 20
1399.7661584981
 30
0.0
 10
291.2213492198
 20
1399.7729186949
 30
0.0
 10
291.2289515589
 20
1399.7782050708
 30
0.0
 10
291.2284087721
 20
1399.7801411111
 30
0.0
  0
SPLINE
  5
598
100
AcDbEntity
  8
0
100
AcDbSpline
 62
7
  6
CONTINUOUS
 70
0
 71
3
 72
14
 73
10
 74
0
 42
0.0000001
 43
0.0000001
 44
0.0000000001
 40
0.0
 40
0.0
 40
0.0
 40
0.0
 40
0.3742865272
 40
0.5441798204
 40
0.694089719
 40
0.8185998599
 40
0.9130740531
 40
0.9741507225
 40
1.0
 40
1.0
 40
1.0
 40
1.0
 10
297.1973516423
 20
1394.9496062554
 30
0.0
 10
297.1475373453
 20
1394.9452696871
 30
0.0
 10
297.075059496
 20
1394.9393855073
 30
0.0
 10
296.982639078
 20
1394.9323325399
 30
0.0
 10
296.9233487809
 20
1394.9280023366
 30
0.0
 10
296.8744967271
 20
1394.9238294907
 30
0.0
 10
296.8365450529
 20
1394.9212280026
 30
0.0
 10
296.8138125456
 20
1394.9168886757
 30
0.0
 10
296.8007713235
 20
1394.9164678135
 30
0.0
 10
296.7983915674
 20
1394.9139653693
 30
0.0
  0
SPLINE
  5
599
100
AcDbEntity
  8
0
100
AcDbSpline
 62
7
  6
CONTINUOUS
 70
0
 71
3
 72
18
 73
14
 74
0
 42
0.0000001
 43
0.0000001
 44
0.0000000001
 40
0.0
 40
0.0
 40
0.0
 40
0.0
 40
0.0057917787
 40
0.0204563263
 40
0.0443815319
 40
0.0774196916
 40
0.1193178674
 40
0.1697052641
 40
0.2939042462
 40
0.4452503833
 40
0.6178905772
 40
0.8052379927
 40
1.0
 40
1.0
 40
1.0
 40
1.0
 10
300.6871388809
 20
1397.348371687
 30
0.0
 10
300.6857876898
 20
1397.3469869388
 30
0.0
 10
300.690560132
 20
1397.3389484638
 30
0.0
 10
300.6980736003
 20
1397.3287546782
 30
0.0
 10
300.7145830768
 20
1397.309802827
 30
0.0
 10
300.7368179998
 20
1397.2860862627
 30
0.0
 10
300.7662255111
 20
1397.2560105748
 30
0.0
 10
300.817503061
 20
1397.2051433958
 30
0.0
 10
300.8961021756
 20
1397.1297090037
 30
0.0
 10
301.005417236
 20
1397.027440198
 30
0.0
 10
301.1312748834
 20
1396.9119422109
 30
0.0
 10
301.2687877126
 20
1396.7877193233
 30
0.0
 10
301.3641042656
 20
1396.7028184555
 30
0.0
 10
301.4128315537
 20
1396.659708122
 30
0.0
  0
SPLINE
  5
59A
100
AcDbEntity
  8
0
100
AcDbSpline
 62
7
  6
CONTINUOUS
 70
0
 71
3
 72
14
 73
10
 74
0
 42
0.0000001
 43
0.0000001
 44
0.0000000001
 40
0.0
 40
0.0
 40
0.0
 40
0.0
 40
0.0258511517
 40
0.0869304149
 40
0.1814087942
 40
0.3059211178
 40
0.4558327394
 40
0.6257241893
 40
1.0
 40
1.0
 40
1.0
 40
1.0
 10
291.0392893829
 20
1398.2389845658
 30
0.0
 10
291.0402667559
 20
1398.2422969571
 30
0.0
 10
291.0341098945
 20
1398.2538019115
 30
0.0
 10
291.0265016762
 20
1398.2756596793
 30
0.0
 10
291.0097778722
 20
1398.3098284871
 30
0.0
 10
290.9889653667
 20
1398.3542230766
 30
0.0
 10
290.9630700264
 20
1398.4077352657
 30
0.0
 10
290.9229686665
 20
1398.4912989512
 30
0.0
 10
290.8918262218
 20
1398.5570071375
 30
0.0
 10
290.8706752583
 20
1398.6023145688
 30
0.0
  0
SPLINE
  5
59B
100
AcDbEntity
  8
0
100
AcDbSpline
 62
7
  6
CONTINUOUS
 70
0
 71
3
 72
14
 73
10
 74
0
 42
0.0000001
 43
0.0000001
 44
0.0000000001
 40
0.0
 40
0.0
 40
0.0
 40
0.0
 40
0.3742865272
 40
0.5441798204
 40
0.694089719
 40
0.8185998599
 40
0.9130740531
 40
0.9741507225
 40
1.0
 40
1.0
 40
1.0
 40
1.0
 10
290.735460366
 20
1398.9132875309
 30
0.0
 10
290.7167489942
 20
1398.9596572902
 30
0.0
 10
290.6899314527
 20
1399.0272478345
 30
0.0
 10
290.6561655514
 20
1399.1135678316
 30
0.0
 10
290.634689752
 20
1399.1690013959
 30
0.0
 10
290.6164162814
 20
1399.2144988252
 30
0.0
 10
290.6028324703
 20
1399.2500315901
 30
0.0
 10
290.5920364094
 20
1399.2705020986
 30
0.0
 10
290.5878210526
 20
1399.2828504332
 30
0.0
 10
290.58473218
 20
1399.2843945613
 30
0.0
  0
SPLINE
  5
59C
100
AcDbEntity
  8
0
100
AcDbSpline
 62
7
  6
CONTINUOUS
 70
0
 71
3
 72
14
 73
10
 74
0
 42
0.0000001
 43
0.0000001
 44
0.0000000001
 40
0.0
 40
0.0
 40
0.0
 40
0.0
 40
0.0258511516
 40
0.0869304145
 40
0.1814087936
 40
0.3059211173
 40
0.4558327377
 40
0.6257241855
 40
1.0
 40
1.0
 40
1.0
 40
1.0
 10
290.58473218
 20
1403.3112440873
 30
0.0
 10
290.5878212764
 20
1403.3127883273
 30
0.0
 10
290.592036498
 20
1403.3251375307
 30
0.0
 10
290.6028334649
 20
1403.3456087911
 30
0.0
 10
290.616417342
 20
1403.3811428778
 30
0.0
 10
290.6346913947
 20
1403.4266412178
 30
0.0
 10
290.6561671526
 20
1403.4820750956
 30
0.0
 10
290.6899327016
 20
1403.5683936701
 30
0.0
 10
290.7167495307
 20
1403.6359826878
 30
0.0
 10
290.7354603649
 20
1403.682351118
 30
0.0
  0
SPLINE
  5
59D
100
AcDbEntity
  8
0
100
AcDbSpline
 62
7
  6
CONTINUOUS
 70
0
 71
3
 72
14
 73
10
 74
0
 42
0.0000001
 43
0.0000001
 44
0.0000000001
 40
0.0
 40
0.0
 40
0.0
 40
0.0
 40
0.0258511517
 40
0.0869304149
 40
0.1814087942
 40
0.3059211178
 40
0.4558327394
 40
0.6257241893
 40
1.0
 40
1.0
 40
1.0
 40
1.0
 10
302.096448781
 20
1397.9728001278
 30
0.0
 10
302.0930914796
 20
1397.971990362
 30
0.0
 10
302.0862063275
 20
1397.9609058864
 30
0.0
 10
302.0710810544
 20
1397.9433880921
 30
0.0
 10
302.0498519009
 20
1397.9118204491
 30
0.0
 10
302.0218113114
 20
1397.8715989959
 30
0.0
 10
301.9884160663
 20
1397.8224168788
 30
0.0
 10
301.9360984718
 20
1397.7459062397
 30
0.0
 10
301.8947647356
 20
1397.6860819983
 30
0.0
 10
301.8661028309
 20
1397.6451110109
 30
0.0
  0
SPLINE
  5
59E
100
AcDbEntity
  8
0
100
AcDbSpline
 62
7
  6
CONTINUOUS
 70
0
 71
3
 72
14
 73
10
 74
0
 42
0.0000001
 43
0.0000001
 44
0.0000000001
 40
0.0
 40
0.0
 40
0.0
 40
0.0
 40
0.3742865272
 40
0.5441798204
 40
0.694089719
 40
0.8185998599
 40
0.9130740531
 40
0.9741507225
 40
1.0
 40
1.0
 40
1.0
 40
1.0
 10
301.6643997919
 20
1397.3725249982
 30
0.0
 10
301.6335980883
 20
1397.3331355952
 30
0.0
 10
301.5884717306
 20
1397.2761156509
 30
0.0
 10
301.5305993709
 20
1397.2037135239
 30
0.0
 10
301.4933303957
 20
1397.157398154
 30
0.0
 10
301.4630652015
 20
1397.1188241496
 30
0.0
 10
301.4390848299
 20
1397.0892938416
 30
0.0
 10
301.4267548799
 20
1397.0697089244
 30
0.0
 10
301.418168587
 20
1397.059884151
 30
0.0
 10
301.4183757691
 20
1397.0564370448
 30
0.0
  0
SPLINE
  5
59F
100
AcDbEntity
  8
0
100
AcDbSpline
 62
7
  6
CONTINUOUS
 70
0
 71
3
 72
18
 73
14
 74
0
 42
0.0000001
 43
0.0000001
 44
0.0000000001
 40
0.0
 40
0.0
 40
0.0
 40
0.0
 40
0.0057917668
 40
0.0204562897
 40
0.0443814859
 40
0.0774196514
 40
0.1193178332
 40
0.1697052292
 40
0.2939042058
 40
0.4452503405
 40
0.6178905369
 40
0.8052379649
 40
1.0
 40
1.0
 40
1.0
 40
1.0
 10
298.0438174255
 20
1406.7733893844
 30
0.0
 10
298.0456922431
 20
1406.7729115938
 30
0.0
 10
298.050267548
 20
1406.7810638528
 30
0.0
 10
298.0553388807
 20
1406.7926675896
 30
0.0
 10
298.063496923
 20
1406.816441112
 30
0.0
 10
298.0729186013
 20
1406.847555386
 30
0.0
 10
298.0842611503
 20
1406.8880608597
 30
0.0
 10
298.1026746344
 20
1406.9579020669
 30
0.0
 10
298.1287031621
 20
1407.0636880244
 30
0.0
 10
298.1626129968
 20
1407.2094919546
 30
0.0
 10
298.1997083444
 20
1407.376236769
 30
0.0
 10
298.2385320882
 20
1407.557437718
 30
0.0
 10
298.2644001106
 20
1407.6824346436
 30
0.0
 10
298.2773711042
 20
1407.7461888496
 30
0.0
  0
SPLINE
  5
5A0
100
AcDbEntity
  8
0
100
AcDbSpline
 62
7
  6
CONTINUOUS
 70
0
 71
3
 72
18
 73
14
 74
0
 42
0.0000001
 43
0.0000001
 44
0.0000000001
 40
0.0
 40
0.0
 40
0.0
 40
0.0
 40
0.0057780236
 40
0.020422109
 40
0.0443547142
 40
0.0774233717
 40
0.119347274
 40
0.1697441115
 40
0.2939358151
 40
0.4452615606
 40
0.6178841483
 40
0.8052317743
 40
1.0
 40
1.0
 40
1.0
 40
1.0
 10
298.0438174075
 20
1395.8222493537
 30
0.0
 10
298.0456873424
 20
1395.8227277432
 30
0.0
 10
298.050270264
 20
1395.8146019117
 30
0.0
 10
298.0553325536
 20
1395.8029976216
 30
0.0
 10
298.0634948421
 20
1395.7792209026
 30
0.0
 10
298.0729169782
 20
1395.748084055
 30
0.0
 10
298.0842644313
 20
1395.7075572192
 30
0.0
 10
298.1026792881
 20
1395.6377062669
 30
0.0
 10
298.1287074
 20
1395.5319261311
 30
0.0
 10
298.1626152076
 20
1395.3861365503
 30
0.0
 10
298.1997095505
 20
1395.2194037243
 30
0.0
 10
298.2385327638
 20
1395.0382056788
 30
0.0
 10
298.2643997435
 20
1394.9132058089
 30
0.0
 10
298.2773712044
 20
1394.8494493065
 30
0.0
  0
SPLINE
  5
5A1
100
AcDbEntity
  8
0
100
AcDbSpline
 62
7
  6
CONTINUOUS
 70
0
 71
3
 72
9
 73
5
 74
0
 42
0.0000001
 43
0.0000001
 44
0.0000000001
 40
0.0
 40
0.0
 40
0.0
 40
0.0
 40
0.5
 40
1.0
 40
1.0
 40
1.0
 40
1.0
 10
301.412621022
 20
1396.6598943848
 30
0.0
 10
300.9972507862
 20
1396.2128774463
 30
0.0
 10
300.0281842361
 20
1395.4374698863
 30
0.0
 10
298.8721283157
 20
1394.9859374159
 30
0.0
 10
298.2773151732
 20
1394.8497247089
 30
0.0
  0
SPLINE
  5
5A2
100
AcDbEntity
  8
0
100
AcDbSpline
 62
7
  6
CONTINUOUS
 70
0
 71
3
 72
9
 73
5
 74
0
 42
0.0000001
 43
0.0000001
 44
0.0000000001
 40
0.0
 40
0.0
 40
0.0
 40
0.0
 40
0.5
 40
1.0
 40
1.0
 40
1.0
 40
1.0
 10
298.2773151797
 20
1407.7459139715
 30
0.0
 10
298.8721283259
 20
1407.6097012647
 30
0.0
 10
300.0281842536
 20
1407.1581687928
 30
0.0
 10
300.9972508089
 20
1406.3827612271
 30
0.0
 10
301.4126210464
 20
1405.9357442854
 30
0.0
  0
SPLINE
  5
5A3
100
AcDbEntity
  8
0
100
AcDbSpline
 62
7
  6
CONTINUOUS
 70
0
 71
3
 72
14
 73
10
 74
0
 42
0.0000001
 43
0.0000001
 44
0.0000000001
 40
0.0
 40
0.0
 40
0.0
 40
0.0
 40
0.0258511517
 40
0.0869304149
 40
0.1814087942
 40
0.3059211178
 40
0.4558327394
 40
0.6257241893
 40
1.0
 40
1.0
 40
1.0
 40
1.0
 10
301.4183757691
 20
1405.5392016038
 30
0.0
 10
301.418168572
 20
1405.5357542478
 30
0.0
 10
301.4267556851
 20
1405.5259291571
 30
0.0
 10
301.4390858332
 20
1405.5063430792
 30
0.0
 10
301.4630673165
 20
1405.4768120531
 30
0.0
 10
301.4933330086
 20
1405.4382370891
 30
0.0
 10
301.5306022763
 20
1405.391921598
 30
0.0
 10
301.5884735801
 20
1405.3195204875
 30
0.0
 10
301.6335989717
 20
1405.2625019236
 30
0.0
 10
301.6643997919
 20
1405.2231136504
 30
0.0
  0
SPLINE
  5
5A4
100
AcDbEntity
  8
0
100
AcDbSpline
 62
7
  6
CONTINUOUS
 70
0
 71
3
 72
18
 73
14
 74
0
 42
0.0000001
 43
0.0000001
 44
0.0000000001
 40
0.0
 40
0.0
 40
0.0
 40
0.0
 40
0.0057779355
 40
0.0204214192
 40
0.044353178
 40
0.0774209755
 40
0.1193441834
 40
0.1697405821
 40
0.2939319764
 40
0.4452580437
 40
0.6178814943
 40
0.8052303485
 40
1.0
 40
1.0
 40
1.0
 40
1.0
 10
291.2284056918
 20
1402.8154997154
 30
0.0
 10
291.2278849137
 20
1402.8136411601
 30
0.0
 10
291.2185568507
 20
1402.8137348943
 30
0.0
 10
291.2059761525
 20
1402.8151528805
 30
0.0
 10
291.1813045663
 20
1402.8199721696
 30
0.0
 10
291.1496287114
 20
1402.8273805575
 30
0.0
 10
291.1088581593
 20
1402.8378165907
 30
0.0
 10
291.0391581074
 20
1402.8567942269
 30
0.0
 10
290.9345353587
 20
1402.8871433413
 30
0.0
 10
290.791322945
 20
1402.9306733644
 30
0.0
 10
290.6283793047
 20
1402.9819156175
 30
0.0
 10
290.4520435653
 20
1403.0388933891
 30
0.0
 10
290.3308555373
 20
1403.0789923002
 30
0.0
 10
290.2691543063
 20
1403.0996372433
 30
0.0
  0
SPLINE
  5
5A5
100
AcDbEntity
  8
0
100
AcDbSpline
 62
7
  6
CONTINUOUS
 70
0
 71
3
 72
14
 73
10
 74
0
 42
0.0000001
 43
0.0000001
 44
0.0000000001
 40
0.0
 40
0.0
 40
0.0
 40
0.0
 40
0.3742865272
 40
0.5441798204
 40
0.694089719
 40
0.8185998599
 40
0.9130740531
 40
0.9741507225
 40
1.0
 40
1.0
 40
1.0
 40
1.0
 10
301.8661028309
 20
1404.9505276377
 30
0.0
 10
301.8947655577
 20
1404.9095554751
 30
0.0
 10
301.9361003315
 20
1404.8497299063
 30
0.0
 10
301.9884185894
 20
1404.7732179603
 30
0.0
 10
302.0218138041
 20
1404.7240361584
 30
0.0
 10
302.0498536215
 20
1404.6838154617
 30
0.0
 10
302.0710824134
 20
1404.6522490918
 30
0.0
 10
302.0862066344
 20
1404.6347318264
 30
0.0
 10
302.0930917228
 20
1404.6236482279
 30
0.0
 10
302.096448781
 20
1404.6228385208
 30
0.0
  0
SPLINE
  5
5A6
100
AcDbEntity
  8
0
100
AcDbSpline
 62
7
  6
CONTINUOUS
 70
0
 71
3
 72
14
 73
10
 74
0
 42
0.0000001
 43
0.0000001
 44
0.0000000001
 40
0.0
 40
0.0
 40
0.0
 40
0.0
 40
0.3742865272
 40
0.5441798204
 40
0.694089719
 40
0.8185998599
 40
0.9130740531
 40
0.9741507225
 40
1.0
 40
1.0
 40
1.0
 40
1.0
 10
290.8706752583
 20
1403.9933240798
 30
0.0
 10
290.8918268285
 20
1404.0386328106
 30
0.0
 10
290.9229699039
 20
1404.1043425592
 30
0.0
 10
290.963072064
 20
1404.1879074727
 30
0.0
 10
290.9889671465
 20
1404.2414194779
 30
0.0
 10
291.0097793828
 20
1404.2858130204
 30
0.0
 10
291.0265022651
 20
1404.3199808784
 30
0.0
 10
291.0341105514
 20
1404.3418374707
 30
0.0
 10
291.0402666851
 20
1404.3533419315
 30
0.0
 10
291.0392893829
 20
1404.3566540827
 30
0.0
  0
SPLINE
  5
5A7
100
AcDbEntity
  8
0
100
AcDbSpline
 62
7
  6
CONTINUOUS
 70
0
 71
3
 72
14
 73
10
 74
0
 42
0.0000001
 43
0.0000001
 44
0.0000000001
 40
0.0
 40
0.0
 40
0.0
 40
0.0
 40
0.0258511517
 40
0.0869304149
 40
0.1814087942
 40
0.3059211178
 40
0.4558327394
 40
0.6257241893
 40
1.0
 40
1.0
 40
1.0
 40
1.0
 10
296.7983915674
 20
1407.6816732793
 30
0.0
 10
296.8007714959
 20
1407.6791706538
 30
0.0
 10
296.8138135094
 20
1407.678750175
 30
0.0
 10
296.8365470008
 20
1407.6744102014
 30
0.0
 10
296.8744999583
 20
1407.6718090366
 30
0.0
 10
296.9233530534
 20
1407.6676359004
 30
0.0
 10
296.9826436387
 20
1407.6633058283
 30
0.0
 10
297.0750625931
 20
1407.656252782
 30
0.0
 10
297.1475387741
 20
1407.6503688371
 30
0.0
 10
297.1973516423
 20
1407.6460323932
 30
0.0
  0
SPLINE
  5
5A8
100
AcDbEntity
  8
0
100
AcDbSpline
 62
7
  6
CONTINUOUS
 70
0
 71
3
 72
14
 73
10
 74
0
 42
0.0000001
 43
0.0000001
 44
0.0000000001
 40
0.0
 40
0.0
 40
0.0
 40
0.0
 40
0.3742865272
 40
0.5441798204
 40
0.694089719
 40
0.8185998599
 40
0.9130740531
 40
0.9741507225
 40
1.0
 40
1.0
 40
1.0
 40
1.0
 10
297.5342695735
 20
1407.6076454437
 30
0.0
 10
297.5837826489
 20
1407.6006650874
 30
0.0
 10
297.6557265481
 20
1407.5900944875
 30
0.0
 10
297.7473648091
 20
1407.5761766173
 30
0.0
 10
297.8061095836
 20
1407.5670584229
 30
0.0
 10
297.8546482485
 20
1407.5601349981
 30
0.0
 10
297.8922124312
 20
1407.5541325411
 30
0.0
 10
297.9153384421
 20
1407.5532469498
 30
0.0
 10
297.9281400919
 20
1407.5507233887
 30
0.0
 10
297.9310217824
 20
1407.5526263667
 30
0.0
  0
SPLINE
  5
5A9
100
AcDbEntity
  8
0
100
AcDbSpline
 62
7
  6
CONTINUOUS
 70
0
 71
3
 72
18
 73
14
 74
0
 42
0.0000001
 43
0.0000001
 44
0.0000000001
 40
0.0
 40
0.0
 40
0.0
 40
0.0
 40
0.005793269
 40
0.0204631835
 40
0.0443908387
 40
0.0774279479
 40
0.1193245516
 40
0.1697112181
 40
0.2939086994
 40
0.4452525587
 40
0.6178909205
 40
0.8052372857
 40
1.0
 40
1.0
 40
1.0
 40
1.0
 10
291.2284087721
 20
1399.7801411111
 30
0.0
 10
291.2278863852
 20
1399.782004388
 30
0.0
 10
291.2185324605
 20
1399.781887647
 30
0.0
 10
291.2059493725
 20
1399.7804779817
 30
0.0
 10
291.18127939
 20
1399.7756554234
 30
0.0
 10
291.149625536
 20
1399.7682587034
 30
0.0
 10
291.1088788761
 20
1399.7578298918
 30
0.0
 10
291.0391936411
 20
1399.7388575399
 30
0.0
 10
290.9345740426
 20
1399.7085084267
 30
0.0
 10
290.7913600926
 20
1399.6649768673
 30
0.0
 10
290.6284191304
 20
1399.6137340118
 30
0.0
 10
290.4520944816
 20
1399.556760107
 30
0.0
 10
290.3309176387
 20
1399.5166671272
 30
0.0
 10
290.2692231189
 20
1399.4960244297
 30
0.0
  0
SPLINE
  5
5AA
100
AcDbEntity
  8
0
100
AcDbSpline
 62
7
  6
CONTINUOUS
 70
0
 71
3
 72
18
 73
14
 74
0
 42
0.0000001
 43
0.0000001
 44
0.0000000001
 40
0.0
 40
0.0
 40
0.0
 40
0.0
 40
0.0057789989
 40
0.0204221755
 40
0.0443541562
 40
0.0774229496
 40
0.1193470719
 40
0.1697439007
 40
0.293935515
 40
0.4452613102
 40
0.6178839387
 40
0.8052316491
 40
1.0
 40
1.0
 40
1.0
 40
1.0
 10
300.6871389078
 20
1405.2472669806
 30
0.0
 10
300.6857906909
 20
1405.2486486729
 30
0.0
 10
300.6905351956
 20
1405.2566775184
 30
0.0
 10
300.6980544227
 20
1405.26686664
 30
0.0
 10
300.714563611
 20
1405.2858217915
 30
0.0
 10
300.7368180125
 20
1405.3095505937
 30
0.0
 10
300.7662415225
 20
1405.3396409769
 30
0.0
 10
300.817526796
 20
1405.3905142849
 30
0.0
 10
300.8961208928
 20
1405.4659451914
 30
0.0
 10
301.0054243528
 20
1405.568204921
 30
0.0
 10
301.1312719352
 20
1405.6836958797
 30
0.0
 10
301.2687823408
 20
1405.8079167128
 30
0.0
 10
301.3641018547
 20
1405.8928180602
 30
0.0
 10
301.4128308505
 20
1405.9359299044
 30
0.0
  0
SPLINE
  5
5AB
100
AcDbEntity
  8
0
100
AcDbSpline
 62
7
  6
CONTINUOUS
 70
0
 71
3
 72
14
 73
10
 74
0
 42
0.0000001
 43
0.0000001
 44
0.0000000001
 40
0.0
 40
0.0
 40
0.0
 40
0.0
 40
0.0258511517
 40
0.0869304149
 40
0.1814087942
 40
0.3059211178
 40
0.4558327394
 40
0.6257241893
 40
1.0
 40
1.0
 40
1.0
 40
1.0
 10
297.9310217824
 20
1395.0430122818
 30
0.0
 10
297.9281398831
 20
1395.0449153977
 30
0.0
 10
297.9153375484
 20
1395.042391285
 30
0.0
 10
297.8922104333
 20
1395.0415061025
 30
0.0
 10
297.8546450728
 20
1395.0355030418
 30
0.0
 10
297.806105328
 20
1395.0285796656
 30
0.0
 10
297.7473603023
 20
1395.0194612785
 30
0.0
 10
297.6557234495
 20
1395.0055438145
 30
0.0
 10
297.5837812288
 20
1394.9949733609
 30
0.0
 10
297.5342695735
 20
1394.9879932048
 30
0.0
  0
SPLINE
  5
5AC
100
AcDbEntity
  8
0
100
AcDbSpline
 62
7
  6
CONTINUOUS
 70
0
 71
3
 72
18
 73
14
 74
0
 42
0.0000001
 43
0.0000001
 44
0.0000000001
 40
0.0
 40
0.0
 40
0.0
 40
0.0
 40
0.1961804525
 40
0.3838937309
 40
0.5561895389
 40
0.7068378531
 40
0.8303214666
 40
0.8804368482
 40
0.9221627787
 40
0.9551433427
 40
0.9791242444
 40
0.993957304
 40
1.0
 40
1.0
 40
1.0
 40
1.0
 10
298.202522903
 20
169.8671621676
 30
0.0
 10
298.18995452
 20
169.9293253844
 30
0.0
 10
298.1657626558
 20
170.051051172
 30
0.0
 10
298.1319338232
 20
170.2276440464
 30
0.0
 10
298.1021399625
 20
170.3900271278
 30
0.0
 10
298.0774699858
 20
170.5322057413
 30
0.0
 10
298.0608620166
 20
170.635759078
 30
0.0
 10
298.0510050274
 20
170.7045919923
 30
0.0
 10
298.0458575155
 20
170.7447847714
 30
0.0
 10
298.0425678215
 20
170.7760798073
 30
0.0
 10
298.0408033183
 20
170.8002521639
 30
0.0
 10
298.0410830852
 20
170.8129049709
 30
0.0
 10
298.0419244333
 20
170.8217975397
 30
0.0
 10
298.0438166412
 20
170.822282951
 30
0.0
  0
SPLINE
  5
5AD
100
AcDbEntity
  8
0
100
AcDbSpline
 62
7
  6
CONTINUOUS
 70
0
 71
3
 72
18
 73
14
 74
0
 42
0.0000001
 43
0.0000001
 44
0.0000000001
 40
0.0
 40
0.0
 40
0.0
 40
0.0
 40
0.1961839298
 40
0.3838987166
 40
0.5561923213
 40
0.7068370835
 40
0.8303261037
 40
0.880444258
 40
0.922166141
 40
0.9551380607
 40
0.9791168631
 40
0.9939559934
 40
1.0
 40
1.0
 40
1.0
 40
1.0
 10
301.434945141
 20
171.7334020172
 30
0.0
 10
301.3873935798
 20
171.7753688951
 30
0.0
 10
301.2940713915
 20
171.8571843782
 30
0.0
 10
301.1580512225
 20
171.9747779537
 30
0.0
 10
301.0323208855
 20
172.0817702807
 30
0.0
 10
300.9215252975
 20
172.1742237266
 30
0.0
 10
300.8401481992
 20
172.2403843226
 30
0.0
 10
300.7854649912
 20
172.2833380824
 30
0.0
 10
300.7532327944
 20
172.3078905207
 30
0.0
 10
300.7277795247
 20
172.3263824588
 30
0.0
 10
300.707726281
 20
172.3399972156
 30
0.0
 10
300.6966327931
 20
172.3460785841
 30
0.0
 10
300.6885034488
 20
172.3498039378
 30
0.0
 10
300.6871388809
 20
172.3484054806
 30
0.0
  0
SPLINE
  5
5AE
100
AcDbEntity
  8
0
100
AcDbSpline
 62
7
  6
CONTINUOUS
 70
0
 71
3
 72
18
 73
14
 74
0
 42
0.0000001
 43
0.0000001
 44
0.0000000001
 40
0.0
 40
0.0
 40
0.0
 40
0.0
 40
0.1961804269
 40
0.3838936765
 40
0.5561894655
 40
0.7068377261
 40
0.8303214052
 40
0.8804367776
 40
0.922162465
 40
0.9551428687
 40
0.9791243752
 40
0.9939583257
 40
1.0
 40
1.0
 40
1.0
 40
1.0
 10
301.4349451409
 20
180.8623042161
 30
0.0
 10
301.3873944076
 20
180.8203380688
 30
0.0
 10
301.2940727157
 20
180.7385244071
 30
0.0
 10
301.1580532194
 20
180.6209313435
 30
0.0
 10
301.0323222761
 20
180.5139375663
 30
0.0
 10
300.9215269871
 20
180.4214834345
 30
0.0
 10
300.8401510726
 20
180.3553238088
 30
0.0
 10
300.7854686684
 20
180.3123710136
 30
0.0
 10
300.7532343132
 20
180.2878167546
 30
0.0
 10
300.7277774145
 20
180.269320485
 30
0.0
 10
300.7077239645
 20
180.2557054082
 30
0.0
 10
300.6966291473
 20
180.2496220378
 30
0.0
 10
300.6885044112
 20
180.2459031872
 30
0.0
 10
300.6871394555
 20
180.2473002132
 30
0.0
  0
SPLINE
  5
5AF
100
AcDbEntity
  8
0
100
AcDbSpline
 62
7
  6
CONTINUOUS
 70
0
 71
3
 72
18
 73
14
 74
0
 42
0.0000001
 43
0.0000001
 44
0.0000000001
 40
0.0
 40
0.0
 40
0.0
 40
0.0
 40
0.196183933
 40
0.3838987393
 40
0.5561923672
 40
0.7068371455
 40
0.8303261736
 40
0.8804443302
 40
0.9221662206
 40
0.9551381436
 40
0.9791169252
 40
0.9939560132
 40
1.0
 40
1.0
 40
1.0
 40
1.0
 10
298.2025228957
 20
182.7285440635
 30
0.0
 10
298.1899542945
 20
182.6663797675
 30
0.0
 10
298.1657611089
 20
182.5446526393
 30
0.0
 10
298.1319321686
 20
182.3680589265
 30
0.0
 10
298.1021392615
 20
182.205677089
 30
0.0
 10
298.0774700223
 20
182.063498566
 30
0.0
 10
298.0608618147
 20
181.9599436319
 30
0.0
 10
298.0510043715
 20
181.891109703
 30
0.0
 10
298.0458574354
 20
181.8509195817
 30
0.0
 10
298.0425695793
 20
181.819630438
 30
0.0
 10
298.0408054858
 20
181.7954564671
 30
0.0
 10
298.0410856032
 20
181.7828085544
 30
0.0
 10
298.0419240484
 20
181.7739056984
 30
0.0
 10
298.0438174255
 20
181.773423178
 30
0.0
  0
SPLINE
  5
5B0
100
AcDbEntity
  8
0
100
AcDbSpline
 62
7
  6
CONTINUOUS
 70
0
 71
3
 72
18
 73
14
 74
0
 42
0.0000001
 43
0.0000001
 44
0.0000000001
 40
0.0
 40
0.0
 40
0.0
 40
0.0
 40
0.1948131937
 40
0.3819626402
 40
0.5542778745
 40
0.7053109958
 40
0.8293376439
 40
0.8797269162
 40
0.9217020588
 40
0.9548914324
 40
0.9790276077
 40
0.9939501934
 40
1.0
 40
1.0
 40
1.0
 40
1.0
 10
290.296686571
 20
178.1641059525
 30
0.0
 10
290.3580420272
 20
178.1435568222
 30
0.0
 10
290.4782043076
 20
178.1028608968
 30
0.0
 10
290.6521573707
 20
178.0425946409
 30
0.0
 10
290.8119414043
 20
177.9858356185
 30
0.0
 10
290.951458803
 20
177.9347610692
 30
0.0
 10
291.0525403735
 20
177.8963003726
 30
0.0
 10
291.1192073454
 20
177.8696592024
 30
0.0
 10
291.1578658045
 20
177.8535538052
 30
0.0
 10
291.1875961858
 20
177.840371495
 30
0.0
 10
291.2102021594
 20
177.8295139163
 30
0.0
 10
291.2213550822
 20
177.8227550985
 30
0.0
 10
291.2289475841
 20
177.8174686475
 30
0.0
 10
291.2284057455
 20
177.8155337007
 30
0.0
  0
SPLINE
  5
5B1
100
AcDbEntity
  8
0
100
AcDbSpline
 62
7
  6
CONTINUOUS
 70
0
 71
3
 72
18
 73
14
 74
0
 42
0.0000001
 43
0.0000001
 44
0.0000000001
 40
0.0
 40
0.0
 40
0.0
 40
0.0
 40
0.1948172442
 40
0.3819694145
 40
0.5542831195
 40
0.705311792
 40
0.8293422499
 40
0.8797333494
 40
0.9217032658
 40
0.9548828624
 40
0.9790165761
 40
0.9939462702
 40
1.0
 40
1.0
 40
1.0
 40
1.0
 10
290.2966865679
 20
174.4316002849
 30
0.0
 10
290.3580434713
 20
174.4521498998
 30
0.0
 10
290.4782085881
 20
174.4928455695
 30
0.0
 10
290.6521637822
 20
174.5531125727
 30
0.0
 10
290.811946993
 20
174.6098721311
 30
0.0
 10
290.9514637708
 20
174.6609474021
 30
0.0
 10
291.0525460178
 20
174.6994084783
 30
0.0
 10
291.1192132292
 20
174.7260496441
 30
0.0
 10
291.157867889
 20
174.7421536595
 30
0.0
 10
291.1875918743
 20
174.7553351253
 30
0.0
 10
291.2101977141
 20
174.7661922917
 30
0.0
 10
291.2213492198
 20
174.7729524885
 30
0.0
 10
291.2289515589
 20
174.7782388644
 30
0.0
 10
291.2284087721
 20
174.7801749047
 30
0.0
  0
SPLINE
  5
5B2
100
AcDbEntity
  8
0
100
AcDbSpline
 62
7
  6
CONTINUOUS
 70
0
 71
3
 72
14
 73
10
 74
0
 42
0.0000001
 43
0.0000001
 44
0.0000000001
 40
0.0
 40
0.0
 40
0.0
 40
0.0
 40
0.3742865272
 40
0.5441798204
 40
0.694089719
 40
0.8185998599
 40
0.9130740531
 40
0.9741507225
 40
1.0
 40
1.0
 40
1.0
 40
1.0
 10
297.1973516423
 20
169.949640049
 30
0.0
 10
297.1475373453
 20
169.9453034807
 30
0.0
 10
297.075059496
 20
169.9394193009
 30
0.0
 10
296.982639078
 20
169.9323663335
 30
0.0
 10
296.9233487809
 20
169.9280361302
 30
0.0
 10
296.8744967271
 20
169.9238632843
 30
0.0
 10
296.8365450529
 20
169.9212617962
 30
0.0
 10
296.8138125456
 20
169.9169224693
 30
0.0
 10
296.8007713235
 20
169.9165016071
 30
0.0
 10
296.7983915674
 20
169.9139991629
 30
0.0
  0
SPLINE
  5
5B3
100
AcDbEntity
  8
0
100
AcDbSpline
 62
7
  6
CONTINUOUS
 70
0
 71
3
 72
18
 73
14
 74
0
 42
0.0000001
 43
0.0000001
 44
0.0000000001
 40
0.0
 40
0.0
 40
0.0
 40
0.0
 40
0.0057917787
 40
0.0204563263
 40
0.0443815319
 40
0.0774196916
 40
0.1193178674
 40
0.1697052641
 40
0.2939042462
 40
0.4452503833
 40
0.6178905772
 40
0.8052379927
 40
1.0
 40
1.0
 40
1.0
 40
1.0
 10
300.6871388809
 20
172.3484054806
 30
0.0
 10
300.6857876898
 20
172.3470207324
 30
0.0
 10
300.690560132
 20
172.3389822574
 30
0.0
 10
300.6980736003
 20
172.3287884718
 30
0.0
 10
300.7145830768
 20
172.3098366206
 30
0.0
 10
300.7368179998
 20
172.2861200563
 30
0.0
 10
300.7662255111
 20
172.2560443684
 30
0.0
 10
300.817503061
 20
172.2051771894
 30
0.0
 10
300.8961021756
 20
172.1297427973
 30
0.0
 10
301.005417236
 20
172.0274739916
 30
0.0
 10
301.1312748834
 20
171.9119760045
 30
0.0
 10
301.2687877126
 20
171.7877531169
 30
0.0
 10
301.3641042656
 20
171.7028522491
 30
0.0
 10
301.4128315537
 20
171.6597419156
 30
0.0
  0
SPLINE
  5
5B4
100
AcDbEntity
  8
0
100
AcDbSpline
 62
7
  6
CONTINUOUS
 70
0
 71
3
 72
14
 73
10
 74
0
 42
0.0000001
 43
0.0000001
 44
0.0000000001
 40
0.0
 40
0.0
 40
0.0
 40
0.0
 40
0.0258511517
 40
0.0869304149
 40
0.1814087942
 40
0.3059211178
 40
0.4558327394
 40
0.6257241893
 40
1.0
 40
1.0
 40
1.0
 40
1.0
 10
291.0392893829
 20
173.2390183594
 30
0.0
 10
291.0402667559
 20
173.2423307507
 30
0.0
 10
291.0341098945
 20
173.2538357051
 30
0.0
 10
291.0265016762
 20
173.2756934729
 30
0.0
 10
291.0097778722
 20
173.3098622807
 30
0.0
 10
290.9889653667
 20
173.3542568702
 30
0.0
 10
290.9630700264
 20
173.4077690593
 30
0.0
 10
290.9229686665
 20
173.4913327448
 30
0.0
 10
290.8918262218
 20
173.5570409311
 30
0.0
 10
290.8706752583
 20
173.6023483624
 30
0.0
  0
SPLINE
  5
5B5
100
AcDbEntity
  8
0
100
AcDbSpline
 62
7
  6
CONTINUOUS
 70
0
 71
3
 72
14
 73
10
 74
0
 42
0.0000001
 43
0.0000001
 44
0.0000000001
 40
0.0
 40
0.0
 40
0.0
 40
0.0
 40
0.3742865272
 40
0.5441798204
 40
0.694089719
 40
0.8185998599
 40
0.9130740531
 40
0.9741507225
 40
1.0
 40
1.0
 40
1.0
 40
1.0
 10
290.735460366
 20
173.9133213245
 30
0.0
 10
290.7167489942
 20
173.9596910838
 30
0.0
 10
290.6899314527
 20
174.0272816281
 30
0.0
 10
290.6561655514
 20
174.1136016252
 30
0.0
 10
290.634689752
 20
174.1690351895
 30
0.0
 10
290.6164162814
 20
174.2145326188
 30
0.0
 10
290.6028324703
 20
174.2500653837
 30
0.0
 10
290.5920364094
 20
174.2705358922
 30
0.0
 10
290.5878210526
 20
174.2828842268
 30
0.0
 10
290.58473218
 20
174.2844283549
 30
0.0
  0
SPLINE
  5
5B6
100
AcDbEntity
  8
0
100
AcDbSpline
 62
7
  6
CONTINUOUS
 70
0
 71
3
 72
14
 73
10
 74
0
 42
0.0000001
 43
0.0000001
 44
0.0000000001
 40
0.0
 40
0.0
 40
0.0
 40
0.0
 40
0.0258511516
 40
0.0869304145
 40
0.1814087936
 40
0.3059211173
 40
0.4558327377
 40
0.6257241855
 40
1.0
 40
1.0
 40
1.0
 40
1.0
 10
290.58473218
 20
178.3112778809
 30
0.0
 10
290.5878212764
 20
178.3128221209
 30
0.0
 10
290.592036498
 20
178.3251713243
 30
0.0
 10
290.6028334649
 20
178.3456425847
 30
0.0
 10
290.616417342
 20
178.3811766714
 30
0.0
 10
290.6346913947
 20
178.4266750114
 30
0.0
 10
290.6561671526
 20
178.4821088892
 30
0.0
 10
290.6899327016
 20
178.5684274637
 30
0.0
 10
290.7167495307
 20
178.6360164814
 30
0.0
 10
290.7354603649
 20
178.6823849116
 30
0.0
  0
SPLINE
  5
5B7
100
AcDbEntity
  8
0
100
AcDbSpline
 62
7
  6
CONTINUOUS
 70
0
 71
3
 72
14
 73
10
 74
0
 42
0.0000001
 43
0.0000001
 44
0.0000000001
 40
0.0
 40
0.0
 40
0.0
 40
0.0
 40
0.0258511517
 40
0.0869304149
 40
0.1814087942
 40
0.3059211178
 40
0.4558327394
 40
0.6257241893
 40
1.0
 40
1.0
 40
1.0
 40
1.0
 10
302.096448781
 20
172.9728339214
 30
0.0
 10
302.0930914796
 20
172.9720241556
 30
0.0
 10
302.0862063275
 20
172.96093968
 30
0.0
 10
302.0710810545
 20
172.9434218857
 30
0.0
 10
302.0498519009
 20
172.9118542427
 30
0.0
 10
302.0218113114
 20
172.8716327895
 30
0.0
 10
301.9884160663
 20
172.8224506724
 30
0.0
 10
301.9360984718
 20
172.7459400333
 30
0.0
 10
301.8947647356
 20
172.6861157919
 30
0.0
 10
301.8661028309
 20
172.6451448045
 30
0.0
  0
SPLINE
  5
5B8
100
AcDbEntity
  8
0
100
AcDbSpline
 62
7
  6
CONTINUOUS
 70
0
 71
3
 72
14
 73
10
 74
0
 42
0.0000001
 43
0.0000001
 44
0.0000000001
 40
0.0
 40
0.0
 40
0.0
 40
0.0
 40
0.3742865272
 40
0.5441798204
 40
0.694089719
 40
0.8185998599
 40
0.9130740531
 40
0.9741507225
 40
1.0
 40
1.0
 40
1.0
 40
1.0
 10
301.6643997919
 20
172.3725587918
 30
0.0
 10
301.6335980883
 20
172.3331693888
 30
0.0
 10
301.5884717306
 20
172.2761494445
 30
0.0
 10
301.5305993709
 20
172.2037473175
 30
0.0
 10
301.4933303957
 20
172.1574319476
 30
0.0
 10
301.4630652015
 20
172.1188579432
 30
0.0
 10
301.4390848299
 20
172.0893276352
 30
0.0
 10
301.4267548799
 20
172.069742718
 30
0.0
 10
301.418168587
 20
172.0599179446
 30
0.0
 10
301.4183757691
 20
172.0564708384
 30
0.0
  0
SPLINE
  5
5B9
100
AcDbEntity
  8
0
100
AcDbSpline
 62
7
  6
CONTINUOUS
 70
0
 71
3
 72
18
 73
14
 74
0
 42
0.0000001
 43
0.0000001
 44
0.0000000001
 40
0.0
 40
0.0
 40
0.0
 40
0.0
 40
0.0057917668
 40
0.0204562897
 40
0.0443814859
 40
0.0774196514
 40
0.1193178332
 40
0.1697052292
 40
0.2939042058
 40
0.4452503405
 40
0.6178905369
 40
0.8052379649
 40
1.0
 40
1.0
 40
1.0
 40
1.0
 10
298.0438174255
 20
181.773423178
 30
0.0
 10
298.0456922431
 20
181.7729453874
 30
0.0
 10
298.050267548
 20
181.7810976464
 30
0.0
 10
298.0553388807
 20
181.7927013832
 30
0.0
 10
298.063496923
 20
181.8164749056
 30
0.0
 10
298.0729186013
 20
181.8475891796
 30
0.0
 10
298.0842611503
 20
181.8880946533
 30
0.0
 10
298.1026746344
 20
181.9579358605
 30
0.0
 10
298.1287031621
 20
182.063721818
 30
0.0
 10
298.1626129968
 20
182.2095257482
 30
0.0
 10
298.1997083444
 20
182.3762705626
 30
0.0
 10
298.2385320882
 20
182.5574715116
 30
0.0
 10
298.2644001106
 20
182.6824684372
 30
0.0
 10
298.2773711042
 20
182.7462226432
 30
0.0
  0
SPLINE
  5
5BA
100
AcDbEntity
  8
0
100
AcDbSpline
 62
7
  6
CONTINUOUS
 70
0
 71
3
 72
18
 73
14
 74
0
 42
0.0000001
 43
0.0000001
 44
0.0000000001
 40
0.0
 40
0.0
 40
0.0
 40
0.0
 40
0.0057780236
 40
0.020422109
 40
0.0443547142
 40
0.0774233717
 40
0.119347274
 40
0.1697441115
 40
0.2939358151
 40
0.4452615606
 40
0.6178841483
 40
0.8052317743
 40
1.0
 40
1.0
 40
1.0
 40
1.0
 10
298.0438174075
 20
170.8222831473
 30
0.0
 10
298.0456873424
 20
170.8227615368
 30
0.0
 10
298.050270264
 20
170.8146357053
 30
0.0
 10
298.0553325536
 20
170.8030314152
 30
0.0
 10
298.0634948421
 20
170.7792546962
 30
0.0
 10
298.0729169782
 20
170.7481178486
 30
0.0
 10
298.0842644313
 20
170.7075910128
 30
0.0
 10
298.1026792881
 20
170.6377400605
 30
0.0
 10
298.1287074
 20
170.5319599247
 30
0.0
 10
298.1626152076
 20
170.3861703439
 30
0.0
 10
298.1997095505
 20
170.2194375179
 30
0.0
 10
298.2385327638
 20
170.0382394724
 30
0.0
 10
298.2643997435
 20
169.9132396025
 30
0.0
 10
298.2773712044
 20
169.8494831001
 30
0.0
  0
SPLINE
  5
5BB
100
AcDbEntity
  8
0
100
AcDbSpline
 62
7
  6
CONTINUOUS
 70
0
 71
3
 72
9
 73
5
 74
0
 42
0.0000001
 43
0.0000001
 44
0.0000000001
 40
0.0
 40
0.0
 40
0.0
 40
0.0
 40
0.5
 40
1.0
 40
1.0
 40
1.0
 40
1.0
 10
301.412621022
 20
171.6599281784
 30
0.0
 10
300.9972507862
 20
171.2129112399
 30
0.0
 10
300.0281842361
 20
170.4375036799
 30
0.0
 10
298.8721283157
 20
169.9859712095
 30
0.0
 10
298.2773151732
 20
169.8497585025
 30
0.0
  0
SPLINE
  5
5BC
100
AcDbEntity
  8
0
100
AcDbSpline
 62
7
  6
CONTINUOUS
 70
0
 71
3
 72
9
 73
5
 74
0
 42
0.0000001
 43
0.0000001
 44
0.0000000001
 40
0.0
 40
0.0
 40
0.0
 40
0.0
 40
0.5
 40
1.0
 40
1.0
 40
1.0
 40
1.0
 10
298.2773151797
 20
182.7459477651
 30
0.0
 10
298.8721283259
 20
182.6097350583
 30
0.0
 10
300.0281842536
 20
182.1582025864
 30
0.0
 10
300.9972508089
 20
181.3827950207
 30
0.0
 10
301.4126210464
 20
180.935778079
 30
0.0
  0
SPLINE
  5
5BD
100
AcDbEntity
  8
0
100
AcDbSpline
 62
7
  6
CONTINUOUS
 70
0
 71
3
 72
14
 73
10
 74
0
 42
0.0000001
 43
0.0000001
 44
0.0000000001
 40
0.0
 40
0.0
 40
0.0
 40
0.0
 40
0.0258511517
 40
0.0869304149
 40
0.1814087942
 40
0.3059211178
 40
0.4558327394
 40
0.6257241893
 40
1.0
 40
1.0
 40
1.0
 40
1.0
 10
301.4183757691
 20
180.5392353974
 30
0.0
 10
301.418168572
 20
180.5357880414
 30
0.0
 10
301.4267556851
 20
180.5259629507
 30
0.0
 10
301.4390858332
 20
180.5063768728
 30
0.0
 10
301.4630673165
 20
180.4768458467
 30
0.0
 10
301.4933330086
 20
180.4382708827
 30
0.0
 10
301.5306022763
 20
180.3919553916
 30
0.0
 10
301.5884735801
 20
180.3195542811
 30
0.0
 10
301.6335989717
 20
180.2625357172
 30
0.0
 10
301.6643997919
 20
180.223147444
 30
0.0
  0
SPLINE
  5
5BE
100
AcDbEntity
  8
0
100
AcDbSpline
 62
7
  6
CONTINUOUS
 70
0
 71
3
 72
18
 73
14
 74
0
 42
0.0000001
 43
0.0000001
 44
0.0000000001
 40
0.0
 40
0.0
 40
0.0
 40
0.0
 40
0.0057779355
 40
0.0204214192
 40
0.044353178
 40
0.0774209755
 40
0.1193441834
 40
0.1697405821
 40
0.2939319764
 40
0.4452580437
 40
0.6178814943
 40
0.8052303485
 40
1.0
 40
1.0
 40
1.0
 40
1.0
 10
291.2284056918
 20
177.815533509
 30
0.0
 10
291.2278849137
 20
177.8136749537
 30
0.0
 10
291.2185568507
 20
177.8137686879
 30
0.0
 10
291.2059761525
 20
177.8151866741
 30
0.0
 10
291.1813045663
 20
177.8200059632
 30
0.0
 10
291.1496287114
 20
177.8274143511
 30
0.0
 10
291.1088581593
 20
177.8378503843
 30
0.0
 10
291.0391581074
 20
177.8568280205
 30
0.0
 10
290.9345353587
 20
177.8871771349
 30
0.0
 10
290.791322945
 20
177.930707158
 30
0.0
 10
290.6283793047
 20
177.9819494111
 30
0.0
 10
290.4520435653
 20
178.0389271827
 30
0.0
 10
290.3308555373
 20
178.0790260938
 30
0.0
 10
290.2691543063
 20
178.0996710369
 30
0.0
  0
SPLINE
  5
5BF
100
AcDbEntity
  8
0
100
AcDbSpline
 62
7
  6
CONTINUOUS
 70
0
 71
3
 72
14
 73
10
 74
0
 42
0.0000001
 43
0.0000001
 44
0.0000000001
 40
0.0
 40
0.0
 40
0.0
 40
0.0
 40
0.3742865272
 40
0.5441798204
 40
0.694089719
 40
0.8185998599
 40
0.9130740531
 40
0.9741507225
 40
1.0
 40
1.0
 40
1.0
 40
1.0
 10
301.8661028309
 20
179.9505614313
 30
0.0
 10
301.8947655577
 20
179.9095892687
 30
0.0
 10
301.9361003315
 20
179.8497636999
 30
0.0
 10
301.9884185894
 20
179.7732517539
 30
0.0
 10
302.0218138041
 20
179.724069952
 30
0.0
 10
302.0498536215
 20
179.6838492553
 30
0.0
 10
302.0710824134
 20
179.6522828854
 30
0.0
 10
302.0862066344
 20
179.63476562
 30
0.0
 10
302.0930917228
 20
179.6236820215
 30
0.0
 10
302.096448781
 20
179.6228723144
 30
0.0
  0
SPLINE
  5
5C0
100
AcDbEntity
  8
0
100
AcDbSpline
 62
7
  6
CONTINUOUS
 70
0
 71
3
 72
14
 73
10
 74
0
 42
0.0000001
 43
0.0000001
 44
0.0000000001
 40
0.0
 40
0.0
 40
0.0
 40
0.0
 40
0.3742865272
 40
0.5441798204
 40
0.694089719
 40
0.8185998599
 40
0.9130740531
 40
0.9741507225
 40
1.0
 40
1.0
 40
1.0
 40
1.0
 10
290.8706752583
 20
178.9933578734
 30
0.0
 10
290.8918268285
 20
179.0386666042
 30
0.0
 10
290.9229699039
 20
179.1043763528
 30
0.0
 10
290.963072064
 20
179.1879412663
 30
0.0
 10
290.9889671465
 20
179.2414532715
 30
0.0
 10
291.0097793828
 20
179.285846814
 30
0.0
 10
291.0265022651
 20
179.320014672
 30
0.0
 10
291.0341105514
 20
179.3418712643
 30
0.0
 10
291.0402666851
 20
179.3533757251
 30
0.0
 10
291.0392893829
 20
179.3566878763
 30
0.0
  0
SPLINE
  5
5C1
100
AcDbEntity
  8
0
100
AcDbSpline
 62
7
  6
CONTINUOUS
 70
0
 71
3
 72
14
 73
10
 74
0
 42
0.0000001
 43
0.0000001
 44
0.0000000001
 40
0.0
 40
0.0
 40
0.0
 40
0.0
 40
0.0258511517
 40
0.0869304149
 40
0.1814087942
 40
0.3059211178
 40
0.4558327394
 40
0.6257241893
 40
1.0
 40
1.0
 40
1.0
 40
1.0
 10
296.7983915674
 20
182.6817070729
 30
0.0
 10
296.8007714959
 20
182.6792044474
 30
0.0
 10
296.8138135094
 20
182.6787839686
 30
0.0
 10
296.8365470008
 20
182.674443995
 30
0.0
 10
296.8744999583
 20
182.6718428302
 30
0.0
 10
296.9233530534
 20
182.667669694
 30
0.0
 10
296.9826436387
 20
182.6633396219
 30
0.0
 10
297.0750625931
 20
182.6562865756
 30
0.0
 10
297.1475387741
 20
182.6504026307
 30
0.0
 10
297.1973516423
 20
182.6460661868
 30
0.0
  0
SPLINE
  5
5C2
100
AcDbEntity
  8
0
100
AcDbSpline
 62
7
  6
CONTINUOUS
 70
0
 71
3
 72
14
 73
10
 74
0
 42
0.0000001
 43
0.0000001
 44
0.0000000001
 40
0.0
 40
0.0
 40
0.0
 40
0.0
 40
0.3742865272
 40
0.5441798204
 40
0.694089719
 40
0.8185998599
 40
0.9130740531
 40
0.9741507225
 40
1.0
 40
1.0
 40
1.0
 40
1.0
 10
297.5342695735
 20
182.6076792373
 30
0.0
 10
297.5837826489
 20
182.600698881
 30
0.0
 10
297.6557265481
 20
182.5901282811
 30
0.0
 10
297.7473648091
 20
182.5762104109
 30
0.0
 10
297.8061095836
 20
182.5670922165
 30
0.0
 10
297.8546482485
 20
182.5601687917
 30
0.0
 10
297.8922124312
 20
182.5541663347
 30
0.0
 10
297.9153384421
 20
182.5532807434
 30
0.0
 10
297.9281400919
 20
182.5507571823
 30
0.0
 10
297.9310217824
 20
182.5526601603
 30
0.0
  0
SPLINE
  5
5C3
100
AcDbEntity
  8
0
100
AcDbSpline
 62
7
  6
CONTINUOUS
 70
0
 71
3
 72
18
 73
14
 74
0
 42
0.0000001
 43
0.0000001
 44
0.0000000001
 40
0.0
 40
0.0
 40
0.0
 40
0.0
 40
0.005793269
 40
0.0204631835
 40
0.0443908387
 40
0.0774279479
 40
0.1193245516
 40
0.1697112181
 40
0.2939086994
 40
0.4452525587
 40
0.6178909205
 40
0.8052372857
 40
1.0
 40
1.0
 40
1.0
 40
1.0
 10
291.2284087721
 20
174.7801749047
 30
0.0
 10
291.2278863852
 20
174.7820381816
 30
0.0
 10
291.2185324605
 20
174.7819214406
 30
0.0
 10
291.2059493725
 20
174.7805117753
 30
0.0
 10
291.18127939
 20
174.775689217
 30
0.0
 10
291.149625536
 20
174.768292497
 30
0.0
 10
291.1088788761
 20
174.7578636854
 30
0.0
 10
291.0391936411
 20
174.7388913335
 30
0.0
 10
290.9345740426
 20
174.7085422203
 30
0.0
 10
290.7913600926
 20
174.6650106609
 30
0.0
 10
290.6284191304
 20
174.6137678054
 30
0.0
 10
290.4520944816
 20
174.5567939006
 30
0.0
 10
290.3309176387
 20
174.5167009208
 30
0.0
 10
290.2692231189
 20
174.4960582233
 30
0.0
  0
SPLINE
  5
5C4
100
AcDbEntity
  8
0
100
AcDbSpline
 62
7
  6
CONTINUOUS
 70
0
 71
3
 72
18
 73
14
 74
0
 42
0.0000001
 43
0.0000001
 44
0.0000000001
 40
0.0
 40
0.0
 40
0.0
 40
0.0
 40
0.0057789989
 40
0.0204221755
 40
0.0443541562
 40
0.0774229496
 40
0.1193470719
 40
0.1697439007
 40
0.293935515
 40
0.4452613102
 40
0.6178839387
 40
0.8052316491
 40
1.0
 40
1.0
 40
1.0
 40
1.0
 10
300.6871389078
 20
180.2473007742
 30
0.0
 10
300.6857906909
 20
180.2486824665
 30
0.0
 10
300.6905351956
 20
180.256711312
 30
0.0
 10
300.6980544227
 20
180.2669004336
 30
0.0
 10
300.714563611
 20
180.2858555851
 30
0.0
 10
300.7368180125
 20
180.3095843873
 30
0.0
 10
300.7662415225
 20
180.3396747705
 30
0.0
 10
300.817526796
 20
180.3905480785
 30
0.0
 10
300.8961208928
 20
180.465978985
 30
0.0
 10
301.0054243528
 20
180.5682387146
 30
0.0
 10
301.1312719352
 20
180.6837296733
 30
0.0
 10
301.2687823408
 20
180.8079505064
 30
0.0
 10
301.3641018547
 20
180.8928518538
 30
0.0
 10
301.4128308505
 20
180.935963698
 30
0.0
  0
SPLINE
  5
5C5
100
AcDbEntity
  8
0
100
AcDbSpline
 62
7
  6
CONTINUOUS
 70
0
 71
3
 72
14
 73
10
 74
0
 42
0.0000001
 43
0.0000001
 44
0.0000000001
 40
0.0
 40
0.0
 40
0.0
 40
0.0
 40
0.0258511517
 40
0.0869304149
 40
0.1814087942
 40
0.3059211178
 40
0.4558327394
 40
0.6257241893
 40
1.0
 40
1.0
 40
1.0
 40
1.0
 10
297.9310217824
 20
170.0430460754
 30
0.0
 10
297.9281398831
 20
170.0449491913
 30
0.0
 10
297.9153375484
 20
170.0424250786
 30
0.0
 10
297.8922104333
 20
170.0415398961
 30
0.0
 10
297.8546450728
 20
170.0355368354
 30
0.0
 10
297.806105328
 20
170.0286134592
 30
0.0
 10
297.7473603023
 20
170.0194950721
 30
0.0
 10
297.6557234495
 20
170.0055776081
 30
0.0
 10
297.5837812288
 20
169.9950071545
 30
0.0
 10
297.5342695735
 20
169.9880269984
 30
0.0
  0
SPLINE
  5
5C6
100
AcDbEntity
  8
0
100
AcDbSpline
 62
7
  6
CONTINUOUS
 70
0
 71
3
 72
18
 73
14
 74
0
 42
0.0000001
 43
0.0000001
 44
0.0000000001
 40
0.0
 40
0.0
 40
0.0
 40
0.0
 40
0.1961804525
 40
0.3838937309
 40
0.5561895389
 40
0.7068378531
 40
0.8303214666
 40
0.8804368482
 40
0.9221627787
 40
0.9551433427
 40
0.9791242444
 40
0.993957304
 40
1.0
 40
1.0
 40
1.0
 40
1.0
 10
298.202522903
 20
1044.867128374
 30
0.0
 10
298.18995452
 20
1044.9292915908
 30
0.0
 10
298.1657626558
 20
1045.0510173784
 30
0.0
 10
298.1319338232
 20
1045.2276102528
 30
0.0
 10
298.1021399625
 20
1045.3899933342
 30
0.0
 10
298.0774699858
 20
1045.5321719477
 30
0.0
 10
298.0608620166
 20
1045.6357252844
 30
0.0
 10
298.0510050274
 20
1045.7045581987
 30
0.0
 10
298.0458575155
 20
1045.7447509778
 30
0.0
 10
298.0425678215
 20
1045.7760460137
 30
0.0
 10
298.0408033183
 20
1045.8002183703
 30
0.0
 10
298.0410830852
 20
1045.8128711773
 30
0.0
 10
298.0419244333
 20
1045.8217637461
 30
0.0
 10
298.0438166412
 20
1045.8222491574
 30
0.0
  0
SPLINE
  5
5C7
100
AcDbEntity
  8
0
100
AcDbSpline
 62
7
  6
CONTINUOUS
 70
0
 71
3
 72
18
 73
14
 74
0
 42
0.0000001
 43
0.0000001
 44
0.0000000001
 40
0.0
 40
0.0
 40
0.0
 40
0.0
 40
0.1961839298
 40
0.3838987166
 40
0.5561923213
 40
0.7068370835
 40
0.8303261037
 40
0.880444258
 40
0.922166141
 40
0.9551380607
 40
0.9791168631
 40
0.9939559934
 40
1.0
 40
1.0
 40
1.0
 40
1.0
 10
301.434945141
 20
1046.7333682236
 30
0.0
 10
301.3873935798
 20
1046.7753351015
 30
0.0
 10
301.2940713915
 20
1046.8571505846
 30
0.0
 10
301.1580512225
 20
1046.9747441601
 30
0.0
 10
301.0323208855
 20
1047.0817364871
 30
0.0
 10
300.9215252975
 20
1047.174189933
 30
0.0
 10
300.8401481992
 20
1047.240350529
 30
0.0
 10
300.7854649912
 20
1047.2833042888
 30
0.0
 10
300.7532327944
 20
1047.3078567271
 30
0.0
 10
300.7277795247
 20
1047.3263486652
 30
0.0
 10
300.707726281
 20
1047.339963422
 30
0.0
 10
300.6966327931
 20
1047.3460447905
 30
0.0
 10
300.6885034488
 20
1047.3497701442
 30
0.0
 10
300.6871388809
 20
1047.348371687
 30
0.0
  0
SPLINE
  5
5C8
100
AcDbEntity
  8
0
100
AcDbSpline
 62
7
  6
CONTINUOUS
 70
0
 71
3
 72
18
 73
14
 74
0
 42
0.0000001
 43
0.0000001
 44
0.0000000001
 40
0.0
 40
0.0
 40
0.0
 40
0.0
 40
0.1961804269
 40
0.3838936765
 40
0.5561894655
 40
0.7068377261
 40
0.8303214052
 40
0.8804367776
 40
0.922162465
 40
0.9551428687
 40
0.9791243752
 40
0.9939583257
 40
1.0
 40
1.0
 40
1.0
 40
1.0
 10
301.4349451409
 20
1055.8622704225
 30
0.0
 10
301.3873944076
 20
1055.8203042752
 30
0.0
 10
301.2940727157
 20
1055.7384906135
 30
0.0
 10
301.1580532194
 20
1055.6208975499
 30
0.0
 10
301.0323222761
 20
1055.5139037727
 30
0.0
 10
300.9215269871
 20
1055.4214496409
 30
0.0
 10
300.8401510726
 20
1055.3552900152
 30
0.0
 10
300.7854686684
 20
1055.31233722
 30
0.0
 10
300.7532343132
 20
1055.287782961
 30
0.0
 10
300.7277774145
 20
1055.2692866914
 30
0.0
 10
300.7077239645
 20
1055.2556716146
 30
0.0
 10
300.6966291473
 20
1055.2495882442
 30
0.0
 10
300.6885044112
 20
1055.2458693936
 30
0.0
 10
300.6871394555
 20
1055.2472664196
 30
0.0
  0
SPLINE
  5
5C9
100
AcDbEntity
  8
0
100
AcDbSpline
 62
7
  6
CONTINUOUS
 70
0
 71
3
 72
18
 73
14
 74
0
 42
0.0000001
 43
0.0000001
 44
0.0000000001
 40
0.0
 40
0.0
 40
0.0
 40
0.0
 40
0.196183933
 40
0.3838987393
 40
0.5561923672
 40
0.7068371455
 40
0.8303261736
 40
0.8804443302
 40
0.9221662206
 40
0.9551381436
 40
0.9791169252
 40
0.9939560132
 40
1.0
 40
1.0
 40
1.0
 40
1.0
 10
298.2025228957
 20
1057.7285102699
 30
0.0
 10
298.1899542945
 20
1057.6663459739
 30
0.0
 10
298.1657611089
 20
1057.5446188457
 30
0.0
 10
298.1319321686
 20
1057.3680251329
 30
0.0
 10
298.1021392615
 20
1057.2056432954
 30
0.0
 10
298.0774700223
 20
1057.0634647724
 30
0.0
 10
298.0608618147
 20
1056.9599098383
 30
0.0
 10
298.0510043715
 20
1056.8910759094
 30
0.0
 10
298.0458574354
 20
1056.8508857881
 30
0.0
 10
298.0425695793
 20
1056.8195966444
 30
0.0
 10
298.0408054858
 20
1056.7954226735
 30
0.0
 10
298.0410856032
 20
1056.7827747608
 30
0.0
 10
298.0419240484
 20
1056.7738719048
 30
0.0
 10
298.0438174255
 20
1056.7733893844
 30
0.0
  0
SPLINE
  5
5CA
100
AcDbEntity
  8
0
100
AcDbSpline
 62
7
  6
CONTINUOUS
 70
0
 71
3
 72
18
 73
14
 74
0
 42
0.0000001
 43
0.0000001
 44
0.0000000001
 40
0.0
 40
0.0
 40
0.0
 40
0.0
 40
0.1948131937
 40
0.3819626402
 40
0.5542778745
 40
0.7053109958
 40
0.8293376439
 40
0.8797269162
 40
0.9217020588
 40
0.9548914324
 40
0.9790276077
 40
0.9939501934
 40
1.0
 40
1.0
 40
1.0
 40
1.0
 10
290.296686571
 20
1053.1640721589
 30
0.0
 10
290.3580420272
 20
1053.1435230286
 30
0.0
 10
290.4782043076
 20
1053.1028271032
 30
0.0
 10
290.6521573707
 20
1053.0425608473
 30
0.0
 10
290.8119414043
 20
1052.9858018249
 30
0.0
 10
290.951458803
 20
1052.9347272756
 30
0.0
 10
291.0525403735
 20
1052.896266579
 30
0.0
 10
291.1192073454
 20
1052.8696254088
 30
0.0
 10
291.1578658045
 20
1052.8535200116
 30
0.0
 10
291.1875961858
 20
1052.8403377014
 30
0.0
 10
291.2102021594
 20
1052.8294801227
 30
0.0
 10
291.2213550822
 20
1052.8227213049
 30
0.0
 10
291.2289475841
 20
1052.8174348539
 30
0.0
 10
291.2284057455
 20
1052.8154999071
 30
0.0
  0
SPLINE
  5
5CB
100
AcDbEntity
  8
0
100
AcDbSpline
 62
7
  6
CONTINUOUS
 70
0
 71
3
 72
18
 73
14
 74
0
 42
0.0000001
 43
0.0000001
 44
0.0000000001
 40
0.0
 40
0.0
 40
0.0
 40
0.0
 40
0.1948172442
 40
0.3819694145
 40
0.5542831195
 40
0.705311792
 40
0.8293422499
 40
0.8797333494
 40
0.9217032658
 40
0.9548828624
 40
0.9790165761
 40
0.9939462702
 40
1.0
 40
1.0
 40
1.0
 40
1.0
 10
290.2966865679
 20
1049.4315664913
 30
0.0
 10
290.3580434713
 20
1049.4521161062
 30
0.0
 10
290.4782085881
 20
1049.4928117759
 30
0.0
 10
290.6521637822
 20
1049.5530787791
 30
0.0
 10
290.811946993
 20
1049.6098383375
 30
0.0
 10
290.9514637708
 20
1049.6609136085
 30
0.0
 10
291.0525460178
 20
1049.6993746847
 30
0.0
 10
291.1192132292
 20
1049.7260158505
 30
0.0
 10
291.157867889
 20
1049.7421198659
 30
0.0
 10
291.1875918743
 20
1049.7553013317
 30
0.0
 10
291.2101977141
 20
1049.7661584981
 30
0.0
 10
291.2213492198
 20
1049.7729186949
 30
0.0
 10
291.2289515589
 20
1049.7782050708
 30
0.0
 10
291.2284087721
 20
1049.7801411111
 30
0.0
  0
SPLINE
  5
5CC
100
AcDbEntity
  8
0
100
AcDbSpline
 62
7
  6
CONTINUOUS
 70
0
 71
3
 72
14
 73
10
 74
0
 42
0.0000001
 43
0.0000001
 44
0.0000000001
 40
0.0
 40
0.0
 40
0.0
 40
0.0
 40
0.3742865272
 40
0.5441798204
 40
0.694089719
 40
0.8185998599
 40
0.9130740531
 40
0.9741507225
 40
1.0
 40
1.0
 40
1.0
 40
1.0
 10
297.1973516423
 20
1044.9496062554
 30
0.0
 10
297.1475373453
 20
1044.9452696871
 30
0.0
 10
297.075059496
 20
1044.9393855073
 30
0.0
 10
296.982639078
 20
1044.9323325399
 30
0.0
 10
296.9233487809
 20
1044.9280023366
 30
0.0
 10
296.8744967271
 20
1044.9238294907
 30
0.0
 10
296.8365450529
 20
1044.9212280026
 30
0.0
 10
296.8138125456
 20
1044.9168886757
 30
0.0
 10
296.8007713235
 20
1044.9164678135
 30
0.0
 10
296.7983915674
 20
1044.9139653693
 30
0.0
  0
SPLINE
  5
5CD
100
AcDbEntity
  8
0
100
AcDbSpline
 62
7
  6
CONTINUOUS
 70
0
 71
3
 72
18
 73
14
 74
0
 42
0.0000001
 43
0.0000001
 44
0.0000000001
 40
0.0
 40
0.0
 40
0.0
 40
0.0
 40
0.0057917787
 40
0.0204563263
 40
0.0443815319
 40
0.0774196916
 40
0.1193178674
 40
0.1697052641
 40
0.2939042462
 40
0.4452503833
 40
0.6178905772
 40
0.8052379927
 40
1.0
 40
1.0
 40
1.0
 40
1.0
 10
300.6871388809
 20
1047.348371687
 30
0.0
 10
300.6857876898
 20
1047.3469869388
 30
0.0
 10
300.690560132
 20
1047.3389484638
 30
0.0
 10
300.6980736003
 20
1047.3287546782
 30
0.0
 10
300.7145830768
 20
1047.309802827
 30
0.0
 10
300.7368179998
 20
1047.2860862627
 30
0.0
 10
300.7662255111
 20
1047.2560105748
 30
0.0
 10
300.817503061
 20
1047.2051433958
 30
0.0
 10
300.8961021756
 20
1047.1297090037
 30
0.0
 10
301.005417236
 20
1047.027440198
 30
0.0
 10
301.1312748834
 20
1046.9119422109
 30
0.0
 10
301.2687877126
 20
1046.7877193233
 30
0.0
 10
301.3641042656
 20
1046.7028184555
 30
0.0
 10
301.4128315537
 20
1046.659708122
 30
0.0
  0
SPLINE
  5
5CE
100
AcDbEntity
  8
0
100
AcDbSpline
 62
7
  6
CONTINUOUS
 70
0
 71
3
 72
14
 73
10
 74
0
 42
0.0000001
 43
0.0000001
 44
0.0000000001
 40
0.0
 40
0.0
 40
0.0
 40
0.0
 40
0.0258511517
 40
0.0869304149
 40
0.1814087942
 40
0.3059211178
 40
0.4558327394
 40
0.6257241893
 40
1.0
 40
1.0
 40
1.0
 40
1.0
 10
291.0392893829
 20
1048.2389845658
 30
0.0
 10
291.0402667559
 20
1048.2422969571
 30
0.0
 10
291.0341098945
 20
1048.2538019115
 30
0.0
 10
291.0265016762
 20
1048.2756596793
 30
0.0
 10
291.0097778722
 20
1048.3098284871
 30
0.0
 10
290.9889653667
 20
1048.3542230766
 30
0.0
 10
290.9630700264
 20
1048.4077352657
 30
0.0
 10
290.9229686665
 20
1048.4912989512
 30
0.0
 10
290.8918262218
 20
1048.5570071375
 30
0.0
 10
290.8706752583
 20
1048.6023145688
 30
0.0
  0
SPLINE
  5
5CF
100
AcDbEntity
  8
0
100
AcDbSpline
 62
7
  6
CONTINUOUS
 70
0
 71
3
 72
14
 73
10
 74
0
 42
0.0000001
 43
0.0000001
 44
0.0000000001
 40
0.0
 40
0.0
 40
0.0
 40
0.0
 40
0.3742865272
 40
0.5441798204
 40
0.694089719
 40
0.8185998599
 40
0.9130740531
 40
0.9741507225
 40
1.0
 40
1.0
 40
1.0
 40
1.0
 10
290.735460366
 20
1048.9132875309
 30
0.0
 10
290.7167489942
 20
1048.9596572902
 30
0.0
 10
290.6899314527
 20
1049.0272478345
 30
0.0
 10
290.6561655514
 20
1049.1135678316
 30
0.0
 10
290.634689752
 20
1049.1690013959
 30
0.0
 10
290.6164162814
 20
1049.2144988252
 30
0.0
 10
290.6028324703
 20
1049.2500315901
 30
0.0
 10
290.5920364094
 20
1049.2705020986
 30
0.0
 10
290.5878210526
 20
1049.2828504332
 30
0.0
 10
290.58473218
 20
1049.2843945613
 30
0.0
  0
SPLINE
  5
5D0
100
AcDbEntity
  8
0
100
AcDbSpline
 62
7
  6
CONTINUOUS
 70
0
 71
3
 72
14
 73
10
 74
0
 42
0.0000001
 43
0.0000001
 44
0.0000000001
 40
0.0
 40
0.0
 40
0.0
 40
0.0
 40
0.0258511516
 40
0.0869304145
 40
0.1814087936
 40
0.3059211173
 40
0.4558327377
 40
0.6257241855
 40
1.0
 40
1.0
 40
1.0
 40
1.0
 10
290.58473218
 20
1053.3112440873
 30
0.0
 10
290.5878212764
 20
1053.3127883273
 30
0.0
 10
290.592036498
 20
1053.3251375307
 30
0.0
 10
290.6028334649
 20
1053.3456087911
 30
0.0
 10
290.616417342
 20
1053.3811428778
 30
0.0
 10
290.6346913947
 20
1053.4266412178
 30
0.0
 10
290.6561671526
 20
1053.4820750956
 30
0.0
 10
290.6899327016
 20
1053.5683936701
 30
0.0
 10
290.7167495307
 20
1053.6359826878
 30
0.0
 10
290.7354603649
 20
1053.682351118
 30
0.0
  0
SPLINE
  5
5D1
100
AcDbEntity
  8
0
100
AcDbSpline
 62
7
  6
CONTINUOUS
 70
0
 71
3
 72
14
 73
10
 74
0
 42
0.0000001
 43
0.0000001
 44
0.0000000001
 40
0.0
 40
0.0
 40
0.0
 40
0.0
 40
0.0258511517
 40
0.0869304149
 40
0.1814087942
 40
0.3059211178
 40
0.4558327394
 40
0.6257241893
 40
1.0
 40
1.0
 40
1.0
 40
1.0
 10
302.096448781
 20
1047.9728001278
 30
0.0
 10
302.0930914796
 20
1047.971990362
 30
0.0
 10
302.0862063275
 20
1047.9609058864
 30
0.0
 10
302.0710810544
 20
1047.9433880921
 30
0.0
 10
302.0498519009
 20
1047.9118204491
 30
0.0
 10
302.0218113114
 20
1047.8715989959
 30
0.0
 10
301.9884160663
 20
1047.8224168788
 30
0.0
 10
301.9360984718
 20
1047.7459062397
 30
0.0
 10
301.8947647356
 20
1047.6860819983
 30
0.0
 10
301.8661028309
 20
1047.6451110109
 30
0.0
  0
SPLINE
  5
5D2
100
AcDbEntity
  8
0
100
AcDbSpline
 62
7
  6
CONTINUOUS
 70
0
 71
3
 72
14
 73
10
 74
0
 42
0.0000001
 43
0.0000001
 44
0.0000000001
 40
0.0
 40
0.0
 40
0.0
 40
0.0
 40
0.3742865272
 40
0.5441798204
 40
0.694089719
 40
0.8185998599
 40
0.9130740531
 40
0.9741507225
 40
1.0
 40
1.0
 40
1.0
 40
1.0
 10
301.6643997919
 20
1047.3725249982
 30
0.0
 10
301.6335980883
 20
1047.3331355952
 30
0.0
 10
301.5884717306
 20
1047.2761156509
 30
0.0
 10
301.5305993709
 20
1047.2037135239
 30
0.0
 10
301.4933303957
 20
1047.157398154
 30
0.0
 10
301.4630652015
 20
1047.1188241496
 30
0.0
 10
301.4390848299
 20
1047.0892938416
 30
0.0
 10
301.4267548799
 20
1047.0697089244
 30
0.0
 10
301.418168587
 20
1047.059884151
 30
0.0
 10
301.4183757691
 20
1047.0564370448
 30
0.0
  0
SPLINE
  5
5D3
100
AcDbEntity
  8
0
100
AcDbSpline
 62
7
  6
CONTINUOUS
 70
0
 71
3
 72
18
 73
14
 74
0
 42
0.0000001
 43
0.0000001
 44
0.0000000001
 40
0.0
 40
0.0
 40
0.0
 40
0.0
 40
0.0057917668
 40
0.0204562897
 40
0.0443814859
 40
0.0774196514
 40
0.1193178332
 40
0.1697052292
 40
0.2939042058
 40
0.4452503405
 40
0.6178905369
 40
0.8052379649
 40
1.0
 40
1.0
 40
1.0
 40
1.0
 10
298.0438174255
 20
1056.7733893844
 30
0.0
 10
298.0456922431
 20
1056.7729115938
 30
0.0
 10
298.050267548
 20
1056.7810638528
 30
0.0
 10
298.0553388807
 20
1056.7926675896
 30
0.0
 10
298.063496923
 20
1056.816441112
 30
0.0
 10
298.0729186013
 20
1056.847555386
 30
0.0
 10
298.0842611503
 20
1056.8880608597
 30
0.0
 10
298.1026746344
 20
1056.9579020669
 30
0.0
 10
298.1287031621
 20
1057.0636880244
 30
0.0
 10
298.1626129968
 20
1057.2094919546
 30
0.0
 10
298.1997083444
 20
1057.376236769
 30
0.0
 10
298.2385320882
 20
1057.557437718
 30
0.0
 10
298.2644001106
 20
1057.6824346436
 30
0.0
 10
298.2773711042
 20
1057.7461888496
 30
0.0
  0
SPLINE
  5
5D4
100
AcDbEntity
  8
0
100
AcDbSpline
 62
7
  6
CONTINUOUS
 70
0
 71
3
 72
18
 73
14
 74
0
 42
0.0000001
 43
0.0000001
 44
0.0000000001
 40
0.0
 40
0.0
 40
0.0
 40
0.0
 40
0.0057780236
 40
0.020422109
 40
0.0443547142
 40
0.0774233717
 40
0.119347274
 40
0.1697441115
 40
0.2939358151
 40
0.4452615606
 40
0.6178841483
 40
0.8052317743
 40
1.0
 40
1.0
 40
1.0
 40
1.0
 10
298.0438174075
 20
1045.8222493537
 30
0.0
 10
298.0456873424
 20
1045.8227277432
 30
0.0
 10
298.050270264
 20
1045.8146019117
 30
0.0
 10
298.0553325536
 20
1045.8029976216
 30
0.0
 10
298.0634948421
 20
1045.7792209026
 30
0.0
 10
298.0729169782
 20
1045.748084055
 30
0.0
 10
298.0842644313
 20
1045.7075572192
 30
0.0
 10
298.1026792881
 20
1045.6377062669
 30
0.0
 10
298.1287074
 20
1045.5319261311
 30
0.0
 10
298.1626152076
 20
1045.3861365503
 30
0.0
 10
298.1997095505
 20
1045.2194037243
 30
0.0
 10
298.2385327638
 20
1045.0382056788
 30
0.0
 10
298.2643997435
 20
1044.9132058089
 30
0.0
 10
298.2773712044
 20
1044.8494493065
 30
0.0
  0
SPLINE
  5
5D5
100
AcDbEntity
  8
0
100
AcDbSpline
 62
7
  6
CONTINUOUS
 70
0
 71
3
 72
9
 73
5
 74
0
 42
0.0000001
 43
0.0000001
 44
0.0000000001
 40
0.0
 40
0.0
 40
0.0
 40
0.0
 40
0.5
 40
1.0
 40
1.0
 40
1.0
 40
1.0
 10
301.412621022
 20
1046.6598943848
 30
0.0
 10
300.9972507862
 20
1046.2128774463
 30
0.0
 10
300.0281842361
 20
1045.4374698863
 30
0.0
 10
298.8721283157
 20
1044.9859374159
 30
0.0
 10
298.2773151732
 20
1044.8497247089
 30
0.0
  0
SPLINE
  5
5D6
100
AcDbEntity
  8
0
100
AcDbSpline
 62
7
  6
CONTINUOUS
 70
0
 71
3
 72
9
 73
5
 74
0
 42
0.0000001
 43
0.0000001
 44
0.0000000001
 40
0.0
 40
0.0
 40
0.0
 40
0.0
 40
0.5
 40
1.0
 40
1.0
 40
1.0
 40
1.0
 10
298.2773151797
 20
1057.7459139715
 30
0.0
 10
298.8721283259
 20
1057.6097012647
 30
0.0
 10
300.0281842536
 20
1057.1581687928
 30
0.0
 10
300.9972508089
 20
1056.3827612271
 30
0.0
 10
301.4126210464
 20
1055.9357442854
 30
0.0
  0
SPLINE
  5
5D7
100
AcDbEntity
  8
0
100
AcDbSpline
 62
7
  6
CONTINUOUS
 70
0
 71
3
 72
14
 73
10
 74
0
 42
0.0000001
 43
0.0000001
 44
0.0000000001
 40
0.0
 40
0.0
 40
0.0
 40
0.0
 40
0.0258511517
 40
0.0869304149
 40
0.1814087942
 40
0.3059211178
 40
0.4558327394
 40
0.6257241893
 40
1.0
 40
1.0
 40
1.0
 40
1.0
 10
301.4183757691
 20
1055.5392016038
 30
0.0
 10
301.418168572
 20
1055.5357542478
 30
0.0
 10
301.4267556851
 20
1055.5259291571
 30
0.0
 10
301.4390858332
 20
1055.5063430792
 30
0.0
 10
301.4630673165
 20
1055.4768120531
 30
0.0
 10
301.4933330086
 20
1055.4382370891
 30
0.0
 10
301.5306022763
 20
1055.391921598
 30
0.0
 10
301.5884735801
 20
1055.3195204875
 30
0.0
 10
301.6335989717
 20
1055.2625019236
 30
0.0
 10
301.6643997919
 20
1055.2231136504
 30
0.0
  0
SPLINE
  5
5D8
100
AcDbEntity
  8
0
100
AcDbSpline
 62
7
  6
CONTINUOUS
 70
0
 71
3
 72
18
 73
14
 74
0
 42
0.0000001
 43
0.0000001
 44
0.0000000001
 40
0.0
 40
0.0
 40
0.0
 40
0.0
 40
0.0057779355
 40
0.0204214192
 40
0.044353178
 40
0.0774209755
 40
0.1193441834
 40
0.1697405821
 40
0.2939319764
 40
0.4452580437
 40
0.6178814943
 40
0.8052303485
 40
1.0
 40
1.0
 40
1.0
 40
1.0
 10
291.2284056918
 20
1052.8154997154
 30
0.0
 10
291.2278849137
 20
1052.8136411601
 30
0.0
 10
291.2185568507
 20
1052.8137348943
 30
0.0
 10
291.2059761525
 20
1052.8151528805
 30
0.0
 10
291.1813045663
 20
1052.8199721696
 30
0.0
 10
291.1496287114
 20
1052.8273805575
 30
0.0
 10
291.1088581593
 20
1052.8378165907
 30
0.0
 10
291.0391581074
 20
1052.8567942269
 30
0.0
 10
290.9345353587
 20
1052.8871433413
 30
0.0
 10
290.791322945
 20
1052.9306733644
 30
0.0
 10
290.6283793047
 20
1052.9819156175
 30
0.0
 10
290.4520435653
 20
1053.0388933891
 30
0.0
 10
290.3308555373
 20
1053.0789923002
 30
0.0
 10
290.2691543063
 20
1053.0996372433
 30
0.0
  0
SPLINE
  5
5D9
100
AcDbEntity
  8
0
100
AcDbSpline
 62
7
  6
CONTINUOUS
 70
0
 71
3
 72
14
 73
10
 74
0
 42
0.0000001
 43
0.0000001
 44
0.0000000001
 40
0.0
 40
0.0
 40
0.0
 40
0.0
 40
0.3742865272
 40
0.5441798204
 40
0.694089719
 40
0.8185998599
 40
0.9130740531
 40
0.9741507225
 40
1.0
 40
1.0
 40
1.0
 40
1.0
 10
301.8661028309
 20
1054.9505276377
 30
0.0
 10
301.8947655577
 20
1054.9095554751
 30
0.0
 10
301.9361003315
 20
1054.8497299063
 30
0.0
 10
301.9884185894
 20
1054.7732179603
 30
0.0
 10
302.0218138041
 20
1054.7240361584
 30
0.0
 10
302.0498536215
 20
1054.6838154617
 30
0.0
 10
302.0710824134
 20
1054.6522490918
 30
0.0
 10
302.0862066344
 20
1054.6347318264
 30
0.0
 10
302.0930917228
 20
1054.6236482279
 30
0.0
 10
302.096448781
 20
1054.6228385208
 30
0.0
  0
SPLINE
  5
5DA
100
AcDbEntity
  8
0
100
AcDbSpline
 62
7
  6
CONTINUOUS
 70
0
 71
3
 72
14
 73
10
 74
0
 42
0.0000001
 43
0.0000001
 44
0.0000000001
 40
0.0
 40
0.0
 40
0.0
 40
0.0
 40
0.3742865272
 40
0.5441798204
 40
0.694089719
 40
0.8185998599
 40
0.9130740531
 40
0.9741507225
 40
1.0
 40
1.0
 40
1.0
 40
1.0
 10
290.8706752583
 20
1053.9933240798
 30
0.0
 10
290.8918268285
 20
1054.0386328106
 30
0.0
 10
290.9229699039
 20
1054.1043425592
 30
0.0
 10
290.963072064
 20
1054.1879074727
 30
0.0
 10
290.9889671465
 20
1054.2414194779
 30
0.0
 10
291.0097793828
 20
1054.2858130204
 30
0.0
 10
291.0265022651
 20
1054.3199808784
 30
0.0
 10
291.0341105514
 20
1054.3418374707
 30
0.0
 10
291.0402666851
 20
1054.3533419315
 30
0.0
 10
291.0392893829
 20
1054.3566540827
 30
0.0
  0
SPLINE
  5
5DB
100
AcDbEntity
  8
0
100
AcDbSpline
 62
7
  6
CONTINUOUS
 70
0
 71
3
 72
14
 73
10
 74
0
 42
0.0000001
 43
0.0000001
 44
0.0000000001
 40
0.0
 40
0.0
 40
0.0
 40
0.0
 40
0.0258511517
 40
0.0869304149
 40
0.1814087942
 40
0.3059211178
 40
0.4558327394
 40
0.6257241893
 40
1.0
 40
1.0
 40
1.0
 40
1.0
 10
296.7983915674
 20
1057.6816732793
 30
0.0
 10
296.8007714959
 20
1057.6791706538
 30
0.0
 10
296.8138135094
 20
1057.678750175
 30
0.0
 10
296.8365470008
 20
1057.6744102014
 30
0.0
 10
296.8744999583
 20
1057.6718090366
 30
0.0
 10
296.9233530534
 20
1057.6676359004
 30
0.0
 10
296.9826436387
 20
1057.6633058283
 30
0.0
 10
297.0750625931
 20
1057.656252782
 30
0.0
 10
297.1475387741
 20
1057.6503688371
 30
0.0
 10
297.1973516423
 20
1057.6460323932
 30
0.0
  0
SPLINE
  5
5DC
100
AcDbEntity
  8
0
100
AcDbSpline
 62
7
  6
CONTINUOUS
 70
0
 71
3
 72
14
 73
10
 74
0
 42
0.0000001
 43
0.0000001
 44
0.0000000001
 40
0.0
 40
0.0
 40
0.0
 40
0.0
 40
0.3742865272
 40
0.5441798204
 40
0.694089719
 40
0.8185998599
 40
0.9130740531
 40
0.9741507225
 40
1.0
 40
1.0
 40
1.0
 40
1.0
 10
297.5342695735
 20
1057.6076454437
 30
0.0
 10
297.5837826489
 20
1057.6006650874
 30
0.0
 10
297.6557265481
 20
1057.5900944875
 30
0.0
 10
297.7473648091
 20
1057.5761766173
 30
0.0
 10
297.8061095836
 20
1057.5670584229
 30
0.0
 10
297.8546482485
 20
1057.5601349981
 30
0.0
 10
297.8922124312
 20
1057.5541325411
 30
0.0
 10
297.9153384421
 20
1057.5532469498
 30
0.0
 10
297.9281400919
 20
1057.5507233887
 30
0.0
 10
297.9310217824
 20
1057.5526263667
 30
0.0
  0
SPLINE
  5
5DD
100
AcDbEntity
  8
0
100
AcDbSpline
 62
7
  6
CONTINUOUS
 70
0
 71
3
 72
18
 73
14
 74
0
 42
0.0000001
 43
0.0000001
 44
0.0000000001
 40
0.0
 40
0.0
 40
0.0
 40
0.0
 40
0.005793269
 40
0.0204631835
 40
0.0443908387
 40
0.0774279479
 40
0.1193245516
 40
0.1697112181
 40
0.2939086994
 40
0.4452525587
 40
0.6178909205
 40
0.8052372857
 40
1.0
 40
1.0
 40
1.0
 40
1.0
 10
291.2284087721
 20
1049.7801411111
 30
0.0
 10
291.2278863852
 20
1049.782004388
 30
0.0
 10
291.2185324605
 20
1049.781887647
 30
0.0
 10
291.2059493725
 20
1049.7804779817
 30
0.0
 10
291.18127939
 20
1049.7756554234
 30
0.0
 10
291.149625536
 20
1049.7682587034
 30
0.0
 10
291.1088788761
 20
1049.7578298918
 30
0.0
 10
291.0391936411
 20
1049.7388575399
 30
0.0
 10
290.9345740426
 20
1049.7085084267
 30
0.0
 10
290.7913600926
 20
1049.6649768673
 30
0.0
 10
290.6284191304
 20
1049.6137340118
 30
0.0
 10
290.4520944816
 20
1049.556760107
 30
0.0
 10
290.3309176387
 20
1049.5166671272
 30
0.0
 10
290.2692231189
 20
1049.4960244297
 30
0.0
  0
SPLINE
  5
5DE
100
AcDbEntity
  8
0
100
AcDbSpline
 62
7
  6
CONTINUOUS
 70
0
 71
3
 72
18
 73
14
 74
0
 42
0.0000001
 43
0.0000001
 44
0.0000000001
 40
0.0
 40
0.0
 40
0.0
 40
0.0
 40
0.0057789989
 40
0.0204221755
 40
0.0443541562
 40
0.0774229496
 40
0.1193470719
 40
0.1697439007
 40
0.293935515
 40
0.4452613102
 40
0.6178839387
 40
0.8052316491
 40
1.0
 40
1.0
 40
1.0
 40
1.0
 10
300.6871389078
 20
1055.2472669806
 30
0.0
 10
300.6857906909
 20
1055.2486486729
 30
0.0
 10
300.6905351956
 20
1055.2566775184
 30
0.0
 10
300.6980544227
 20
1055.26686664
 30
0.0
 10
300.714563611
 20
1055.2858217915
 30
0.0
 10
300.7368180125
 20
1055.3095505937
 30
0.0
 10
300.7662415225
 20
1055.3396409769
 30
0.0
 10
300.817526796
 20
1055.3905142849
 30
0.0
 10
300.8961208928
 20
1055.4659451914
 30
0.0
 10
301.0054243528
 20
1055.568204921
 30
0.0
 10
301.1312719352
 20
1055.6836958797
 30
0.0
 10
301.2687823408
 20
1055.8079167128
 30
0.0
 10
301.3641018547
 20
1055.8928180602
 30
0.0
 10
301.4128308505
 20
1055.9359299044
 30
0.0
  0
SPLINE
  5
5DF
100
AcDbEntity
  8
0
100
AcDbSpline
 62
7
  6
CONTINUOUS
 70
0
 71
3
 72
14
 73
10
 74
0
 42
0.0000001
 43
0.0000001
 44
0.0000000001
 40
0.0
 40
0.0
 40
0.0
 40
0.0
 40
0.0258511517
 40
0.0869304149
 40
0.1814087942
 40
0.3059211178
 40
0.4558327394
 40
0.6257241893
 40
1.0
 40
1.0
 40
1.0
 40
1.0
 10
297.9310217824
 20
1045.0430122818
 30
0.0
 10
297.9281398831
 20
1045.0449153977
 30
0.0
 10
297.9153375484
 20
1045.042391285
 30
0.0
 10
297.8922104333
 20
1045.0415061025
 30
0.0
 10
297.8546450728
 20
1045.0355030418
 30
0.0
 10
297.806105328
 20
1045.0285796656
 30
0.0
 10
297.7473603023
 20
1045.0194612785
 30
0.0
 10
297.6557234495
 20
1045.0055438145
 30
0.0
 10
297.5837812288
 20
1044.9949733609
 30
0.0
 10
297.5342695735
 20
1044.9879932048
 30
0.0
  0
SPLINE
  5
5E0
100
AcDbEntity
  8
0
100
AcDbSpline
 62
7
  6
CONTINUOUS
 70
0
 71
3
 72
18
 73
14
 74
0
 42
0.0000001
 43
0.0000001
 44
0.0000000001
 40
0.0
 40
0.0
 40
0.0
 40
0.0
 40
0.1961804525
 40
0.3838937309
 40
0.5561895389
 40
0.7068378531
 40
0.8303214666
 40
0.8804368482
 40
0.9221627787
 40
0.9551433427
 40
0.9791242444
 40
0.993957304
 40
1.0
 40
1.0
 40
1.0
 40
1.0
 10
298.202522903
 20
519.8671621676
 30
0.0
 10
298.18995452
 20
519.9293253844
 30
0.0
 10
298.1657626558
 20
520.051051172
 30
0.0
 10
298.1319338232
 20
520.2276440464
 30
0.0
 10
298.1021399625
 20
520.3900271278
 30
0.0
 10
298.0774699858
 20
520.5322057413
 30
0.0
 10
298.0608620166
 20
520.635759078
 30
0.0
 10
298.0510050274
 20
520.7045919923
 30
0.0
 10
298.0458575155
 20
520.7447847714
 30
0.0
 10
298.0425678215
 20
520.7760798073
 30
0.0
 10
298.0408033183
 20
520.8002521639
 30
0.0
 10
298.0410830852
 20
520.8129049709
 30
0.0
 10
298.0419244333
 20
520.8217975397
 30
0.0
 10
298.0438166412
 20
520.822282951
 30
0.0
  0
SPLINE
  5
5E1
100
AcDbEntity
  8
0
100
AcDbSpline
 62
7
  6
CONTINUOUS
 70
0
 71
3
 72
18
 73
14
 74
0
 42
0.0000001
 43
0.0000001
 44
0.0000000001
 40
0.0
 40
0.0
 40
0.0
 40
0.0
 40
0.1961839298
 40
0.3838987166
 40
0.5561923213
 40
0.7068370835
 40
0.8303261037
 40
0.880444258
 40
0.922166141
 40
0.9551380607
 40
0.9791168631
 40
0.9939559934
 40
1.0
 40
1.0
 40
1.0
 40
1.0
 10
301.434945141
 20
521.7334020172
 30
0.0
 10
301.3873935798
 20
521.7753688951
 30
0.0
 10
301.2940713915
 20
521.8571843782
 30
0.0
 10
301.1580512225
 20
521.9747779537
 30
0.0
 10
301.0323208855
 20
522.0817702807
 30
0.0
 10
300.9215252975
 20
522.1742237266
 30
0.0
 10
300.8401481992
 20
522.2403843226
 30
0.0
 10
300.7854649912
 20
522.2833380824
 30
0.0
 10
300.7532327944
 20
522.3078905207
 30
0.0
 10
300.7277795247
 20
522.3263824588
 30
0.0
 10
300.707726281
 20
522.3399972156
 30
0.0
 10
300.6966327931
 20
522.3460785841
 30
0.0
 10
300.6885034488
 20
522.3498039378
 30
0.0
 10
300.6871388809
 20
522.3484054806
 30
0.0
  0
SPLINE
  5
5E2
100
AcDbEntity
  8
0
100
AcDbSpline
 62
7
  6
CONTINUOUS
 70
0
 71
3
 72
18
 73
14
 74
0
 42
0.0000001
 43
0.0000001
 44
0.0000000001
 40
0.0
 40
0.0
 40
0.0
 40
0.0
 40
0.1961804269
 40
0.3838936765
 40
0.5561894655
 40
0.7068377261
 40
0.8303214052
 40
0.8804367776
 40
0.922162465
 40
0.9551428687
 40
0.9791243752
 40
0.9939583257
 40
1.0
 40
1.0
 40
1.0
 40
1.0
 10
301.4349451409
 20
530.8623042161
 30
0.0
 10
301.3873944076
 20
530.8203380688
 30
0.0
 10
301.2940727157
 20
530.7385244071
 30
0.0
 10
301.1580532194
 20
530.6209313435
 30
0.0
 10
301.0323222761
 20
530.5139375663
 30
0.0
 10
300.9215269871
 20
530.4214834345
 30
0.0
 10
300.8401510726
 20
530.3553238088
 30
0.0
 10
300.7854686684
 20
530.3123710136
 30
0.0
 10
300.7532343132
 20
530.2878167546
 30
0.0
 10
300.7277774145
 20
530.269320485
 30
0.0
 10
300.7077239645
 20
530.2557054082
 30
0.0
 10
300.6966291473
 20
530.2496220378
 30
0.0
 10
300.6885044112
 20
530.2459031872
 30
0.0
 10
300.6871394555
 20
530.2473002132
 30
0.0
  0
SPLINE
  5
5E3
100
AcDbEntity
  8
0
100
AcDbSpline
 62
7
  6
CONTINUOUS
 70
0
 71
3
 72
18
 73
14
 74
0
 42
0.0000001
 43
0.0000001
 44
0.0000000001
 40
0.0
 40
0.0
 40
0.0
 40
0.0
 40
0.196183933
 40
0.3838987393
 40
0.5561923672
 40
0.7068371455
 40
0.8303261736
 40
0.8804443302
 40
0.9221662206
 40
0.9551381436
 40
0.9791169252
 40
0.9939560132
 40
1.0
 40
1.0
 40
1.0
 40
1.0
 10
298.2025228957
 20
532.7285440635
 30
0.0
 10
298.1899542945
 20
532.6663797675
 30
0.0
 10
298.1657611089
 20
532.5446526393
 30
0.0
 10
298.1319321686
 20
532.3680589265
 30
0.0
 10
298.1021392615
 20
532.205677089
 30
0.0
 10
298.0774700223
 20
532.063498566
 30
0.0
 10
298.0608618147
 20
531.9599436319
 30
0.0
 10
298.0510043715
 20
531.891109703
 30
0.0
 10
298.0458574354
 20
531.8509195817
 30
0.0
 10
298.0425695793
 20
531.819630438
 30
0.0
 10
298.0408054858
 20
531.7954564671
 30
0.0
 10
298.0410856032
 20
531.7828085544
 30
0.0
 10
298.0419240484
 20
531.7739056984
 30
0.0
 10
298.0438174255
 20
531.773423178
 30
0.0
  0
SPLINE
  5
5E4
100
AcDbEntity
  8
0
100
AcDbSpline
 62
7
  6
CONTINUOUS
 70
0
 71
3
 72
18
 73
14
 74
0
 42
0.0000001
 43
0.0000001
 44
0.0000000001
 40
0.0
 40
0.0
 40
0.0
 40
0.0
 40
0.1948131937
 40
0.3819626402
 40
0.5542778745
 40
0.7053109958
 40
0.8293376439
 40
0.8797269162
 40
0.9217020588
 40
0.9548914324
 40
0.9790276077
 40
0.9939501934
 40
1.0
 40
1.0
 40
1.0
 40
1.0
 10
290.296686571
 20
528.1641059525
 30
0.0
 10
290.3580420272
 20
528.1435568222
 30
0.0
 10
290.4782043076
 20
528.1028608968
 30
0.0
 10
290.6521573707
 20
528.0425946409
 30
0.0
 10
290.8119414043
 20
527.9858356185
 30
0.0
 10
290.951458803
 20
527.9347610692
 30
0.0
 10
291.0525403735
 20
527.8963003726
 30
0.0
 10
291.1192073454
 20
527.8696592024
 30
0.0
 10
291.1578658045
 20
527.8535538052
 30
0.0
 10
291.1875961858
 20
527.840371495
 30
0.0
 10
291.2102021594
 20
527.8295139163
 30
0.0
 10
291.2213550822
 20
527.8227550985
 30
0.0
 10
291.2289475841
 20
527.8174686475
 30
0.0
 10
291.2284057455
 20
527.8155337007
 30
0.0
  0
SPLINE
  5
5E5
100
AcDbEntity
  8
0
100
AcDbSpline
 62
7
  6
CONTINUOUS
 70
0
 71
3
 72
18
 73
14
 74
0
 42
0.0000001
 43
0.0000001
 44
0.0000000001
 40
0.0
 40
0.0
 40
0.0
 40
0.0
 40
0.1948172442
 40
0.3819694145
 40
0.5542831195
 40
0.705311792
 40
0.8293422499
 40
0.8797333494
 40
0.9217032658
 40
0.9548828624
 40
0.9790165761
 40
0.9939462702
 40
1.0
 40
1.0
 40
1.0
 40
1.0
 10
290.2966865679
 20
524.4316002849
 30
0.0
 10
290.3580434713
 20
524.4521498998
 30
0.0
 10
290.4782085881
 20
524.4928455695
 30
0.0
 10
290.6521637822
 20
524.5531125727
 30
0.0
 10
290.811946993
 20
524.6098721311
 30
0.0
 10
290.9514637708
 20
524.6609474021
 30
0.0
 10
291.0525460178
 20
524.6994084783
 30
0.0
 10
291.1192132292
 20
524.7260496441
 30
0.0
 10
291.157867889
 20
524.7421536595
 30
0.0
 10
291.1875918743
 20
524.7553351253
 30
0.0
 10
291.2101977141
 20
524.7661922917
 30
0.0
 10
291.2213492198
 20
524.7729524885
 30
0.0
 10
291.2289515589
 20
524.7782388644
 30
0.0
 10
291.2284087721
 20
524.7801749047
 30
0.0
  0
SPLINE
  5
5E6
100
AcDbEntity
  8
0
100
AcDbSpline
 62
7
  6
CONTINUOUS
 70
0
 71
3
 72
14
 73
10
 74
0
 42
0.0000001
 43
0.0000001
 44
0.0000000001
 40
0.0
 40
0.0
 40
0.0
 40
0.0
 40
0.3742865272
 40
0.5441798204
 40
0.694089719
 40
0.8185998599
 40
0.9130740531
 40
0.9741507225
 40
1.0
 40
1.0
 40
1.0
 40
1.0
 10
297.1973516423
 20
519.949640049
 30
0.0
 10
297.1475373453
 20
519.9453034807
 30
0.0
 10
297.075059496
 20
519.9394193009
 30
0.0
 10
296.982639078
 20
519.9323663335
 30
0.0
 10
296.9233487809
 20
519.9280361302
 30
0.0
 10
296.8744967271
 20
519.9238632843
 30
0.0
 10
296.8365450529
 20
519.9212617962
 30
0.0
 10
296.8138125456
 20
519.9169224693
 30
0.0
 10
296.8007713235
 20
519.9165016071
 30
0.0
 10
296.7983915674
 20
519.9139991629
 30
0.0
  0
SPLINE
  5
5E7
100
AcDbEntity
  8
0
100
AcDbSpline
 62
7
  6
CONTINUOUS
 70
0
 71
3
 72
18
 73
14
 74
0
 42
0.0000001
 43
0.0000001
 44
0.0000000001
 40
0.0
 40
0.0
 40
0.0
 40
0.0
 40
0.0057917787
 40
0.0204563263
 40
0.0443815319
 40
0.0774196916
 40
0.1193178674
 40
0.1697052641
 40
0.2939042462
 40
0.4452503833
 40
0.6178905772
 40
0.8052379927
 40
1.0
 40
1.0
 40
1.0
 40
1.0
 10
300.6871388809
 20
522.3484054806
 30
0.0
 10
300.6857876898
 20
522.3470207324
 30
0.0
 10
300.690560132
 20
522.3389822574
 30
0.0
 10
300.6980736003
 20
522.3287884718
 30
0.0
 10
300.7145830768
 20
522.3098366206
 30
0.0
 10
300.7368179998
 20
522.2861200563
 30
0.0
 10
300.7662255111
 20
522.2560443684
 30
0.0
 10
300.817503061
 20
522.2051771894
 30
0.0
 10
300.8961021756
 20
522.1297427973
 30
0.0
 10
301.005417236
 20
522.0274739916
 30
0.0
 10
301.1312748834
 20
521.9119760045
 30
0.0
 10
301.2687877126
 20
521.7877531169
 30
0.0
 10
301.3641042656
 20
521.7028522491
 30
0.0
 10
301.4128315537
 20
521.6597419156
 30
0.0
  0
SPLINE
  5
5E8
100
AcDbEntity
  8
0
100
AcDbSpline
 62
7
  6
CONTINUOUS
 70
0
 71
3
 72
14
 73
10
 74
0
 42
0.0000001
 43
0.0000001
 44
0.0000000001
 40
0.0
 40
0.0
 40
0.0
 40
0.0
 40
0.0258511517
 40
0.0869304149
 40
0.1814087942
 40
0.3059211178
 40
0.4558327394
 40
0.6257241893
 40
1.0
 40
1.0
 40
1.0
 40
1.0
 10
291.0392893829
 20
523.2390183594
 30
0.0
 10
291.0402667559
 20
523.2423307507
 30
0.0
 10
291.0341098945
 20
523.2538357051
 30
0.0
 10
291.0265016762
 20
523.2756934729
 30
0.0
 10
291.0097778722
 20
523.3098622807
 30
0.0
 10
290.9889653667
 20
523.3542568702
 30
0.0
 10
290.9630700264
 20
523.4077690593
 30
0.0
 10
290.9229686665
 20
523.4913327448
 30
0.0
 10
290.8918262218
 20
523.5570409311
 30
0.0
 10
290.8706752583
 20
523.6023483624
 30
0.0
  0
SPLINE
  5
5E9
100
AcDbEntity
  8
0
100
AcDbSpline
 62
7
  6
CONTINUOUS
 70
0
 71
3
 72
14
 73
10
 74
0
 42
0.0000001
 43
0.0000001
 44
0.0000000001
 40
0.0
 40
0.0
 40
0.0
 40
0.0
 40
0.3742865272
 40
0.5441798204
 40
0.694089719
 40
0.8185998599
 40
0.9130740531
 40
0.9741507225
 40
1.0
 40
1.0
 40
1.0
 40
1.0
 10
290.735460366
 20
523.9133213245
 30
0.0
 10
290.7167489942
 20
523.9596910838
 30
0.0
 10
290.6899314527
 20
524.0272816281
 30
0.0
 10
290.6561655514
 20
524.1136016252
 30
0.0
 10
290.634689752
 20
524.1690351895
 30
0.0
 10
290.6164162814
 20
524.2145326188
 30
0.0
 10
290.6028324703
 20
524.2500653837
 30
0.0
 10
290.5920364094
 20
524.2705358922
 30
0.0
 10
290.5878210526
 20
524.2828842268
 30
0.0
 10
290.58473218
 20
524.2844283549
 30
0.0
  0
SPLINE
  5
5EA
100
AcDbEntity
  8
0
100
AcDbSpline
 62
7
  6
CONTINUOUS
 70
0
 71
3
 72
14
 73
10
 74
0
 42
0.0000001
 43
0.0000001
 44
0.0000000001
 40
0.0
 40
0.0
 40
0.0
 40
0.0
 40
0.0258511516
 40
0.0869304145
 40
0.1814087936
 40
0.3059211173
 40
0.4558327377
 40
0.6257241855
 40
1.0
 40
1.0
 40
1.0
 40
1.0
 10
290.58473218
 20
528.3112778809
 30
0.0
 10
290.5878212764
 20
528.3128221209
 30
0.0
 10
290.592036498
 20
528.3251713243
 30
0.0
 10
290.6028334649
 20
528.3456425847
 30
0.0
 10
290.616417342
 20
528.3811766714
 30
0.0
 10
290.6346913947
 20
528.4266750114
 30
0.0
 10
290.6561671526
 20
528.4821088892
 30
0.0
 10
290.6899327016
 20
528.5684274637
 30
0.0
 10
290.7167495307
 20
528.6360164814
 30
0.0
 10
290.7354603649
 20
528.6823849116
 30
0.0
  0
SPLINE
  5
5EB
100
AcDbEntity
  8
0
100
AcDbSpline
 62
7
  6
CONTINUOUS
 70
0
 71
3
 72
14
 73
10
 74
0
 42
0.0000001
 43
0.0000001
 44
0.0000000001
 40
0.0
 40
0.0
 40
0.0
 40
0.0
 40
0.0258511517
 40
0.0869304149
 40
0.1814087942
 40
0.3059211178
 40
0.4558327394
 40
0.6257241893
 40
1.0
 40
1.0
 40
1.0
 40
1.0
 10
302.096448781
 20
522.9728339214
 30
0.0
 10
302.0930914796
 20
522.9720241556
 30
0.0
 10
302.0862063275
 20
522.96093968
 30
0.0
 10
302.0710810544
 20
522.9434218857
 30
0.0
 10
302.0498519009
 20
522.9118542427
 30
0.0
 10
302.0218113114
 20
522.8716327895
 30
0.0
 10
301.9884160663
 20
522.8224506724
 30
0.0
 10
301.9360984718
 20
522.7459400333
 30
0.0
 10
301.8947647356
 20
522.6861157919
 30
0.0
 10
301.8661028309
 20
522.6451448045
 30
0.0
  0
SPLINE
  5
5EC
100
AcDbEntity
  8
0
100
AcDbSpline
 62
7
  6
CONTINUOUS
 70
0
 71
3
 72
14
 73
10
 74
0
 42
0.0000001
 43
0.0000001
 44
0.0000000001
 40
0.0
 40
0.0
 40
0.0
 40
0.0
 40
0.3742865272
 40
0.5441798204
 40
0.694089719
 40
0.8185998599
 40
0.9130740531
 40
0.9741507225
 40
1.0
 40
1.0
 40
1.0
 40
1.0
 10
301.6643997919
 20
522.3725587918
 30
0.0
 10
301.6335980883
 20
522.3331693888
 30
0.0
 10
301.5884717306
 20
522.2761494445
 30
0.0
 10
301.5305993709
 20
522.2037473175
 30
0.0
 10
301.4933303957
 20
522.1574319476
 30
0.0
 10
301.4630652015
 20
522.1188579432
 30
0.0
 10
301.4390848299
 20
522.0893276352
 30
0.0
 10
301.4267548799
 20
522.069742718
 30
0.0
 10
301.418168587
 20
522.0599179446
 30
0.0
 10
301.4183757691
 20
522.0564708384
 30
0.0
  0
SPLINE
  5
5ED
100
AcDbEntity
  8
0
100
AcDbSpline
 62
7
  6
CONTINUOUS
 70
0
 71
3
 72
18
 73
14
 74
0
 42
0.0000001
 43
0.0000001
 44
0.0000000001
 40
0.0
 40
0.0
 40
0.0
 40
0.0
 40
0.0057917668
 40
0.0204562897
 40
0.0443814859
 40
0.0774196514
 40
0.1193178332
 40
0.1697052292
 40
0.2939042058
 40
0.4452503405
 40
0.6178905369
 40
0.8052379649
 40
1.0
 40
1.0
 40
1.0
 40
1.0
 10
298.0438174255
 20
531.773423178
 30
0.0
 10
298.0456922431
 20
531.7729453874
 30
0.0
 10
298.050267548
 20
531.7810976464
 30
0.0
 10
298.0553388807
 20
531.7927013832
 30
0.0
 10
298.063496923
 20
531.8164749056
 30
0.0
 10
298.0729186013
 20
531.8475891796
 30
0.0
 10
298.0842611503
 20
531.8880946533
 30
0.0
 10
298.1026746344
 20
531.9579358605
 30
0.0
 10
298.1287031621
 20
532.063721818
 30
0.0
 10
298.1626129968
 20
532.2095257482
 30
0.0
 10
298.1997083444
 20
532.3762705626
 30
0.0
 10
298.2385320882
 20
532.5574715116
 30
0.0
 10
298.2644001106
 20
532.6824684372
 30
0.0
 10
298.2773711042
 20
532.7462226432
 30
0.0
  0
SPLINE
  5
5EE
100
AcDbEntity
  8
0
100
AcDbSpline
 62
7
  6
CONTINUOUS
 70
0
 71
3
 72
18
 73
14
 74
0
 42
0.0000001
 43
0.0000001
 44
0.0000000001
 40
0.0
 40
0.0
 40
0.0
 40
0.0
 40
0.0057780236
 40
0.020422109
 40
0.0443547142
 40
0.0774233717
 40
0.119347274
 40
0.1697441115
 40
0.2939358151
 40
0.4452615606
 40
0.6178841483
 40
0.8052317743
 40
1.0
 40
1.0
 40
1.0
 40
1.0
 10
298.0438174075
 20
520.8222831473
 30
0.0
 10
298.0456873424
 20
520.8227615368
 30
0.0
 10
298.050270264
 20
520.8146357053
 30
0.0
 10
298.0553325536
 20
520.8030314152
 30
0.0
 10
298.0634948421
 20
520.7792546962
 30
0.0
 10
298.0729169782
 20
520.7481178486
 30
0.0
 10
298.0842644313
 20
520.7075910128
 30
0.0
 10
298.1026792881
 20
520.6377400605
 30
0.0
 10
298.1287074
 20
520.5319599247
 30
0.0
 10
298.1626152076
 20
520.3861703439
 30
0.0
 10
298.1997095505
 20
520.2194375179
 30
0.0
 10
298.2385327638
 20
520.0382394724
 30
0.0
 10
298.2643997435
 20
519.9132396025
 30
0.0
 10
298.2773712044
 20
519.8494831001
 30
0.0
  0
SPLINE
  5
5EF
100
AcDbEntity
  8
0
100
AcDbSpline
 62
7
  6
CONTINUOUS
 70
0
 71
3
 72
9
 73
5
 74
0
 42
0.0000001
 43
0.0000001
 44
0.0000000001
 40
0.0
 40
0.0
 40
0.0
 40
0.0
 40
0.5
 40
1.0
 40
1.0
 40
1.0
 40
1.0
 10
301.412621022
 20
521.6599281784
 30
0.0
 10
300.9972507862
 20
521.2129112399
 30
0.0
 10
300.0281842361
 20
520.4375036799
 30
0.0
 10
298.8721283157
 20
519.9859712095
 30
0.0
 10
298.2773151732
 20
519.8497585025
 30
0.0
  0
SPLINE
  5
5F0
100
AcDbEntity
  8
0
100
AcDbSpline
 62
7
  6
CONTINUOUS
 70
0
 71
3
 72
9
 73
5
 74
0
 42
0.0000001
 43
0.0000001
 44
0.0000000001
 40
0.0
 40
0.0
 40
0.0
 40
0.0
 40
0.5
 40
1.0
 40
1.0
 40
1.0
 40
1.0
 10
298.2773151797
 20
532.7459477651
 30
0.0
 10
298.8721283259
 20
532.6097350583
 30
0.0
 10
300.0281842536
 20
532.1582025864
 30
0.0
 10
300.9972508089
 20
531.3827950207
 30
0.0
 10
301.4126210464
 20
530.935778079
 30
0.0
  0
SPLINE
  5
5F1
100
AcDbEntity
  8
0
100
AcDbSpline
 62
7
  6
CONTINUOUS
 70
0
 71
3
 72
14
 73
10
 74
0
 42
0.0000001
 43
0.0000001
 44
0.0000000001
 40
0.0
 40
0.0
 40
0.0
 40
0.0
 40
0.0258511517
 40
0.0869304149
 40
0.1814087942
 40
0.3059211178
 40
0.4558327394
 40
0.6257241893
 40
1.0
 40
1.0
 40
1.0
 40
1.0
 10
301.4183757691
 20
530.5392353974
 30
0.0
 10
301.418168572
 20
530.5357880414
 30
0.0
 10
301.4267556851
 20
530.5259629507
 30
0.0
 10
301.4390858332
 20
530.5063768728
 30
0.0
 10
301.4630673165
 20
530.4768458467
 30
0.0
 10
301.4933330086
 20
530.4382708827
 30
0.0
 10
301.5306022763
 20
530.3919553916
 30
0.0
 10
301.5884735801
 20
530.3195542811
 30
0.0
 10
301.6335989717
 20
530.2625357172
 30
0.0
 10
301.6643997919
 20
530.223147444
 30
0.0
  0
SPLINE
  5
5F2
100
AcDbEntity
  8
0
100
AcDbSpline
 62
7
  6
CONTINUOUS
 70
0
 71
3
 72
18
 73
14
 74
0
 42
0.0000001
 43
0.0000001
 44
0.0000000001
 40
0.0
 40
0.0
 40
0.0
 40
0.0
 40
0.0057779355
 40
0.0204214192
 40
0.044353178
 40
0.0774209755
 40
0.1193441834
 40
0.1697405821
 40
0.2939319764
 40
0.4452580437
 40
0.6178814943
 40
0.8052303485
 40
1.0
 40
1.0
 40
1.0
 40
1.0
 10
291.2284056918
 20
527.815533509
 30
0.0
 10
291.2278849137
 20
527.8136749537
 30
0.0
 10
291.2185568507
 20
527.8137686879
 30
0.0
 10
291.2059761525
 20
527.8151866741
 30
0.0
 10
291.1813045663
 20
527.8200059632
 30
0.0
 10
291.1496287114
 20
527.8274143511
 30
0.0
 10
291.1088581593
 20
527.8378503843
 30
0.0
 10
291.0391581074
 20
527.8568280205
 30
0.0
 10
290.9345353587
 20
527.8871771349
 30
0.0
 10
290.791322945
 20
527.930707158
 30
0.0
 10
290.6283793047
 20
527.9819494111
 30
0.0
 10
290.4520435653
 20
528.0389271827
 30
0.0
 10
290.3308555373
 20
528.0790260938
 30
0.0
 10
290.2691543063
 20
528.0996710369
 30
0.0
  0
SPLINE
  5
5F3
100
AcDbEntity
  8
0
100
AcDbSpline
 62
7
  6
CONTINUOUS
 70
0
 71
3
 72
14
 73
10
 74
0
 42
0.0000001
 43
0.0000001
 44
0.0000000001
 40
0.0
 40
0.0
 40
0.0
 40
0.0
 40
0.3742865272
 40
0.5441798204
 40
0.694089719
 40
0.8185998599
 40
0.9130740531
 40
0.9741507225
 40
1.0
 40
1.0
 40
1.0
 40
1.0
 10
301.8661028309
 20
529.9505614313
 30
0.0
 10
301.8947655577
 20
529.9095892687
 30
0.0
 10
301.9361003315
 20
529.8497636999
 30
0.0
 10
301.9884185894
 20
529.7732517539
 30
0.0
 10
302.0218138041
 20
529.724069952
 30
0.0
 10
302.0498536215
 20
529.6838492553
 30
0.0
 10
302.0710824134
 20
529.6522828854
 30
0.0
 10
302.0862066344
 20
529.63476562
 30
0.0
 10
302.0930917228
 20
529.6236820215
 30
0.0
 10
302.096448781
 20
529.6228723144
 30
0.0
  0
SPLINE
  5
5F4
100
AcDbEntity
  8
0
100
AcDbSpline
 62
7
  6
CONTINUOUS
 70
0
 71
3
 72
14
 73
10
 74
0
 42
0.0000001
 43
0.0000001
 44
0.0000000001
 40
0.0
 40
0.0
 40
0.0
 40
0.0
 40
0.3742865272
 40
0.5441798204
 40
0.694089719
 40
0.8185998599
 40
0.9130740531
 40
0.9741507225
 40
1.0
 40
1.0
 40
1.0
 40
1.0
 10
290.8706752583
 20
528.9933578734
 30
0.0
 10
290.8918268285
 20
529.0386666042
 30
0.0
 10
290.9229699039
 20
529.1043763528
 30
0.0
 10
290.963072064
 20
529.1879412663
 30
0.0
 10
290.9889671465
 20
529.2414532715
 30
0.0
 10
291.0097793828
 20
529.285846814
 30
0.0
 10
291.0265022651
 20
529.320014672
 30
0.0
 10
291.0341105514
 20
529.3418712643
 30
0.0
 10
291.0402666851
 20
529.3533757251
 30
0.0
 10
291.0392893829
 20
529.3566878763
 30
0.0
  0
SPLINE
  5
5F5
100
AcDbEntity
  8
0
100
AcDbSpline
 62
7
  6
CONTINUOUS
 70
0
 71
3
 72
14
 73
10
 74
0
 42
0.0000001
 43
0.0000001
 44
0.0000000001
 40
0.0
 40
0.0
 40
0.0
 40
0.0
 40
0.0258511517
 40
0.0869304149
 40
0.1814087942
 40
0.3059211178
 40
0.4558327394
 40
0.6257241893
 40
1.0
 40
1.0
 40
1.0
 40
1.0
 10
296.7983915674
 20
532.6817070729
 30
0.0
 10
296.8007714959
 20
532.6792044474
 30
0.0
 10
296.8138135094
 20
532.6787839686
 30
0.0
 10
296.8365470008
 20
532.674443995
 30
0.0
 10
296.8744999583
 20
532.6718428302
 30
0.0
 10
296.9233530534
 20
532.667669694
 30
0.0
 10
296.9826436387
 20
532.6633396219
 30
0.0
 10
297.0750625931
 20
532.6562865756
 30
0.0
 10
297.1475387741
 20
532.6504026307
 30
0.0
 10
297.1973516423
 20
532.6460661868
 30
0.0
  0
SPLINE
  5
5F6
100
AcDbEntity
  8
0
100
AcDbSpline
 62
7
  6
CONTINUOUS
 70
0
 71
3
 72
14
 73
10
 74
0
 42
0.0000001
 43
0.0000001
 44
0.0000000001
 40
0.0
 40
0.0
 40
0.0
 40
0.0
 40
0.3742865272
 40
0.5441798204
 40
0.694089719
 40
0.8185998599
 40
0.9130740531
 40
0.9741507225
 40
1.0
 40
1.0
 40
1.0
 40
1.0
 10
297.5342695735
 20
532.6076792373
 30
0.0
 10
297.5837826489
 20
532.600698881
 30
0.0
 10
297.6557265481
 20
532.5901282811
 30
0.0
 10
297.7473648091
 20
532.5762104109
 30
0.0
 10
297.8061095836
 20
532.5670922165
 30
0.0
 10
297.8546482485
 20
532.5601687917
 30
0.0
 10
297.8922124312
 20
532.5541663347
 30
0.0
 10
297.9153384421
 20
532.5532807434
 30
0.0
 10
297.9281400919
 20
532.5507571823
 30
0.0
 10
297.9310217824
 20
532.5526601603
 30
0.0
  0
SPLINE
  5
5F7
100
AcDbEntity
  8
0
100
AcDbSpline
 62
7
  6
CONTINUOUS
 70
0
 71
3
 72
18
 73
14
 74
0
 42
0.0000001
 43
0.0000001
 44
0.0000000001
 40
0.0
 40
0.0
 40
0.0
 40
0.0
 40
0.005793269
 40
0.0204631835
 40
0.0443908387
 40
0.0774279479
 40
0.1193245516
 40
0.1697112181
 40
0.2939086994
 40
0.4452525587
 40
0.6178909205
 40
0.8052372857
 40
1.0
 40
1.0
 40
1.0
 40
1.0
 10
291.2284087721
 20
524.7801749047
 30
0.0
 10
291.2278863852
 20
524.7820381816
 30
0.0
 10
291.2185324605
 20
524.7819214406
 30
0.0
 10
291.2059493725
 20
524.7805117753
 30
0.0
 10
291.18127939
 20
524.775689217
 30
0.0
 10
291.149625536
 20
524.768292497
 30
0.0
 10
291.1088788761
 20
524.7578636854
 30
0.0
 10
291.0391936411
 20
524.7388913335
 30
0.0
 10
290.9345740426
 20
524.7085422203
 30
0.0
 10
290.7913600926
 20
524.6650106609
 30
0.0
 10
290.6284191304
 20
524.6137678054
 30
0.0
 10
290.4520944816
 20
524.5567939006
 30
0.0
 10
290.3309176387
 20
524.5167009208
 30
0.0
 10
290.2692231189
 20
524.4960582233
 30
0.0
  0
SPLINE
  5
5F8
100
AcDbEntity
  8
0
100
AcDbSpline
 62
7
  6
CONTINUOUS
 70
0
 71
3
 72
18
 73
14
 74
0
 42
0.0000001
 43
0.0000001
 44
0.0000000001
 40
0.0
 40
0.0
 40
0.0
 40
0.0
 40
0.0057789989
 40
0.0204221755
 40
0.0443541562
 40
0.0774229496
 40
0.1193470719
 40
0.1697439007
 40
0.293935515
 40
0.4452613102
 40
0.6178839387
 40
0.8052316491
 40
1.0
 40
1.0
 40
1.0
 40
1.0
 10
300.6871389078
 20
530.2473007742
 30
0.0
 10
300.6857906909
 20
530.2486824665
 30
0.0
 10
300.6905351956
 20
530.256711312
 30
0.0
 10
300.6980544227
 20
530.2669004336
 30
0.0
 10
300.714563611
 20
530.2858555851
 30
0.0
 10
300.7368180125
 20
530.3095843873
 30
0.0
 10
300.7662415225
 20
530.3396747705
 30
0.0
 10
300.817526796
 20
530.3905480785
 30
0.0
 10
300.8961208928
 20
530.465978985
 30
0.0
 10
301.0054243528
 20
530.5682387146
 30
0.0
 10
301.1312719352
 20
530.6837296733
 30
0.0
 10
301.2687823408
 20
530.8079505064
 30
0.0
 10
301.3641018547
 20
530.8928518538
 30
0.0
 10
301.4128308505
 20
530.935963698
 30
0.0
  0
SPLINE
  5
5F9
100
AcDbEntity
  8
0
100
AcDbSpline
 62
7
  6
CONTINUOUS
 70
0
 71
3
 72
14
 73
10
 74
0
 42
0.0000001
 43
0.0000001
 44
0.0000000001
 40
0.0
 40
0.0
 40
0.0
 40
0.0
 40
0.0258511517
 40
0.0869304149
 40
0.1814087942
 40
0.3059211178
 40
0.4558327394
 40
0.6257241893
 40
1.0
 40
1.0
 40
1.0
 40
1.0
 10
297.9310217824
 20
520.0430460754
 30
0.0
 10
297.9281398831
 20
520.0449491913
 30
0.0
 10
297.9153375484
 20
520.0424250786
 30
0.0
 10
297.8922104333
 20
520.0415398961
 30
0.0
 10
297.8546450728
 20
520.0355368354
 30
0.0
 10
297.806105328
 20
520.0286134592
 30
0.0
 10
297.7473603023
 20
520.0194950721
 30
0.0
 10
297.6557234495
 20
520.0055776081
 30
0.0
 10
297.5837812288
 20
519.9950071545
 30
0.0
 10
297.5342695735
 20
519.9880269984
 30
0.0
  0
SPLINE
  5
5FA
100
AcDbEntity
  8
0
100
AcDbSpline
 62
7
  6
CONTINUOUS
 70
0
 71
3
 72
9
 73
5
 74
0
 42
0.0000001
 43
0.0000001
 44
0.0000000001
 40
0.0
 40
0.0
 40
0.0
 40
0.0
 40
0.1926171185
 40
1.0
 40
1.0
 40
1.0
 40
1.0
 10
285.9171231772
 20
107.2922530579
 30
0.0
 10
285.9174229517
 20
107.3597629617
 30
0.0
 10
286.0079502239
 20
107.710798671
 30
0.0
 10
286.3330470854
 20
107.9265546544
 30
0.0
 10
286.5696409324
 20
108.081800537
 30
0.0
  0
SPLINE
  5
5FB
100
AcDbEntity
  8
0
100
AcDbSpline
 62
7
  6
CONTINUOUS
 70
0
 71
3
 72
9
 73
5
 74
0
 42
0.0000001
 43
0.0000001
 44
0.0000000001
 40
0.0
 40
0.0
 40
0.0
 40
0.0
 40
0.1926171185
 40
1.0
 40
1.0
 40
1.0
 40
1.0
 10
286.1391098505
 20
1470.5254060575
 30
0.0
 10
286.2066197543
 20
1470.5251062831
 30
0.0
 10
286.5576554636
 20
1470.4345790109
 30
0.0
 10
286.773411447
 20
1470.1094821494
 30
0.0
 10
286.9286573296
 20
1469.8728883024
 30
0.0
  0
SPLINE
  5
5FC
100
AcDbEntity
  8
0
100
AcDbSpline
 62
7
  6
CONTINUOUS
 70
0
 71
3
 72
9
 73
5
 74
0
 42
0.0000001
 43
0.0000001
 44
0.0000000001
 40
0.0
 40
0.0
 40
0.0
 40
0.0
 40
0.1926171185
 40
1.0
 40
1.0
 40
1.0
 40
1.0
 10
849.3722628501
 20
1470.3034193842
 30
0.0
 10
849.3719630757
 20
1470.2359094804
 30
0.0
 10
849.2814358035
 20
1469.8848737712
 30
0.0
 10
848.9563389419
 20
1469.6691177878
 30
0.0
 10
848.7197450949
 20
1469.5138719051
 30
0.0
  0
SPLINE
  5
5FD
100
AcDbEntity
  8
0
100
AcDbSpline
 62
7
  6
CONTINUOUS
 70
0
 71
3
 72
9
 73
5
 74
0
 42
0.0000001
 43
0.0000001
 44
0.0000000001
 40
0.0
 40
0.0
 40
0.0
 40
0.0
 40
0.1926171185
 40
1.0
 40
1.0
 40
1.0
 40
1.0
 10
849.1502761768
 20
107.0702663846
 30
0.0
 10
849.082766273
 20
107.0705661591
 30
0.0
 10
848.7317305637
 20
107.1610934313
 30
0.0
 10
848.5159745804
 20
107.4861902928
 30
0.0
 10
848.3607286977
 20
107.7227841398
 30
0.0
  0
SPLINE
  5
5FE
100
AcDbEntity
  8
0
100
AcDbSpline
 62
7
  6
CONTINUOUS
 70
0
 71
3
 72
9
 73
5
 74
0
 42
0.0000001
 43
0.0000001
 44
0.0000000001
 40
0.0
 40
0.0
 40
0.0
 40
0.0
 40
0.2949299226
 40
1.0
 40
1.0
 40
1.0
 40
1.0
 10
287.4162099105
 20
108.5693531179
 30
0.0
 10
287.3361767898
 20
108.4216939521
 30
0.0
 10
287.0616922292
 20
107.93036263
 30
0.0
 10
286.7753246447
 20
107.3938340808
 30
0.0
 10
286.4409568706
 20
107.1715417163
 30
0.0
  0
SPLINE
  5
5FF
100
AcDbEntity
  8
0
100
AcDbSpline
 62
7
  6
CONTINUOUS
 70
0
 71
3
 72
8
 73
4
 74
0
 42
0.0000001
 43
0.0000001
 44
0.0000000001
 40
0.0
 40
0.0
 40
0.0
 40
0.0
 40
1.0
 40
1.0
 40
1.0
 40
1.0
 10
286.4409568706
 20
107.1715417163
 30
0.0
 10
286.3525773121
 20
107.1127857519
 30
0.0
 10
286.2452371656
 20
107.0707321325
 30
0.0
 10
286.1391099309
 20
107.0702633255
 30
0.0
  0
SPLINE
  5
600
100
AcDbEntity
  8
0
100
AcDbSpline
 62
7
  6
CONTINUOUS
 70
0
 71
3
 72
9
 73
5
 74
0
 42
0.0000001
 43
0.0000001
 44
0.0000000001
 40
0.0
 40
0.0
 40
0.0
 40
0.0
 40
0.2949299226
 40
1.0
 40
1.0
 40
1.0
 40
1.0
 10
847.8731761169
 20
108.5693531179
 30
0.0
 10
848.0208352826
 20
108.4893199973
 30
0.0
 10
848.5121666047
 20
108.2148354366
 30
0.0
 10
849.0486951539
 20
107.9284678521
 30
0.0
 10
849.2709875184
 20
107.594100078
 30
0.0
  0
SPLINE
  5
601
100
AcDbEntity
  8
0
100
AcDbSpline
 62
7
  6
CONTINUOUS
 70
0
 71
3
 72
8
 73
4
 74
0
 42
0.0000001
 43
0.0000001
 44
0.0000000001
 40
0.0
 40
0.0
 40
0.0
 40
0.0
 40
1.0
 40
1.0
 40
1.0
 40
1.0
 10
849.2709875184
 20
107.594100078
 30
0.0
 10
849.3297434828
 20
107.5057205195
 30
0.0
 10
849.3717971023
 20
107.398380373
 30
0.0
 10
849.3722659092
 20
107.2922531383
 30
0.0
  0
SPLINE
  5
602
100
AcDbEntity
  8
0
100
AcDbSpline
 62
7
  6
CONTINUOUS
 70
0
 71
3
 72
9
 73
5
 74
0
 42
0.0000001
 43
0.0000001
 44
0.0000000001
 40
0.0
 40
0.0
 40
0.0
 40
0.0
 40
0.2949299226
 40
1.0
 40
1.0
 40
1.0
 40
1.0
 10
287.4162099105
 20
1469.0263193243
 30
0.0
 10
287.2685507447
 20
1469.1063524449
 30
0.0
 10
286.7772194226
 20
1469.3808370056
 30
0.0
 10
286.2406908734
 20
1469.66720459
 30
0.0
 10
286.0183985089
 20
1470.0015723641
 30
0.0
  0
SPLINE
  5
603
100
AcDbEntity
  8
0
100
AcDbSpline
 62
7
  6
CONTINUOUS
 70
0
 71
3
 72
8
 73
4
 74
0
 42
0.0000001
 43
0.0000001
 44
0.0000000001
 40
0.0
 40
0.0
 40
0.0
 40
0.0
 40
1.0
 40
1.0
 40
1.0
 40
1.0
 10
286.0183985089
 20
1470.0015723641
 30
0.0
 10
285.9596425445
 20
1470.0899519226
 30
0.0
 10
285.9175889251
 20
1470.1972920692
 30
0.0
 10
285.9171201181
 20
1470.3034193038
 30
0.0
  0
SPLINE
  5
604
100
AcDbEntity
  8
0
100
AcDbSpline
 62
7
  6
CONTINUOUS
 70
0
 71
3
 72
9
 73
5
 74
0
 42
0.0000001
 43
0.0000001
 44
0.0000000001
 40
0.0
 40
0.0
 40
0.0
 40
0.0
 40
0.2949299226
 40
1.0
 40
1.0
 40
1.0
 40
1.0
 10
847.8731761169
 20
1469.0263193243
 30
0.0
 10
847.9532092375
 20
1469.17397849
 30
0.0
 10
848.2276937982
 20
1469.6653098121
 30
0.0
 10
848.5140613826
 20
1470.2018383613
 30
0.0
 10
848.8484291567
 20
1470.4241307258
 30
0.0
  0
SPLINE
  5
605
100
AcDbEntity
  8
0
100
AcDbSpline
 62
7
  6
CONTINUOUS
 70
0
 71
3
 72
8
 73
4
 74
0
 42
0.0000001
 43
0.0000001
 44
0.0000000001
 40
0.0
 40
0.0
 40
0.0
 40
0.0
 40
1.0
 40
1.0
 40
1.0
 40
1.0
 10
848.8484291567
 20
1470.4241307258
 30
0.0
 10
848.9368087152
 20
1470.4828866903
 30
0.0
 10
849.0441488618
 20
1470.5249403097
 30
0.0
 10
849.1502760964
 20
1470.5254091166
 30
0.0
  0
SPLINE
  5
606
100
AcDbEntity
  8
0
100
AcDbSpline
 62
7
  6
CONTINUOUS
 70
0
 71
3
 72
9
 73
5
 74
0
 42
0.0000001
 43
0.0000001
 44
0.0000000001
 40
0.0
 40
0.0
 40
0.0
 40
0.0
 40
0.2810461736
 40
1.0
 40
1.0
 40
1.0
 40
1.0
 10
847.8731761169
 20
108.5693531179
 30
0.0
 10
847.9334406692
 20
108.346979844
 30
0.0
 10
848.1501542181
 20
107.557174302
 30
0.0
 10
848.3686898995
 20
106.7621235903
 30
0.0
 10
848.6038782494
 20
106.2217018131
 30
0.0
  0
SPLINE
  5
607
100
AcDbEntity
  8
0
100
AcDbSpline
 62
7
  6
CONTINUOUS
 70
0
 71
3
 72
9
 73
5
 74
0
 42
0.0000001
 43
0.0000001
 44
0.0000000001
 40
0.0
 40
0.0
 40
0.0
 40
0.0
 40
0.3589247601
 40
1.0
 40
1.0
 40
1.0
 40
1.0
 10
848.6038782494
 20
106.2217018131
 30
0.0
 10
848.6451554273
 20
106.126854063
 30
0.0
 10
848.7620629368
 20
105.8830588413
 30
0.0
 10
848.9655376595
 20
105.5701440752
 30
0.0
 10
849.1502923166
 20
105.5700375272
 30
0.0
  0
SPLINE
  5
608
100
AcDbEntity
  8
0
100
AcDbSpline
 62
7
  6
CONTINUOUS
 70
0
 71
3
 72
9
 73
5
 74
0
 42
0.0000001
 43
0.0000001
 44
0.0000000001
 40
0.0
 40
0.0
 40
0.0
 40
0.0
 40
0.1630600666
 40
1.0
 40
1.0
 40
1.0
 40
1.0
 10
284.4168943319
 20
1470.3034355242
 30
0.0
 10
284.416921846
 20
1470.2557314569
 30
0.0
 10
284.5287328658
 20
1469.9682202157
 30
0.0
 10
284.8440520631
 20
1469.8547250117
 30
0.0
 10
285.0685640649
 20
1469.7570190803
 30
0.0
  0
SPLINE
  5
609
100
AcDbEntity
  8
0
100
AcDbSpline
 62
7
  6
CONTINUOUS
 70
0
 71
3
 72
8
 73
4
 74
0
 42
0.0000001
 43
0.0000001
 44
0.0000000001
 40
0.0
 40
0.0
 40
0.0
 40
0.0
 40
1.0
 40
1.0
 40
1.0
 40
1.0
 10
285.0685640649
 20
1469.7570190803
 30
0.0
 10
285.2197829479
 20
1469.6912097619
 30
0.0
 10
285.3744950688
 20
1469.6333891116
 30
0.0
 10
285.530227594
 20
1469.5791175947
 30
0.0
  0
SPLINE
  5
60A
100
AcDbEntity
  8
0
100
AcDbSpline
 62
7
  6
CONTINUOUS
 70
0
 71
3
 72
9
 73
5
 74
0
 42
0.0000001
 43
0.0000001
 44
0.0000000001
 40
0.0
 40
0.0
 40
0.0
 40
0.0
 40
0.2301810123
 40
1.0
 40
1.0
 40
1.0
 40
1.0
 10
285.6780654234
 20
1469.5288121959
 30
0.0
 10
285.8098051901
 20
1469.4849904473
 30
0.0
 10
286.385375611
 20
1469.3043358081
 30
0.0
 10
286.9680483972
 20
1469.1477739061
 30
0.0
 10
287.4162099105
 20
1469.0263193243
 30
0.0
  0
SPLINE
  5
60B
100
AcDbEntity
  8
0
100
AcDbSpline
 62
7
  6
CONTINUOUS
 70
0
 71
3
 72
9
 73
5
 74
0
 42
0.0000001
 43
0.0000001
 44
0.0000000001
 40
0.0
 40
0.0
 40
0.0
 40
0.0
 40
0.2810461736
 40
1.0
 40
1.0
 40
1.0
 40
1.0
 10
287.4162099105
 20
108.5693531179
 30
0.0
 10
287.1938366366
 20
108.5090885655
 30
0.0
 10
286.4040310946
 20
108.2923750166
 30
0.0
 10
285.6089803829
 20
108.0738393352
 30
0.0
 10
285.0685586057
 20
107.8386509854
 30
0.0
  0
SPLINE
  5
60C
100
AcDbEntity
  8
0
100
AcDbSpline
 62
7
  6
CONTINUOUS
 70
0
 71
3
 72
9
 73
5
 74
0
 42
0.0000001
 43
0.0000001
 44
0.0000000001
 40
0.0
 40
0.0
 40
0.0
 40
0.0
 40
0.3589247601
 40
1.0
 40
1.0
 40
1.0
 40
1.0
 10
285.0685586057
 20
107.8386509854
 30
0.0
 10
284.9737108556
 20
107.7973738075
 30
0.0
 10
284.7299156339
 20
107.680466298
 30
0.0
 10
284.4170008678
 20
107.4769915753
 30
0.0
 10
284.4168943198
 20
107.2922369181
 30
0.0
  0
SPLINE
  5
60D
100
AcDbEntity
  8
0
100
AcDbSpline
 62
7
  6
CONTINUOUS
 70
0
 71
3
 72
9
 73
5
 74
0
 42
0.0000001
 43
0.0000001
 44
0.0000000001
 40
0.0
 40
0.0
 40
0.0
 40
0.0
 40
0.2810461736
 40
1.0
 40
1.0
 40
1.0
 40
1.0
 10
847.8731761169
 20
1469.0263193243
 30
0.0
 10
848.0955493907
 20
1469.0865838767
 30
0.0
 10
848.8853549327
 20
1469.3032974255
 30
0.0
 10
849.6804056445
 20
1469.5218331069
 30
0.0
 10
850.2208274217
 20
1469.7570214568
 30
0.0
  0
SPLINE
  5
60E
100
AcDbEntity
  8
0
100
AcDbSpline
 62
7
  6
CONTINUOUS
 70
0
 71
3
 72
9
 73
5
 74
0
 42
0.0000001
 43
0.0000001
 44
0.0000000001
 40
0.0
 40
0.0
 40
0.0
 40
0.0
 40
0.3589247601
 40
1.0
 40
1.0
 40
1.0
 40
1.0
 10
850.2208274217
 20
1469.7570214568
 30
0.0
 10
850.3156751718
 20
1469.7982986347
 30
0.0
 10
850.5594703934
 20
1469.9152061442
 30
0.0
 10
850.8723851595
 20
1470.1186808669
 30
0.0
 10
850.8724917075
 20
1470.303435524
 30
0.0
  0
SPLINE
  5
60F
100
AcDbEntity
  8
0
100
AcDbSpline
 62
7
  6
CONTINUOUS
 70
0
 71
3
 72
9
 73
5
 74
0
 42
0.0000001
 43
0.0000001
 44
0.0000000001
 40
0.0
 40
0.0
 40
0.0
 40
0.0
 40
0.1630600666
 40
1.0
 40
1.0
 40
1.0
 40
1.0
 10
849.1502923168
 20
1472.0256349028
 30
0.0
 10
849.1025882495
 20
1472.0256073887
 30
0.0
 10
848.8150770083
 20
1471.913796369
 30
0.0
 10
848.7015818043
 20
1471.5984771716
 30
0.0
 10
848.6038758729
 20
1471.3739651699
 30
0.0
  0
SPLINE
  5
610
100
AcDbEntity
  8
0
100
AcDbSpline
 62
7
  6
CONTINUOUS
 70
0
 71
3
 72
8
 73
4
 74
0
 42
0.0000001
 43
0.0000001
 44
0.0000000001
 40
0.0
 40
0.0
 40
0.0
 40
0.0
 40
1.0
 40
1.0
 40
1.0
 40
1.0
 10
848.6038758729
 20
1471.3739651699
 30
0.0
 10
848.5380665545
 20
1471.2227462868
 30
0.0
 10
848.4802459042
 20
1471.068034166
 30
0.0
 10
848.4259743873
 20
1470.9123016407
 30
0.0
  0
SPLINE
  5
611
100
AcDbEntity
  8
0
100
AcDbSpline
 62
7
  6
CONTINUOUS
 70
0
 71
3
 72
9
 73
5
 74
0
 42
0.0000001
 43
0.0000001
 44
0.0000000001
 40
0.0
 40
0.0
 40
0.0
 40
0.0
 40
0.2301810123
 40
1.0
 40
1.0
 40
1.0
 40
1.0
 10
848.3756689885
 20
1470.7644638114
 30
0.0
 10
848.3318472399
 20
1470.6327240446
 30
0.0
 10
848.1511926006
 20
1470.0571536237
 30
0.0
 10
847.9946306987
 20
1469.4744808375
 30
0.0
 10
847.8731761169
 20
1469.0263193243
 30
0.0
  0
SPLINE
  5
612
100
AcDbEntity
  8
0
100
AcDbSpline
 62
7
  6
CONTINUOUS
 70
0
 71
3
 72
9
 73
5
 74
0
 42
0.0000001
 43
0.0000001
 44
0.0000000001
 40
0.0
 40
0.0
 40
0.0
 40
0.0
 40
0.2810461736
 40
1.0
 40
1.0
 40
1.0
 40
1.0
 10
287.4162099105
 20
1469.0263193243
 30
0.0
 10
287.3559453581
 20
1469.2486925981
 30
0.0
 10
287.1392318092
 20
1470.0384981401
 30
0.0
 10
286.9206961278
 20
1470.8335488519
 30
0.0
 10
286.685507778
 20
1471.3739706291
 30
0.0
  0
SPLINE
  5
613
100
AcDbEntity
  8
0
100
AcDbSpline
 62
7
  6
CONTINUOUS
 70
0
 71
3
 72
9
 73
5
 74
0
 42
0.0000001
 43
0.0000001
 44
0.0000000001
 40
0.0
 40
0.0
 40
0.0
 40
0.0
 40
0.3589247601
 40
1.0
 40
1.0
 40
1.0
 40
1.0
 10
286.685507778
 20
1471.3739706291
 30
0.0
 10
286.6442306001
 20
1471.4688183792
 30
0.0
 10
286.5273230906
 20
1471.7126136009
 30
0.0
 10
286.3238483679
 20
1472.0255283669
 30
0.0
 10
286.1390937107
 20
1472.0256349149
 30
0.0
  0
SPLINE
  5
614
100
AcDbEntity
  8
0
100
AcDbSpline
 62
7
  6
CONTINUOUS
 70
0
 71
3
 72
9
 73
5
 74
0
 42
0.0000001
 43
0.0000001
 44
0.0000000001
 40
0.0
 40
0.0
 40
0.0
 40
0.0
 40
0.1630600666
 40
1.0
 40
1.0
 40
1.0
 40
1.0
 10
850.8724916954
 20
107.2922369179
 30
0.0
 10
850.8724641813
 20
107.3399409853
 30
0.0
 10
850.7606531616
 20
107.6274522264
 30
0.0
 10
850.4453339642
 20
107.7409474305
 30
0.0
 10
850.2208219624
 20
107.8386533619
 30
0.0
  0
SPLINE
  5
615
100
AcDbEntity
  8
0
100
AcDbSpline
 62
7
  6
CONTINUOUS
 70
0
 71
3
 72
8
 73
4
 74
0
 42
0.0000001
 43
0.0000001
 44
0.0000000001
 40
0.0
 40
0.0
 40
0.0
 40
0.0
 40
1.0
 40
1.0
 40
1.0
 40
1.0
 10
850.2208219624
 20
107.8386533619
 30
0.0
 10
850.0696030794
 20
107.9044626802
 30
0.0
 10
849.9148909586
 20
107.9622833306
 30
0.0
 10
849.7591584333
 20
108.0165548475
 30
0.0
  0
SPLINE
  5
616
100
AcDbEntity
  8
0
100
AcDbSpline
 62
7
  6
CONTINUOUS
 70
0
 71
3
 72
9
 73
5
 74
0
 42
0.0000001
 43
0.0000001
 44
0.0000000001
 40
0.0
 40
0.0
 40
0.0
 40
0.0
 40
0.2301810123
 40
1.0
 40
1.0
 40
1.0
 40
1.0
 10
849.611320604
 20
108.0668602463
 30
0.0
 10
849.4795808372
 20
108.1106819949
 30
0.0
 10
848.9040104163
 20
108.2913366341
 30
0.0
 10
848.3213376301
 20
108.4478985361
 30
0.0
 10
847.8731761169
 20
108.5693531179
 30
0.0
  0
SPLINE
  5
617
100
AcDbEntity
  8
0
100
AcDbSpline
 62
7
  6
CONTINUOUS
 70
0
 71
3
 72
9
 73
5
 74
0
 42
0.0000001
 43
0.0000001
 44
0.0000000001
 40
0.0
 40
0.0
 40
0.0
 40
0.0
 40
0.1630600666
 40
1.0
 40
1.0
 40
1.0
 40
1.0
 10
286.1390937105
 20
105.5700375393
 30
0.0
 10
286.1867977779
 20
105.5700650534
 30
0.0
 10
286.474309019
 20
105.6818760732
 30
0.0
 10
286.5878042231
 20
105.9971952705
 30
0.0
 10
286.6855101544
 20
106.2217072723
 30
0.0
  0
SPLINE
  5
618
100
AcDbEntity
  8
0
100
AcDbSpline
 62
7
  6
CONTINUOUS
 70
0
 71
3
 72
8
 73
4
 74
0
 42
0.0000001
 43
0.0000001
 44
0.0000000001
 40
0.0
 40
0.0
 40
0.0
 40
0.0
 40
1.0
 40
1.0
 40
1.0
 40
1.0
 10
286.6855101544
 20
106.2217072723
 30
0.0
 10
286.7513194728
 20
106.3729261553
 30
0.0
 10
286.8091401232
 20
106.5276382762
 30
0.0
 10
286.8634116401
 20
106.6833708014
 30
0.0
  0
SPLINE
  5
619
100
AcDbEntity
  8
0
100
AcDbSpline
 62
7
  6
CONTINUOUS
 70
0
 71
3
 72
9
 73
5
 74
0
 42
0.0000001
 43
0.0000001
 44
0.0000000001
 40
0.0
 40
0.0
 40
0.0
 40
0.0
 40
0.2301810123
 40
1.0
 40
1.0
 40
1.0
 40
1.0
 10
286.9137170389
 20
106.8312086308
 30
0.0
 10
286.9575387875
 20
106.9629483975
 30
0.0
 10
287.1381934267
 20
107.5385188184
 30
0.0
 10
287.2947553287
 20
108.1211916047
 30
0.0
 10
287.4162099105
 20
108.5693531179
 30
0.0
  0
ENDSEC
  0
SECTION
  2
OBJECTS
  0
DICTIONARY
  5
C
100
AcDbDictionary
280
0
281
1
  3
ACAD_GROUP
350
D
  3
ACAD_MLINESTYLE
350
17
  3
ACAD_LAYOUT
350
1A
  3
ACAD_PLOTSETTINGS
350
19
  3
ACAD_PLOTSTYLENAME
350
E
  0
DICTIONARY
  5
D
102
{ACAD_REACTORS
330
C
102
}
100
AcDbDictionary
280
0
281
1
  0
ACDBDICTIONARYWDFLT
  5
E
102
{ACAD_REACTORS
330
C
102
}
100
AcDbDictionary
281
1
  3
Normal
350
F
100
AcDbDictionaryWithDefault
340
F
  0
DICTIONARY
  5
17
102
{ACAD_REACTORS
330
C
102
}
100
AcDbDictionary
280
0
281
1
  3
Standard
350
18
  0
DICTIONARY
  5
19
102
{ACAD_REACTORS
330
C
102
}
100
AcDbDictionary
281
1
  0
DICTIONARY
  5
1A
102
{ACAD_REACTORS
330
C
102
}
100
AcDbDictionary
281
1
  3
Model
350
61A
  3
Layout1
350
61B
  0
ACDBPLACEHOLDER
  5
F
102
{ACAD_REACTORS
330
E
102
}
  0
MLINESTYLE
  5
18
102
{ACAD_REACTORS
330
17
102
}
100
AcDbMlineStyle
  2
STANDARD
 70
0
  3

 62
256
 51
90.0
 52
90.0
 71
2
 49
0.5
 62
256
  6
BYLAYER
 49
-0.5
 62
256
  6
BYLAYER
  0
LAYOUT
  5
61A
102
{ACAD_REACTORS
330
1A
102
}
100
AcDbPlotSettings
  1

  2
none_device
  4

  6

 40
0.0
 41
0.0
 42
0.0
 43
0.0
 44
210.0
 45
297.0
 46
0.0
 47
0.0
 48
0.0
 49
0.0
140
0.0
141
0.0
142
1.0
143
1.0
 70
1024
 72
1
 73
0
 74
0
  7

 75
0
147
1.0
148
0.0
149
0.0
100
AcDbLayout
  1
Model
 70
0
 71
0
 10
0.0
 20
0.0
 11
210.0
 21
297.0
 12
0.0
 22
0.0
 32
0.0
 14
0.0
 24
0.0
 34
0.0
 15
0.0
 25
0.0
 35
0.0
146
0.0
 13
0.0
 23
0.0
 33
0.0
 16
1.0
 26
0.0
 36
0.0
 17
0.0
 27
1.0
 37
0.0
 76
0
330
210
345
0
346
0
  0
LAYOUT
  5
61B
102
{ACAD_REACTORS
330
1A
102
}
100
AcDbPlotSettings
  1

  2
none_device
  4

  6

 40
0.0
 41
0.0
 42
0.0
 43
0.0
 44
210.0
 45
297.0
 46
0.0
 47
0.0
 48
0.0
 49
0.0
140
0.0
141
0.0
142
1.0
143
1.0
 70
0
 72
1
 73
0
 74
0
  7

 75
0
147
1.0
148
0.0
149
0.0
100
AcDbLayout
  1
Layout1
 70
0
 71
1
 10
0.0
 20
0.0
 11
210.0
 21
297.0
 12
0.0
 22
0.0
 32
0.0
 14
0.0
 24
0.0
 34
0.0
 15
0.0
 25
0.0
 35
0.0
146
0.0
 13
0.0
 23
0.0
 33
0.0
 16
1.0
 26
0.0
 36
0.0
 17
0.0
 27
1.0
 37
0.0
 76
0
330
211
345
0
346
0
  0
ENDSEC
  0
EOF
