999
DXF file: C:\Users\sesa63760\Dev\_Creo\CAD\MCADID0000406_3D-CAD\drw0001_1.dxf
999
Pro/ENGINEER 2019471 by Parametric Technology Corporation
  0
SECTION
  2
HEADER
  9
$ACADVER
  1
AC1024
  9
$DWGCODEPAGE
  3
ANSI_1252
  9
$EXTMAX
 10
450.7930790339
 20
637.5502117765
 30
0.0
  9
$EXTMIN
 10
0.0
 20
0.0
 30
0.0
  9
$LIMMIN
 10
0.0
 20
0.0
  9
$LIMMAX
 10
450.7930790339
 20
637.5502117765
  9
$VIEWCTR
 10
225.3965395169
 20
318.7751058882
  9
$VIEWSIZE
 40
637.5502117765
  9
$CLAYER
  8
0
  9
$LTSCALE
 40
41.5588286195
  9
$CELTYPE
  6
BYLAYER
  9
$DIMSCALE
 40
1.0
  9
$DIMASZ
 40
5.3665842742
  9
$DIMEXO
 40
1.0
  9
$DIMDLI
 40
28.7133725007
  9
$DIMEXE
 40
1.0
  9
$DIMCEN
 40
6.8005355923
  9
$DIMLFAC
 40
1.0
  9
$DIMBLK
  1
_FILLED
  9
$DIMALT
 70
0
  9
$DIMALTF
 40
0.0393700787
  9
$DIMTXT
 40
7.5132179839
  9
$DIMTOL
 70
1
  9
$DIMLIM
 70
0
  9
$DIMTFAC
 40
1.0
  9
$DIMTP
 40
0.01
  9
$DIMTM
 40
0.01
  9
$DIMGAP
 40
0.625
  9
$DIMDSEP
 70
46
  9
$AUNITS
 70
0
  9
$PDMODE
 70
3
  9
$PDSIZE
 40
0.3125
  9
$HANDSEED
  5
38B
  9
$TILEMODE
 70
1
  9
$MEASUREMENT
 70
1
  9
$INSUNITS
 70
4
  0
ENDSEC
  0
SECTION
  2
CLASSES
  0
CLASS
  1
ACDBDICTIONARYWDFLT
  2
AcDbDictionaryWithDefault
  3
AutoCAD 2000
 90
0
 91
1
280
0
281
0
  0
CLASS
  1
ACDBPLACEHOLDER
  2
AcDbPlaceHolder
  3
AutoCAD 2000
 90
0
 91
1
280
0
281
0
  0
CLASS
  1
LAYOUT
  2
AcDbLayout
  3
AutoCAD 2000
 90
0
 91
0
280
0
281
0
  0
ENDSEC
  0
SECTION
  2
TABLES
  0
TABLE
  2
VPORT
  5
8
100
AcDbSymbolTable
 70
2
  0
VPORT
  5
1F4
100
AcDbSymbolTableRecord
100
AcDbViewportTableRecord
  2
*ACTIVE
 70
0
 10
0.0
 20
0.0
 11
1.0
 21
1.0
 12
225.3965395169
 22
318.7751058882
 13
0.0
 23
0.0
 14
1.0
 24
1.0
 15
0.0
 25
0.0
 16
0.0
 26
0.0
 36
1.0
 17
0.0
 27
0.0
 37
0.0
 40
637.5502117765
 41
0.7070707071
 42
50.0
 43
0.0
 44
0.0
 50
0.0
 51
0.0
 71
0
 72
100
 73
1
 74
1
 75
0
 76
0
 77
0
 78
0
  0
ENDTAB
  0
TABLE
  2
LTYPE
  5
5
100
AcDbSymbolTable
 70
6
  0
LTYPE
  5
14
100
AcDbSymbolTableRecord
100
AcDbLinetypeTableRecord
  2
BYBLOCK
 70
0
  3

 72
65
 73
0
 40
0.0
  0
LTYPE
  5
15
100
AcDbSymbolTableRecord
100
AcDbLinetypeTableRecord
  2
BYLAYER
 70
0
  3

 72
65
 73
0
 40
0.0
  0
LTYPE
  5
16
100
AcDbSymbolTableRecord
100
AcDbLinetypeTableRecord
  2
CONTINUOUS
 70
64
  3
Solid line
 72
65
 73
0
 40
0.0
  0
LTYPE
  5
1F5
100
AcDbSymbolTableRecord
100
AcDbLinetypeTableRecord
  2
CENTER
 70
64
  3
____ _ ____ _ ____ _ ____ _ ____ _ ____ _ ____
 72
65
 73
4
 40
0.6
 49
0.375
 74
0
 49
-0.075
 74
0
 49
0.075
 74
0
 49
-0.075
 74
0
  0
LTYPE
  5
1F6
100
AcDbSymbolTableRecord
100
AcDbLinetypeTableRecord
  2
HIDDEN
 70
64
  3
- - - - - - - - - - - - - - - - - - - -
 72
65
 73
2
 40
0.2
 49
0.1
 74
0
 49
-0.1
 74
0
  0
LTYPE
  5
1F7
100
AcDbSymbolTableRecord
100
AcDbLinetypeTableRecord
  2
PHANTOM
 70
64
  3
_____ _ _ _____ _ _ _____ _ _ _____
 72
65
 73
6
 40
0.8
 49
0.45
 74
0
 49
-0.05
 74
0
 49
0.1
 74
0
 49
-0.05
 74
0
 49
0.1
 74
0
 49
-0.05
 74
0
  0
LTYPE
  5
1F8
100
AcDbSymbolTableRecord
100
AcDbLinetypeTableRecord
  2
DOT
 70
64
  3
. . . . . . . . . . . . . . . . . . . .
 72
65
 73
2
 40
0.2
 49
0.1
 74
0
 49
-0.1
 74
0
  0
LTYPE
  5
1F9
100
AcDbSymbolTableRecord
100
AcDbLinetypeTableRecord
  2
DASHED
 70
64
  3
- - - - - - - - - - - - - - - - - - - -
 72
65
 73
2
 40
0.2
 49
0.1
 74
0
 49
-0.1
 74
0
  0
ENDTAB
  0
TABLE
  2
LAYER
  5
2
100
AcDbSymbolTable
 70
36
  0
LAYER
  5
10
100
AcDbSymbolTableRecord
100
AcDbLayerTableRecord
  2
0
 70
0
 62
7
  6
CONTINUOUS
370
-3
390
F
  0
LAYER
  5
1FA
100
AcDbSymbolTableRecord
100
AcDbLayerTableRecord
  2
DEFAULT_1
 70
0
 62
7
  6
CENTER
370
-3
390
F
  0
LAYER
  5
1FB
100
AcDbSymbolTableRecord
100
AcDbLayerTableRecord
  2
DEFAULT_2
 70
0
 62
8
  6
HIDDEN
370
-3
390
F
  0
LAYER
  5
1FC
100
AcDbSymbolTableRecord
100
AcDbLayerTableRecord
  2
DEFAULT_3
 70
0
 62
7
  6
PHANTOM
370
-3
390
F
  0
LAYER
  5
1FD
100
AcDbSymbolTableRecord
100
AcDbLayerTableRecord
  2
00_COMPONENTS
 70
0
 62
7
  6
CONTINUOUS
370
-3
390
F
  0
LAYER
  5
1FE
100
AcDbSymbolTableRecord
100
AcDbLayerTableRecord
  2
01_1_DEFAULT_DATUMS
 70
0
 62
7
  6
CONTINUOUS
370
-3
390
F
  0
LAYER
  5
1FF
100
AcDbSymbolTableRecord
100
AcDbLayerTableRecord
  2
01_PLANES
 70
0
 62
7
  6
CONTINUOUS
370
-3
390
F
  0
LAYER
  5
200
100
AcDbSymbolTableRecord
100
AcDbLayerTableRecord
  2
02_COORD_SYS
 70
0
 62
7
  6
CONTINUOUS
370
-3
390
F
  0
LAYER
  5
201
100
AcDbSymbolTableRecord
100
AcDbLayerTableRecord
  2
03_AXES
 70
0
 62
7
  6
CONTINUOUS
370
-3
390
F
  0
LAYER
  5
202
100
AcDbSymbolTableRecord
100
AcDbLayerTableRecord
  2
04_POINTS
 70
0
 62
7
  6
CONTINUOUS
370
-3
390
F
  0
LAYER
  5
203
100
AcDbSymbolTableRecord
100
AcDbLayerTableRecord
  2
05_CURVES
 70
0
 62
7
  6
CONTINUOUS
370
-3
390
F
  0
LAYER
  5
204
100
AcDbSymbolTableRecord
100
AcDbLayerTableRecord
  2
06_SURFS
 70
0
 62
7
  6
CONTINUOUS
370
-3
390
F
  0
LAYER
  5
205
100
AcDbSymbolTableRecord
100
AcDbLayerTableRecord
  2
07_COSMETICS
 70
0
 62
7
  6
CONTINUOUS
370
-3
390
F
  0
LAYER
  5
206
100
AcDbSymbolTableRecord
100
AcDbLayerTableRecord
  2
10_NOTES
 70
0
 62
7
  6
CONTINUOUS
370
-3
390
F
  0
LAYER
  5
207
100
AcDbSymbolTableRecord
100
AcDbLayerTableRecord
  2
11_NOTES_PUB
 70
0
 62
7
  6
CONTINUOUS
370
-3
390
F
  0
LAYER
  5
208
100
AcDbSymbolTableRecord
100
AcDbLayerTableRecord
  2
13_REF_GTOL
 70
0
 62
7
  6
CONTINUOUS
370
-3
390
F
  0
LAYER
  5
209
100
AcDbSymbolTableRecord
100
AcDbLayerTableRecord
  2
16_MISC
 70
0
 62
7
  6
CONTINUOUS
370
-3
390
F
  0
LAYER
  5
20A
100
AcDbSymbolTableRecord
100
AcDbLayerTableRecord
  2
17_NO_PRINT
 70
0
 62
7
  6
CONTINUOUS
370
-3
390
F
  0
LAYER
  5
20B
100
AcDbSymbolTableRecord
100
AcDbLayerTableRecord
  2
18_DATUM_CAMS_JOINTS
 70
0
 62
7
  6
CONTINUOUS
370
-3
390
F
  0
LAYER
  5
20C
100
AcDbSymbolTableRecord
100
AcDbLayerTableRecord
  2
19_DATUM_FUNCTIONAL
 70
0
 62
7
  6
CONTINUOUS
370
-3
390
F
  0
LAYER
  5
20D
100
AcDbSymbolTableRecord
100
AcDbLayerTableRecord
  2
20_DATUM_KINEMATIC_SCHEME
 70
0
 62
7
  6
CONTINUOUS
370
-3
390
F
  0
LAYER
  5
20E
100
AcDbSymbolTableRecord
100
AcDbLayerTableRecord
  2
_1
 70
0
 62
7
  6
CONTINUOUS
370
-3
390
F
  0
ENDTAB
  0
TABLE
  2
STYLE
  5
3
100
AcDbSymbolTable
 70
1
  0
STYLE
  5
11
100
AcDbSymbolTableRecord
100
AcDbTextStyleTableRecord
  2
STANDARD
 70
0
 40
0.0
 41
0.8
 50
0.0
 71
0
 42
0.2
  3
txt
  4

  0
STYLE
  5
20F
100
AcDbSymbolTableRecord
100
AcDbTextStyleTableRecord
  2
TEXTSTYLE_1
 70
0
 40
0.0
 41
0.8
 50
0.0
 71
0
 42
0.2
  3
gdt
  4

  0
ENDTAB
  0
TABLE
  2
VIEW
  5
6
100
AcDbSymbolTable
 70
0
  0
ENDTAB
  0
TABLE
  2
UCS
  5
7
100
AcDbSymbolTable
 70
0
  0
ENDTAB
  0
TABLE
  2
APPID
  5
9
100
AcDbSymbolTable
 70
1
  0
APPID
  5
210
100
AcDbSymbolTableRecord
100
AcDbRegAppTableRecord
  2
ACAD
 70
0
  0
ENDTAB
  0
TABLE
  2
BLOCK_RECORD
  5
1
100
AcDbSymbolTable
 70
0
  0
BLOCK_RECORD
  5
211
100
AcDbSymbolTableRecord
100
AcDbBlockTableRecord
  2
*Model_Space
  0
BLOCK_RECORD
  5
212
100
AcDbSymbolTableRecord
100
AcDbBlockTableRecord
  2
*Paper_Space
  0
BLOCK_RECORD
  5
213
100
AcDbSymbolTableRecord
100
AcDbBlockTableRecord
  2
_FILLED
  0
ENDTAB
  0
TABLE
  2
DIMSTYLE
  5
A
100
AcDbSymbolTable
 70
1
100
AcDbDimStyleTable
 71
0
  0
DIMSTYLE
105
214
100
AcDbSymbolTableRecord
100
AcDbDimStyleTableRecord
  2
STANDARD
 70
0
  3

  4

 40
1.0
 41
5.3665842742
 42
1.0
 43
0.38
 44
1.0
 45
0.0
 46
0.0
 47
0.01
 48
0.01
140
7.5132179839
141
0.09
142
0.0
143
25.4
144
1.0
145
0.0
146
1.0
147
0.625
 71
1
 72
0
 73
0
 74
0
 75
0
 76
0
 77
1
 78
8
 79
2
170
0
171
1
172
0
173
0
174
0
175
0
176
0
177
0
178
0
270
2
179
2
271
2
272
2
273
2
274
2
275
0
280
0
281
0
282
0
283
1
284
8
285
0
286
0
287
3
288
0
340
11
278
46
341
213
342
213
343
213
344
213
  0
ENDTAB
  0
ENDSEC
  0
SECTION
  2
BLOCKS
  0
BLOCK
  5
20
100
AcDbEntity
  8
0
100
AcDbBlockBegin
  2
*Model_Space
 70
0
 10
0.0
 20
0.0
 30
0.0
  3
*Model_Space
  1

  0
ENDBLK
  5
21
100
AcDbEntity
  8
0
100
AcDbBlockEnd
  0
BLOCK
  5
1C
100
AcDbEntity
  8
0
100
AcDbBlockBegin
  2
*Paper_Space
 70
0
 10
0.0
 20
0.0
 30
0.0
  3
*Paper_Space
  1

  0
ENDBLK
  5
1D
100
AcDbEntity
  8
0
100
AcDbBlockEnd
  0
BLOCK
  5
215
100
AcDbEntity
  8
0
100
AcDbBlockBegin
  2
_FILLED
 70
64
 10
0.0
 20
0.0
  3
_FILLED
  1

  0
SOLID
  5
216
100
AcDbEntity
  8
0
  6
BYBLOCK
 62
0
100
AcDbTrace
 10
0.0
 20
0.0
 11
-1.0
 21
0.25
 12
-1.0
 22
-0.25
 13
-1.0
 23
-0.25
  0
ENDBLK
  5
217
100
AcDbEntity
  8
0
  6
BYBLOCK
 62
0
100
AcDbBlockEnd
  0
ENDSEC
  0
SECTION
  2
ENTITIES
  0
LINE
  5
218
100
AcDbEntity
  8
_1
100
AcDbLine
 62
7
  6
CONTINUOUS
 10
113.1543143534
 20
477.4594743487
 11
100.1928869205
 21
469.9762354002
  0
LINE
  5
219
100
AcDbEntity
  8
_1
100
AcDbLine
 62
7
  6
CONTINUOUS
 10
53.7113913399
 20
320.8751224696
 11
53.7113913399
 21
342.6237252369
  0
LINE
  5
21A
100
AcDbEntity
  8
_1
100
AcDbLine
 62
7
  6
CONTINUOUS
 10
53.2181250733
 20
367.1983181133
 11
57.407695547
 21
394.3444367284
  0
LINE
  5
21B
100
AcDbEntity
  8
_1
100
AcDbLine
 62
7
  6
CONTINUOUS
 10
63.0645733482
 20
391.0785106922
 11
58.8750028745
 21
363.9323920771
  0
LINE
  5
21C
100
AcDbEntity
  8
_1
100
AcDbLine
 62
7
  6
CONTINUOUS
 10
64.8186767273
 20
403.256376622
 11
64.0801078694
 21
415.0260821593
  0
LINE
  5
21D
100
AcDbEntity
  8
_1
100
AcDbLine
 62
7
  6
CONTINUOUS
 10
59.3682691411
 20
339.3577992007
 11
59.3682691411
 21
317.6091964334
  0
LINE
  5
21E
100
AcDbEntity
  8
_1
100
AcDbLine
 62
7
  6
CONTINUOUS
 10
64.0801078694
 20
415.0260821593
 11
64.0801078694
 21
417.0951117221
  0
LINE
  5
21F
100
AcDbEntity
  8
_1
100
AcDbLine
 62
7
  6
CONTINUOUS
 10
72.0960557799
 20
427.9527421207
 11
93.6401108438
 21
440.3911338641
  0
LINE
  5
220
100
AcDbEntity
  8
_1
100
AcDbLine
 62
7
  6
CONTINUOUS
 10
102.4269674284
 20
434.0333612876
 11
81.9955919319
 21
422.2373715574
  0
LINE
  5
221
100
AcDbEntity
  8
_1
100
AcDbLine
 62
7
  6
CONTINUOUS
 10
53.7113913399
 20
342.6237252369
 11
53.2181250733
 21
345.2502486555
  0
LINE
  5
222
100
AcDbEntity
  8
_1
100
AcDbLine
 62
7
  6
CONTINUOUS
 10
58.8750028745
 20
341.9843226194
 11
59.3682691411
 21
339.3577992007
  0
LINE
  5
223
100
AcDbEntity
  8
_1
100
AcDbLine
 62
7
  6
CONTINUOUS
 10
73.9796440215
 20
411.3797411588
 11
73.9796440215
 21
409.3107115961
  0
LINE
  5
224
100
AcDbEntity
  8
_1
100
AcDbLine
 62
7
  6
CONTINUOUS
 10
92.7631818043
 20
373.9323990024
 11
88.5736113306
 21
346.7862803873
  0
LINE
  5
225
100
AcDbEntity
  8
_1
100
AcDbLine
 62
7
  6
CONTINUOUS
 10
60.544624011
 20
399.1044253512
 11
59.6449158554
 21
398.5849817061
  0
LINE
  5
226
100
AcDbEntity
  8
_1
100
AcDbLine
 62
7
  6
CONTINUOUS
 10
66.2015018121
 20
395.8384993151
 11
65.3017936566
 21
395.3190556699
  0
LINE
  5
227
100
AcDbEntity
  8
_1
100
AcDbLine
 62
7
  6
CONTINUOUS
 10
92.5315238927
 20
456.7062917176
 11
92.5315238927
 21
441.7395551912
  0
LINE
  5
228
100
AcDbEntity
  8
_1
100
AcDbLine
 62
7
  6
CONTINUOUS
 10
162.6056766675
 20
434.4848389463
 11
161.8033220381
 21
434.0216020501
  0
LINE
  5
229
100
AcDbEntity
  8
_1
100
AcDbLine
 62
7
  6
CONTINUOUS
 10
116.9975144948
 20
403.2541815712
 11
122.5176699713
 21
406.4412257975
  0
LINE
  5
22A
100
AcDbEntity
  8
_1
100
AcDbLine
 62
7
  6
CONTINUOUS
 10
124.7556738643
 20
407.7333302347
 11
125.0336934015
 21
407.8938439312
  0
LINE
  5
22B
100
AcDbEntity
  8
_1
100
AcDbLine
 62
7
  6
CONTINUOUS
 10
124.7556738643
 20
407.1210416053
 11
123.7350573874
 21
406.531791925
  0
LINE
  5
22C
100
AcDbEntity
  8
_1
100
AcDbLine
 62
7
  6
CONTINUOUS
 10
92.7631818043
 20
302.529762719
 11
88.5736113306
 21
324.8382109295
  0
LINE
  5
22D
100
AcDbEntity
  8
_1
100
AcDbLine
 62
7
  6
CONTINUOUS
 10
103.6782524777
 20
394.2336294689
 11
103.6782524777
 21
392.1645999062
  0
LINE
  5
22E
100
AcDbEntity
  8
_1
100
AcDbLine
 62
7
  6
CONTINUOUS
 10
108.4414927085
 20
448.9515634442
 11
108.4414927085
 21
431.1234495117
  0
LINE
  5
22F
100
AcDbEntity
  8
_1
100
AcDbLine
 62
7
  6
CONTINUOUS
 10
111.2699198332
 20
451.5376409949
 11
111.2699198332
 21
428.5373855552
  0
LINE
  5
230
100
AcDbEntity
  8
_1
100
AcDbLine
 62
7
  6
CONTINUOUS
 10
118.212664536
 20
424.0599068645
 11
118.212664536
 21
451.8849619854
  0
LINE
  5
231
100
AcDbEntity
  8
_1
100
AcDbLine
 62
7
  6
CONTINUOUS
 10
118.212664536
 20
451.8849619852
 11
118.2690697063
 21
452.636714166
  0
LINE
  5
232
100
AcDbEntity
  8
_1
100
AcDbLine
 62
7
  6
CONTINUOUS
 10
95.0004021127
 20
378.17294398
 11
95.9001102683
 21
378.6923876252
  0
LINE
  5
233
100
AcDbEntity
  8
_1
100
AcDbLine
 62
7
  6
CONTINUOUS
 10
121.9672830745
 20
408.9812730413
 11
121.9672830745
 21
407.5523938113
  0
LINE
  5
234
100
AcDbEntity
  8
_1
100
AcDbLine
 62
7
  6
CONTINUOUS
 10
122.3139009419
 20
449.7406998659
 11
122.3139009419
 21
421.4685762252
  0
LINE
  5
235
100
AcDbEntity
  8
_1
100
AcDbLine
 62
7
  6
CONTINUOUS
 10
122.3408619925
 20
408.176347258
 11
122.3408619925
 21
406.747468028
  0
LINE
  5
236
100
AcDbEntity
  8
_1
100
AcDbLine
 62
7
  6
CONTINUOUS
 10
123.7350573874
 20
406.531791925
 11
123.7350573874
 21
407.960671155
  0
LINE
  5
237
100
AcDbEntity
  8
_1
100
AcDbLine
 62
7
  6
CONTINUOUS
 10
124.5746819048
 20
419.2577039887
 11
124.5746819048
 21
418.1962508464
  0
LINE
  5
238
100
AcDbEntity
  8
_1
100
AcDbLine
 62
7
  6
CONTINUOUS
 10
124.7556738643
 20
407.1210416053
 11
124.7556738643
 21
408.5499208353
  0
LINE
  5
239
100
AcDbEntity
  8
_1
100
AcDbLine
 62
7
  6
CONTINUOUS
 10
131.2020069424
 20
442.7832414202
 11
131.2020069424
 21
415.7385280822
  0
LINE
  5
23A
100
AcDbEntity
  8
_1
100
AcDbLine
 62
7
  6
CONTINUOUS
 10
309.8420211396
 20
156.3331055327
 11
301.3567044379
 21
161.2319945869
  0
LINE
  5
23B
100
AcDbEntity
  8
_1
100
AcDbLine
 62
7
  6
CONTINUOUS
 10
307.5637856116
 20
161.3687531587
 11
299.0784689099
 21
166.2676422129
  0
LINE
  5
23C
100
AcDbEntity
  8
_1
100
AcDbLine
 62
7
  6
CONTINUOUS
 10
77.9694439332
 20
306.0060978229
 11
78.0849255483
 21
305.9235765439
  0
LINE
  5
23D
100
AcDbEntity
  8
_1
100
AcDbLine
 62
7
  6
CONTINUOUS
 10
55.3546581004
 20
319.046860817
 11
55.2788507353
 21
319.1062215658
  0
LINE
  5
23E
100
AcDbEntity
  8
_1
100
AcDbLine
 62
7
  6
CONTINUOUS
 10
60.9357285365
 20
315.8402955297
 11
61.0115359016
 21
315.7809347808
  0
LINE
  5
23F
100
AcDbEntity
  8
_1
100
AcDbLine
 62
7
  6
CONTINUOUS
 10
143.1805748289
 20
396.7340504057
 11
143.1805748289
 21
395.3051711757
  0
LINE
  5
240
100
AcDbEntity
  8
_1
100
AcDbLine
 62
7
  6
CONTINUOUS
 10
144.9483491418
 20
394.2845692894
 11
144.9483491418
 21
395.7134485194
  0
LINE
  5
241
100
AcDbEntity
  8
_1
100
AcDbLine
 62
7
  6
CONTINUOUS
 10
89.0668775973
 20
322.2116875109
 11
74.0036591433
 21
309.1596412305
  0
LINE
  5
242
100
AcDbEntity
  8
_1
100
AcDbLine
 62
7
  6
CONTINUOUS
 10
60.9288656218
 20
315.8284082452
 11
55.3545473917
 21
319.0466695691
  0
LINE
  5
243
100
AcDbEntity
  8
_1
100
AcDbLine
 62
7
  6
CONTINUOUS
 10
61.0114251929
 20
315.7807435329
 11
78.0850714684
 21
305.9234922606
  0
LINE
  5
244
100
AcDbEntity
  8
_1
100
AcDbLine
 62
7
  6
CONTINUOUS
 10
77.9694439332
 20
306.0060978229
 11
55.2788506998
 21
319.1062216029
  0
LINE
  5
245
100
AcDbEntity
  8
_1
100
AcDbLine
 62
7
  6
CONTINUOUS
 10
74.0036591433
 20
309.1596412305
 11
53.7113913399
 21
320.8751224696
  0
LINE
  5
246
100
AcDbEntity
  8
_1
100
AcDbLine
 62
7
  6
CONTINUOUS
 10
94.5004105962
 20
300.8229939311
 11
299.0784689099
 21
182.7124689105
  0
LINE
  5
247
100
AcDbEntity
  8
_1
100
AcDbLine
 62
7
  6
CONTINUOUS
 10
299.0784689099
 20
182.7214264247
 11
94.4421301072
 21
300.8655989401
  0
LINE
  5
248
100
AcDbEntity
  8
_1
100
AcDbLine
 62
7
  6
CONTINUOUS
 10
299.0784689099
 20
183.4162708779
 11
92.7631818043
 21
302.529762719
  0
LINE
  5
249
100
AcDbEntity
  8
_1
100
AcDbLine
 62
7
  6
CONTINUOUS
 10
94.500528977
 20
300.8231986558
 11
94.4421301072
 21
300.8655989401
  0
LINE
  5
24A
100
AcDbEntity
  8
_1
100
AcDbLine
 62
7
  6
CONTINUOUS
 10
124.9171287306
 20
416.0686375583
 11
124.5749557783
 21
418.1962507604
  0
LINE
  5
24B
100
AcDbEntity
  8
_1
100
AcDbLine
 62
7
  6
CONTINUOUS
 10
151.5252126617
 20
410.1743300757
 11
151.5252126617
 21
442.7527765191
  0
LINE
  5
24C
100
AcDbEntity
  8
_1
100
AcDbLine
 62
7
  6
CONTINUOUS
 10
154.3317998125
 20
457.3244558239
 11
154.3317998125
 21
465.961299445
  0
LINE
  5
24D
100
AcDbEntity
  8
_1
100
AcDbLine
 62
7
  6
CONTINUOUS
 10
154.7322836659
 20
441.8893814453
 11
154.7322836659
 21
409.3109350018
  0
LINE
  5
24E
100
AcDbEntity
  8
_1
100
AcDbLine
 62
7
  6
CONTINUOUS
 10
161.7746819048
 20
451.8361504322
 11
161.7746819048
 21
446.007282347
  0
LINE
  5
24F
100
AcDbEntity
  8
_1
100
AcDbLine
 62
7
  6
CONTINUOUS
 10
161.8033220381
 20
413.3933765405
 11
161.8033220381
 21
445.971822984
  0
LINE
  5
250
100
AcDbEntity
  8
_1
100
AcDbLine
 62
7
  6
CONTINUOUS
 10
164.3936899453
 20
408.9813750218
 11
164.3936899453
 21
407.5524957918
  0
LINE
  5
251
100
AcDbEntity
  8
_1
100
AcDbLine
 62
7
  6
CONTINUOUS
 10
164.5746819048
 20
419.2577039887
 11
164.5746819048
 21
418.1962508464
  0
LINE
  5
252
100
AcDbEntity
  8
_1
100
AcDbLine
 62
7
  6
CONTINUOUS
 10
166.1614642582
 20
406.5318939055
 11
166.1614642582
 21
407.9607731355
  0
LINE
  5
253
100
AcDbEntity
  8
_1
100
AcDbLine
 62
7
  6
CONTINUOUS
 10
323.5009498892
 20
181.2151506998
 11
325.9758339272
 21
179.786308059
  0
LINE
  5
254
100
AcDbEntity
  8
_1
100
AcDbLine
 62
7
  6
CONTINUOUS
 10
53.7113913399
 20
342.6237252369
 11
89.0668775973
 21
322.2116875109
  0
LINE
  5
255
100
AcDbEntity
  8
_1
100
AcDbLine
 62
7
  6
CONTINUOUS
 10
307.5637856116
 20
197.743752336
 11
299.0784689099
 21
202.6426413902
  0
LINE
  5
256
100
AcDbEntity
  8
_1
100
AcDbLine
 62
7
  6
CONTINUOUS
 10
53.2181250733
 20
345.2502486555
 11
307.4240712636
 21
198.4876974055
  0
LINE
  5
257
100
AcDbEntity
  8
_1
100
AcDbLine
 62
7
  6
CONTINUOUS
 10
292.4912520182
 20
186.5157873901
 11
292.4328531484
 21
186.5581876744
  0
LINE
  5
258
100
AcDbEntity
  8
_1
100
AcDbLine
 62
7
  6
CONTINUOUS
 10
94.4972089933
 20
300.8092478121
 11
93.8409207901
 21
300.9654294901
  0
LINE
  5
259
100
AcDbEntity
  8
_1
100
AcDbLine
 62
7
  6
CONTINUOUS
 10
92.2369957128
 20
301.4175879825
 11
94.442130106
 21
300.8655989412
  0
LINE
  5
25A
100
AcDbEntity
  8
_1
100
AcDbLine
 62
7
  6
CONTINUOUS
 10
307.4240712636
 20
220.4357668633
 11
53.2181250733
 21
367.1983181133
  0
LINE
  5
25B
100
AcDbEntity
  8
_1
100
AcDbLine
 62
7
  6
CONTINUOUS
 10
121.9672830745
 20
407.5523938113
 11
122.3408619925
 21
406.747468028
  0
LINE
  5
25C
100
AcDbEntity
  8
_1
100
AcDbLine
 62
7
  6
CONTINUOUS
 10
161.7746786335
 20
451.8361504321
 11
161.6183126194
 21
453.17212685
  0
LINE
  5
25D
100
AcDbEntity
  8
_1
100
AcDbLine
 62
7
  6
CONTINUOUS
 10
299.0784689099
 20
226.2399282569
 11
307.5637856116
 21
221.3410392026
  0
LINE
  5
25E
100
AcDbEntity
  8
_1
100
AcDbLine
 62
7
  6
CONTINUOUS
 10
143.1805748289
 20
395.3051711757
 11
143.5541537469
 21
394.5002453924
  0
LINE
  5
25F
100
AcDbEntity
  8
_1
100
AcDbLine
 62
7
  6
CONTINUOUS
 10
346.5434371971
 20
222.7598307845
 11
346.1898823346
 21
222.9639511617
  0
LINE
  5
260
100
AcDbEntity
  8
_1
100
AcDbLine
 62
7
  6
CONTINUOUS
 10
56.9462450413
 20
392.8777428561
 11
57.1621013405
 21
392.7531209829
  0
LINE
  5
261
100
AcDbEntity
  8
_1
100
AcDbLine
 62
7
  6
CONTINUOUS
 10
57.407695547
 20
394.3444367284
 11
299.0784689099
 21
254.8189071613
  0
LINE
  5
262
100
AcDbEntity
  8
_1
100
AcDbLine
 62
7
  6
CONTINUOUS
 10
384.6488767952
 20
207.1109597178
 11
350.000500263
 21
227.1147566893
  0
LINE
  5
263
100
AcDbEntity
  8
_1
100
AcDbLine
 62
7
  6
CONTINUOUS
 10
59.0866438499
 20
397.9472714443
 11
299.0784689099
 21
259.3910612029
  0
LINE
  5
264
100
AcDbEntity
  8
_1
100
AcDbLine
 62
7
  6
CONTINUOUS
 10
299.0784689099
 20
260.3510826657
 11
59.6449158554
 21
398.5849817061
  0
LINE
  5
265
100
AcDbEntity
  8
_1
100
AcDbLine
 62
7
  6
CONTINUOUS
 10
60.544624011
 20
399.1044253512
 11
307.5637856116
 21
256.4912847543
  0
LINE
  5
266
100
AcDbEntity
  8
_1
100
AcDbLine
 62
7
  6
CONTINUOUS
 10
61.1961729314
 20
400.2390004204
 11
61.6356987266
 21
399.9852458249
  0
LINE
  5
267
100
AcDbEntity
  8
_1
100
AcDbLine
 62
7
  6
CONTINUOUS
 10
346.1997844489
 20
222.974469416
 11
346.2222546272
 21
222.9594034629
  0
LINE
  5
268
100
AcDbEntity
  8
_1
100
AcDbLine
 62
7
  6
CONTINUOUS
 10
164.3936899453
 20
407.5524957918
 11
164.7672688633
 21
406.7475700085
  0
LINE
  5
269
100
AcDbEntity
  8
_1
100
AcDbLine
 62
7
  6
CONTINUOUS
 10
382.163481843
 20
228.3739430948
 11
359.5359706383
 21
241.4376472395
  0
LINE
  5
26A
100
AcDbEntity
  8
_1
100
AcDbLine
 62
7
  6
CONTINUOUS
 10
359.5359706383
 20
244.4475131603
 11
382.163481843
 21
231.3838090156
  0
LINE
  5
26B
100
AcDbEntity
  8
_1
100
AcDbLine
 62
7
  6
CONTINUOUS
 10
315.341927821
 20
269.9634970353
 11
64.0801078694
 21
415.0260821593
  0
LINE
  5
26C
100
AcDbEntity
  8
_1
100
AcDbLine
 62
7
  6
CONTINUOUS
 10
64.0801078694
 20
417.0951117221
 11
308.6482848622
 21
275.8968032327
  0
LINE
  5
26D
100
AcDbEntity
  8
_1
100
AcDbLine
 62
7
  6
CONTINUOUS
 10
309.4897437338
 20
276.3826168388
 11
64.3589165143
 21
417.9057642392
  0
LINE
  5
26E
100
AcDbEntity
  8
_1
100
AcDbLine
 62
7
  6
CONTINUOUS
 10
396.6486731908
 20
227.8956869583
 11
388.9918971918
 21
232.3162286364
  0
LINE
  5
26F
100
AcDbEntity
  8
_1
100
AcDbLine
 62
7
  6
CONTINUOUS
 10
387.8203125407
 20
234.6497622466
 11
365.192801336
 21
247.7134663913
  0
LINE
  5
270
100
AcDbEntity
  8
_1
100
AcDbLine
 62
7
  6
CONTINUOUS
 10
364.0431402742
 20
253.0708913436
 11
363.6895854116
 21
253.2750117208
  0
LINE
  5
271
100
AcDbEntity
  8
_1
100
AcDbLine
 62
7
  6
CONTINUOUS
 10
71.7633010329
 20
427.6645681168
 11
321.6433980554
 21
283.3994905479
  0
LINE
  5
272
100
AcDbEntity
  8
_1
100
AcDbLine
 62
7
  6
CONTINUOUS
 10
322.0593436193
 20
283.6396353978
 11
72.0960557799
 21
427.9527421207
  0
LINE
  5
273
100
AcDbEntity
  8
_1
100
AcDbLine
 62
7
  6
CONTINUOUS
 10
112.4711053414
 20
427.6471609392
 11
111.2699198332
 21
428.5373855552
  0
LINE
  5
274
100
AcDbEntity
  8
_1
100
AcDbLine
 62
7
  6
CONTINUOUS
 10
346.2015735305
 20
222.9774089248
 11
346.2222546272
 21
222.9594034629
  0
LINE
  5
275
100
AcDbEntity
  8
_1
100
AcDbLine
 62
7
  6
CONTINUOUS
 10
154.3135901111
 20
465.9875526159
 11
154.3302782467
 21
465.9620790318
  0
LINE
  5
276
100
AcDbEntity
  8
_1
100
AcDbLine
 62
7
  6
CONTINUOUS
 10
95.4055178693
 20
438.4977676225
 11
112.4710474666
 21
427.6470938691
  0
LINE
  5
277
100
AcDbEntity
  8
_1
100
AcDbLine
 62
7
  6
CONTINUOUS
 10
161.9488846802
 20
424.9770850162
 11
161.9243504561
 21
425.0018562502
  0
LINE
  5
278
100
AcDbEntity
  8
_1
100
AcDbLine
 62
7
  6
CONTINUOUS
 10
161.8033220381
 20
445.971822984
 11
160.3078298196
 21
447.823392632
  0
LINE
  5
279
100
AcDbEntity
  8
_1
100
AcDbLine
 62
7
  6
CONTINUOUS
 10
84.3700610896
 20
447.1705896267
 11
92.5315238927
 21
442.4586734782
  0
LINE
  5
27A
100
AcDbEntity
  8
_1
100
AcDbLine
 62
7
  6
CONTINUOUS
 10
164.1149858002
 20
407.8942910898
 11
164.3936899453
 21
407.7333848168
  0
LINE
  5
27B
100
AcDbEntity
  8
_1
100
AcDbLine
 62
7
  6
CONTINUOUS
 10
166.3181209886
 20
406.6223391711
 11
172.1518434269
 21
403.2543141459
  0
LINE
  5
27C
100
AcDbEntity
  8
_1
100
AcDbLine
 62
7
  6
CONTINUOUS
 10
161.8033220381
 20
424.9291673949
 11
161.7746819048
 21
424.9523037646
  0
LINE
  5
27D
100
AcDbEntity
  8
_1
100
AcDbLine
 62
7
  6
CONTINUOUS
 10
286.5643343718
 20
210.5307996638
 11
290.7539048455
 21
188.2223514533
  0
LINE
  5
27E
100
AcDbEntity
  8
_1
100
AcDbLine
 62
7
  6
CONTINUOUS
 10
360.5963997087
 20
320.1774276806
 11
309.6849234293
 21
290.7838486019
  0
LINE
  5
27F
100
AcDbEntity
  8
_1
100
AcDbLine
 62
7
  6
CONTINUOUS
 10
368.4051176467
 20
319.0333433772
 11
368.3335389742
 21
319.0644753457
  0
LINE
  5
280
100
AcDbEntity
  8
_1
100
AcDbLine
 62
7
  6
CONTINUOUS
 10
388.4998470324
 20
293.7990899192
 11
390.9747310704
 21
292.3702472784
  0
LINE
  5
281
100
AcDbEntity
  8
_1
100
AcDbLine
 62
7
  6
CONTINUOUS
 10
307.4240712636
 20
198.4876974055
 11
307.5637856116
 21
197.743752336
  0
LINE
  5
282
100
AcDbEntity
  8
_1
100
AcDbLine
 62
7
  6
CONTINUOUS
 10
299.0784689099
 20
261.3901738085
 11
299.0784689099
 21
226.2399282569
  0
LINE
  5
283
100
AcDbEntity
  8
_1
100
AcDbLine
 62
7
  6
CONTINUOUS
 10
299.0784689099
 20
202.6426413902
 11
299.0784689099
 21
166.2676422129
  0
LINE
  5
284
100
AcDbEntity
  8
_1
100
AcDbLine
 62
7
  6
CONTINUOUS
 10
301.6689755188
 20
279.9262182033
 11
301.6689755188
 21
277.8571886405
  0
LINE
  5
285
100
AcDbEntity
  8
_1
100
AcDbLine
 62
7
  6
CONTINUOUS
 10
307.5637856116
 20
256.4912847543
 11
307.5637856116
 21
221.3410392026
  0
LINE
  5
286
100
AcDbEntity
  8
_1
100
AcDbLine
 62
7
  6
CONTINUOUS
 10
307.5637856116
 20
197.743752336
 11
307.5637856116
 21
161.3687531587
  0
LINE
  5
287
100
AcDbEntity
  8
_1
100
AcDbLine
 62
7
  6
CONTINUOUS
 10
290.7539048455
 20
259.6249877367
 11
286.5643343718
 21
232.4788691216
  0
LINE
  5
288
100
AcDbEntity
  8
_1
100
AcDbLine
 62
7
  6
CONTINUOUS
 10
306.8566111192
 20
274.8623860895
 11
322.0593436193
 21
283.6396353978
  0
LINE
  5
289
100
AcDbEntity
  8
_1
100
AcDbLine
 62
7
  6
CONTINUOUS
 10
372.9708198987
 20
313.0332144765
 11
388.1735523988
 21
321.8104637847
  0
LINE
  5
28A
100
AcDbEntity
  8
_1
100
AcDbLine
 62
7
  6
CONTINUOUS
 10
293.8908333095
 20
264.3849763595
 11
292.9911251539
 21
263.8655327144
  0
LINE
  5
28B
100
AcDbEntity
  8
_1
100
AcDbLine
 62
7
  6
CONTINUOUS
 10
122.3408619925
 20
406.747468028
 11
123.7350573874
 21
406.531791925
  0
LINE
  5
28C
100
AcDbEntity
  8
_1
100
AcDbLine
 62
7
  6
CONTINUOUS
 10
154.7322836659
 20
409.3109350018
 11
151.5252126617
 21
410.1743300757
  0
LINE
  5
28D
100
AcDbEntity
  8
_1
100
AcDbLine
 62
7
  6
CONTINUOUS
 10
170.4143946056
 20
433.3407546429
 11
170.3428159331
 21
433.3718866113
  0
LINE
  5
28E
100
AcDbEntity
  8
_1
100
AcDbLine
 62
7
  6
CONTINUOUS
 10
161.8033220381
 20
434.9480681279
 11
372.9708198987
 21
313.0332144765
  0
LINE
  5
28F
100
AcDbEntity
  8
_1
100
AcDbLine
 62
7
  6
CONTINUOUS
 10
161.8033220381
 20
435.2362356125
 11
373.2203838287
 21
313.1772994186
  0
LINE
  5
290
100
AcDbEntity
  8
_1
100
AcDbLine
 62
7
  6
CONTINUOUS
 10
161.8033220381
 20
438.3020541751
 11
375.8754985443
 21
314.710221464
  0
LINE
  5
291
100
AcDbEntity
  8
_1
100
AcDbLine
 62
7
  6
CONTINUOUS
 10
161.8033220381
 20
438.312519332
 11
170.3473474277
 21
433.3797355678
  0
LINE
  5
292
100
AcDbEntity
  8
_1
100
AcDbLine
 62
7
  6
CONTINUOUS
 10
170.4145122572
 20
433.3409588127
 11
375.8845617656
 21
314.7154540861
  0
LINE
  5
293
100
AcDbEntity
  8
_1
100
AcDbLine
 62
7
  6
CONTINUOUS
 10
104.3697217491
 20
481.8118016943
 11
112.5313345568
 21
477.0997989425
  0
LINE
  5
294
100
AcDbEntity
  8
_1
100
AcDbLine
 62
7
  6
CONTINUOUS
 10
388.1735523988
 20
321.8104637847
 11
396.6588691006
 21
316.9115747305
  0
LINE
  5
295
100
AcDbEntity
  8
_1
100
AcDbLine
 62
7
  6
CONTINUOUS
 10
307.5637856116
 20
221.3410392026
 11
307.4240712636
 21
220.4357668633
  0
LINE
  5
296
100
AcDbEntity
  8
_1
100
AcDbLine
 62
7
  6
CONTINUOUS
 10
396.6588691006
 20
316.9115747305
 11
315.341927821
 21
269.9634970353
  0
LINE
  5
297
100
AcDbEntity
  8
_1
100
AcDbLine
 62
7
  6
CONTINUOUS
 10
161.6183126194
 20
453.17212685
 11
159.4016214649
 21
454.29740893
  0
LINE
  5
298
100
AcDbEntity
  8
_1
100
AcDbLine
 62
7
  6
CONTINUOUS
 10
161.6183126194
 20
453.17212685
 11
159.4057455373
 21
454.3001069307
  0
LINE
  5
299
100
AcDbEntity
  8
_1
100
AcDbLine
 62
7
  6
CONTINUOUS
 10
117.398436595
 20
476.5914820376
 11
135.5335844135
 21
467.1309201507
  0
LINE
  5
29A
100
AcDbEntity
  8
_1
100
AcDbLine
 62
7
  6
CONTINUOUS
 10
148.7726619396
 20
460.2244910709
 11
159.5550482206
 21
454.5996440214
  0
LINE
  5
29B
100
AcDbEntity
  8
_1
100
AcDbLine
 62
7
  6
CONTINUOUS
 10
402.1587757819
 20
317.4563814606
 11
393.6734590802
 21
322.3552705149
  0
LINE
  5
29C
100
AcDbEntity
  8
_1
100
AcDbLine
 62
7
  6
CONTINUOUS
 10
118.8579778339
 20
482.7376553639
 11
128.4124477146
 21
477.2215043983
  0
LINE
  5
29D
100
AcDbEntity
  8
_1
100
AcDbLine
 62
7
  6
CONTINUOUS
 10
151.5252126617
 20
442.7527765191
 11
154.7322836659
 21
441.8893814453
  0
LINE
  5
29E
100
AcDbEntity
  8
_1
100
AcDbLine
 62
7
  6
CONTINUOUS
 10
131.434171278
 20
476.8853333406
 11
154.3159285239
 21
465.9864388911
  0
LINE
  5
29F
100
AcDbEntity
  8
_1
100
AcDbLine
 62
7
  6
CONTINUOUS
 10
358.3643859871
 20
243.3549284834
 11
358.3643859871
 21
246.0804897758
  0
LINE
  5
2A0
100
AcDbEntity
  8
_1
100
AcDbLine
 62
7
  6
CONTINUOUS
 10
135.5248078474
 20
467.1140961686
 11
135.6158771138
 21
467.0879458704
  0
LINE
  5
2A1
100
AcDbEntity
  8
_1
100
AcDbLine
 62
7
  6
CONTINUOUS
 10
359.5359706383
 20
241.4376472395
 11
359.5359706383
 21
244.4475131603
  0
LINE
  5
2A2
100
AcDbEntity
  8
_1
100
AcDbLine
 62
7
  6
CONTINUOUS
 10
387.326580878
 20
212.9915489647
 11
387.0425513111
 21
214.6047932449
  0
LINE
  5
2A3
100
AcDbEntity
  8
_1
100
AcDbLine
 62
7
  6
CONTINUOUS
 10
382.163481843
 20
231.3838090156
 11
382.163481843
 21
228.3739430948
  0
LINE
  5
2A4
100
AcDbEntity
  8
_1
100
AcDbLine
 62
7
  6
CONTINUOUS
 10
388.9918971918
 20
230.2912243388
 11
388.9918971918
 21
233.0167856311
  0
LINE
  5
2A5
100
AcDbEntity
  8
_1
100
AcDbLine
 62
7
  6
CONTINUOUS
 10
399.1340210396
 20
222.4022531845
 11
399.1340269275
 21
221.5857682761
  0
LINE
  5
2A6
100
AcDbEntity
  8
_1
100
AcDbLine
 62
7
  6
CONTINUOUS
 10
404.4370113099
 20
217.2982022391
 11
404.4370113099
 21
253.6732014164
  0
LINE
  5
2A7
100
AcDbEntity
  8
_1
100
AcDbLine
 62
7
  6
CONTINUOUS
 10
404.4370113099
 20
277.270488283
 11
404.4370113099
 21
312.4207338347
  0
LINE
  5
2A8
100
AcDbEntity
  8
_1
100
AcDbLine
 62
7
  6
CONTINUOUS
 10
391.3560191264
 20
208.1136335966
 11
390.6489216201
 21
207.7053789886
  0
LINE
  5
2A9
100
AcDbEntity
  8
_1
100
AcDbLine
 62
7
  6
CONTINUOUS
 10
404.576725658
 20
276.5265432135
 11
404.4370113099
 21
277.270488283
  0
LINE
  5
2AA
100
AcDbEntity
  8
_1
100
AcDbLine
 62
7
  6
CONTINUOUS
 10
404.4370113099
 20
253.6732014164
 11
404.576725658
 21
254.5784737558
  0
LINE
  5
2AB
100
AcDbEntity
  8
_1
100
AcDbLine
 62
7
  6
CONTINUOUS
 10
384.403234495
 20
207.2260255676
 11
384.4401018865
 21
207.276425266
  0
LINE
  5
2AC
100
AcDbEntity
  8
_1
100
AcDbLine
 62
7
  6
CONTINUOUS
 10
384.3532770652
 20
207.2816204406
 11
384.3931583607
 21
207.3285007181
  0
LINE
  5
2AD
100
AcDbEntity
  8
_1
100
AcDbLine
 62
7
  6
CONTINUOUS
 10
315.341927821
 20
156.8779122628
 11
396.6588691006
 21
203.825989958
  0
ARC
  5
2AE
100
AcDbEntity
  8
_1
100
AcDbCircle
 62
7
  6
CONTINUOUS
 10
980.2557613707
 20
3182.778769163
 40
3015.0986027947
100
AcDbArc
 50
252.6228960862
 51
252.8710061586
  0
ARC
  5
2AF
100
AcDbEntity
  8
_1
100
AcDbCircle
 62
7
  6
CONTINUOUS
 10
-664.5961741325
 20
-1116.8357771409
 40
1746.2179027185
100
AcDbArc
 50
63.7241978202
 51
64.3049362142
  0
ARC
  5
2B0
100
AcDbEntity
  8
_1
100
AcDbCircle
 62
7
  6
CONTINUOUS
 10
181.42911776
 20
338.1123539539
 40
129.674897854
100
AcDbArc
 50
154.1359662481
 51
155.8922813809
  0
ARC
  5
2B1
100
AcDbEntity
  8
_1
100
AcDbCircle
 62
7
  6
CONTINUOUS
 10
211.1277262156
 20
320.9662422642
 40
129.6748978534
100
AcDbArc
 50
154.1359662481
 51
155.8922813809
  0
ARC
  5
2B2
100
AcDbEntity
  8
_1
100
AcDbCircle
 62
7
  6
CONTINUOUS
 10
210.969367172
 20
321.0400387796
 40
129.5002086065
100
AcDbArc
 50
154.1347815649
 51
155.8934660641
  0
ARC
  5
2B3
100
AcDbEntity
  8
_1
100
AcDbCircle
 62
7
  6
CONTINUOUS
 10
408.9600902136
 20
206.7326275137
 40
129.5002086069
100
AcDbArc
 50
154.1347815649
 51
155.8934660641
  0
ARC
  5
2B4
100
AcDbEntity
  8
_1
100
AcDbCircle
 62
7
  6
CONTINUOUS
 10
175.4632819713
 20
341.5222567554
 40
129.3340797435
100
AcDbArc
 50
154.1336519661
 51
155.8945956629
  0
ARC
  5
2B5
100
AcDbEntity
  8
_1
100
AcDbCircle
 62
7
  6
CONTINUOUS
 10
181.1201597721
 20
338.2563307195
 40
129.334079743
100
AcDbArc
 50
154.1336519661
 51
155.8945956629
  0
ARC
  5
2B6
100
AcDbEntity
  8
_1
100
AcDbCircle
 62
7
  6
CONTINUOUS
 10
408.8094912694
 20
206.8028077639
 40
129.334079743
100
AcDbArc
 50
154.1336519661
 51
155.8945956629
  0
ARC
  5
2B7
100
AcDbEntity
  8
_1
100
AcDbCircle
 62
7
  6
CONTINUOUS
 10
82.5970194072
 20
336.6137393642
 40
30.0124555965
100
AcDbArc
 50
219.288227499
 51
223.8013954266
  0
ARC
  5
2B8
100
AcDbEntity
  8
_1
100
AcDbCircle
 62
7
  6
CONTINUOUS
 10
76.7503898608
 20
339.7115224845
 40
29.7591232795
100
AcDbArc
 50
219.269007672
 51
223.8206152536
  0
ARC
  5
2B9
100
AcDbEntity
  8
_1
100
AcDbCircle
 62
7
  6
CONTINUOUS
 10
82.4072675012
 20
336.445596306
 40
29.7591230649
100
AcDbArc
 50
219.2690076558
 51
223.820615369
  0
ARC
  5
2BA
100
AcDbEntity
  8
_1
100
AcDbCircle
 62
7
  6
CONTINUOUS
 10
99.3204308799
 20
326.4955968446
 40
29.5919945337
100
AcDbArc
 50
221.7279721201
 51
223.1246576695
  0
ARC
  5
2BB
100
AcDbEntity
  8
_1
100
AcDbCircle
 62
7
  6
CONTINUOUS
 10
99.0843487778
 20
326.2754318016
 40
29.2691835646
100
AcDbArc
 50
223.126011164
 51
223.82948429
  0
ARC
  5
2BC
100
AcDbEntity
  8
_1
100
AcDbCircle
 62
7
  6
CONTINUOUS
 10
310.9600791235
 20
206.9219826199
 40
27.5311765953
100
AcDbArc
 50
222.7824528747
 51
226.071262009
  0
ARC
  5
2BD
100
AcDbEntity
  8
_1
100
AcDbCircle
 62
7
  6
CONTINUOUS
 10
112.9240403556
 20
321.1863791475
 40
27.4687013541
100
AcDbArc
 50
222.7808030558
 51
226.6558622959
  0
ARC
  5
2BE
100
AcDbEntity
  8
_1
100
AcDbCircle
 62
7
  6
CONTINUOUS
 10
310.9143780004
 20
206.8771867884
 40
27.467208799
100
AcDbArc
 50
222.7786222004
 51
226.0750926832
  0
ARC
  5
2BF
100
AcDbEntity
  8
_1
100
AcDbCircle
 62
7
  6
CONTINUOUS
 10
112.8729919
 20
321.1358301511
 40
27.3969014192
100
AcDbArc
 50
222.7757233658
 51
226.6609419856
  0
ARC
  5
2C0
100
AcDbEntity
  8
_1
100
AcDbCircle
 62
7
  6
CONTINUOUS
 10
310.4962467161
 20
206.4478721064
 40
26.8679313306
100
AcDbArc
 50
226.0822085306
 51
227.7549308865
  0
ARC
  5
2C1
100
AcDbEntity
  8
_1
100
AcDbCircle
 62
7
  6
CONTINUOUS
 10
112.4618712156
 20
320.7080004078
 40
26.8035812089
100
AcDbArc
 50
226.6724519483
 51
227.7560560936
  0
ARC
  5
2C2
100
AcDbEntity
  8
_1
100
AcDbCircle
 62
7
  6
CONTINUOUS
 10
282.8683997915
 20
279.73016421
 40
19.0783638251
100
AcDbArc
 50
328.9569416852
 51
331.043796918
  0
ARC
  5
2C3
100
AcDbEntity
  8
_1
100
AcDbCircle
 62
7
  6
CONTINUOUS
 10
84.9321415382
 20
394.0061302097
 40
19.0155075577
100
AcDbArc
 50
328.9530049242
 51
331.0468068461
  0
ARC
  5
2C4
100
AcDbEntity
  8
_1
100
AcDbCircle
 62
7
  6
CONTINUOUS
 10
55.3742032823
 20
411.0679861142
 40
18.8515569499
100
AcDbArc
 50
322.5413270548
 51
330.0081404155
  0
ARC
  5
2C5
100
AcDbEntity
  8
_1
100
AcDbCircle
 62
7
  6
CONTINUOUS
 10
85.117400654
 20
393.8911589813
 40
18.7974926763
100
AcDbArc
 50
322.5714938109
 51
328.9620127178
  0
ARC
  5
2C6
100
AcDbEntity
  8
_1
100
AcDbCircle
 62
7
  6
CONTINUOUS
 10
283.1385934758
 20
279.5634115094
 40
18.7608762302
100
AcDbArc
 50
322.564342195
 51
328.9677416584
  0
ARC
  5
2C7
100
AcDbEntity
  8
_1
100
AcDbCircle
 62
7
  6
CONTINUOUS
 10
55.5275976925
 20
410.9981245349
 40
18.6837874033
100
AcDbArc
 50
329.9585489261
 51
337.4925207377
  0
ARC
  5
2C8
100
AcDbEntity
  8
_1
100
AcDbCircle
 62
7
  6
CONTINUOUS
 10
85.2772834562
 20
393.8293572076
 40
18.6279322499
100
AcDbArc
 50
331.0086597098
 51
337.4579017559
  0
ARC
  5
2C9
100
AcDbEntity
  8
_1
100
AcDbCircle
 62
7
  6
CONTINUOUS
 10
283.2712335893
 20
279.5200277535
 40
18.6241559512
100
AcDbArc
 50
331.0094609029
 51
337.4594530472
  0
ARC
  5
2CA
100
AcDbEntity
  8
_1
100
AcDbCircle
 62
7
  6
CONTINUOUS
 10
56.9330888056
 20
410.4318134703
 40
17.1685734195
100
AcDbArc
 50
337.4429534104
 51
343.4019975052
  0
ARC
  5
2CB
100
AcDbEntity
  8
_1
100
AcDbCircle
 62
7
  6
CONTINUOUS
 10
135.9249958945
 20
448.7583919568
 40
7.6163671509
100
AcDbArc
 50
231.6757985632
 51
242.5368604638
  0
ARC
  5
2CC
100
AcDbEntity
  8
_1
100
AcDbCircle
 62
7
  6
CONTINUOUS
 10
360.8536073738
 20
246.8466316367
 40
7.0432721294
100
AcDbArc
 50
84.1447390101
 51
85.6648249523
  0
ARC
  5
2CD
100
AcDbEntity
  8
_1
100
AcDbCircle
 62
7
  6
CONTINUOUS
 10
131.2787258459
 20
419.2560036351
 40
6.704018621
100
AcDbArc
 50
174.0520590135
 51
179.9854679714
  0
ARC
  5
2CE
100
AcDbEntity
  8
_1
100
AcDbCircle
 62
7
  6
CONTINUOUS
 10
361.1211947291
 20
248.0094232205
 40
5.8443313241
100
AcDbArc
 50
60.0024998426
 51
63.9763367284
  0
ARC
  5
2CF
100
AcDbEntity
  8
_1
100
AcDbCircle
 62
7
  6
CONTINUOUS
 10
349.4650558953
 20
227.8200179205
 40
5.8430585286
100
AcDbArc
 50
236.2904193903
 51
239.9989954486
  0
ARC
  5
2D0
100
AcDbEntity
  8
_1
100
AcDbCircle
 62
7
  6
CONTINUOUS
 10
387.6346363122
 20
216.0254692376
 40
1.4131270642
100
AcDbArc
 50
245.7819425453
 51
246.6796846861
  0
ARC
  5
2D1
100
AcDbEntity
  8
_1
100
AcDbCircle
 62
7
  6
CONTINUOUS
 10
94.6697124358
 20
301.1161620747
 40
0.3384901781
100
AcDbArc
 50
227.7516537048
 51
239.9237372375
  0
SPLINE
  5
2D2
100
AcDbEntity
  8
_1
100
AcDbSpline
 62
7
  6
CONTINUOUS
 70
0
 71
3
 72
14
 73
10
 74
0
 42
0.0000001
 43
0.0000001
 44
0.0000000001
 40
0.0
 40
0.0
 40
0.0
 40
0.0
 40
0.3063327353
 40
0.4466249678
 40
0.5763303843
 40
0.6950715741
 40
0.8036031506
 40
0.9040609295
 40
1.0
 40
1.0
 40
1.0
 40
1.0
 10
109.3708286947
 20
478.9599445886
 30
0.0
 10
110.0976148821
 20
479.8138578571
 30
0.0
 10
111.2771189078
 20
480.9697261496
 30
0.0
 10
113.0253563625
 20
482.1585839826
 30
0.0
 10
114.3036530646
 20
482.7955579643
 30
0.0
 10
115.5571789643
 20
483.1871221815
 30
0.0
 10
116.7584391471
 20
483.3205651623
 30
0.0
 10
117.8775640505
 20
483.1866263904
 30
0.0
 10
118.5538416496
 20
482.9132469905
 30
0.0
 10
118.8579674612
 20
482.7376376119
 30
0.0
  0
SPLINE
  5
2D3
100
AcDbEntity
  8
_1
100
AcDbSpline
 62
7
  6
CONTINUOUS
 70
0
 71
3
 72
13
 73
9
 74
0
 42
0.0000001
 43
0.0000001
 44
0.0000000001
 40
0.0
 40
0.0
 40
0.0
 40
0.0
 40
0.4197507373
 40
0.7190890786
 40
0.8266241517
 40
0.9078793665
 40
0.9646273927
 40
1.0
 40
1.0
 40
1.0
 40
1.0
 10
153.3645176158
 20
465.6214618301
 30
0.0
 10
153.4932955922
 20
465.685295833
 30
0.0
 10
153.7150306921
 20
465.792282181
 30
0.0
 10
153.9749808816
 20
465.9051296362
 30
0.0
 10
154.1324232327
 20
465.9610600411
 30
0.0
 10
154.2137015717
 20
465.9838910966
 30
0.0
 10
154.2718837754
 20
465.9935940554
 30
0.0
 10
154.3047817487
 20
465.9917864941
 30
0.0
 10
154.3157172904
 20
465.9865787137
 30
0.0
  0
SPLINE
  5
2D4
100
AcDbEntity
  8
_1
100
AcDbSpline
 62
7
  6
CONTINUOUS
 70
0
 71
3
 72
10
 73
6
 74
0
 42
0.0000001
 43
0.0000001
 44
0.0000000001
 40
0.0
 40
0.0
 40
0.0
 40
0.0
 40
0.284458527
 40
0.5476883421
 40
1.0
 40
1.0
 40
1.0
 40
1.0
 10
146.5690319413
 20
461.3374321571
 30
0.0
 10
147.3125157943
 20
461.5510267582
 30
0.0
 10
148.7237286988
 20
462.0483480268
 30
0.0
 10
151.139761477
 20
463.2934888848
 30
0.0
 10
152.6731447809
 20
464.6041384761
 30
0.0
 10
153.3645176158
 20
465.6214618301
 30
0.0
  0
SPLINE
  5
2D5
100
AcDbEntity
  8
_1
100
AcDbSpline
 62
7
  6
CONTINUOUS
 70
0
 71
3
 72
21
 73
17
 74
0
 42
0.0000001
 43
0.0000001
 44
0.0000000001
 40
0.0
 40
0.0
 40
0.0
 40
0.0
 40
0.0624109092
 40
0.1287791328
 40
0.1984021482
 40
0.2704099669
 40
0.4174495066
 40
0.5616813918
 40
0.6303083954
 40
0.6954243267
 40
0.7563985768
 40
0.8128606448
 40
0.8647840394
 40
0.9125799111
 40
0.9571739765
 40
1.0
 40
1.0
 40
1.0
 40
1.0
 10
342.5654167218
 20
230.9752087485
 30
0.0
 10
342.5654167218
 20
231.7012198844
 30
0.0
 10
342.663771995
 20
233.2002830477
 30
0.0
 10
343.0684986101
 20
235.4763623111
 30
0.0
 10
343.7264876702
 20
237.808755826
 30
0.0
 10
344.9309534368
 20
240.9474251218
 30
0.0
 10
346.9525844248
 20
244.6824670438
 30
0.0
 10
349.5435753517
 20
248.0006660206
 30
0.0
 10
351.8757314474
 20
250.2472713693
 30
0.0
 10
353.6628482643
 20
251.6463235901
 30
0.0
 10
355.4788546089
 20
252.7573795491
 30
0.0
 10
357.2870355382
 20
253.5565313988
 30
0.0
 10
359.0513570145
 20
254.0253151848
 30
0.0
 10
360.7371803842
 20
254.1494239645
 30
0.0
 10
362.3070945161
 20
253.9193697596
 30
0.0
 10
363.2581212307
 20
253.5240635282
 30
0.0
 10
363.6895759387
 20
253.2749952888
 30
0.0
  0
SPLINE
  5
2D6
100
AcDbEntity
  8
_1
100
AcDbSpline
 62
7
  6
CONTINUOUS
 70
0
 71
3
 72
11
 73
7
 74
0
 42
0.0000001
 43
0.0000001
 44
0.0000000001
 40
0.0
 40
0.0
 40
0.0
 40
0.0
 40
0.2177679588
 40
0.4509389625
 40
0.7102091096
 40
1.0
 40
1.0
 40
1.0
 40
1.0
 10
388.991881302
 20
233.0167856306
 30
0.0
 10
388.9918661325
 20
233.1691317698
 30
0.0
 10
388.9356498849
 20
233.4867278753
 30
0.0
 10
388.6948376867
 20
233.9290894671
 30
0.0
 10
388.314369869
 20
234.3291571501
 30
0.0
 10
387.9958845549
 20
234.5483979901
 30
0.0
 10
387.8203125407
 20
234.6497622466
 30
0.0
  0
SPLINE
  5
2D7
100
AcDbEntity
  8
_1
100
AcDbSpline
 62
7
  6
CONTINUOUS
 70
0
 71
3
 72
12
 73
8
 74
0
 42
0.0000001
 43
0.0000001
 44
0.0000000001
 40
0.0
 40
0.0
 40
0.0
 40
0.0
 40
0.2895903413
 40
0.5486299583
 40
0.7816360731
 40
0.8918373327
 40
1.0
 40
1.0
 40
1.0
 40
1.0
 10
399.1340210396
 20
222.4022531845
 30
0.0
 10
399.1340210396
 20
223.0105049099
 30
0.0
 10
399.0418849154
 20
224.1669721683
 30
0.0
 10
398.5742229937
 20
225.7549654589
 30
0.0
 10
397.9022821912
 20
226.8506162996
 30
0.0
 10
397.2236954406
 20
227.5180864965
 30
0.0
 10
396.8454066936
 20
227.7820725077
 30
0.0
 10
396.6486662359
 20
227.8956749123
 30
0.0
  0
SPLINE
  5
2D8
100
AcDbEntity
  8
_1
100
AcDbSpline
 62
7
  6
CONTINUOUS
 70
0
 71
3
 72
15
 73
11
 74
0
 42
0.0000001
 43
0.0000001
 44
0.0000000001
 40
0.0
 40
0.0
 40
0.0
 40
0.0
 40
0.1200085148
 40
0.2508758792
 40
0.3882629432
 40
0.5269755885
 40
0.661667311
 40
0.7874810358
 40
0.9007715451
 40
1.0
 40
1.0
 40
1.0
 40
1.0
 10
387.0425513111
 20
214.6047932449
 30
0.0
 10
387.0425513111
 20
215.0288598835
 30
0.0
 10
387.1392149294
 20
215.9163402595
 30
0.0
 10
387.5131632756
 20
217.2414470316
 30
0.0
 10
388.1023272759
 20
218.5586534066
 30
0.0
 10
388.8739216968
 20
219.793605228
 30
0.0
 10
389.7845917196
 20
220.8774557233
 30
0.0
 10
390.7847149581
 20
221.7499694157
 30
0.0
 10
391.8194319681
 20
222.3632323285
 30
0.0
 10
392.5474922048
 20
222.5890685781
 30
0.0
 10
392.894913654
 20
222.6364494238
 30
0.0
  0
SPLINE
  5
2D9
100
AcDbEntity
  8
_1
100
AcDbSpline
 62
7
  6
CONTINUOUS
 70
0
 71
3
 72
17
 73
13
 74
0
 42
0.0000001
 43
0.0000001
 44
0.0000000001
 40
0.0
 40
0.0
 40
0.0
 40
0.0
 40
0.1286889064
 40
0.2702758216
 40
0.4174299497
 40
0.5617783041
 40
0.6954504944
 40
0.8127138628
 40
0.8646787347
 40
0.9125124278
 40
0.9571410452
 40
1.0
 40
1.0
 40
1.0
 40
1.0
 10
365.192801336
 20
247.7134663913
 30
0.0
 10
364.8967049944
 20
247.8844138264
 30
0.0
 10
364.2263006285
 20
248.1610100565
 30
0.0
 10
363.1336877122
 20
248.3796270599
 30
0.0
 10
361.9780273526
 20
248.4116110321
 30
0.0
 10
360.8536588486
 20
248.2536147977
 30
0.0
 10
359.8517117327
 20
247.9189799675
 30
0.0
 10
359.1549160178
 20
247.4947655215
 30
0.0
 10
358.7459376308
 20
247.0843859437
 30
0.0
 10
358.5287106748
 20
246.7648324884
 30
0.0
 10
358.394873291
 20
246.4277818587
 30
0.0
 10
358.3643905387
 20
246.1943574418
 30
0.0
 10
358.3644018769
 20
246.0804897763
 30
0.0
  0
SPLINE
  5
2DA
100
AcDbEntity
  8
_1
100
AcDbSpline
 62
7
  6
CONTINUOUS
 70
0
 71
3
 72
13
 73
9
 74
0
 42
0.0000001
 43
0.0000001
 44
0.0000000001
 40
0.0
 40
0.0
 40
0.0
 40
0.0
 40
0.1127514264
 40
0.226759168
 40
0.3434450413
 40
0.4639267907
 40
0.7197665099
 40
1.0
 40
1.0
 40
1.0
 40
1.0
 10
346.5434371971
 20
222.7598307845
 30
0.0
 10
346.8624042701
 20
222.5756792251
 30
0.0
 10
347.5369415948
 20
222.2595503988
 30
0.0
 10
348.6226849603
 20
221.9587527919
 30
0.0
 10
349.7672122903
 20
221.8302629546
 30
0.0
 10
351.3816146642
 20
221.886572145
 30
0.0
 10
353.4881575026
 20
222.394845461
 30
0.0
 10
355.0765613758
 20
223.1580940591
 30
0.0
 10
355.8669673719
 20
223.6198460863
 30
0.0
  0
SPLINE
  5
2DB
100
AcDbEntity
  8
_1
100
AcDbSpline
 62
7
  6
CONTINUOUS
 70
0
 71
3
 72
13
 73
9
 74
0
 42
0.0000001
 43
0.0000001
 44
0.0000000001
 40
0.0
 40
0.0
 40
0.0
 40
0.0
 40
0.1080954474
 40
0.2182281685
 40
0.3322529214
 40
0.4517051779
 40
0.7105883794
 40
1.0
 40
1.0
 40
1.0
 40
1.0
 10
346.1898918075
 20
222.9639675938
 30
0.0
 10
345.9029615247
 20
223.129605421
 30
0.0
 10
345.3513386228
 20
223.5145734685
 30
0.0
 10
344.6224105623
 20
224.2318699171
 30
0.0
 10
343.9955081721
 20
225.083312652
 30
0.0
 10
343.2847869419
 20
226.4197417762
 30
0.0
 10
342.6989546715
 20
228.4026057734
 30
0.0
 10
342.5654167218
 20
230.0881747637
 30
0.0
 10
342.5654167218
 20
230.9752087485
 30
0.0
  0
SPLINE
  5
2DC
100
AcDbEntity
  8
_1
100
AcDbSpline
 62
7
  6
CONTINUOUS
 70
0
 71
3
 72
11
 73
7
 74
0
 42
0.0000001
 43
0.0000001
 44
0.0000000001
 40
0.0
 40
0.0
 40
0.0
 40
0.0
 40
0.274005787
 40
0.5283713758
 40
0.7680744886
 40
1.0
 40
1.0
 40
1.0
 40
1.0
 10
367.8731058036
 20
246.3022765367
 30
0.0
 10
367.7931341611
 20
247.0337941379
 30
0.0
 10
367.5269137016
 20
248.4365709539
 30
0.0
 10
366.7443555252
 20
250.3625139921
 30
0.0
 10
365.5918562115
 20
251.9609493789
 30
0.0
 10
364.5825596043
 20
252.7594644935
 30
0.0
 10
364.0431402742
 20
253.0708913436
 30
0.0
  0
SPLINE
  5
2DD
100
AcDbEntity
  8
_1
100
AcDbSpline
 62
7
  6
CONTINUOUS
 70
0
 71
3
 72
15
 73
11
 74
0
 42
0.0000001
 43
0.0000001
 44
0.0000000001
 40
0.0
 40
0.0
 40
0.0
 40
0.0
 40
0.114153629
 40
0.2373239218
 40
0.3669729159
 40
0.4999973562
 40
0.6330208413
 40
0.7626713734
 40
0.8858398106
 40
1.0
 40
1.0
 40
1.0
 40
1.0
 10
391.3560191173
 20
208.1136597986
 30
0.0
 10
391.8884814522
 20
208.4210870586
 30
0.0
 10
392.9401943024
 20
209.1583390611
 30
0.0
 10
394.387301948
 20
210.5122287464
 30
0.0
 10
395.7208953705
 20
212.1126341433
 30
0.0
 10
396.8907243706
 20
213.8995238895
 30
0.0
 10
397.8532808581
 20
215.8060917299
 30
0.0
 10
398.5724314533
 20
217.7612269497
 30
0.0
 10
399.0214227085
 20
219.6914279641
 30
0.0
 10
399.1340269275
 20
220.9708934028
 30
0.0
 10
399.1340269275
 20
221.5857682761
 30
0.0
  0
SPLINE
  5
2DE
100
AcDbEntity
  8
_1
100
AcDbSpline
 62
7
  6
CONTINUOUS
 70
0
 71
3
 72
12
 73
8
 74
0
 42
0.0000001
 43
0.0000001
 44
0.0000000001
 40
0.0
 40
0.0
 40
0.0
 40
0.0
 40
0.108162413
 40
0.218363776
 40
0.4513663007
 40
0.7104200414
 40
1.0
 40
1.0
 40
1.0
 40
1.0
 10
384.6488837501
 20
207.1109717637
 30
0.0
 10
384.8456215943
 20
206.9973708681
 30
0.0
 10
385.2634142174
 20
206.8018269672
 30
0.0
 10
386.1807088566
 20
206.5478259056
 30
0.0
 10
387.4655682971
 20
206.5137683824
 30
0.0
 10
389.0745969471
 20
206.9028419952
 30
0.0
 10
390.1221885778
 20
207.4012800402
 30
0.0
 10
390.6489216199
 20
207.7053981868
 30
0.0
  0
SPLINE
  5
2DF
100
AcDbEntity
  8
_1
100
AcDbSpline
 62
7
  6
CONTINUOUS
 70
0
 71
3
 72
11
 73
7
 74
0
 42
0.0000001
 43
0.0000001
 44
0.0000000001
 40
0.0
 40
0.0
 40
0.0
 40
0.0
 40
0.2177679588
 40
0.4509389625
 40
0.7102091096
 40
1.0
 40
1.0
 40
1.0
 40
1.0
 10
358.3644018769
 20
246.0804897763
 30
0.0
 10
358.3644170465
 20
245.9281436371
 30
0.0
 10
358.4206332941
 20
245.6105475316
 30
0.0
 10
358.6614454922
 20
245.1681859398
 30
0.0
 10
359.04191331
 20
244.7681182568
 30
0.0
 10
359.360398624
 20
244.5488774168
 30
0.0
 10
359.5359706383
 20
244.4475131603
 30
0.0
  0
SPLINE
  5
2E0
100
AcDbEntity
  8
_1
100
AcDbSpline
 62
7
  6
CONTINUOUS
 70
0
 71
3
 72
17
 73
13
 74
0
 42
0.0000001
 43
0.0000001
 44
0.0000000001
 40
0.0
 40
0.0
 40
0.0
 40
0.0
 40
0.1272746507
 40
0.2671392391
 40
0.4128142385
 40
0.5564774591
 40
0.6906575314
 40
0.8096333882
 40
0.8626985964
 40
0.9115843238
 40
0.9569671325
 40
1.0
 40
1.0
 40
1.0
 40
1.0
 10
391.9986958905
 20
220.153186114
 30
0.0
 10
391.9986958905
 20
219.8050131338
 30
0.0
 10
391.9041797961
 20
219.0733892372
 30
0.0
 10
391.5493850624
 20
217.9958827647
 30
0.0
 10
391.0005654415
 20
216.9519238652
 30
0.0
 10
390.2995437264
 20
216.0225698886
 30
0.0
 10
389.5006588052
 20
215.2790505104
 30
0.0
 10
388.7732287054
 20
214.8441594959
 30
0.0
 10
388.1970881621
 20
214.6540322267
 30
0.0
 10
387.7961775523
 20
214.5939888078
 30
0.0
 10
387.4183272898
 20
214.6132315723
 30
0.0
 10
387.183323634
 20
214.6811831897
 30
0.0
 10
387.0752201039
 20
214.7277860693
 30
0.0
  0
SPLINE
  5
2E1
100
AcDbEntity
  8
_1
100
AcDbSpline
 62
7
  6
CONTINUOUS
 70
0
 71
3
 72
15
 73
11
 74
0
 42
0.0000001
 43
0.0000001
 44
0.0000000001
 40
0.0
 40
0.0
 40
0.0
 40
0.0
 40
0.1234641967
 40
0.23891875
 40
0.3505029707
 40
0.4631383907
 40
0.5815343316
 40
0.7092673097
 40
0.8485477273
 40
1.0
 40
1.0
 40
1.0
 40
1.0
 10
392.894913654
 20
222.6364494238
 30
0.0
 10
393.0891069039
 20
222.6629332245
 30
0.0
 10
393.4713600122
 20
222.6789534889
 30
0.0
 10
394.0232602017
 20
222.5738280481
 30
0.0
 10
394.5154223422
 20
222.3384272227
 30
0.0
 10
394.9318541718
 20
221.9791672435
 30
0.0
 10
395.2614345661
 20
221.5084346966
 30
0.0
 10
395.4986717748
 20
220.9401576372
 30
0.0
 10
395.640400365
 20
220.2881606144
 30
0.0
 10
395.6692181252
 20
219.8257918915
 30
0.0
 10
395.6692181252
 20
219.5853719221
 30
0.0
  0
SPLINE
  5
2E2
100
AcDbEntity
  8
_1
100
AcDbSpline
 62
7
  6
CONTINUOUS
 70
0
 71
3
 72
11
 73
7
 74
0
 42
0.0000001
 43
0.0000001
 44
0.0000000001
 40
0.0
 40
0.0
 40
0.0
 40
0.0
 40
0.2383968192
 40
0.481506058
 40
0.7338381011
 40
1.0
 40
1.0
 40
1.0
 40
1.0
 10
358.3643883432
 20
243.354930936
 30
0.0
 10
358.3643942422
 20
243.1682888089
 30
0.0
 10
358.4163598626
 20
242.7893826611
 30
0.0
 10
358.6473176145
 20
242.2559171235
 30
0.0
 10
359.0251334458
 20
241.7858453235
 30
0.0
 10
359.3555076298
 20
241.5418352489
 30
0.0
 10
359.5359706383
 20
241.4376472395
 30
0.0
  0
SPLINE
  5
2E3
100
AcDbEntity
  8
_1
100
AcDbSpline
 62
7
  6
CONTINUOUS
 70
0
 71
3
 72
11
 73
7
 74
0
 42
0.0000001
 43
0.0000001
 44
0.0000000001
 40
0.0
 40
0.0
 40
0.0
 40
0.0
 40
0.2179824929
 40
0.4527560313
 40
0.7124054709
 40
1.0
 40
1.0
 40
1.0
 40
1.0
 10
391.2513171879
 20
221.9963683012
 30
0.0
 10
391.3724299882
 20
221.9085176507
 30
0.0
 10
391.5954011231
 20
221.6840379798
 30
0.0
 10
391.8305839566
 20
221.2493989018
 30
0.0
 10
391.9708566634
 20
220.7272692472
 30
0.0
 10
391.9986958905
 20
220.3505863705
 30
0.0
 10
391.9986958905
 20
220.153186114
 30
0.0
  0
SPLINE
  5
2E4
100
AcDbEntity
  8
_1
100
AcDbSpline
 62
7
  6
CONTINUOUS
 70
0
 71
3
 72
15
 73
11
 74
0
 42
0.0000001
 43
0.0000001
 44
0.0000000001
 40
0.0
 40
0.0
 40
0.0
 40
0.0
 40
0.1141533629
 40
0.2373244195
 40
0.3669740226
 40
0.4999986634
 40
0.6330229947
 40
0.7626734069
 40
0.8858456638
 40
1.0
 40
1.0
 40
1.0
 40
1.0
 10
356.0003610262
 20
250.979397971
 30
0.0
 10
355.2016527658
 20
250.5182662945
 30
0.0
 10
353.6240374283
 20
249.4124075952
 30
0.0
 10
351.4533440527
 20
247.381542676
 30
0.0
 10
349.4529135336
 20
244.9809078106
 30
0.0
 10
347.6981263575
 20
242.3005417414
 30
0.0
 10
346.2542716755
 20
239.4406527232
 30
0.0
 10
345.1754904031
 20
236.5078916771
 30
0.0
 10
344.5020660837
 20
233.6125572541
 30
0.0
 10
344.3331664045
 20
231.6933562957
 30
0.0
 10
344.3331664045
 20
230.7710809498
 30
0.0
  0
SPLINE
  5
2E5
100
AcDbEntity
  8
_1
100
AcDbSpline
 62
7
  6
CONTINUOUS
 70
0
 71
3
 72
15
 73
11
 74
0
 42
0.0000001
 43
0.0000001
 44
0.0000000001
 40
0.0
 40
0.0
 40
0.0
 40
0.0
 40
0.1352402761
 40
0.2578107826
 40
0.3712842617
 40
0.4813262221
 40
0.5945342033
 40
0.7166432358
 40
0.8513210558
 40
1.0
 40
1.0
 40
1.0
 40
1.0
 10
367.5031188435
 20
246.40265262
 30
0.0
 10
367.3947553626
 20
247.0773929556
 30
0.0
 10
367.0769512077
 20
248.3510787067
 30
0.0
 10
366.2260783248
 20
250.0435605688
 30
0.0
 10
365.037041518
 20
251.3594682807
 30
0.0
 10
363.5452743439
 20
252.2335909059
 30
0.0
 10
361.8192569711
 20
252.6254998825
 30
0.0
 10
359.9327640233
 20
252.5353430217
 30
0.0
 10
357.9457284342
 20
251.9838112573
 30
0.0
 10
356.651001568
 20
251.3550432207
 30
0.0
 10
356.0003610262
 20
250.979397971
 30
0.0
  0
SPLINE
  5
2E6
100
AcDbEntity
  8
_1
100
AcDbSpline
 62
7
  6
CONTINUOUS
 70
0
 71
3
 72
18
 73
14
 74
0
 42
0.0000001
 43
0.0000001
 44
0.0000000001
 40
0.0
 40
0.0
 40
0.0
 40
0.0
 40
0.1455233937
 40
0.2760092718
 40
0.393528459
 40
0.4490507534
 40
0.5034351388
 40
0.5576561239
 40
0.6127040246
 40
0.6694967322
 40
0.7288092966
 40
0.8569620644
 40
1.0
 40
1.0
 40
1.0
 40
1.0
 10
344.3331664045
 20
230.7710809498
 30
0.0
 10
344.3331664045
 20
229.9505584267
 30
0.0
 10
344.455278177
 20
228.3889857163
 30
0.0
 10
345.0733397165
 20
226.2396711687
 30
0.0
 10
345.9605573552
 20
224.7460797176
 30
0.0
 10
346.8590891482
 20
223.8241004636
 30
0.0
 10
347.6076562359
 20
223.2726509302
 30
0.0
 10
348.4354650067
 20
222.8553165126
 30
0.0
 10
349.3335346579
 20
222.5762359451
 30
0.0
 10
350.2923698524
 20
222.4376925756
 30
0.0
 10
351.6738342045
 20
222.4409675845
 30
0.0
 10
353.517326395
 20
222.8244278592
 30
0.0
 10
354.9248922127
 20
223.4462119249
 30
0.0
 10
355.6342231761
 20
223.8300158814
 30
0.0
  0
SPLINE
  5
2E7
100
AcDbEntity
  8
_1
100
AcDbSpline
 62
7
  6
CONTINUOUS
 70
0
 71
3
 72
17
 73
13
 74
0
 42
0.0000001
 43
0.0000001
 44
0.0000000001
 40
0.0
 40
0.0
 40
0.0
 40
0.0
 40
0.1286889064
 40
0.2702758216
 40
0.4174299497
 40
0.5617783041
 40
0.6954504944
 40
0.8127138628
 40
0.8646787347
 40
0.9125124278
 40
0.9571410452
 40
1.0
 40
1.0
 40
1.0
 40
1.0
 10
382.163481843
 20
231.3838090156
 30
0.0
 10
382.4595781846
 20
231.2128615805
 30
0.0
 10
383.1299825504
 20
230.9362653504
 30
0.0
 10
384.2225954667
 20
230.717648347
 30
0.0
 10
385.3782558263
 20
230.6856643748
 30
0.0
 10
386.5026243303
 20
230.8436606092
 30
0.0
 10
387.5045714462
 20
231.1782954394
 30
0.0
 10
388.2013671611
 20
231.6025098853
 30
0.0
 10
388.6103455482
 20
232.0128894632
 30
0.0
 10
388.8275725041
 20
232.3324429185
 30
0.0
 10
388.9614098879
 20
232.6694935482
 30
0.0
 10
388.9918926402
 20
232.9029179651
 30
0.0
 10
388.991881302
 20
233.0167856306
 30
0.0
  0
SPLINE
  5
2E8
100
AcDbEntity
  8
_1
100
AcDbSpline
 62
7
  6
CONTINUOUS
 70
0
 71
3
 72
19
 73
15
 74
0
 42
0.0000001
 43
0.0000001
 44
0.0000000001
 40
0.0
 40
0.0
 40
0.0
 40
0.0
 40
0.1305009496
 40
0.2732124511
 40
0.3481049406
 40
0.4242050897
 40
0.5755212942
 40
0.7167909556
 40
0.7801266179
 40
0.8369954407
 40
0.8867900394
 40
0.929608045
 40
0.9665586663
 40
1.0
 40
1.0
 40
1.0
 40
1.0
 10
382.163481843
 20
228.3739430948
 30
0.0
 10
382.4560347285
 20
228.2050414287
 30
0.0
 10
383.1352833562
 20
227.9635659476
 30
0.0
 10
384.0411283961
 20
227.8968905591
 30
0.0
 10
384.800303844
 20
227.9492665814
 30
0.0
 10
385.5744018199
 20
228.069552343
 30
0.0
 10
386.4985090412
 20
228.3198576389
 30
0.0
 10
387.3528959774
 20
228.6727303562
 30
0.0
 10
387.9457525333
 20
229.000700127
 30
0.0
 10
388.3106730531
 20
229.2479660584
 30
0.0
 10
388.6047142614
 20
229.5012091128
 30
0.0
 10
388.8225358232
 20
229.7587592799
 30
0.0
 10
388.9594421381
 20
230.0214530362
 30
0.0
 10
388.9918993241
 20
230.2046630787
 30
0.0
 10
388.9918948358
 20
230.2912278558
 30
0.0
  0
SPLINE
  5
2E9
100
AcDbEntity
  8
_1
100
AcDbSpline
 62
7
  6
CONTINUOUS
 70
0
 71
3
 72
18
 73
14
 74
0
 42
0.0000001
 43
0.0000001
 44
0.0000000001
 40
0.0
 40
0.0
 40
0.0
 40
0.0
 40
0.1252572042
 40
0.2626693694
 40
0.4061579454
 40
0.548657175
 40
0.6832545534
 40
0.7458396489
 40
0.8045404382
 40
0.8590977885
 40
0.9095380118
 40
0.9562419445
 40
1.0
 40
1.0
 40
1.0
 40
1.0
 10
347.5151524142
 20
232.608190463
 30
0.0
 10
347.5151524142
 20
233.5602402372
 30
0.0
 10
347.7626752802
 20
235.5590205094
 30
0.0
 10
348.6990943161
 20
238.5144329267
 30
0.0
 10
350.1555071913
 20
241.3996774284
 30
0.0
 10
352.0276325266
 20
244.0062820625
 30
0.0
 10
353.8688746841
 20
245.8386348819
 30
0.0
 10
355.4398173082
 20
246.9907591956
 30
0.0
 10
356.6014505538
 20
247.6582224689
 30
0.0
 10
357.7538851179
 20
248.1374178285
 30
0.0
 10
358.8773847944
 20
248.4185431772
 30
0.0
 10
359.9516159383
 20
248.494493404
 30
0.0
 10
360.6394393908
 20
248.4023180223
 30
0.0
 10
360.9617237118
 20
248.3201483011
 30
0.0
  0
SPLINE
  5
2EA
100
AcDbEntity
  8
_1
100
AcDbSpline
 62
7
  6
CONTINUOUS
 70
0
 71
3
 72
9
 73
5
 74
0
 42
0.0000001
 43
0.0000001
 44
0.0000000001
 40
0.0
 40
0.0
 40
0.0
 40
0.0
 40
0.4998011589
 40
1.0
 40
1.0
 40
1.0
 40
1.0
 10
387.7076947392
 20
217.3841299764
 30
0.0
 10
388.0656296036
 20
217.7661944218
 30
0.0
 10
388.6895279664
 20
218.6197282664
 30
0.0
 10
389.1201274536
 20
219.5852654307
 30
0.0
 10
389.2741337973
 20
220.0860737818
 30
0.0
  0
SPLINE
  5
2EB
100
AcDbEntity
  8
_1
100
AcDbSpline
 62
7
  6
CONTINUOUS
 70
0
 71
3
 72
9
 73
5
 74
0
 42
0.0000001
 43
0.0000001
 44
0.0000000001
 40
0.0
 40
0.0
 40
0.0
 40
0.0
 40
0.4926643058
 40
1.0
 40
1.0
 40
1.0
 40
1.0
 10
363.6853501729
 20
253.2612148658
 30
0.0
 10
363.3602295536
 20
253.4199582623
 30
0.0
 10
362.6688758009
 20
253.6810830957
 30
0.0
 10
361.9427660964
 20
253.8151294057
 30
0.0
 10
361.572132406
 20
253.8531574568
 30
0.0
  0
SPLINE
  5
2EC
100
AcDbEntity
  8
_1
100
AcDbSpline
 62
7
  6
CONTINUOUS
 70
0
 71
3
 72
18
 73
14
 74
0
 42
0.0000001
 43
0.0000001
 44
0.0000000001
 40
0.0
 40
0.0
 40
0.0
 40
0.0
 40
0.0452295877
 40
0.0938065614
 40
0.1461652573
 40
0.2024240712
 40
0.2624403989
 40
0.3258645115
 40
0.4606589243
 40
0.6016158802
 40
0.7424924235
 40
0.8770567716
 40
1.0
 40
1.0
 40
1.0
 40
1.0
 10
361.3860146879
 20
253.8697523634
 30
0.0
 10
360.9034215391
 20
253.9063610786
 30
0.0
 10
359.8930712711
 20
253.879902319
 30
0.0
 10
358.353933039
 20
253.5689686865
 30
0.0
 10
356.7673776584
 20
252.9941245628
 30
0.0
 10
355.159322184
 20
252.166229759
 30
0.0
 10
353.5550809484
 20
251.0996198895
 30
0.0
 10
351.4134918938
 20
249.3476863584
 30
0.0
 10
348.9280077493
 20
246.6774644534
 30
0.0
 10
346.4182580883
 20
242.9740123442
 30
0.0
 10
344.4813964717
 20
238.9419578875
 30
0.0
 10
343.2432162179
 20
234.8452344861
 30
0.0
 10
342.9189715844
 20
232.0866437237
 30
0.0
 10
342.9189715844
 20
230.7710883713
 30
0.0
  0
SPLINE
  5
2ED
100
AcDbEntity
  8
_1
100
AcDbSpline
 62
7
  6
CONTINUOUS
 70
0
 71
3
 72
12
 73
8
 74
0
 42
0.0000001
 43
0.0000001
 44
0.0000000001
 40
0.0
 40
0.0
 40
0.0
 40
0.0
 40
0.2895903413
 40
0.5486299583
 40
0.7816360731
 40
0.8918373327
 40
1.0
 40
1.0
 40
1.0
 40
1.0
 10
382.1635289464
 20
212.6043934916
 30
0.0
 10
382.1635289464
 20
211.9961417661
 30
0.0
 10
382.2556650706
 20
210.8396745077
 30
0.0
 10
382.7233269923
 20
209.2516812172
 30
0.0
 10
383.3952677948
 20
208.1560303764
 30
0.0
 10
384.0738545454
 20
207.4885601795
 30
0.0
 10
384.4521432924
 20
207.2245741683
 30
0.0
 10
384.6488837501
 20
207.1109717637
 30
0.0
  0
SPLINE
  5
2EE
100
AcDbEntity
  8
_1
100
AcDbSpline
 62
7
  6
CONTINUOUS
 70
0
 71
3
 72
12
 73
8
 74
0
 42
0.0000001
 43
0.0000001
 44
0.0000000001
 40
0.0
 40
0.0
 40
0.0
 40
0.0
 40
0.288200086
 40
0.5475568286
 40
0.7816589539
 40
0.8921162277
 40
1.0
 40
1.0
 40
1.0
 40
1.0
 10
342.9189715844
 20
230.7710883713
 30
0.0
 10
342.9189715844
 20
229.926932386
 30
0.0
 10
343.0411362413
 20
228.3180123111
 30
0.0
 10
343.6565897687
 20
226.0955967442
 30
0.0
 10
344.5390140535
 20
224.5344153014
 30
0.0
 10
345.4355988147
 20
223.5523641288
 30
0.0
 10
345.9377286901
 20
223.1510528062
 30
0.0
 10
346.1997844489
 20
222.974469416
 30
0.0
  0
SPLINE
  5
2EF
100
AcDbEntity
  8
_1
100
AcDbSpline
 62
7
  6
CONTINUOUS
 70
0
 71
3
 72
9
 73
5
 74
0
 42
0.0000001
 43
0.0000001
 44
0.0000000001
 40
0.0
 40
0.0
 40
0.0
 40
0.0
 40
0.2545076606
 40
1.0
 40
1.0
 40
1.0
 40
1.0
 10
399.1340269275
 20
221.5857682761
 30
0.0
 10
399.1340269275
 20
221.6562267897
 30
0.0
 10
399.1311924307
 20
221.9330584212
 30
0.0
 10
399.1168630062
 20
222.2098000073
 30
0.0
 10
399.0990971498
 20
222.4154178233
 30
0.0
  0
SPLINE
  5
2F0
100
AcDbEntity
  8
_1
100
AcDbSpline
 62
7
  6
CONTINUOUS
 70
0
 71
3
 72
23
 73
19
 74
0
 42
0.0000001
 43
0.0000001
 44
0.0000000001
 40
0.0
 40
0.0
 40
0.0
 40
0.0
 40
0.0573603176
 40
0.1087958533
 40
0.1557207944
 40
0.2006799977
 40
0.2468276942
 40
0.2969409386
 40
0.3527244062
 40
0.4147320154
 40
0.4825976212
 40
0.5552968215
 40
0.6313617207
 40
0.7090541191
 40
0.7865123449
 40
0.8618954477
 40
0.9335141461
 40
1.0
 40
1.0
 40
1.0
 40
1.0
 10
399.0990971498
 20
222.4154178233
 30
0.0
 10
399.0548645922
 20
222.927354973
 30
0.0
 10
398.8877284542
 20
223.8951593891
 30
0.0
 10
398.3455743112
 20
225.1958080744
 30
0.0
 10
397.5310689621
 20
226.214400501
 30
0.0
 10
396.4680499693
 20
226.8912429209
 30
0.0
 10
395.2155468805
 20
227.185549917
 30
0.0
 10
393.8403619266
 20
227.0981500277
 30
0.0
 10
392.3930510833
 20
226.6496416743
 30
0.0
 10
390.9183359284
 20
225.8635232385
 30
0.0
 10
389.4631516129
 20
224.769103965
 30
0.0
 10
388.0761869637
 20
223.4046446424
 30
0.0
 10
386.8053197702
 20
221.8177933078
 30
0.0
 10
385.6951110964
 20
220.0642938919
 30
0.0
 10
384.7846717697
 20
218.2060465179
 30
0.0
 10
384.106158017
 20
216.3083070529
 30
0.0
 10
383.6833663002
 20
214.4382794186
 30
0.0
 10
383.5777425088
 20
213.1999896523
 30
0.0
 10
383.5777425088
 20
212.6043968909
 30
0.0
  0
SPLINE
  5
2F1
100
AcDbEntity
  8
_1
100
AcDbSpline
 62
7
  6
CONTINUOUS
 70
0
 71
3
 72
19
 73
15
 74
0
 42
0.0000001
 43
0.0000001
 44
0.0000000001
 40
0.0
 40
0.0
 40
0.0
 40
0.0
 40
0.0428410981
 40
0.0874508291
 40
0.1352634448
 40
0.1872049695
 40
0.2436867391
 40
0.3046823328
 40
0.3698212021
 40
0.4384725165
 40
0.5827551339
 40
0.7298454497
 40
0.8713747346
 40
1.0
 40
1.0
 40
1.0
 40
1.0
 10
396.6486662359
 20
227.8956749123
 30
0.0
 10
396.3528300131
 20
228.0664974604
 30
0.0
 10
395.7006660574
 20
228.337510907
 30
0.0
 10
394.6241647785
 20
228.4952788622
 30
0.0
 10
393.4681686311
 20
228.410170828
 30
0.0
 10
392.2583498914
 20
228.0887248099
 30
0.0
 10
391.0184531164
 20
227.540739443
 30
0.0
 10
389.7731910279
 20
226.7788774693
 30
0.0
 10
388.5477309968
 20
225.8195207284
 30
0.0
 10
386.9485723356
 20
224.2790120431
 30
0.0
 10
385.1716392575
 20
222.0034365785
 30
0.0
 10
383.5213873024
 20
218.9534587073
 30
0.0
 10
382.4504760772
 20
215.7866679117
 30
0.0
 10
382.1635289464
 20
213.6300454805
 30
0.0
 10
382.1635289464
 20
212.6043934916
 30
0.0
  0
SPLINE
  5
2F2
100
AcDbEntity
  8
_1
100
AcDbSpline
 62
7
  6
CONTINUOUS
 70
0
 71
3
 72
12
 73
8
 74
0
 42
0.0000001
 43
0.0000001
 44
0.0000000001
 40
0.0
 40
0.0
 40
0.0
 40
0.0
 40
0.1081629847
 40
0.2183626161
 40
0.4513658123
 40
0.7104065919
 40
1.0
 40
1.0
 40
1.0
 40
1.0
 10
350.0005110944
 20
227.1147751929
 30
0.0
 10
349.8037702493
 20
227.2283780517
 30
0.0
 10
349.4254836947
 20
227.4923615982
 30
0.0
 10
348.7468980573
 20
228.1598197465
 30
0.0
 10
348.0749616098
 20
229.2554643795
 30
0.0
 10
347.6072895398
 20
230.8434563309
 30
0.0
 10
347.5151524142
 20
231.9999325747
 30
0.0
 10
347.5151524142
 20
232.608190463
 30
0.0
  0
SPLINE
  5
2F3
100
AcDbEntity
  8
_1
100
AcDbSpline
 62
7
  6
CONTINUOUS
 70
0
 71
3
 72
15
 73
11
 74
0
 42
0.0000001
 43
0.0000001
 44
0.0000000001
 40
0.0
 40
0.0
 40
0.0
 40
0.0
 40
0.1471141913
 40
0.2796227757
 40
0.3993086915
 40
0.5105354864
 40
0.619921691
 40
0.7346376262
 40
0.8603120595
 40
1.0
 40
1.0
 40
1.0
 40
1.0
 10
383.5777425088
 20
212.6043968909
 30
0.0
 10
383.5777425088
 20
212.0781052624
 30
0.0
 10
383.6531568858
 20
211.0747504839
 30
0.0
 10
384.03416946
 20
209.6870000463
 30
0.0
 10
384.6740992652
 20
208.5375189666
 30
0.0
 10
385.5632945206
 20
207.6767853143
 30
0.0
 10
386.6672857438
 20
207.1551215529
 30
0.0
 10
387.9266094008
 20
206.9957027295
 30
0.0
 10
389.2852839255
 20
207.1890489455
 30
0.0
 10
390.1812399276
 20
207.5229270304
 30
0.0
 10
390.6335682338
 20
207.7353508276
 30
0.0
  0
SPLINE
  5
2F4
100
AcDbEntity
  8
_1
100
AcDbSpline
 62
7
  6
CONTINUOUS
 70
0
 71
3
 72
9
 73
5
 74
0
 42
0.0000001
 43
0.0000001
 44
0.0000000001
 40
0.0
 40
0.0
 40
0.0
 40
0.0
 40
0.2454622195
 40
1.0
 40
1.0
 40
1.0
 40
1.0
 10
390.6335682338
 20
207.7353508276
 30
0.0
 10
390.6939753513
 20
207.7637194022
 30
0.0
 10
390.9387728879
 20
207.8820428418
 30
0.0
 10
391.1783595534
 20
208.0110846691
 30
0.0
 10
391.3560191173
 20
208.1136597986
 30
0.0
  0
SPLINE
  5
2F5
100
AcDbEntity
  8
_1
100
AcDbSpline
 62
7
  6
CONTINUOUS
 70
0
 71
3
 72
19
 73
15
 74
0
 42
0.0000001
 43
0.0000001
 44
0.0000000001
 40
0.0
 40
0.0
 40
0.0
 40
0.0
 40
0.1357289533
 40
0.2858508682
 40
0.43917683
 40
0.5836982292
 40
0.649597056
 40
0.710077956
 40
0.7649410641
 40
0.8147003611
 40
0.860740635
 40
0.905277036
 40
0.9509255311
 40
1.0
 40
1.0
 40
1.0
 40
1.0
 10
395.6692181252
 20
219.5853719221
 30
0.0
 10
395.6692181252
 20
218.9651548853
 30
0.0
 10
395.4637961304
 20
217.6576922967
 30
0.0
 10
394.7246551661
 20
215.7788292994
 30
0.0
 10
393.61457845
 20
214.044025657
 30
0.0
 10
392.4453424799
 20
212.840533389
 30
0.0
 10
391.4266163839
 20
212.1310872311
 30
0.0
 10
390.6816022536
 20
211.7611659484
 30
0.0
 10
389.9527264021
 20
211.5486335799
 30
0.0
 10
389.2591582395
 20
211.5026929402
 30
0.0
 10
388.6219099974
 20
211.6307216794
 30
0.0
 10
388.0668739338
 20
211.933792762
 30
0.0
 10
387.619446794
 20
212.3984978985
 30
0.0
 10
387.4113751493
 20
212.7839049891
 30
0.0
 10
387.3265045111
 20
212.9914711915
 30
0.0
  0
SPLINE
  5
2F6
100
AcDbEntity
  8
_1
100
AcDbSpline
 62
7
  6
CONTINUOUS
 70
0
 71
3
 72
8
 73
4
 74
0
 42
0.0000001
 43
0.0000001
 44
0.0000000001
 40
0.0
 40
0.0
 40
0.0
 40
0.0
 40
1.0
 40
1.0
 40
1.0
 40
1.0
 10
144.4038248164
 20
462.4942472391
 30
0.0
 10
143.0368555189
 20
463.2092106819
 30
0.0
 10
141.6697784614
 20
463.9239681357
 30
0.0
 10
140.3025884106
 20
464.6385093522
 30
0.0
  0
SPLINE
  5
2F7
100
AcDbEntity
  8
_1
100
AcDbSpline
 62
7
  6
CONTINUOUS
 70
0
 71
3
 72
11
 73
7
 74
0
 42
0.0000001
 43
0.0000001
 44
0.0000000001
 40
0.0
 40
0.0
 40
0.0
 40
0.0
 40
0.1730710024
 40
0.3914515647
 40
0.6647988761
 40
1.0
 40
1.0
 40
1.0
 40
1.0
 10
161.6183126194
 20
453.17212685
 30
0.0
 10
161.538598936
 20
453.2943083063
 30
0.0
 10
161.3100183152
 20
453.5382746498
 30
0.0
 10
160.8578500612
 20
453.8707785439
 30
0.0
 10
160.2585107947
 20
454.2280696239
 30
0.0
 10
159.8055785417
 20
454.4689053116
 30
0.0
 10
159.5550620582
 20
454.5995776145
 30
0.0
  0
SPLINE
  5
2F8
100
AcDbEntity
  8
_1
100
AcDbSpline
 62
7
  6
CONTINUOUS
 70
0
 71
3
 72
15
 73
11
 74
0
 42
0.0000001
 43
0.0000001
 44
0.0000000001
 40
0.0
 40
0.0
 40
0.0
 40
0.0
 40
0.4289667231
 40
0.6003933817
 40
0.7409633471
 40
0.850319395
 40
0.9289389456
 40
0.9779383401
 40
0.992055407
 40
1.0
 40
1.0
 40
1.0
 40
1.0
 10
136.7256821134
 20
466.3474759352
 30
0.0
 10
136.5445922986
 20
466.4428603223
 30
0.0
 10
136.2931731145
 20
466.580406526
 30
0.0
 10
135.9899960385
 20
466.7624110264
 30
0.0
 10
135.8208617949
 20
466.8710281875
 30
0.0
 10
135.6919376682
 20
466.960601367
 30
0.0
 10
135.6027575248
 20
467.0295472671
 30
0.0
 10
135.5514055184
 20
467.07474785
 30
0.0
 10
135.5301943915
 20
467.1005774549
 30
0.0
 10
135.5248078082
 20
467.1104015114
 30
0.0
 10
135.5248078622
 20
467.1141921472
 30
0.0
  0
SPLINE
  5
2F9
100
AcDbEntity
  8
_1
100
AcDbSpline
 62
7
  6
CONTINUOUS
 70
0
 71
3
 72
9
 73
5
 74
0
 42
0.0000001
 43
0.0000001
 44
0.0000000001
 40
0.0
 40
0.0
 40
0.0
 40
0.0
 40
0.2323597482
 40
1.0
 40
1.0
 40
1.0
 40
1.0
 10
136.7256821134
 20
466.3474759352
 30
0.0
 10
136.9973560505
 20
466.204378699
 30
0.0
 10
138.1814257805
 20
465.6169304962
 30
0.0
 10
139.3947041368
 20
465.0910354549
 30
0.0
 10
140.3025884106
 20
464.6385093857
 30
0.0
  0
SPLINE
  5
2FA
100
AcDbEntity
  8
_1
100
AcDbSpline
 62
7
  6
CONTINUOUS
 70
0
 71
3
 72
9
 73
5
 74
0
 42
0.0000001
 43
0.0000001
 44
0.0000000001
 40
0.0
 40
0.0
 40
0.0
 40
0.0
 40
0.5141277638
 40
1.0
 40
1.0
 40
1.0
 40
1.0
 10
113.1543143534
 20
477.4594743487
 30
0.0
 10
113.9024883519
 20
477.4955292841
 30
0.0
 10
115.3735203811
 20
477.4042456107
 30
0.0
 10
116.7708206741
 20
476.9188791693
 30
0.0
 10
117.3984145302
 20
476.5914425584
 30
0.0
  0
SPLINE
  5
2FB
100
AcDbEntity
  8
_1
100
AcDbSpline
 62
7
  6
CONTINUOUS
 70
0
 71
3
 72
14
 73
10
 74
0
 42
0.0000001
 43
0.0000001
 44
0.0000000001
 40
0.0
 40
0.0
 40
0.0
 40
0.0
 40
0.2976861353
 40
0.4372942668
 40
0.5684596084
 40
0.6901616805
 40
0.8020787497
 40
0.9047956814
 40
1.0
 40
1.0
 40
1.0
 40
1.0
 10
148.2569515297
 20
406.8526777159
 30
0.0
 10
150.1646370119
 20
407.0590291292
 30
0.0
 10
152.9532858635
 20
407.6014875636
 30
0.0
 10
156.4071567033
 20
408.8408874566
 30
0.0
 10
158.6832090231
 20
409.959585506
 30
0.0
 10
160.6490595198
 20
411.2630714102
 30
0.0
 10
162.2621687447
 20
412.7264110472
 30
0.0
 10
163.4847853243
 20
414.3206750371
 30
0.0
 10
164.0334290811
 20
415.4873361614
 30
0.0
 10
164.2228400142
 20
416.071037485
 30
0.0
  0
SPLINE
  5
2FC
100
AcDbEntity
  8
_1
100
AcDbSpline
 62
7
  6
CONTINUOUS
 70
0
 71
3
 72
11
 73
7
 74
0
 42
0.0000001
 43
0.0000001
 44
0.0000000001
 40
0.0
 40
0.0
 40
0.0
 40
0.0
 40
0.220613321
 40
0.458636732
 40
0.7179805665
 40
1.0
 40
1.0
 40
1.0
 40
1.0
 10
124.9265544473
 20
416.0709430283
 30
0.0
 10
125.1159825795
 20
415.4872155579
 30
0.0
 10
125.6646667478
 20
414.3205115934
 30
0.0
 10
126.8874570215
 20
412.7261541083
 30
0.0
 10
128.5004186565
 20
411.2629190784
 30
0.0
 10
129.7602652694
 20
410.4276994197
 30
0.0
 10
130.4396761989
 20
410.0354502105
 30
0.0
  0
SPLINE
  5
2FD
100
AcDbEntity
  8
_1
100
AcDbSpline
 62
7
  6
CONTINUOUS
 70
0
 71
3
 72
9
 73
5
 74
0
 42
0.0000001
 43
0.0000001
 44
0.0000000001
 40
0.0
 40
0.0
 40
0.0
 40
0.0
 40
0.4759296564
 40
1.0
 40
1.0
 40
1.0
 40
1.0
 10
130.4396761989
 20
410.0354502105
 30
0.0
 10
131.9488654896
 20
409.164139079
 30
0.0
 10
135.3710313022
 20
407.7618487062
 30
0.0
 10
138.9858567457
 20
407.0588974114
 30
0.0
 10
140.8936517623
 20
406.8525436434
 30
0.0
  0
SPLINE
  5
2FE
100
AcDbEntity
  8
_1
100
AcDbSpline
 62
7
  6
CONTINUOUS
 70
0
 71
3
 72
14
 73
10
 74
0
 42
0.0000001
 43
0.0000001
 44
0.0000000001
 40
0.0
 40
0.0
 40
0.0
 40
0.0
 40
0.0985528953
 40
0.2113459648
 40
0.3369765262
 40
0.4718065626
 40
0.7481341242
 40
0.8795534904
 40
1.0
 40
1.0
 40
1.0
 40
1.0
 10
140.8936517623
 20
406.8525436434
 30
0.0
 10
141.029918451
 20
407.0375879555
 30
0.0
 10
141.3909505417
 20
407.3845216173
 30
0.0
 10
142.0753010074
 20
407.7805913584
 30
0.0
 10
142.9005899345
 20
408.0711320576
 30
0.0
 10
144.1349603373
 20
408.2971711452
 30
0.0
 10
145.420445435
 20
408.2611388363
 30
0.0
 10
146.6183030948
 20
407.9604312491
 30
0.0
 10
147.1599561912
 20
407.7223792081
 30
0.0
 10
147.4031855727
 20
407.581953836
 30
0.0
  0
SPLINE
  5
2FF
100
AcDbEntity
  8
_1
100
AcDbSpline
 62
7
  6
CONTINUOUS
 70
0
 71
3
 72
9
 73
5
 74
0
 42
0.0000001
 43
0.0000001
 44
0.0000000001
 40
0.0
 40
0.0
 40
0.0
 40
0.0
 40
0.4858703921
 40
1.0
 40
1.0
 40
1.0
 40
1.0
 10
95.4055410344
 20
438.497806485
 30
0.0
 10
94.8081213544
 20
438.8776185429
 30
0.0
 10
93.6890293232
 20
439.8451059754
 30
0.0
 10
92.8744051285
 20
441.0735273065
 30
0.0
 10
92.5315238927
 20
441.7395551912
 30
0.0
  0
SPLINE
  5
300
100
AcDbEntity
  8
_1
100
AcDbSpline
 62
7
  6
CONTINUOUS
 70
0
 71
3
 72
9
 73
5
 74
0
 42
0.0000001
 43
0.0000001
 44
0.0000000001
 40
0.0
 40
0.0
 40
0.0
 40
0.0
 40
0.2612573694
 40
1.0
 40
1.0
 40
1.0
 40
1.0
 10
167.2319083518
 20
408.0384996119
 30
0.0
 10
167.2932465686
 20
408.0190494427
 30
0.0
 10
167.5261422903
 20
407.9389525765
 30
0.0
 10
167.7516194828
 20
407.8360250116
 30
0.0
 10
167.9091968519
 20
407.7450497333
 30
0.0
  0
SPLINE
  5
301
100
AcDbEntity
  8
_1
100
AcDbSpline
 62
7
  6
CONTINUOUS
 70
0
 71
3
 72
9
 73
5
 74
0
 42
0.0000001
 43
0.0000001
 44
0.0000000001
 40
0.0
 40
0.0
 40
0.0
 40
0.0
 40
0.2357737385
 40
1.0
 40
1.0
 40
1.0
 40
1.0
 10
162.9594699914
 20
404.8873406562
 30
0.0
 10
163.0519323991
 20
404.8339586679
 30
0.0
 10
163.4536926459
 20
404.6242431801
 30
0.0
 10
163.8867509376
 20
404.4775492612
 30
0.0
 10
164.2228400142
 20
404.39505292
 30
0.0
  0
SPLINE
  5
302
100
AcDbEntity
  8
_1
100
AcDbSpline
 62
7
  6
CONTINUOUS
 70
0
 71
3
 72
9
 73
5
 74
0
 42
0.0000001
 43
0.0000001
 44
0.0000000001
 40
0.0
 40
0.0
 40
0.0
 40
0.0
 40
0.2612573694
 40
1.0
 40
1.0
 40
1.0
 40
1.0
 10
146.0187932354
 20
395.7911749958
 30
0.0
 10
146.0801314522
 20
395.7717248265
 30
0.0
 10
146.3130271739
 20
395.6916279604
 30
0.0
 10
146.5385043664
 20
395.5887003955
 30
0.0
 10
146.6960817354
 20
395.4977251172
 30
0.0
  0
SPLINE
  5
303
100
AcDbEntity
  8
_1
100
AcDbSpline
 62
7
  6
CONTINUOUS
 70
0
 71
3
 72
12
 73
8
 74
0
 42
0.0000001
 43
0.0000001
 44
0.0000000001
 40
0.0
 40
0.0
 40
0.0
 40
0.0
 40
0.3051524228
 40
0.5727618364
 40
0.7997959575
 40
0.9018920476
 40
1.0
 40
1.0
 40
1.0
 40
1.0
 10
124.9265544473
 20
404.3949584634
 30
0.0
 10
125.2677755652
 20
404.4787164511
 30
0.0
 10
125.8970343409
 20
404.6932468526
 30
0.0
 10
126.689038409
 20
405.1799914098
 30
0.0
 10
127.1496856648
 20
405.7141363626
 30
0.0
 10
127.3315199624
 20
406.175770472
 30
0.0
 10
127.3614284722
 20
406.4072544826
 30
0.0
 10
127.3614503106
 20
406.5202153696
 30
0.0
  0
SPLINE
  5
304
100
AcDbEntity
  8
_1
100
AcDbSpline
 62
7
  6
CONTINUOUS
 70
0
 71
3
 72
11
 73
7
 74
0
 42
0.0000001
 43
0.0000001
 44
0.0000000001
 40
0.0
 40
0.0
 40
0.0
 40
0.0
 40
0.2177795635
 40
0.4509179192
 40
0.7102567502
 40
1.0
 40
1.0
 40
1.0
 40
1.0
 10
161.787913499
 20
406.5203171934
 30
0.0
 10
161.7878840452
 20
406.3679647144
 30
0.0
 10
161.8442257869
 20
406.0504024452
 30
0.0
 10
162.0849338228
 20
405.607974628
 30
0.0
 10
162.4654762061
 20
405.207975742
 30
0.0
 10
162.7839288875
 20
404.988687067
 30
0.0
 10
162.9594699914
 20
404.8873406562
 30
0.0
  0
SPLINE
  5
305
100
AcDbEntity
  8
_1
100
AcDbSpline
 62
7
  6
CONTINUOUS
 70
0
 71
3
 72
11
 73
7
 74
0
 42
0.0000001
 43
0.0000001
 44
0.0000000001
 40
0.0
 40
0.0
 40
0.0
 40
0.0
 40
0.2327877224
 40
0.4730963719
 40
0.727320526
 40
1.0
 40
1.0
 40
1.0
 40
1.0
 10
164.5746508982
 20
419.2577039606
 30
0.0
 10
164.574621284
 20
419.7580767687
 30
0.0
 10
164.4582308545
 20
420.7784191344
 30
0.0
 10
163.942641181
 20
422.2660295564
 30
0.0
 10
163.1001507121
 20
423.6946487801
 30
0.0
 10
162.3607390332
 20
424.5600575427
 30
0.0
 10
161.9488846802
 20
424.9770850162
 30
0.0
  0
SPLINE
  5
306
100
AcDbEntity
  8
_1
100
AcDbSpline
 62
7
  6
CONTINUOUS
 70
0
 71
3
 72
12
 73
8
 74
0
 42
0.0000001
 43
0.0000001
 44
0.0000000001
 40
0.0
 40
0.0
 40
0.0
 40
0.0
 40
0.1081633124
 40
0.2183631348
 40
0.4513663218
 40
0.7104068054
 40
1.0
 40
1.0
 40
1.0
 40
1.0
 10
84.3700781464
 20
447.1706187101
 30
0.0
 10
84.0421771068
 20
447.3599593512
 30
0.0
 10
83.411701716
 20
447.7999373443
 30
0.0
 10
82.2807274689
 20
448.9123704659
 30
0.0
 10
81.1608370589
 20
450.7384448859
 30
0.0
 10
80.3813796783
 20
453.3850929742
 30
0.0
 10
80.2278146751
 20
455.312550705
 30
0.0
 10
80.2278146751
 20
456.3263125831
 30
0.0
  0
SPLINE
  5
307
100
AcDbEntity
  8
_1
100
AcDbSpline
 62
7
  6
CONTINUOUS
 70
0
 71
3
 72
9
 73
5
 74
0
 42
0.0000001
 43
0.0000001
 44
0.0000000001
 40
0.0
 40
0.0
 40
0.0
 40
0.0
 40
0.2004222115
 40
1.0
 40
1.0
 40
1.0
 40
1.0
 10
135.6158777679
 20
467.0880709002
 30
0.0
 10
135.6284959471
 20
467.081474267
 30
0.0
 10
135.6906919273
 20
467.047108104
 30
0.0
 10
135.7506073321
 20
467.0087737575
 30
0.0
 10
135.7978724057
 20
466.977266674
 30
0.0
  0
SPLINE
  5
308
100
AcDbEntity
  8
_1
100
AcDbSpline
 62
7
  6
CONTINUOUS
 70
0
 71
3
 72
9
 73
5
 74
0
 42
0.0000001
 43
0.0000001
 44
0.0000000001
 40
0.0
 40
0.0
 40
0.0
 40
0.0
 40
0.2144884431
 40
1.0
 40
1.0
 40
1.0
 40
1.0
 10
135.7978724057
 20
466.977266674
 30
0.0
 10
135.8248859484
 20
466.9592593404
 30
0.0
 10
135.9497165835
 20
466.873636763
 30
0.0
 10
136.0707177452
 20
466.7825207491
 30
0.0
 10
136.164227526
 20
466.70908892
 30
0.0
  0
SPLINE
  5
309
100
AcDbEntity
  8
_1
100
AcDbSpline
 62
7
  6
CONTINUOUS
 70
0
 71
3
 72
19
 73
15
 74
0
 42
0.0000001
 43
0.0000001
 44
0.0000000001
 40
0.0
 40
0.0
 40
0.0
 40
0.0
 40
0.1286248922
 40
0.2701533729
 40
0.4172452282
 40
0.5615292195
 40
0.6301806885
 40
0.695319395
 40
0.7563146624
 40
0.8127960556
 40
0.8647372107
 40
0.9125494872
 40
0.9571589246
 40
1.0
 40
1.0
 40
1.0
 40
1.0
 10
80.2278146751
 20
456.3263125831
 30
0.0
 10
80.2278146751
 20
458.0357271334
 30
0.0
 10
80.7060651997
 20
461.6300803412
 30
0.0
 10
82.4909116209
 20
466.9080689121
 30
0.0
 10
85.2413362378
 20
471.9913936582
 30
0.0
 10
88.202918394
 20
475.7840503347
 30
0.0
 10
90.8682074194
 20
478.3515643282
 30
0.0
 10
92.9106442913
 20
479.9504792252
 30
0.0
 10
94.9860749676
 20
481.2202355948
 30
0.0
 10
97.052557365
 20
482.1335345897
 30
0.0
 10
99.0689069705
 20
482.6692752155
 30
0.0
 10
100.9955533871
 20
482.8111207782
 30
0.0
 10
102.7897130951
 20
482.5481738528
 30
0.0
 10
103.8766467629
 20
482.0964801696
 30
0.0
 10
104.3697046923
 20
481.8117726109
 30
0.0
  0
SPLINE
  5
30A
100
AcDbEntity
  8
_1
100
AcDbSpline
 62
7
  6
CONTINUOUS
 70
0
 71
3
 72
10
 73
6
 74
0
 42
0.0000001
 43
0.0000001
 44
0.0000000001
 40
0.0
 40
0.0
 40
0.0
 40
0.0
 40
0.6163348864
 40
0.8391496641
 40
1.0
 40
1.0
 40
1.0
 40
1.0
 10
117.0681954389
 20
425.0768419734
 30
0.0
 10
117.3080373554
 20
424.9262331219
 30
0.0
 10
117.6299549384
 20
424.7125159669
 30
0.0
 10
117.9891977674
 20
424.4257717971
 30
0.0
 10
118.1184694037
 20
424.3052683803
 30
0.0
 10
118.1683824098
 20
424.2507560262
 30
0.0
  0
SPLINE
  5
30B
100
AcDbEntity
  8
_1
100
AcDbSpline
 62
7
  6
CONTINUOUS
 70
0
 71
3
 72
9
 73
5
 74
0
 42
0.0000001
 43
0.0000001
 44
0.0000000001
 40
0.0
 40
0.0
 40
0.0
 40
0.0
 40
0.5000007589
 40
1.0
 40
1.0
 40
1.0
 40
1.0
 10
92.5315238927
 20
456.7062917176
 30
0.0
 10
93.320418104
 20
459.1496063349
 30
0.0
 10
95.4514427317
 20
463.8670940004
 30
0.0
 10
98.4713734046
 20
468.0713754089
 30
0.0
 10
100.1928869205
 20
469.9762354002
 30
0.0
  0
SPLINE
  5
30C
100
AcDbEntity
  8
_1
100
AcDbSpline
 62
7
  6
CONTINUOUS
 70
0
 71
3
 72
9
 73
5
 74
0
 42
0.0000001
 43
0.0000001
 44
0.0000000001
 40
0.0
 40
0.0
 40
0.0
 40
0.0
 40
0.5170510562
 40
1.0
 40
1.0
 40
1.0
 40
1.0
 10
142.0397567072
 20
409.4358596363
 30
0.0
 10
140.2971976368
 20
410.2295790539
 30
0.0
 10
137.0448491799
 20
412.0202645988
 30
0.0
 10
133.9220004825
 20
414.0090042831
 30
0.0
 10
132.4124959047
 20
414.9682746191
 30
0.0
  0
SPLINE
  5
30D
100
AcDbEntity
  8
_1
100
AcDbSpline
 62
7
  6
CONTINUOUS
 70
0
 71
3
 72
9
 73
5
 74
0
 42
0.0000001
 43
0.0000001
 44
0.0000000001
 40
0.0
 40
0.0
 40
0.0
 40
0.0
 40
0.2607467728
 40
1.0
 40
1.0
 40
1.0
 40
1.0
 10
132.4124959047
 20
414.9682746191
 30
0.0
 10
132.3072460314
 20
415.0351595314
 30
0.0
 10
131.9036269586
 20
415.2917176653
 30
0.0
 10
131.5001094331
 20
415.5484359169
 30
0.0
 10
131.2020069424
 20
415.7385280822
 30
0.0
  0
SPLINE
  5
30E
100
AcDbEntity
  8
_1
100
AcDbSpline
 62
7
  6
CONTINUOUS
 70
0
 71
3
 72
8
 73
4
 74
0
 42
0.0000001
 43
0.0000001
 44
0.0000000001
 40
0.0
 40
0.0
 40
0.0
 40
0.0
 40
1.0
 40
1.0
 40
1.0
 40
1.0
 10
122.3139009419
 20
421.4685762252
 30
0.0
 10
120.9467017195
 20
422.332162489
 30
0.0
 10
119.5796209772
 20
423.1959363577
 30
0.0
 10
118.212664536
 20
424.0599068645
 30
0.0
  0
SPLINE
  5
30F
100
AcDbEntity
  8
_1
100
AcDbSpline
 62
7
  6
CONTINUOUS
 70
0
 71
3
 72
11
 73
7
 74
0
 42
0.0000001
 43
0.0000001
 44
0.0000000001
 40
0.0
 40
0.0
 40
0.0
 40
0.0
 40
0.2513126206
 40
0.5214688211
 40
0.7762039697
 40
1.0
 40
1.0
 40
1.0
 40
1.0
 10
117.0681954389
 20
425.0768421992
 30
0.0
 10
116.694476731
 20
425.3115190488
 30
0.0
 10
115.8982217318
 20
425.7650173055
 30
0.0
 10
114.6920549665
 20
426.3995159584
 30
0.0
 10
113.5298775085
 20
427.0140692912
 30
0.0
 10
112.802667887
 20
427.43626162
 30
0.0
 10
112.471061548
 20
427.6471318114
 30
0.0
  0
SPLINE
  5
310
100
AcDbEntity
  8
_1
100
AcDbSpline
 62
7
  6
CONTINUOUS
 70
0
 71
3
 72
15
 73
11
 74
0
 42
0.0000001
 43
0.0000001
 44
0.0000000001
 40
0.0
 40
0.0
 40
0.0
 40
0.0
 40
0.128819566
 40
0.2705670684
 40
0.4178831376
 40
0.5623869439
 40
0.6962030419
 40
0.8135952443
 40
0.9130664699
 40
1.0
 40
1.0
 40
1.0
 40
1.0
 10
125.482789981
 20
409.5820781914
 30
0.0
 10
125.2607325419
 20
409.7102802133
 30
0.0
 10
124.7579298013
 20
409.917724662
 30
0.0
 10
123.938483725
 20
410.0817118943
 30
0.0
 10
123.0716666331
 20
410.1056716467
 30
0.0
 10
122.2285765541
 20
409.9872722603
 30
0.0
 10
121.4764873913
 20
409.73599567
 30
0.0
 10
120.8740580615
 20
409.3689309703
 30
0.0
 10
120.4659391632
 20
408.9048076381
 30
0.0
 10
120.3614785269
 20
408.53038223
 30
0.0
 10
120.3614784694
 20
408.3573457297
 30
0.0
  0
SPLINE
  5
311
100
AcDbEntity
  8
_1
100
AcDbSpline
 62
7
  6
CONTINUOUS
 70
0
 71
3
 72
11
 73
7
 74
0
 42
0.0000001
 43
0.0000001
 44
0.0000000001
 40
0.0
 40
0.0
 40
0.0
 40
0.0
 40
0.2631639157
 40
0.5238875991
 40
0.7722738009
 40
1.0
 40
1.0
 40
1.0
 40
1.0
 10
148.2587935852
 20
406.847003092
 30
0.0
 10
146.6565344677
 20
406.673584368
 30
0.0
 10
143.4380776179
 20
406.5568429629
 30
0.0
 10
138.7179619998
 20
407.0398187852
 30
0.0
 10
134.3276492647
 20
408.1508322036
 30
0.0
 10
131.6403675468
 20
409.3340816049
 30
0.0
 10
130.4326051605
 20
410.031367769
 30
0.0
  0
SPLINE
  5
312
100
AcDbEntity
  8
_1
100
AcDbSpline
 62
7
  6
CONTINUOUS
 70
0
 71
3
 72
9
 73
5
 74
0
 42
0.0000001
 43
0.0000001
 44
0.0000000001
 40
0.0
 40
0.0
 40
0.0
 40
0.0
 40
0.5313736144
 40
1.0
 40
1.0
 40
1.0
 40
1.0
 10
154.7322836659
 20
441.8893814453
 30
0.0
 10
156.1096419128
 20
442.3582189997
 30
0.0
 10
158.6364642697
 20
443.455101115
 30
0.0
 10
160.8865376796
 20
445.0740504586
 30
0.0
 10
161.8033220381
 20
445.971822984
 30
0.0
  0
SPLINE
  5
313
100
AcDbEntity
  8
_1
100
AcDbSpline
 62
7
  6
CONTINUOUS
 70
0
 71
3
 72
11
 73
7
 74
0
 42
0.0000001
 43
0.0000001
 44
0.0000000001
 40
0.0
 40
0.0
 40
0.0
 40
0.0
 40
0.2820142363
 40
0.5413583469
 40
0.7793845935
 40
1.0
 40
1.0
 40
1.0
 40
1.0
 10
130.4326051605
 20
410.031367769
 30
0.0
 10
129.7529723518
 20
410.4237450773
 30
0.0
 10
128.4926935662
 20
411.2592274623
 30
0.0
 10
126.8791178989
 20
412.7228891758
 30
0.0
 10
125.6557664838
 20
414.3177013067
 30
0.0
 10
125.1067276793
 20
415.4847368285
 30
0.0
 10
124.9171287306
 20
416.0686375583
 30
0.0
  0
SPLINE
  5
314
100
AcDbEntity
  8
_1
100
AcDbSpline
 62
7
  6
CONTINUOUS
 70
0
 71
3
 72
11
 73
7
 74
0
 42
0.0000001
 43
0.0000001
 44
0.0000000001
 40
0.0
 40
0.0
 40
0.0
 40
0.0
 40
0.267542699
 40
0.5199876476
 40
0.7611850398
 40
1.0
 40
1.0
 40
1.0
 40
1.0
 10
118.2690676087
 20
452.6366811665
 30
0.0
 10
118.2690763273
 20
452.8848793817
 30
0.0
 10
118.2296596295
 20
453.3691044593
 30
0.0
 10
118.0144299929
 20
454.0497606938
 30
0.0
 10
117.6277315639
 20
454.6216134015
 30
0.0
 10
117.2642139487
 20
454.8950745581
 30
0.0
 10
117.0681954389
 20
454.9983222681
 30
0.0
  0
SPLINE
  5
315
100
AcDbEntity
  8
_1
100
AcDbSpline
 62
7
  6
CONTINUOUS
 70
0
 71
3
 72
16
 73
12
 74
0
 42
0.0000001
 43
0.0000001
 44
0.0000000001
 40
0.0
 40
0.0
 40
0.0
 40
0.0
 40
0.2736749469
 40
0.4068008921
 40
0.5364143323
 40
0.6615112823
 40
0.7808222461
 40
0.8377907821
 40
0.892831547
 40
0.9463539975
 40
1.0
 40
1.0
 40
1.0
 40
1.0
 10
111.2699198332
 20
451.5376409989
 30
0.0
 10
111.106539224
 20
451.2022110031
 30
0.0
 10
110.8291536805
 20
450.7193780489
 30
0.0
 10
110.4029425351
 20
450.1246625053
 30
0.0
 10
110.0635966535
 20
449.7183511039
 30
0.0
 10
109.7023469843
 20
449.3574460505
 30
0.0
 10
109.3726644869
 20
449.1079127347
 30
0.0
 10
109.0915302008
 20
448.9630873786
 30
0.0
 10
108.8751767339
 20
448.8936273563
 30
0.0
 10
108.6515732838
 20
448.8792779472
 30
0.0
 10
108.5070856672
 20
448.9192143879
 30
0.0
 10
108.4414927085
 20
448.9515634225
 30
0.0
  0
SPLINE
  5
316
100
AcDbEntity
  8
_1
100
AcDbSpline
 62
7
  6
CONTINUOUS
 70
0
 71
3
 72
15
 73
11
 74
0
 42
0.0000001
 43
0.0000001
 44
0.0000000001
 40
0.0
 40
0.0
 40
0.0
 40
0.0
 40
0.128819566
 40
0.2705670684
 40
0.4178831376
 40
0.5623869439
 40
0.6962030419
 40
0.8135952443
 40
0.9130664699
 40
1.0
 40
1.0
 40
1.0
 40
1.0
 10
146.6960817354
 20
397.3348555557
 30
0.0
 10
146.4740242963
 20
397.4630575777
 30
0.0
 10
145.9712215557
 20
397.6705020264
 30
0.0
 10
145.1517754794
 20
397.8344892587
 30
0.0
 10
144.2849583875
 20
397.8584490111
 30
0.0
 10
143.4418683085
 20
397.7400496247
 30
0.0
 10
142.6897791457
 20
397.4887730344
 30
0.0
 10
142.0873498159
 20
397.1217083347
 30
0.0
 10
141.6792309176
 20
396.6575850025
 30
0.0
 10
141.5747702813
 20
396.2831595944
 30
0.0
 10
141.5747702238
 20
396.1101230941
 30
0.0
  0
SPLINE
  5
317
100
AcDbEntity
  8
_1
100
AcDbSpline
 62
7
  6
CONTINUOUS
 70
0
 71
3
 72
13
 73
9
 74
0
 42
0.0000001
 43
0.0000001
 44
0.0000000001
 40
0.0
 40
0.0
 40
0.0
 40
0.0
 40
0.1091286798
 40
0.2250003836
 40
0.3473311379
 40
0.474305462
 40
0.734960859
 40
1.0
 40
1.0
 40
1.0
 40
1.0
 10
117.0681954389
 20
454.9983223881
 30
0.0
 10
116.8292365245
 20
455.1241878521
 30
0.0
 10
116.2824589551
 20
455.2878898819
 30
0.0
 10
115.4121470886
 20
455.2586768708
 30
0.0
 10
114.5383495396
 20
454.99698508
 30
0.0
 10
113.4260954859
 20
454.3850260004
 30
0.0
 10
112.2428696969
 20
453.2457583011
 30
0.0
 10
111.5571533345
 20
452.1273482597
 30
0.0
 10
111.2699198332
 20
451.5376409949
 30
0.0
  0
SPLINE
  5
318
100
AcDbEntity
  8
_1
100
AcDbSpline
 62
7
  6
CONTINUOUS
 70
0
 71
3
 72
9
 73
5
 74
0
 42
0.0000001
 43
0.0000001
 44
0.0000000001
 40
0.0
 40
0.0
 40
0.0
 40
0.0
 40
0.5064503494
 40
1.0
 40
1.0
 40
1.0
 40
1.0
 10
142.2608117095
 20
441.9961352005
 30
0.0
 10
143.8303427066
 20
441.8731141457
 30
0.0
 10
146.9531390437
 20
441.8776750554
 30
0.0
 10
150.0385650977
 20
442.3735967752
 30
0.0
 10
151.5252126617
 20
442.7527765191
 30
0.0
  0
SPLINE
  5
319
100
AcDbEntity
  8
_1
100
AcDbSpline
 62
7
  6
CONTINUOUS
 70
0
 71
3
 72
9
 73
5
 74
0
 42
0.0000001
 43
0.0000001
 44
0.0000000001
 40
0.0
 40
0.0
 40
0.0
 40
0.0
 40
0.4986043281
 40
1.0
 40
1.0
 40
1.0
 40
1.0
 10
100.1928869205
 20
469.9762354002
 30
0.0
 10
107.1270702249
 20
465.2403148545
 30
0.0
 10
121.1185333238
 20
455.8654574482
 30
0.0
 10
135.1919926635
 20
446.6151549749
 30
0.0
 10
142.2608117095
 20
441.9961352005
 30
0.0
  0
SPLINE
  5
31A
100
AcDbEntity
  8
_1
100
AcDbSpline
 62
7
  6
CONTINUOUS
 70
0
 71
3
 72
15
 73
11
 74
0
 42
0.0000001
 43
0.0000001
 44
0.0000000001
 40
0.0
 40
0.0
 40
0.0
 40
0.0
 40
0.0935795811
 40
0.1924101013
 40
0.3004209249
 40
0.4197085768
 40
0.5506745109
 40
0.6924065042
 40
0.8430220786
 40
1.0
 40
1.0
 40
1.0
 40
1.0
 10
164.5746907567
 20
418.1962509319
 30
0.0
 10
164.574687094
 20
417.5255755094
 30
0.0
 10
164.3600515644
 20
416.1388856188
 30
0.0
 10
163.4281422282
 20
414.1709031153
 30
0.0
 10
161.9352977308
 20
412.347539986
 30
0.0
 10
159.9370330513
 20
410.7135028991
 30
0.0
 10
157.4933756491
 20
409.3067073091
 30
0.0
 10
154.6741814906
 20
408.1637200548
 30
0.0
 10
151.5607465336
 20
407.3157889376
 30
0.0
 10
149.3790385805
 20
406.9682828161
 30
0.0
 10
148.2605260188
 20
406.8472218596
 30
0.0
  0
SPLINE
  5
31B
100
AcDbEntity
  8
_1
100
AcDbSpline
 62
7
  6
CONTINUOUS
 70
0
 71
3
 72
8
 73
4
 74
0
 42
0.0000001
 43
0.0000001
 44
0.0000000001
 40
0.0
 40
0.0
 40
0.0
 40
0.0
 40
1.0
 40
1.0
 40
1.0
 40
1.0
 10
118.212664536
 20
451.8849619854
 30
0.0
 10
119.5798545869
 20
451.170420769
 30
0.0
 10
120.9469316443
 20
450.455663315
 30
0.0
 10
122.3139009419
 20
449.7406998721
 30
0.0
  0
SPLINE
  5
31C
100
AcDbEntity
  8
_1
100
AcDbSpline
 62
7
  6
CONTINUOUS
 70
0
 71
3
 72
12
 73
8
 74
0
 42
0.0000001
 43
0.0000001
 44
0.0000000001
 40
0.0
 40
0.0
 40
0.0
 40
0.0
 40
0.1081748307
 40
0.2183673418
 40
0.4513722665
 40
0.710411651
 40
1.0
 40
1.0
 40
1.0
 40
1.0
 10
124.5747074405
 20
419.257703987
 30
0.0
 10
124.5746666298
 20
418.8790314486
 30
0.0
 10
124.6405593611
 20
418.1130364348
 30
0.0
 10
125.0384564985
 20
416.5773941549
 30
0.0
 10
126.0599590124
 20
414.69458187
 30
0.0
 10
127.9622964964
 20
412.6963477217
 30
0.0
 10
129.5546915901
 20
411.5996730809
 30
0.0
 10
130.4326051605
 20
411.0928209113
 30
0.0
  0
SPLINE
  5
31D
100
AcDbEntity
  8
_1
100
AcDbSpline
 62
7
  6
CONTINUOUS
 70
0
 71
3
 72
9
 73
5
 74
0
 42
0.0000001
 43
0.0000001
 44
0.0000000001
 40
0.0
 40
0.0
 40
0.0
 40
0.0
 40
0.250470561
 40
1.0
 40
1.0
 40
1.0
 40
1.0
 10
92.5315238927
 20
441.7395551912
 30
0.0
 10
93.8556392835
 20
440.8469309087
 30
0.0
 10
99.1478721817
 20
437.2916331972
 30
0.0
 10
104.4559117362
 20
433.7598951905
 30
0.0
 10
108.4414927085
 20
431.1234495117
 30
0.0
  0
SPLINE
  5
31E
100
AcDbEntity
  8
_1
100
AcDbSpline
 62
7
  6
CONTINUOUS
 70
0
 71
3
 72
15
 73
11
 74
0
 42
0.0000001
 43
0.0000001
 44
0.0000000001
 40
0.0
 40
0.0
 40
0.0
 40
0.0
 40
0.128819566
 40
0.2705670684
 40
0.4178831376
 40
0.5623869439
 40
0.6962030419
 40
0.8135952443
 40
0.9130664699
 40
1.0
 40
1.0
 40
1.0
 40
1.0
 10
167.9091968519
 20
409.5821801719
 30
0.0
 10
167.6871394127
 20
409.7103821939
 30
0.0
 10
167.1843366721
 20
409.9178266426
 30
0.0
 10
166.3648905958
 20
410.0818138748
 30
0.0
 10
165.498073504
 20
410.1057736272
 30
0.0
 10
164.6549834249
 20
409.9873742408
 30
0.0
 10
163.9028942621
 20
409.7360976505
 30
0.0
 10
163.3004649324
 20
409.3690329509
 30
0.0
 10
162.8923460341
 20
408.9049096187
 30
0.0
 10
162.7878853978
 20
408.5304842105
 30
0.0
 10
162.7878853402
 20
408.3574477103
 30
0.0
  0
SPLINE
  5
31F
100
AcDbEntity
  8
_1
100
AcDbSpline
 62
7
  6
CONTINUOUS
 70
0
 71
3
 72
9
 73
5
 74
0
 42
0.0000001
 43
0.0000001
 44
0.0000000001
 40
0.0
 40
0.0
 40
0.0
 40
0.0
 40
0.2497017149
 40
1.0
 40
1.0
 40
1.0
 40
1.0
 10
159.4057455373
 20
454.3001069307
 30
0.0
 10
157.5736423842
 20
455.233577163
 30
0.0
 10
150.2342084808
 20
458.9674634345
 30
0.0
 10
142.8853348211
 20
462.6828260377
 30
0.0
 10
137.3640447709
 20
465.4556196676
 30
0.0
  0
SPLINE
  5
320
100
AcDbEntity
  8
_1
100
AcDbSpline
 62
7
  6
CONTINUOUS
 70
0
 71
3
 72
9
 73
5
 74
0
 42
0.0000001
 43
0.0000001
 44
0.0000000001
 40
0.0
 40
0.0
 40
0.0
 40
0.0
 40
0.2494269567
 40
1.0
 40
1.0
 40
1.0
 40
1.0
 10
137.3640447709
 20
465.4556196676
 30
0.0
 10
135.356304482
 20
466.4639074831
 30
0.0
 10
127.302739599
 20
470.4980267193
 30
0.0
 10
119.2301146232
 20
474.4942784399
 30
0.0
 10
113.1543143534
 20
477.4594743487
 30
0.0
  0
SPLINE
  5
321
100
AcDbEntity
  8
_1
100
AcDbSpline
 62
7
  6
CONTINUOUS
 70
0
 71
3
 72
10
 73
6
 74
0
 42
0.0000001
 43
0.0000001
 44
0.0000000001
 40
0.0
 40
0.0
 40
0.0
 40
0.0
 40
0.5179501565
 40
0.7614753324
 40
1.0
 40
1.0
 40
1.0
 40
1.0
 10
160.3078298196
 20
447.823392632
 30
0.0
 10
160.7631172211
 20
448.4184031446
 30
0.0
 10
161.3259121972
 20
449.3918776963
 30
0.0
 10
161.7108882931
 20
450.7921219611
 30
0.0
 10
161.774693557
 20
451.4911241445
 30
0.0
 10
161.7746775619
 20
451.8361504321
 30
0.0
  0
SPLINE
  5
322
100
AcDbEntity
  8
_1
100
AcDbSpline
 62
7
  6
CONTINUOUS
 70
0
 71
3
 72
13
 73
9
 74
0
 42
0.0000001
 43
0.0000001
 44
0.0000000001
 40
0.0
 40
0.0
 40
0.0
 40
0.0
 40
0.1982119712
 40
0.437133299
 40
0.569977088
 40
0.7113626019
 40
0.8591294984
 40
1.0
 40
1.0
 40
1.0
 40
1.0
 10
111.2699198332
 20
428.5373855552
 30
0.0
 10
111.0814143416
 20
428.7067323168
 30
0.0
 10
110.6728536062
 20
429.0881666112
 30
0.0
 10
110.1502910865
 20
429.5960223437
 30
0.0
 10
109.6813972197
 20
430.0548301617
 30
0.0
 10
109.2898463749
 20
430.4260929552
 30
0.0
 10
108.8817510512
 20
430.7942991272
 30
0.0
 10
108.5916978924
 20
431.0240893905
 30
0.0
 10
108.4414927085
 20
431.1234495117
 30
0.0
  0
SPLINE
  5
323
100
AcDbEntity
  8
_1
100
AcDbSpline
 62
7
  6
CONTINUOUS
 70
0
 71
3
 72
12
 73
8
 74
0
 42
0.0000001
 43
0.0000001
 44
0.0000000001
 40
0.0
 40
0.0
 40
0.0
 40
0.0
 40
0.2687136397
 40
0.523905634
 40
0.7660214163
 40
0.8836390292
 40
1.0
 40
1.0
 40
1.0
 40
1.0
 10
142.2608117095
 20
441.9961352005
 30
0.0
 10
141.3939178458
 20
441.7439913373
 30
0.0
 10
139.6828055827
 20
441.3175444926
 30
0.0
 10
137.1219522296
 20
440.993180337
 30
0.0
 10
135.0395539642
 20
441.1091725066
 30
0.0
 10
133.4866440872
 20
441.5121144855
 30
0.0
 10
132.7594661719
 20
441.8201880245
 30
0.0
 10
132.4124959047
 20
442.0003306669
 30
0.0
  0
SPLINE
  5
324
100
AcDbEntity
  8
_1
100
AcDbSpline
 62
7
  6
CONTINUOUS
 70
0
 71
3
 72
9
 73
5
 74
0
 42
0.0000001
 43
0.0000001
 44
0.0000000001
 40
0.0
 40
0.0
 40
0.0
 40
0.0
 40
0.4937025462
 40
1.0
 40
1.0
 40
1.0
 40
1.0
 10
151.5252126617
 20
410.1743300757
 30
0.0
 10
150.0028541091
 20
409.7860419971
 30
0.0
 10
146.84249274
 20
409.2849001872
 30
0.0
 10
143.6450042336
 20
409.2977638477
 30
0.0
 10
142.0397567096
 20
409.4358596372
 30
0.0
  0
SPLINE
  5
325
100
AcDbEntity
  8
_1
100
AcDbSpline
 62
7
  6
CONTINUOUS
 70
0
 71
3
 72
11
 73
7
 74
0
 42
0.0000001
 43
0.0000001
 44
0.0000000001
 40
0.0
 40
0.0
 40
0.0
 40
0.0
 40
0.2736490812
 40
0.528133171
 40
0.7680071144
 40
1.0
 40
1.0
 40
1.0
 40
1.0
 10
161.8033220381
 20
413.3933765405
 30
0.0
 10
162.2369160731
 20
413.8179789111
 30
0.0
 10
163.0159451768
 20
414.7006397544
 30
0.0
 10
163.9059810566
 20
416.1646471113
 30
0.0
 10
164.4512231687
 20
417.693061663
 30
0.0
 10
164.5746813478
 20
418.7432148332
 30
0.0
 10
164.5746508982
 20
419.2577039606
 30
0.0
  0
SPLINE
  5
326
100
AcDbEntity
  8
_1
100
AcDbSpline
 62
7
  6
CONTINUOUS
 70
0
 71
3
 72
12
 73
8
 74
0
 42
0.0000001
 43
0.0000001
 44
0.0000000001
 40
0.0
 40
0.0
 40
0.0
 40
0.0
 40
0.111859042
 40
0.2314713818
 40
0.4866763979
 40
0.749062061
 40
1.0
 40
1.0
 40
1.0
 40
1.0
 10
130.4326051605
 20
411.0928209113
 30
0.0
 10
131.2396264467
 20
410.626897495
 30
0.0
 10
132.9819882934
 20
409.7848562834
 30
0.0
 10
136.8264710805
 20
408.4748824798
 30
0.0
 10
142.1029436919
 20
407.5972354597
 30
0.0
 10
148.5352733687
 20
407.7344071219
 30
0.0
 10
152.7533038118
 20
408.6373120884
 30
0.0
 10
154.7322836659
 20
409.3109350018
 30
0.0
  0
SPLINE
  5
327
100
AcDbEntity
  8
_1
100
AcDbSpline
 62
7
  6
CONTINUOUS
 70
0
 71
3
 72
11
 73
7
 74
0
 42
0.0000001
 43
0.0000001
 44
0.0000000001
 40
0.0
 40
0.0
 40
0.0
 40
0.0
 40
0.2177830968
 40
0.450915839
 40
0.7103069095
 40
1.0
 40
1.0
 40
1.0
 40
1.0
 10
56.9462548506
 20
392.8777597499
 30
0.0
 10
56.8060720937
 20
392.9587179822
 30
0.0
 10
56.5437540374
 20
393.1792007672
 30
0.0
 10
56.2645103113
 20
393.6357989701
 30
0.0
 10
56.0986650438
 20
394.1984737958
 30
0.0
 10
56.0660176782
 20
394.6080014253
 30
0.0
 10
56.0660176782
 20
394.8233339843
 30
0.0
  0
SPLINE
  5
328
100
AcDbEntity
  8
_1
100
AcDbSpline
 62
7
  6
CONTINUOUS
 70
0
 71
3
 72
15
 73
11
 74
0
 42
0.0000001
 43
0.0000001
 44
0.0000000001
 40
0.0
 40
0.0
 40
0.0
 40
0.0
 40
0.1288327487
 40
0.2705730302
 40
0.4178907478
 40
0.562388404
 40
0.6962024108
 40
0.8135926078
 40
0.9130645051
 40
1.0
 40
1.0
 40
1.0
 40
1.0
 10
56.0660176782
 20
394.8233339843
 30
0.0
 10
56.0660176782
 20
395.1866140582
 30
0.0
 10
56.167637437
 20
395.9504468617
 30
0.0
 10
56.5469687949
 20
397.071944446
 30
0.0
 10
57.1315153755
 20
398.152366756
 30
0.0
 10
57.8739793652
 20
399.1028202901
 30
0.0
 10
58.7149544273
 20
399.8475287958
 30
0.0
 10
59.5920010955
 20
400.3266346554
 30
0.0
 10
60.450483799
 20
400.4985824307
 30
0.0
 10
60.9838820374
 20
400.3615799267
 30
0.0
 10
61.1961631221
 20
400.2389835266
 30
0.0
  0
SPLINE
  5
329
100
AcDbEntity
  8
_1
100
AcDbSpline
 62
7
  6
CONTINUOUS
 70
0
 71
3
 72
11
 73
7
 74
0
 42
0.0000001
 43
0.0000001
 44
0.0000000001
 40
0.0
 40
0.0
 40
0.0
 40
0.0
 40
0.2372182624
 40
0.4999984
 40
0.7627794086
 40
1.0
 40
1.0
 40
1.0
 40
1.0
 10
60.544624011
 20
399.1044253512
 30
0.0
 10
61.6488059755
 20
399.7419213003
 30
0.0
 10
63.7385395464
 20
401.5006369731
 30
0.0
 10
66.1775904343
 20
404.8336726912
 30
0.0
 10
67.8445438345
 20
408.6124908422
 30
0.0
 10
68.3227662203
 20
411.3016275078
 30
0.0
 10
68.3227662203
 20
412.5766376322
 30
0.0
  0
SPLINE
  5
32A
100
AcDbEntity
  8
_1
100
AcDbSpline
 62
7
  6
CONTINUOUS
 70
0
 71
3
 72
9
 73
5
 74
0
 42
0.0000001
 43
0.0000001
 44
0.0000000001
 40
0.0
 40
0.0
 40
0.0
 40
0.0
 40
0.2657747364
 40
1.0
 40
1.0
 40
1.0
 40
1.0
 10
59.0866438499
 20
397.9472714443
 30
0.0
 10
59.1196392869
 20
398.0153348247
 30
0.0
 10
59.2603700827
 20
398.2620688957
 30
0.0
 10
59.4639506307
 20
398.4805020085
 30
0.0
 10
59.6449158554
 20
398.5849817061
 30
0.0
  0
SPLINE
  5
32B
100
AcDbEntity
  8
_1
100
AcDbSpline
 62
7
  6
CONTINUOUS
 70
0
 71
3
 72
9
 73
5
 74
0
 42
0.0000001
 43
0.0000001
 44
0.0000000001
 40
0.0
 40
0.0
 40
0.0
 40
0.0
 40
0.2418788935
 40
1.0
 40
1.0
 40
1.0
 40
1.0
 10
52.2971836655
 20
355.6925807886
 30
0.0
 10
52.2971836655
 20
356.6237330985
 30
0.0
 10
52.3786936676
 20
360.4732219969
 30
0.0
 10
52.7729698179
 20
364.3139562341
 30
0.0
 10
53.2181250733
 20
367.1983181133
 30
0.0
  0
SPLINE
  5
32C
100
AcDbEntity
  8
_1
100
AcDbSpline
 62
7
  6
CONTINUOUS
 70
0
 71
3
 72
9
 73
5
 74
0
 42
0.0000001
 43
0.0000001
 44
0.0000000001
 40
0.0
 40
0.0
 40
0.0
 40
0.0
 40
0.2402958237
 40
1.0
 40
1.0
 40
1.0
 40
1.0
 10
53.2181250733
 20
345.2502486555
 30
0.0
 10
53.0630161518
 20
346.0761661006
 30
0.0
 10
52.5073829261
 20
349.5299452089
 30
0.0
 10
52.2971836655
 20
353.0357636951
 30
0.0
 10
52.2971836655
 20
355.6925807886
 30
0.0
  0
SPLINE
  5
32D
100
AcDbEntity
  8
_1
100
AcDbSpline
 62
7
  6
CONTINUOUS
 70
0
 71
3
 72
9
 73
5
 74
0
 42
0.0000001
 43
0.0000001
 44
0.0000000001
 40
0.0
 40
0.0
 40
0.0
 40
0.0
 40
0.2658042903
 40
1.0
 40
1.0
 40
1.0
 40
1.0
 10
71.7633010329
 20
427.6645681168
 30
0.0
 10
71.7884201382
 20
427.6945400844
 30
0.0
 10
71.8869899534
 20
427.8036625169
 30
0.0
 10
72.0025096518
 20
427.8987335608
 30
0.0
 10
72.0960557799
 20
427.9527421207
 30
0.0
  0
SPLINE
  5
32E
100
AcDbEntity
  8
_1
100
AcDbSpline
 62
7
  6
CONTINUOUS
 70
0
 71
3
 72
9
 73
5
 74
0
 42
0.0000001
 43
0.0000001
 44
0.0000000001
 40
0.0
 40
0.0
 40
0.0
 40
0.0
 40
0.2520618411
 40
1.0
 40
1.0
 40
1.0
 40
1.0
 10
64.3589165143
 20
417.9057642392
 30
0.0
 10
64.9416449582
 20
418.7544204053
 30
0.0
 10
67.292844721
 20
422.0940466291
 30
0.0
 10
69.8011703732
 20
425.3233654373
 30
0.0
 10
71.7633010329
 20
427.6645681168
 30
0.0
  0
SPLINE
  5
32F
100
AcDbEntity
  8
_1
100
AcDbSpline
 62
7
  6
CONTINUOUS
 70
0
 71
3
 72
9
 73
5
 74
0
 42
0.0000001
 43
0.0000001
 44
0.0000000001
 40
0.0
 40
0.0
 40
0.0
 40
0.0
 40
0.2287622612
 40
1.0
 40
1.0
 40
1.0
 40
1.0
 10
64.0801078694
 20
417.0951117221
 30
0.0
 10
64.0801078694
 20
417.1610253081
 30
0.0
 10
64.1102524883
 20
417.4488421762
 30
0.0
 10
64.2331296773
 20
417.7225746662
 30
0.0
 10
64.3589165143
 20
417.9057642392
 30
0.0
  0
SPLINE
  5
330
100
AcDbEntity
  8
_1
100
AcDbSpline
 62
7
  6
CONTINUOUS
 70
0
 71
3
 72
9
 73
5
 74
0
 42
0.0000001
 43
0.0000001
 44
0.0000000001
 40
0.0
 40
0.0
 40
0.0
 40
0.0
 40
0.2354168689
 40
1.0
 40
1.0
 40
1.0
 40
1.0
 10
73.9796440215
 20
409.3107115961
 30
0.0
 10
73.9796440215
 20
409.009606056
 30
0.0
 10
73.9237068612
 20
407.7306969526
 30
0.0
 10
73.665145484
 20
406.4648508636
 30
0.0
 10
73.3862912732
 20
405.5275253652
 30
0.0
  0
SPLINE
  5
331
100
AcDbEntity
  8
_1
100
AcDbSpline
 62
7
  6
CONTINUOUS
 70
0
 71
3
 72
9
 73
5
 74
0
 42
0.0000001
 43
0.0000001
 44
0.0000000001
 40
0.0
 40
0.0
 40
0.0
 40
0.0
 40
0.253139686
 40
1.0
 40
1.0
 40
1.0
 40
1.0
 10
70.3384227001
 20
399.6026759723
 30
0.0
 10
70.2466861675
 20
399.4831920755
 30
0.0
 10
69.878414531
 20
399.0157362374
 30
0.0
 10
69.4866804563
 20
398.5666795755
 30
0.0
 10
69.1811288889
 20
398.2439300282
 30
0.0
  0
SPLINE
  5
332
100
AcDbEntity
  8
_1
100
AcDbSpline
 62
7
  6
CONTINUOUS
 70
0
 71
3
 72
9
 73
5
 74
0
 42
0.0000001
 43
0.0000001
 44
0.0000000001
 40
0.0
 40
0.0
 40
0.0
 40
0.0
 40
0.2639502751
 40
1.0
 40
1.0
 40
1.0
 40
1.0
 10
69.1811288889
 20
398.2439300282
 30
0.0
 10
68.94906619
 20
397.9988056726
 30
0.0
 10
68.0416579018
 20
397.0981370909
 30
0.0
 10
67.0166801019
 20
396.3091399107
 30
0.0
 10
66.2015018121
 20
395.8384993151
 30
0.0
  0
SPLINE
  5
333
100
AcDbEntity
  8
_1
100
AcDbSpline
 62
7
  6
CONTINUOUS
 70
0
 71
3
 72
10
 73
6
 74
0
 42
0.0000001
 43
0.0000001
 44
0.0000000001
 40
0.0
 40
0.0
 40
0.0
 40
0.0
 40
0.2573557406
 40
0.5112521404
 40
1.0
 40
1.0
 40
1.0
 40
1.0
 10
78.0849622484
 20
305.9234908429
 30
0.0
 10
78.2185145238
 20
305.8459296942
 30
0.0
 10
78.5029154982
 20
305.7269834447
 30
0.0
 10
79.0639551503
 20
305.5155946319
 30
0.0
 10
79.4881760385
 20
305.3775980621
 30
0.0
 10
79.768093829
 20
305.2900124205
 30
0.0
  0
SPLINE
  5
334
100
AcDbEntity
  8
_1
100
AcDbSpline
 62
7
  6
CONTINUOUS
 70
0
 71
3
 72
9
 73
5
 74
0
 42
0.0000001
 43
0.0000001
 44
0.0000000001
 40
0.0
 40
0.0
 40
0.0
 40
0.0
 40
0.2418788935
 40
1.0
 40
1.0
 40
1.0
 40
1.0
 10
57.9540614667
 20
352.4266547524
 30
0.0
 10
57.9540614667
 20
353.3578070623
 30
0.0
 10
58.0355714688
 20
357.2072959607
 30
0.0
 10
58.4298476191
 20
361.048030198
 30
0.0
 10
58.8750028745
 20
363.9323920771
 30
0.0
  0
SPLINE
  5
335
100
AcDbEntity
  8
_1
100
AcDbSpline
 62
7
  6
CONTINUOUS
 70
0
 71
3
 72
9
 73
5
 74
0
 42
0.0000001
 43
0.0000001
 44
0.0000000001
 40
0.0
 40
0.0
 40
0.0
 40
0.0
 40
0.2402958237
 40
1.0
 40
1.0
 40
1.0
 40
1.0
 10
58.8750028745
 20
341.9843226194
 30
0.0
 10
58.719893953
 20
342.8102400645
 30
0.0
 10
58.1642607273
 20
346.2640191727
 30
0.0
 10
57.9540614667
 20
349.7698376589
 30
0.0
 10
57.9540614667
 20
352.4266547524
 30
0.0
  0
SPLINE
  5
336
100
AcDbEntity
  8
_1
100
AcDbSpline
 62
7
  6
CONTINUOUS
 70
0
 71
3
 72
9
 73
5
 74
0
 42
0.0000001
 43
0.0000001
 44
0.0000000001
 40
0.0
 40
0.0
 40
0.0
 40
0.0
 40
0.2658042903
 40
1.0
 40
1.0
 40
1.0
 40
1.0
 10
81.662837185
 20
421.9491975536
 30
0.0
 10
81.6879562902
 20
421.9791695211
 30
0.0
 10
81.7865261054
 20
422.0882919536
 30
0.0
 10
81.9020458038
 20
422.1833629975
 30
0.0
 10
81.9955919319
 20
422.2373715574
 30
0.0
  0
SPLINE
  5
337
100
AcDbEntity
  8
_1
100
AcDbSpline
 62
7
  6
CONTINUOUS
 70
0
 71
3
 72
9
 73
5
 74
0
 42
0.0000001
 43
0.0000001
 44
0.0000000001
 40
0.0
 40
0.0
 40
0.0
 40
0.0
 40
0.2520618411
 40
1.0
 40
1.0
 40
1.0
 40
1.0
 10
74.2584526664
 20
412.1903936759
 30
0.0
 10
74.8411811103
 20
413.039049842
 30
0.0
 10
77.1923808731
 20
416.3786760658
 30
0.0
 10
79.7007065252
 20
419.607994874
 30
0.0
 10
81.662837185
 20
421.9491975536
 30
0.0
  0
SPLINE
  5
338
100
AcDbEntity
  8
_1
100
AcDbSpline
 62
7
  6
CONTINUOUS
 70
0
 71
3
 72
9
 73
5
 74
0
 42
0.0000001
 43
0.0000001
 44
0.0000000001
 40
0.0
 40
0.0
 40
0.0
 40
0.0
 40
0.2287622612
 40
1.0
 40
1.0
 40
1.0
 40
1.0
 10
73.9796440215
 20
411.3797411588
 30
0.0
 10
73.9796440215
 20
411.4456547449
 30
0.0
 10
74.0097886404
 20
411.7334716129
 30
0.0
 10
74.1326658294
 20
412.0072041029
 30
0.0
 10
74.2584526664
 20
412.1903936759
 30
0.0
  0
SPLINE
  5
339
100
AcDbEntity
  8
_1
100
AcDbSpline
 62
7
  6
CONTINUOUS
 70
0
 71
3
 72
11
 73
7
 74
0
 42
0.0000001
 43
0.0000001
 44
0.0000000001
 40
0.0
 40
0.0
 40
0.0
 40
0.0
 40
0.2372182624
 40
0.4999984
 40
0.7627794086
 40
1.0
 40
1.0
 40
1.0
 40
1.0
 10
66.2015018121
 20
395.8384993151
 30
0.0
 10
67.3056837767
 20
396.4759952642
 30
0.0
 10
69.3954173475
 20
398.234710937
 30
0.0
 10
71.8344682355
 20
401.567746655
 30
0.0
 10
73.5014216356
 20
405.3465648061
 30
0.0
 10
73.9796440215
 20
408.0357014716
 30
0.0
 10
73.9796440215
 20
409.3107115961
 30
0.0
  0
SPLINE
  5
33A
100
AcDbEntity
  8
_1
100
AcDbSpline
 62
7
  6
CONTINUOUS
 70
0
 71
3
 72
9
 73
5
 74
0
 42
0.0000001
 43
0.0000001
 44
0.0000000001
 40
0.0
 40
0.0
 40
0.0
 40
0.0
 40
0.2657747364
 40
1.0
 40
1.0
 40
1.0
 40
1.0
 10
64.7435216511
 20
394.6813454081
 30
0.0
 10
64.7765170881
 20
394.7494087885
 30
0.0
 10
64.9172478839
 20
394.9961428595
 30
0.0
 10
65.1208284319
 20
395.2145759724
 30
0.0
 10
65.3017936566
 20
395.3190556699
 30
0.0
  0
SPLINE
  5
33B
100
AcDbEntity
  8
_1
100
AcDbSpline
 62
7
  6
CONTINUOUS
 70
0
 71
3
 72
9
 73
5
 74
0
 42
0.0000001
 43
0.0000001
 44
0.0000000001
 40
0.0
 40
0.0
 40
0.0
 40
0.0
 40
0.2477339198
 40
1.0
 40
1.0
 40
1.0
 40
1.0
 10
92.236995727
 20
301.4175879781
 30
0.0
 10
92.3685094122
 20
301.3770695414
 30
0.0
 10
92.8999367449
 20
301.2155189051
 30
0.0
 10
93.4343156049
 20
301.0622122576
 30
0.0
 10
93.8407852283
 20
300.9652402295
 30
0.0
  0
SPLINE
  5
33C
100
AcDbEntity
  8
_1
100
AcDbSpline
 62
7
  6
CONTINUOUS
 70
0
 71
3
 72
9
 73
5
 74
0
 42
0.0000001
 43
0.0000001
 44
0.0000000001
 40
0.0
 40
0.0
 40
0.0
 40
0.0
 40
0.499995982
 40
1.0
 40
1.0
 40
1.0
 40
1.0
 10
92.7631818043
 20
302.529762719
 30
0.0
 10
90.1748837944
 20
303.2399772256
 30
0.0
 10
84.9996870417
 20
304.6656621497
 30
0.0
 10
79.8231267253
 20
306.0863878643
 30
0.0
 10
77.2355310716
 20
306.7993195076
 30
0.0
  0
SPLINE
  5
33D
100
AcDbEntity
  8
_1
100
AcDbSpline
 62
7
  6
CONTINUOUS
 70
0
 71
3
 72
9
 73
5
 74
0
 42
0.0000001
 43
0.0000001
 44
0.0000000001
 40
0.0
 40
0.0
 40
0.0
 40
0.0
 40
0.2380546825
 40
1.0
 40
1.0
 40
1.0
 40
1.0
 10
103.6782524777
 20
392.1645999062
 30
0.0
 10
103.6782524777
 20
391.9361222908
 30
0.0
 10
103.6463585178
 20
390.9764249162
 30
0.0
 10
103.4961483293
 20
390.0222914302
 30
0.0
 10
103.3308742608
 20
389.3099205631
 30
0.0
  0
SPLINE
  5
33E
100
AcDbEntity
  8
_1
100
AcDbSpline
 62
7
  6
CONTINUOUS
 70
0
 71
3
 72
9
 73
5
 74
0
 42
0.0000001
 43
0.0000001
 44
0.0000000001
 40
0.0
 40
0.0
 40
0.0
 40
0.0
 40
0.2439725431
 40
1.0
 40
1.0
 40
1.0
 40
1.0
 10
103.3308742608
 20
389.3099205631
 30
0.0
 10
103.280191258
 20
389.0914646678
 30
0.0
 10
103.0524812183
 20
388.2007513338
 30
0.0
 10
102.7482119382
 20
387.330040574
 30
0.0
 10
102.4820063891
 20
386.6881130086
 30
0.0
  0
SPLINE
  5
33F
100
AcDbEntity
  8
_1
100
AcDbSpline
 62
7
  6
CONTINUOUS
 70
0
 71
3
 72
9
 73
5
 74
0
 42
0.0000001
 43
0.0000001
 44
0.0000000001
 40
0.0
 40
0.0
 40
0.0
 40
0.0
 40
0.2555881331
 40
1.0
 40
1.0
 40
1.0
 40
1.0
 10
100.0447214823
 20
382.4665879256
 30
0.0
 10
99.9017796711
 20
382.2801415577
 30
0.0
 10
99.3284092485
 20
381.5616599167
 30
0.0
 10
98.6984999481
 20
380.8877000485
 30
0.0
 10
98.1985670119
 20
380.4204973775
 30
0.0
  0
SPLINE
  5
340
100
AcDbEntity
  8
_1
100
AcDbSpline
 62
7
  6
CONTINUOUS
 70
0
 71
3
 72
9
 73
5
 74
0
 42
0.0000001
 43
0.0000001
 44
0.0000000001
 40
0.0
 40
0.0
 40
0.0
 40
0.0
 40
0.2615763338
 40
1.0
 40
1.0
 40
1.0
 40
1.0
 10
98.1985670119
 20
380.4204973775
 30
0.0
 10
98.0151628927
 20
380.2491005998
 30
0.0
 10
97.2979088054
 20
379.6116528904
 30
0.0
 10
96.5138110962
 20
379.0467058484
 30
0.0
 10
95.9001102683
 20
378.6923876252
 30
0.0
  0
SPLINE
  5
341
100
AcDbEntity
  8
_1
100
AcDbSpline
 62
7
  6
CONTINUOUS
 70
0
 71
3
 72
11
 73
7
 74
0
 42
0.0000001
 43
0.0000001
 44
0.0000000001
 40
0.0
 40
0.0
 40
0.0
 40
0.0
 40
0.2898012489
 40
0.5490510236
 40
0.7822290598
 40
1.0
 40
1.0
 40
1.0
 40
1.0
 10
404.4370113099
 20
312.4207338347
 30
0.0
 10
404.4370113099
 20
312.9782815748
 30
0.0
 10
404.3528090743
 20
314.0382482697
 30
0.0
 10
403.9230697752
 20
315.4944579268
 30
0.0
 10
403.2007147804
 20
316.6762478273
 30
0.0
 10
402.5216061153
 20
317.2468843351
 30
0.0
 10
402.1587663925
 20
317.4563651972
 30
0.0
  0
SPLINE
  5
342
100
AcDbEntity
  8
_1
100
AcDbSpline
 62
7
  6
CONTINUOUS
 70
0
 71
3
 72
9
 73
5
 74
0
 42
0.0000001
 43
0.0000001
 44
0.0000000001
 40
0.0
 40
0.0
 40
0.0
 40
0.0
 40
0.2599172045
 40
1.0
 40
1.0
 40
1.0
 40
1.0
 10
405.4976670658
 20
266.0842110805
 30
0.0
 10
405.4976670658
 20
266.9931482486
 30
0.0
 10
405.4254448478
 20
270.4893366036
 30
0.0
 10
405.0544227044
 20
273.9829221221
 30
0.0
 10
404.576725658
 20
276.5265432135
 30
0.0
  0
SPLINE
  5
343
100
AcDbEntity
  8
_1
100
AcDbSpline
 62
7
  6
CONTINUOUS
 70
0
 71
3
 72
9
 73
5
 74
0
 42
0.0000001
 43
0.0000001
 44
0.0000000001
 40
0.0
 40
0.0
 40
0.0
 40
0.0
 40
0.258076644
 40
1.0
 40
1.0
 40
1.0
 40
1.0
 10
404.576725658
 20
254.5784737558
 30
0.0
 10
404.7282600938
 20
255.5603337808
 30
0.0
 10
405.2490013046
 20
259.3745257584
 30
0.0
 10
405.4976670658
 20
263.2281235608
 30
0.0
 10
405.4976670658
 20
266.0842110805
 30
0.0
  0
SPLINE
  5
344
100
AcDbEntity
  8
_1
100
AcDbSpline
 62
7
  6
CONTINUOUS
 70
0
 71
3
 72
11
 73
7
 74
0
 42
0.0000001
 43
0.0000001
 44
0.0000000001
 40
0.0
 40
0.0
 40
0.0
 40
0.0
 40
0.2372182624
 40
0.4999984
 40
0.7627794086
 40
1.0
 40
1.0
 40
1.0
 40
1.0
 10
396.6588691006
 20
203.825989958
 30
0.0
 10
397.7630510651
 20
204.4634859072
 30
0.0
 10
399.852784636
 20
206.22220158
 30
0.0
 10
402.291835524
 20
209.555237298
 30
0.0
 10
403.9587889241
 20
213.3340554491
 30
0.0
 10
404.4370113099
 20
216.0231921146
 30
0.0
 10
404.4370113099
 20
217.2982022391
 30
0.0
  0
SPLINE
  5
345
100
AcDbEntity
  8
_1
100
AcDbSpline
 62
7
  6
CONTINUOUS
 70
0
 71
3
 72
9
 73
5
 74
0
 42
0.0000001
 43
0.0000001
 44
0.0000000001
 40
0.0
 40
0.0
 40
0.0
 40
0.0
 40
0.518147785
 40
1.0
 40
1.0
 40
1.0
 40
1.0
 10
398.6893303795
 20
218.6936707175
 30
0.0
 10
398.9209497325
 20
218.7208387641
 30
0.0
 10
399.3785000681
 20
218.716978943
 30
0.0
 10
399.8123279997
 20
218.5623800919
 30
0.0
 10
400.0001639613
 20
218.4539787258
 30
0.0
  0
SPLINE
  5
346
100
AcDbEntity
  8
_1
100
AcDbSpline
 62
7
  6
CONTINUOUS
 70
0
 71
3
 72
16
 73
12
 74
0
 42
0.0000001
 43
0.0000001
 44
0.0000000001
 40
0.0
 40
0.0
 40
0.0
 40
0.0
 40
0.1287521778
 40
0.2703991684
 40
0.4176184924
 40
0.5620238054
 40
0.6957523206
 40
0.8130663296
 40
0.9124725361
 40
0.9571214708
 40
1.0
 40
1.0
 40
1.0
 40
1.0
 10
393.3611556156
 20
306.7089724244
 30
0.0
 10
393.3611556156
 20
307.1791113487
 30
0.0
 10
393.4926730465
 20
308.1676064604
 30
0.0
 10
393.9835655471
 20
309.6189618051
 30
0.0
 10
394.7400795505
 20
311.0171113847
 30
0.0
 10
395.7006796322
 20
312.2472851709
 30
0.0
 10
396.789688993
 20
313.2105478018
 30
0.0
 10
397.9226457045
 20
313.8320201048
 30
0.0
 10
398.8843899478
 20
314.0197385602
 30
0.0
 10
399.5656788312
 20
313.9199917192
 30
0.0
 10
399.8645551334
 20
313.7957148115
 30
0.0
 10
400.0001639613
 20
313.717454067
 30
0.0
  0
SPLINE
  5
347
100
AcDbEntity
  8
_1
100
AcDbSpline
 62
7
  6
CONTINUOUS
 70
0
 71
3
 72
16
 73
12
 74
0
 42
0.0000001
 43
0.0000001
 44
0.0000000001
 40
0.0
 40
0.0
 40
0.0
 40
0.0
 40
0.1287521778
 40
0.2703991684
 40
0.4176184924
 40
0.5620238054
 40
0.6957523206
 40
0.8130663296
 40
0.9124725361
 40
0.9571214708
 40
1.0
 40
1.0
 40
1.0
 40
1.0
 10
310.8614990966
 20
163.8145825021
 30
0.0
 10
310.8614990966
 20
164.2847214264
 30
0.0
 10
310.9930165275
 20
165.2732165381
 30
0.0
 10
311.4839090281
 20
166.7245718828
 30
0.0
 10
312.2404230315
 20
168.1227214624
 30
0.0
 10
313.2010231132
 20
169.3528952485
 30
0.0
 10
314.290032474
 20
170.3161578795
 30
0.0
 10
315.4229891856
 20
170.9376301825
 30
0.0
 10
316.3847334288
 20
171.1253486379
 30
0.0
 10
317.0660223122
 20
171.0256017969
 30
0.0
 10
317.3648986144
 20
170.9013248892
 30
0.0
 10
317.5005074423
 20
170.8230641447
 30
0.0
  0
SPLINE
  5
348
100
AcDbEntity
  8
_1
100
AcDbSpline
 62
7
  6
CONTINUOUS
 70
0
 71
3
 72
16
 73
12
 74
0
 42
0.0000001
 43
0.0000001
 44
0.0000000001
 40
0.0
 40
0.0
 40
0.0
 40
0.0
 40
0.1287521778
 40
0.2703991684
 40
0.4176184924
 40
0.5620238054
 40
0.6957523206
 40
0.8130663296
 40
0.9124725361
 40
0.9571214708
 40
1.0
 40
1.0
 40
1.0
 40
1.0
 10
310.8614990966
 20
259.0780578433
 30
0.0
 10
310.8614990966
 20
259.5481967676
 30
0.0
 10
310.9930165275
 20
260.5366918794
 30
0.0
 10
311.4839090281
 20
261.9880472241
 30
0.0
 10
312.2404230315
 20
263.3861968036
 30
0.0
 10
313.2010231132
 20
264.6163705898
 30
0.0
 10
314.290032474
 20
265.5796332207
 30
0.0
 10
315.4229891856
 20
266.2011055237
 30
0.0
 10
316.3847334288
 20
266.3888239791
 30
0.0
 10
317.0660223122
 20
266.2890771382
 30
0.0
 10
317.3648986144
 20
266.1648002305
 30
0.0
 10
317.5005074423
 20
266.0865394859
 30
0.0
  0
SPLINE
  5
349
100
AcDbEntity
  8
_1
100
AcDbSpline
 62
7
  6
CONTINUOUS
 70
0
 71
3
 72
14
 73
10
 74
0
 42
0.0000001
 43
0.0000001
 44
0.0000000001
 40
0.0
 40
0.0
 40
0.0
 40
0.0
 40
0.1080467632
 40
0.2181307642
 40
0.3321042588
 40
0.4515015279
 40
0.5774613673
 40
0.710719422
 40
1.0
 40
1.0
 40
1.0
 40
1.0
 10
328.4758332845
 20
184.1165319434
 30
0.0
 10
327.4920981833
 20
184.6844755709
 30
0.0
 10
325.600705495
 20
186.004197913
 30
0.0
 10
323.1016070885
 20
188.4636614467
 30
0.0
 10
320.9523096962
 20
191.3827886646
 30
0.0
 10
319.1727223017
 20
194.7285969414
 30
0.0
 10
317.7765088699
 20
198.4674413691
 30
0.0
 10
316.4041095206
 20
204.0783276125
 30
0.0
 10
316.049052266
 20
208.5423794692
 30
0.0
 10
316.049052266
 20
211.5836284364
 30
0.0
  0
SPLINE
  5
34A
100
AcDbEntity
  8
_1
100
AcDbSpline
 62
7
  6
CONTINUOUS
 70
0
 71
3
 72
11
 73
7
 74
0
 42
0.0000001
 43
0.0000001
 44
0.0000000001
 40
0.0
 40
0.0
 40
0.0
 40
0.0
 40
0.2372182624
 40
0.4999984
 40
0.7627794086
 40
1.0
 40
1.0
 40
1.0
 40
1.0
 10
293.8908333095
 20
264.3849763595
 30
0.0
 10
294.995015274
 20
265.0224723086
 30
0.0
 10
297.0847488449
 20
266.7811879814
 30
0.0
 10
299.5237997328
 20
270.1142236995
 30
0.0
 10
301.190753133
 20
273.8930418505
 30
0.0
 10
301.6689755188
 20
276.5821785161
 30
0.0
 10
301.6689755188
 20
277.8571886405
 30
0.0
  0
SPLINE
  5
34B
100
AcDbEntity
  8
_1
100
AcDbSpline
 62
7
  6
CONTINUOUS
 70
0
 71
3
 72
16
 73
12
 74
0
 42
0.0000001
 43
0.0000001
 44
0.0000000001
 40
0.0
 40
0.0
 40
0.0
 40
0.0
 40
0.0465701063
 40
0.0938257935
 40
0.1926376363
 40
0.3006225787
 40
0.4198752674
 40
0.5508006008
 40
0.692486816
 40
0.8430641194
 40
1.0
 40
1.0
 40
1.0
 40
1.0
 10
325.9758587734
 20
179.7863510128
 30
0.0
 10
326.9149001774
 20
179.2441657289
 30
0.0
 10
328.8927419009
 20
178.2934775405
 30
0.0
 10
333.1911152201
 20
176.9643990545
 30
0.0
 10
339.1642560772
 20
176.4702410967
 30
0.0
 10
346.7139352165
 20
177.7085216572
 30
0.0
 10
354.5572610464
 20
180.6722137808
 30
0.0
 10
362.4834958881
 20
185.258501439
 30
0.0
 10
370.2787678146
 20
191.3291240603
 30
0.0
 10
377.7223443535
 20
198.7068581482
 30
0.0
 10
382.2450294312
 20
204.2774215099
 30
0.0
 10
384.403234495
 20
207.2260255676
 30
0.0
  0
SPLINE
  5
34C
100
AcDbEntity
  8
_1
100
AcDbSpline
 62
7
  6
CONTINUOUS
 70
0
 71
3
 72
11
 73
7
 74
0
 42
0.0000001
 43
0.0000001
 44
0.0000000001
 40
0.0
 40
0.0
 40
0.0
 40
0.0
 40
0.2663439963
 40
0.5239106309
 40
0.7693540994
 40
1.0
 40
1.0
 40
1.0
 40
1.0
 10
396.456112857
 20
228.1188304557
 30
0.0
 10
397.7308223533
 20
231.0146188119
 30
0.0
 10
399.9918363246
 20
236.8235142443
 30
0.0
 10
402.5098088256
 20
245.6234053365
 30
0.0
 10
404.0598714433
 20
254.2149218405
 30
0.0
 10
404.4370319177
 20
259.8742763899
 30
0.0
 10
404.4370319177
 20
262.6141476703
 30
0.0
  0
SPLINE
  5
34D
100
AcDbEntity
  8
_1
100
AcDbSpline
 62
7
  6
CONTINUOUS
 70
0
 71
3
 72
11
 73
7
 74
0
 42
0.0000001
 43
0.0000001
 44
0.0000000001
 40
0.0
 40
0.0
 40
0.0
 40
0.0
 40
0.2177785079
 40
0.4509210279
 40
0.7102585109
 40
1.0
 40
1.0
 40
1.0
 40
1.0
 10
394.5002894793
 20
304.1911764743
 30
0.0
 10
394.318847591
 20
304.2958877788
 30
0.0
 10
393.9794222127
 20
304.5813082575
 30
0.0
 10
393.6180514261
 20
305.1721189794
 30
0.0
 10
393.4033483637
 20
305.9002799792
 30
0.0
 10
393.3611556156
 20
306.4302597171
 30
0.0
 10
393.3611556156
 20
306.7089724244
 30
0.0
  0
SPLINE
  5
34E
100
AcDbEntity
  8
_1
100
AcDbSpline
 62
7
  6
CONTINUOUS
 70
0
 71
3
 72
11
 73
7
 74
0
 42
0.0000001
 43
0.0000001
 44
0.0000000001
 40
0.0
 40
0.0
 40
0.0
 40
0.0
 40
0.2177785079
 40
0.4509210279
 40
0.7102585109
 40
1.0
 40
1.0
 40
1.0
 40
1.0
 10
312.0006329603
 20
256.5602618933
 30
0.0
 10
311.819191072
 20
256.6649731978
 30
0.0
 10
311.4797656937
 20
256.9503936764
 30
0.0
 10
311.1183949071
 20
257.5412043983
 30
0.0
 10
310.9036918447
 20
258.2693653981
 30
0.0
 10
310.8614990966
 20
258.799345136
 30
0.0
 10
310.8614990966
 20
259.0780578433
 30
0.0
  0
SPLINE
  5
34F
100
AcDbEntity
  8
_1
100
AcDbSpline
 62
7
  6
CONTINUOUS
 70
0
 71
3
 72
11
 73
7
 74
0
 42
0.0000001
 43
0.0000001
 44
0.0000000001
 40
0.0
 40
0.0
 40
0.0
 40
0.0
 40
0.2177785079
 40
0.4509210279
 40
0.7102585109
 40
1.0
 40
1.0
 40
1.0
 40
1.0
 10
312.0006329603
 20
161.296786552
 30
0.0
 10
311.819191072
 20
161.4014978565
 30
0.0
 10
311.4797656937
 20
161.6869183351
 30
0.0
 10
311.1183949071
 20
162.2777290571
 30
0.0
 10
310.9036918447
 20
163.0058900568
 30
0.0
 10
310.8614990966
 20
163.5358697948
 30
0.0
 10
310.8614990966
 20
163.8145825021
 30
0.0
  0
SPLINE
  5
350
100
AcDbEntity
  8
_1
100
AcDbSpline
 62
7
  6
CONTINUOUS
 70
0
 71
3
 72
9
 73
5
 74
0
 42
0.0000001
 43
0.0000001
 44
0.0000000001
 40
0.0
 40
0.0
 40
0.0
 40
0.0
 40
0.4821642148
 40
1.0
 40
1.0
 40
1.0
 40
1.0
 10
394.5002894793
 20
208.9277011331
 30
0.0
 10
394.3140048754
 20
209.0352072006
 30
0.0
 10
393.9661353067
 20
209.3304894395
 30
0.0
 10
393.7344044093
 20
209.7201726183
 30
0.0
 10
393.6420820327
 20
209.9319131264
 30
0.0
  0
SPLINE
  5
351
100
AcDbEntity
  8
_1
100
AcDbSpline
 62
7
  6
CONTINUOUS
 70
0
 71
3
 72
11
 73
7
 74
0
 42
0.0000001
 43
0.0000001
 44
0.0000000001
 40
0.0
 40
0.0
 40
0.0
 40
0.0
 40
0.2177709505
 40
0.4509489942
 40
0.7101987597
 40
1.0
 40
1.0
 40
1.0
 40
1.0
 10
301.3567138274
 20
161.2320108504
 30
0.0
 10
300.993874068
 20
161.4414916895
 30
0.0
 10
300.3147653976
 20
162.0121282663
 30
0.0
 10
299.5924104194
 20
163.1939181854
 30
0.0
 10
299.162671126
 20
164.6501278269
 30
0.0
 10
299.0784689099
 20
165.7100944891
 30
0.0
 10
299.0784689099
 20
166.2676422129
 30
0.0
  0
SPLINE
  5
352
100
AcDbEntity
  8
_1
100
AcDbSpline
 62
7
  6
CONTINUOUS
 70
0
 71
3
 72
11
 73
7
 74
0
 42
0.0000001
 43
0.0000001
 44
0.0000000001
 40
0.0
 40
0.0
 40
0.0
 40
0.0
 40
0.2177723674
 40
0.4509510027
 40
0.7102002307
 40
1.0
 40
1.0
 40
1.0
 40
1.0
 10
309.8420305291
 20
156.3331217961
 30
0.0
 10
310.2048582567
 20
156.1236478594
 30
0.0
 10
311.0385719544
 20
155.8208630699
 30
0.0
 10
312.4231568508
 20
155.7861874289
 30
0.0
 10
313.8990796636
 20
156.1421119374
 30
0.0
 10
314.8590981859
 20
156.599152107
 30
0.0
 10
315.341927821
 20
156.8779122628
 30
0.0
  0
SPLINE
  5
353
100
AcDbEntity
  8
_1
100
AcDbSpline
 62
7
  6
CONTINUOUS
 70
0
 71
3
 72
22
 73
18
 74
0
 42
0.0000001
 43
0.0000001
 44
0.0000000001
 40
0.0
 40
0.0
 40
0.0
 40
0.0
 40
0.0624026809
 40
0.128760501
 40
0.1983740348
 40
0.27037154
 40
0.4173902019
 40
0.4904359789
 40
0.561743336
 40
0.6303607639
 40
0.6954675822
 40
0.7564332234
 40
0.8128872876
 40
0.8648033179
 40
0.9125923743
 40
0.9571800695
 40
1.0
 40
1.0
 40
1.0
 40
1.0
 10
316.049052266
 20
211.5836284364
 30
0.0
 10
316.049052266
 20
214.0728334002
 30
0.0
 10
316.386257726
 20
219.2124789748
 30
0.0
 10
317.7739043364
 20
227.0160986965
 30
0.0
 10
320.0299463891
 20
235.0131324213
 30
0.0
 10
324.1589062419
 20
245.772833876
 30
0.0
 10
329.7363469251
 20
256.0787254044
 30
0.0
 10
336.5206275445
 20
265.5287955448
 30
0.0
 10
342.0704189988
 20
271.9769869339
 30
0.0
 10
347.9704084511
 20
277.6592689791
 30
0.0
 10
354.0973251719
 20
282.4560052901
 30
0.0
 10
360.3237218146
 20
286.2653447499
 30
0.0
 10
366.5231798782
 20
289.005291278
 30
0.0
 10
372.5722818594
 20
290.6125431802
 30
0.0
 10
378.3522481327
 20
291.0380694095
 30
0.0
 10
383.7347811806
 20
290.2492712484
 30
0.0
 10
386.9954970433
 20
288.8940357223
 30
0.0
 10
388.4747317131
 20
288.0400233939
 30
0.0
  0
SPLINE
  5
354
100
AcDbEntity
  8
_1
100
AcDbSpline
 62
7
  6
CONTINUOUS
 70
0
 71
3
 72
14
 73
10
 74
0
 42
0.0000001
 43
0.0000001
 44
0.0000000001
 40
0.0
 40
0.0
 40
0.0
 40
0.0
 40
0.2892786137
 40
0.4225367187
 40
0.5484982822
 40
0.66789473
 40
0.7818682258
 40
0.8919528174
 40
1.0
 40
1.0
 40
1.0
 40
1.0
 10
404.4370319177
 20
262.6141476703
 30
0.0
 10
404.4370319177
 20
265.9088125566
 30
0.0
 10
404.0524119593
 20
270.7448552942
 30
0.0
 10
402.5655927432
 20
276.8232972838
 30
0.0
 10
401.0531279639
 20
280.8737611556
 30
0.0
 10
399.1251954544
 20
284.4983858216
 30
0.0
 10
396.7967319231
 20
287.6607151626
 30
0.0
 10
394.0894646473
 20
290.3252501097
 30
0.0
 10
392.0404016345
 20
291.7548913403
 30
0.0
 10
390.9747062242
 20
292.3702043246
 30
0.0
  0
SPLINE
  5
355
100
AcDbEntity
  8
_1
100
AcDbSpline
 62
7
  6
CONTINUOUS
 70
0
 71
3
 72
11
 73
7
 74
0
 42
0.0000001
 43
0.0000001
 44
0.0000000001
 40
0.0
 40
0.0
 40
0.0
 40
0.0
 40
0.289799778
 40
0.5490490151
 40
0.7822276429
 40
1.0
 40
1.0
 40
1.0
 40
1.0
 10
388.1735523988
 20
321.8104637847
 30
0.0
 10
388.656382048
 20
322.0892239487
 30
0.0
 10
389.6164006085
 20
322.5462641177
 30
0.0
 10
391.0923234376
 20
322.9021886292
 30
0.0
 10
392.4769083262
 20
322.8675129644
 30
0.0
 10
393.3106219615
 20
322.5647281451
 30
0.0
 10
393.6734496907
 20
322.3552542514
 30
0.0
  0
SPLINE
  5
356
100
AcDbEntity
  8
_1
100
AcDbSpline
 62
7
  6
CONTINUOUS
 70
0
 71
3
 72
11
 73
7
 74
0
 42
0.0000001
 43
0.0000001
 44
0.0000000001
 40
0.0
 40
0.0
 40
0.0
 40
0.0
 40
0.2372206177
 40
0.500001636
 40
0.7627817639
 40
1.0
 40
1.0
 40
1.0
 40
1.0
 10
299.0784689099
 20
261.3901738085
 30
0.0
 10
299.0784689099
 20
262.6651840743
 30
0.0
 10
299.5566913813
 20
265.3543209328
 30
0.0
 10
301.223644938
 20
269.1331391689
 30
0.0
 10
303.6626958306
 20
272.4661747088
 30
0.0
 10
305.7524292771
 20
274.2248902111
 30
0.0
 10
306.8566111192
 20
274.8623860895
 30
0.0
  0
SPLINE
  5
357
100
AcDbEntity
  8
_1
100
AcDbSpline
 62
7
  6
CONTINUOUS
 70
0
 71
3
 72
11
 73
7
 74
0
 42
0.0000001
 43
0.0000001
 44
0.0000000001
 40
0.0
 40
0.0
 40
0.0
 40
0.0
 40
0.2177785079
 40
0.4509210279
 40
0.7102585109
 40
1.0
 40
1.0
 40
1.0
 40
1.0
 10
317.5005074423
 20
170.8230641447
 30
0.0
 10
317.6819493306
 20
170.7183528402
 30
0.0
 10
318.0213747089
 20
170.4329323615
 30
0.0
 10
318.3827454955
 20
169.8421216396
 30
0.0
 10
318.5974485579
 20
169.1139606399
 30
0.0
 10
318.639641306
 20
168.5839809019
 30
0.0
 10
318.639641306
 20
168.3052681946
 30
0.0
  0
SPLINE
  5
358
100
AcDbEntity
  8
_1
100
AcDbSpline
 62
7
  6
CONTINUOUS
 70
0
 71
3
 72
9
 73
5
 74
0
 42
0.0000001
 43
0.0000001
 44
0.0000000001
 40
0.0
 40
0.0
 40
0.0
 40
0.0
 40
0.2599172045
 40
1.0
 40
1.0
 40
1.0
 40
1.0
 10
306.5031298558
 20
208.9300295385
 30
0.0
 10
306.5031298558
 20
208.0210923705
 30
0.0
 10
306.5753520738
 20
204.5249040155
 30
0.0
 10
306.9463742172
 20
201.0313184969
 30
0.0
 10
307.4240712636
 20
198.4876974055
 30
0.0
  0
SPLINE
  5
359
100
AcDbEntity
  8
_1
100
AcDbSpline
 62
7
  6
CONTINUOUS
 70
0
 71
3
 72
16
 73
12
 74
0
 42
0.0000001
 43
0.0000001
 44
0.0000000001
 40
0.0
 40
0.0
 40
0.0
 40
0.0
 40
0.1287521778
 40
0.2703991684
 40
0.4176184924
 40
0.5620238054
 40
0.6957523206
 40
0.8130663296
 40
0.9124725361
 40
0.9571214708
 40
1.0
 40
1.0
 40
1.0
 40
1.0
 10
318.639641306
 20
263.5687435359
 30
0.0
 10
318.639641306
 20
263.0986046116
 30
0.0
 10
318.5081238751
 20
262.1101094998
 30
0.0
 10
318.0172313745
 20
260.6587541551
 30
0.0
 10
317.2607173711
 20
259.2606045756
 30
0.0
 10
316.3001172894
 20
258.0304307894
 30
0.0
 10
315.2111079286
 20
257.0671681585
 30
0.0
 10
314.078151217
 20
256.4456958555
 30
0.0
 10
313.1164069738
 20
256.2579774001
 30
0.0
 10
312.4351180904
 20
256.357724241
 30
0.0
 10
312.1362417882
 20
256.4820011487
 30
0.0
 10
312.0006329603
 20
256.5602618933
 30
0.0
  0
SPLINE
  5
35A
100
AcDbEntity
  8
_1
100
AcDbSpline
 62
7
  6
CONTINUOUS
 70
0
 71
3
 72
11
 73
7
 74
0
 42
0.0000001
 43
0.0000001
 44
0.0000000001
 40
0.0
 40
0.0
 40
0.0
 40
0.0
 40
0.2177785079
 40
0.4509210279
 40
0.7102585109
 40
1.0
 40
1.0
 40
1.0
 40
1.0
 10
400.0001639613
 20
218.4539787258
 30
0.0
 10
400.1816058496
 20
218.3492674212
 30
0.0
 10
400.5210312279
 20
218.0638469426
 30
0.0
 10
400.8824020145
 20
217.4730362207
 30
0.0
 10
401.0971050769
 20
216.7448752209
 30
0.0
 10
401.139297825
 20
216.214895483
 30
0.0
 10
401.139297825
 20
215.9361827757
 30
0.0
  0
SPLINE
  5
35B
100
AcDbEntity
  8
_1
100
AcDbSpline
 62
7
  6
CONTINUOUS
 70
0
 71
3
 72
14
 73
10
 74
0
 42
0.0000001
 43
0.0000001
 44
0.0000000001
 40
0.0
 40
0.0
 40
0.0
 40
0.0
 40
0.1080467632
 40
0.2181307642
 40
0.3321042588
 40
0.4515015279
 40
0.5774613673
 40
0.710719422
 40
1.0
 40
1.0
 40
1.0
 40
1.0
 10
388.4747317131
 20
288.0400233939
 30
0.0
 10
389.4584668143
 20
287.4720797665
 30
0.0
 10
391.3498595026
 20
286.1523574244
 30
0.0
 10
393.8489579091
 20
283.6928938907
 30
0.0
 10
395.9982553014
 20
280.7737666728
 30
0.0
 10
397.7778426959
 20
277.427958396
 30
0.0
 10
399.1740561277
 20
273.6891139683
 30
0.0
 10
400.546455477
 20
268.0782277249
 30
0.0
 10
400.9015127316
 20
263.6141758681
 30
0.0
 10
400.9015127316
 20
260.572926901
 30
0.0
  0
SPLINE
  5
35C
100
AcDbEntity
  8
_1
100
AcDbSpline
 62
7
  6
CONTINUOUS
 70
0
 71
3
 72
23
 73
19
 74
0
 42
0.0000001
 43
0.0000001
 44
0.0000000001
 40
0.0
 40
0.0
 40
0.0
 40
0.0
 40
0.0623946344
 40
0.1287430025
 40
0.1983474422
 40
0.2703352904
 40
0.3437243294
 40
0.4174676849
 40
0.4905035817
 40
0.5618014102
 40
0.6304097885
 40
0.6955080605
 40
0.7564657061
 40
0.8129123454
 40
0.8648215205
 40
0.91260417
 40
0.9571858446
 40
1.0
 40
1.0
 40
1.0
 40
1.0
 10
310.0386490419
 20
210.9712503079
 30
0.0
 10
310.0386490419
 20
213.6679028466
 30
0.0
 10
310.4039392134
 20
219.2358045381
 30
0.0
 10
311.9072798407
 20
227.6899081883
 30
0.0
 10
314.3512085736
 20
236.3526120239
 30
0.0
 10
317.6837224828
 20
245.038711552
 30
0.0
 10
321.8337040696
 20
253.5640580309
 30
0.0
 10
326.7127244101
 20
261.74674795
 30
0.0
 10
332.2166725973
 20
269.412266167
 30
0.0
 10
338.2283232119
 20
276.3972532334
 30
0.0
 10
344.620138055
 20
282.5532212221
 30
0.0
 10
351.2576010597
 20
287.7496748512
 30
0.0
 10
358.0028854672
 20
291.8764899325
 30
0.0
 10
364.7189760182
 20
294.8447813669
 30
0.0
 10
371.2721788127
 20
296.585975492
 30
0.0
 10
377.5338182861
 20
297.0469628463
 30
0.0
 10
383.3648723753
 20
296.1923869435
 30
0.0
 10
386.897351116
 20
294.724281446
 30
0.0
 10
388.4998213063
 20
293.7990454176
 30
0.0
  0
SPLINE
  5
35D
100
AcDbEntity
  8
_1
100
AcDbSpline
 62
7
  6
CONTINUOUS
 70
0
 71
3
 72
15
 73
11
 74
0
 42
0.0000001
 43
0.0000001
 44
0.0000000001
 40
0.0
 40
0.0
 40
0.0
 40
0.0
 40
0.0940808708
 40
0.1945764788
 40
0.3043122398
 40
0.424641244
 40
0.5556379197
 40
0.6963839989
 40
0.8452281709
 40
1.0
 40
1.0
 40
1.0
 40
1.0
 10
327.4031215645
 20
184.9521565978
 30
0.0
 10
329.1660008328
 20
184.2332609908
 30
0.0
 10
333.0395056602
 20
183.2630212796
 30
0.0
 10
339.2500112217
 20
183.3146334818
 30
0.0
 10
345.817678788
 20
184.7918185112
 30
0.0
 10
352.5825872629
 20
187.633472914
 30
0.0
 10
359.3890346803
 20
191.7571527008
 30
0.0
 10
366.0735669583
 20
197.0571414005
 30
0.0
 10
372.4710322043
 20
203.3988301599
 30
0.0
 10
376.3845773705
 20
208.150043504
 30
0.0
 10
378.2603091996
 20
210.6582060625
 30
0.0
  0
SPLINE
  5
35E
100
AcDbEntity
  8
_1
100
AcDbSpline
 62
7
  6
CONTINUOUS
 70
0
 71
3
 72
10
 73
6
 74
0
 42
0.0000001
 43
0.0000001
 44
0.0000000001
 40
0.0
 40
0.0
 40
0.0
 40
0.0
 40
0.5234149646
 40
0.7689755185
 40
1.0
 40
1.0
 40
1.0
 40
1.0
 10
390.3413308039
 20
231.5591464321
 30
0.0
 10
392.5482747188
 20
236.6915899641
 30
0.0
 10
395.1787372492
 20
244.5324213417
 30
0.0
 10
397.0350937247
 20
255.0572740572
 30
0.0
 10
397.3659641059
 20
260.1482236939
 30
0.0
 10
397.3659641059
 20
262.6141306736
 30
0.0
  0
SPLINE
  5
35F
100
AcDbEntity
  8
_1
100
AcDbSpline
 62
7
  6
CONTINUOUS
 70
0
 71
3
 72
23
 73
19
 74
0
 42
0.0000001
 43
0.0000001
 44
0.0000000001
 40
0.0
 40
0.0
 40
0.0
 40
0.0
 40
0.0428142325
 40
0.087395976
 40
0.1351787261
 40
0.1870880396
 40
0.2435347825
 40
0.3044924063
 40
0.369590522
 40
0.4381986934
 40
0.5094963364
 40
0.5825320466
 40
0.6562751867
 40
0.7296640809
 40
0.8016519699
 40
0.8712565875
 40
0.9376052025
 40
1.0
 40
1.0
 40
1.0
 40
1.0
 10
390.9747062242
 20
292.3702043246
 30
0.0
 10
389.3722335194
 20
293.2954426738
 30
0.0
 10
385.8397475572
 20
294.7635483944
 30
0.0
 10
380.008682387
 20
295.6181223371
 30
0.0
 10
373.7470297867
 20
295.157127974
 30
0.0
 10
367.1938144172
 20
293.415923098
 30
0.0
 10
360.4777182835
 20
290.4476205803
 30
0.0
 10
353.7324405158
 20
286.320800913
 30
0.0
 10
347.0949940606
 20
281.1243533027
 30
0.0
 10
340.7031983154
 20
274.9683998088
 30
0.0
 10
334.6915642335
 20
267.9834316166
 30
0.0
 10
329.1876291852
 20
260.3179352864
 30
0.0
 10
324.3086173218
 20
252.1352678924
 30
0.0
 10
320.158636136
 20
243.6099365803
 30
0.0
 10
316.8261149089
 20
234.9238364184
 30
0.0
 10
314.3821739214
 20
226.2611149837
 30
0.0
 10
312.8788258797
 20
217.8069866701
 30
0.0
 10
312.5135330799
 20
212.2390672677
 30
0.0
 10
312.5135330799
 20
209.542407667
 30
0.0
  0
SPLINE
  5
360
100
AcDbEntity
  8
_1
100
AcDbSpline
 62
7
  6
CONTINUOUS
 70
0
 71
3
 72
9
 73
5
 74
0
 42
0.0000001
 43
0.0000001
 44
0.0000000001
 40
0.0
 40
0.0
 40
0.0
 40
0.0
 40
0.258076644
 40
1.0
 40
1.0
 40
1.0
 40
1.0
 10
307.4240712636
 20
220.4357668633
 30
0.0
 10
307.2725368278
 20
219.4539068382
 30
0.0
 10
306.751795617
 20
215.6397148606
 30
0.0
 10
306.5031298558
 20
211.7861170582
 30
0.0
 10
306.5031298558
 20
208.9300295385
 30
0.0
  0
SPLINE
  5
361
100
AcDbEntity
  8
_1
100
AcDbSpline
 62
7
  6
CONTINUOUS
 70
0
 71
3
 72
11
 73
7
 74
0
 42
0.0000001
 43
0.0000001
 44
0.0000000001
 40
0.0
 40
0.0
 40
0.0
 40
0.0
 40
0.2372182624
 40
0.4999984
 40
0.7627794086
 40
1.0
 40
1.0
 40
1.0
 40
1.0
 10
315.341927821
 20
269.9634970353
 30
0.0
 10
314.2377458565
 20
269.3260010861
 30
0.0
 10
312.1480122856
 20
267.5672854134
 30
0.0
 10
309.7089613976
 20
264.2342496953
 30
0.0
 10
308.0420079975
 20
260.4554315443
 30
0.0
 10
307.5637856116
 20
257.7662948787
 30
0.0
 10
307.5637856116
 20
256.4912847543
 30
0.0
  0
SPLINE
  5
362
100
AcDbEntity
  8
_1
100
AcDbSpline
 62
7
  6
CONTINUOUS
 70
0
 71
3
 72
12
 73
8
 74
0
 42
0.0000001
 43
0.0000001
 44
0.0000000001
 40
0.0
 40
0.0
 40
0.0
 40
0.0
 40
0.2882592462
 40
0.5475979152
 40
0.7816640198
 40
0.8921100409
 40
1.0
 40
1.0
 40
1.0
 40
1.0
 10
397.3659641059
 20
262.6141306736
 30
0.0
 10
397.3659641059
 20
265.5135181014
 30
0.0
 10
396.9457660725
 20
271.0389921776
 30
0.0
 10
394.8277682263
 20
278.6697090552
 30
0.0
 10
391.7914149138
 20
284.0270354913
 30
0.0
 10
388.7065120271
 20
287.3933428061
 30
0.0
 10
386.9792616466
 20
288.7677162857
 30
0.0
 10
386.077860341
 20
289.3719542622
 30
0.0
  0
SPLINE
  5
363
100
AcDbEntity
  8
_1
100
AcDbSpline
 62
7
  6
CONTINUOUS
 70
0
 71
3
 72
14
 73
10
 74
0
 42
0.0000001
 43
0.0000001
 44
0.0000000001
 40
0.0
 40
0.0
 40
0.0
 40
0.0
 40
0.1080467638
 40
0.2181310287
 40
0.3321043699
 40
0.4515008603
 40
0.5774625043
 40
0.710720834
 40
1.0
 40
1.0
 40
1.0
 40
1.0
 10
323.5009756153
 20
181.2151952014
 30
0.0
 10
322.4352841149
 20
181.8305053502
 30
0.0
 10
320.3862278246
 20
183.2601409137
 30
0.0
 10
317.6789641464
 20
185.9246646917
 30
0.0
 10
315.3505025349
 20
189.0869892889
 30
0.0
 10
313.4225675103
 20
192.7116117725
 30
0.0
 10
311.9100938851
 20
196.7620765614
 30
0.0
 10
310.4232717118
 20
202.840527955
 30
0.0
 10
310.0386490419
 20
207.6765792217
 30
0.0
 10
310.0386490419
 20
210.9712503079
 30
0.0
  0
SPLINE
  5
364
100
AcDbEntity
  8
_1
100
AcDbSpline
 62
7
  6
CONTINUOUS
 70
0
 71
3
 72
10
 73
6
 74
0
 42
0.0000001
 43
0.0000001
 44
0.0000000001
 40
0.0
 40
0.0
 40
0.0
 40
0.0
 40
0.2310249821
 40
0.476585063
 40
1.0
 40
1.0
 40
1.0
 40
1.0
 10
400.9015127316
 20
260.572926901
 30
0.0
 10
400.9015127316
 20
258.1071457916
 30
0.0
 10
400.570677608
 20
253.0164668988
 30
0.0
 10
398.7145024142
 20
242.4921609729
 30
0.0
 10
396.0842959223
 20
234.6517183975
 30
0.0
 10
393.877554338
 20
229.5195117831
 30
0.0
  0
SPLINE
  5
365
100
AcDbEntity
  8
_1
100
AcDbSpline
 62
7
  6
CONTINUOUS
 70
0
 71
3
 72
16
 73
12
 74
0
 42
0.0000001
 43
0.0000001
 44
0.0000000001
 40
0.0
 40
0.0
 40
0.0
 40
0.0
 40
0.1570022277
 40
0.3074623967
 40
0.4489458359
 40
0.5796778349
 40
0.6988282697
 40
0.8068574231
 40
0.9058713286
 40
0.9532713199
 40
1.0
 40
1.0
 40
1.0
 40
1.0
 10
381.795664863
 20
208.6167431078
 30
0.0
 10
379.8069788361
 20
205.9575619451
 30
0.0
 10
375.6498668082
 20
200.9393068234
 30
0.0
 10
368.8303346501
 20
194.3048725093
 30
0.0
 10
361.7092320767
 20
188.8608625061
 30
0.0
 10
354.4831839016
 20
184.7623323725
 30
0.0
 10
347.3423271152
 20
182.130298462
 30
0.0
 10
340.4741581195
 20
181.054793482
 30
0.0
 10
335.0440424129
 20
181.5332594187
 30
0.0
 10
331.1329910253
 20
182.7542414734
 30
0.0
 10
329.3317326376
 20
183.6223922276
 30
0.0
 10
328.4758332845
 20
184.1165319434
 30
0.0
  0
SPLINE
  5
366
100
AcDbEntity
  8
_1
100
AcDbSpline
 62
7
  6
CONTINUOUS
 70
0
 71
3
 72
14
 73
10
 74
0
 42
0.0000001
 43
0.0000001
 44
0.0000000001
 40
0.0
 40
0.0
 40
0.0
 40
0.0
 40
0.2892786137
 40
0.4225367187
 40
0.5484982822
 40
0.66789473
 40
0.7818682258
 40
0.8919528174
 40
1.0
 40
1.0
 40
1.0
 40
1.0
 10
312.5135330799
 20
209.542407667
 30
0.0
 10
312.5135330799
 20
206.2477427807
 30
0.0
 10
312.8981530383
 20
201.4117000431
 30
0.0
 10
314.3849722544
 20
195.3332580536
 30
0.0
 10
315.8974370338
 20
191.2827941817
 30
0.0
 10
317.8253695432
 20
187.6581695157
 30
0.0
 10
320.1538330745
 20
184.4958401747
 30
0.0
 10
322.8611003503
 20
181.8313052276
 30
0.0
 10
324.9101633631
 20
180.401663997
 30
0.0
 10
325.9758587734
 20
179.7863510128
 30
0.0
  0
SPLINE
  5
367
100
AcDbEntity
  8
_1
100
AcDbSpline
 62
7
  6
CONTINUOUS
 70
0
 71
3
 72
11
 73
7
 74
0
 42
0.0000001
 43
0.0000001
 44
0.0000000001
 40
0.0
 40
0.0
 40
0.0
 40
0.0
 40
0.2898012489
 40
0.5490510236
 40
0.7822290598
 40
1.0
 40
1.0
 40
1.0
 40
1.0
 10
307.5637856116
 20
161.3687531587
 30
0.0
 10
307.5637856116
 20
160.8112054185
 30
0.0
 10
307.6479878473
 20
159.7512387236
 30
0.0
 10
308.0777271464
 20
158.2950290665
 30
0.0
 10
308.8000821412
 20
157.113239166
 30
0.0
 10
309.4791908063
 20
156.5426026582
 30
0.0
 10
309.8420305291
 20
156.3331217961
 30
0.0
  0
SPLINE
  5
368
100
AcDbEntity
  8
_1
100
AcDbSpline
 62
7
  6
CONTINUOUS
 70
0
 71
3
 72
11
 73
7
 74
0
 42
0.0000001
 43
0.0000001
 44
0.0000000001
 40
0.0
 40
0.0
 40
0.0
 40
0.0
 40
0.2177785079
 40
0.4509210279
 40
0.7102585109
 40
1.0
 40
1.0
 40
1.0
 40
1.0
 10
400.0001639613
 20
313.717454067
 30
0.0
 10
400.1816058496
 20
313.6127427625
 30
0.0
 10
400.5210312279
 20
313.3273222839
 30
0.0
 10
400.8824020145
 20
312.736511562
 30
0.0
 10
401.0971050769
 20
312.0083505622
 30
0.0
 10
401.139297825
 20
311.4783708242
 30
0.0
 10
401.139297825
 20
311.199658117
 30
0.0
  0
SPLINE
  5
369
100
AcDbEntity
  8
_1
100
AcDbSpline
 62
7
  6
CONTINUOUS
 70
0
 71
3
 72
16
 73
12
 74
0
 42
0.0000001
 43
0.0000001
 44
0.0000000001
 40
0.0
 40
0.0
 40
0.0
 40
0.0
 40
0.1287521778
 40
0.2703991684
 40
0.4176184924
 40
0.5620238054
 40
0.6957523206
 40
0.8130663296
 40
0.9124725361
 40
0.9571214708
 40
1.0
 40
1.0
 40
1.0
 40
1.0
 10
401.139297825
 20
215.9361827757
 30
0.0
 10
401.139297825
 20
215.4660438514
 30
0.0
 10
401.0077803941
 20
214.4775487397
 30
0.0
 10
400.5168878935
 20
213.026193395
 30
0.0
 10
399.7603738901
 20
211.6280438154
 30
0.0
 10
398.7997738084
 20
210.3978700292
 30
0.0
 10
397.7107644476
 20
209.4346073983
 30
0.0
 10
396.577807736
 20
208.8131350953
 30
0.0
 10
395.6160634928
 20
208.6254166399
 30
0.0
 10
394.9347746094
 20
208.7251634808
 30
0.0
 10
394.6358983072
 20
208.8494403885
 30
0.0
 10
394.5002894793
 20
208.9277011331
 30
0.0
  0
SPLINE
  5
36A
100
AcDbEntity
  8
_1
100
AcDbSpline
 62
7
  6
CONTINUOUS
 70
0
 71
3
 72
11
 73
7
 74
0
 42
0.0000001
 43
0.0000001
 44
0.0000000001
 40
0.0
 40
0.0
 40
0.0
 40
0.0
 40
0.2177785079
 40
0.4509210279
 40
0.7102585109
 40
1.0
 40
1.0
 40
1.0
 40
1.0
 10
317.5005074423
 20
266.0865394859
 30
0.0
 10
317.6819493306
 20
265.9818281814
 30
0.0
 10
318.0213747089
 20
265.6964077028
 30
0.0
 10
318.3827454955
 20
265.1055969809
 30
0.0
 10
318.5974485579
 20
264.3774359811
 30
0.0
 10
318.639641306
 20
263.8474562432
 30
0.0
 10
318.639641306
 20
263.5687435359
 30
0.0
  0
SPLINE
  5
36B
100
AcDbEntity
  8
_1
100
AcDbSpline
 62
7
  6
CONTINUOUS
 70
0
 71
3
 72
11
 73
7
 74
0
 42
0.0000001
 43
0.0000001
 44
0.0000000001
 40
0.0
 40
0.0
 40
0.0
 40
0.0
 40
0.2177723674
 40
0.4509510027
 40
0.7102002307
 40
1.0
 40
1.0
 40
1.0
 40
1.0
 10
402.1587663925
 20
317.4563651972
 30
0.0
 10
401.7959386649
 20
317.665839134
 30
0.0
 10
400.9622249672
 20
317.9686239234
 30
0.0
 10
399.5776400708
 20
318.0032995644
 30
0.0
 10
398.101717258
 20
317.6473750559
 30
0.0
 10
397.1416987357
 20
317.1903348863
 30
0.0
 10
396.6588691006
 20
316.9115747305
 30
0.0
  0
SPLINE
  5
36C
100
AcDbEntity
  8
_1
100
AcDbSpline
 62
7
  6
CONTINUOUS
 70
0
 71
3
 72
16
 73
12
 74
0
 42
0.0000001
 43
0.0000001
 44
0.0000000001
 40
0.0
 40
0.0
 40
0.0
 40
0.0
 40
0.1287521778
 40
0.2703991684
 40
0.4176184924
 40
0.5620238054
 40
0.6957523206
 40
0.8130663296
 40
0.9124725361
 40
0.9571214708
 40
1.0
 40
1.0
 40
1.0
 40
1.0
 10
401.139297825
 20
311.199658117
 30
0.0
 10
401.139297825
 20
310.7295191926
 30
0.0
 10
401.0077803941
 20
309.7410240809
 30
0.0
 10
400.5168878935
 20
308.2896687362
 30
0.0
 10
399.7603738901
 20
306.8915191566
 30
0.0
 10
398.7997738084
 20
305.6613453705
 30
0.0
 10
397.7107644476
 20
304.6980827395
 30
0.0
 10
396.577807736
 20
304.0766104366
 30
0.0
 10
395.6160634928
 20
303.8888919811
 30
0.0
 10
394.9347746094
 20
303.9886388221
 30
0.0
 10
394.6358983072
 20
304.1129157298
 30
0.0
 10
394.5002894793
 20
304.1911764743
 30
0.0
  0
SPLINE
  5
36D
100
AcDbEntity
  8
_1
100
AcDbSpline
 62
7
  6
CONTINUOUS
 70
0
 71
3
 72
16
 73
12
 74
0
 42
0.0000001
 43
0.0000001
 44
0.0000000001
 40
0.0
 40
0.0
 40
0.0
 40
0.0
 40
0.1287521778
 40
0.2703991684
 40
0.4176184924
 40
0.5620238054
 40
0.6957523206
 40
0.8130663296
 40
0.9124725361
 40
0.9571214708
 40
1.0
 40
1.0
 40
1.0
 40
1.0
 10
318.639641306
 20
168.3052681946
 30
0.0
 10
318.639641306
 20
167.8351292703
 30
0.0
 10
318.5081238751
 20
166.8466341586
 30
0.0
 10
318.0172313745
 20
165.3952788139
 30
0.0
 10
317.2607173711
 20
163.9971292343
 30
0.0
 10
316.3001172894
 20
162.7669554482
 30
0.0
 10
315.2111079286
 20
161.8036928172
 30
0.0
 10
314.078151217
 20
161.1822205142
 30
0.0
 10
313.1164069738
 20
160.9945020588
 30
0.0
 10
312.4351180904
 20
161.0942488998
 30
0.0
 10
312.1362417882
 20
161.2185258075
 30
0.0
 10
312.0006329603
 20
161.296786552
 30
0.0
  0
SPLINE
  5
36E
100
AcDbEntity
  8
_1
100
AcDbSpline
 62
7
  6
CONTINUOUS
 70
0
 71
3
 72
9
 73
5
 74
0
 42
0.0000001
 43
0.0000001
 44
0.0000000001
 40
0.0
 40
0.0
 40
0.0
 40
0.0
 40
0.2418788935
 40
1.0
 40
1.0
 40
1.0
 40
1.0
 10
87.6526699228
 20
335.2805430625
 30
0.0
 10
87.6526699228
 20
336.2116953725
 30
0.0
 10
87.734179925
 20
340.0611842709
 30
0.0
 10
88.1284560753
 20
343.9019185081
 30
0.0
 10
88.5736113306
 20
346.7862803873
 30
0.0
  0
SPLINE
  5
36F
100
AcDbEntity
  8
_1
100
AcDbSpline
 62
7
  6
CONTINUOUS
 70
0
 71
3
 72
9
 73
5
 74
0
 42
0.0000001
 43
0.0000001
 44
0.0000000001
 40
0.0
 40
0.0
 40
0.0
 40
0.0
 40
0.2402958237
 40
1.0
 40
1.0
 40
1.0
 40
1.0
 10
88.5736113306
 20
324.8382109295
 30
0.0
 10
88.4185024091
 20
325.6641283746
 30
0.0
 10
87.8628691835
 20
329.1179074829
 30
0.0
 10
87.6526699228
 20
332.623725969
 30
0.0
 10
87.6526699228
 20
335.2805430625
 30
0.0
  0
SPLINE
  5
370
100
AcDbEntity
  8
_1
100
AcDbSpline
 62
7
  6
CONTINUOUS
 70
0
 71
3
 72
9
 73
5
 74
0
 42
0.0000001
 43
0.0000001
 44
0.0000000001
 40
0.0
 40
0.0
 40
0.0
 40
0.0
 40
0.2562875755
 40
1.0
 40
1.0
 40
1.0
 40
1.0
 10
162.9384314144
 20
434.5808947343
 30
0.0
 10
163.5798460687
 20
434.5561999942
 30
0.0
 10
166.0788889966
 20
434.3865309913
 30
0.0
 10
168.5595077978
 20
433.9098316081
 30
0.0
 10
170.3428159331
 20
433.3718866113
 30
0.0
  0
SPLINE
  5
371
100
AcDbEntity
  8
_1
100
AcDbSpline
 62
7
  6
CONTINUOUS
 70
0
 71
3
 72
9
 73
5
 74
0
 42
0.0000001
 43
0.0000001
 44
0.0000000001
 40
0.0
 40
0.0
 40
0.0
 40
0.0
 40
0.2777098101
 40
1.0
 40
1.0
 40
1.0
 40
1.0
 10
162.6056766675
 20
434.4848389463
 30
0.0
 10
162.6336307952
 20
434.5009781731
 30
0.0
 10
162.7368157739
 20
434.5538327336
 30
0.0
 10
162.8545407712
 20
434.5841245602
 30
0.0
 10
162.9384314144
 20
434.5808947343
 30
0.0
  0
SPLINE
  5
372
100
AcDbEntity
  8
_1
100
AcDbSpline
 62
7
  6
CONTINUOUS
 70
0
 71
3
 72
9
 73
5
 74
0
 42
0.0000001
 43
0.0000001
 44
0.0000000001
 40
0.0
 40
0.0
 40
0.0
 40
0.0
 40
0.2658042903
 40
1.0
 40
1.0
 40
1.0
 40
1.0
 10
111.3614456412
 20
404.8030858637
 30
0.0
 10
111.3865647464
 20
404.8330578313
 30
0.0
 10
111.4851345616
 20
404.9421802637
 30
0.0
 10
111.60065426
 20
405.0372513077
 30
0.0
 10
111.6942003881
 20
405.0912598675
 30
0.0
  0
SPLINE
  5
373
100
AcDbEntity
  8
_1
100
AcDbSpline
 62
7
  6
CONTINUOUS
 70
0
 71
3
 72
9
 73
5
 74
0
 42
0.0000001
 43
0.0000001
 44
0.0000000001
 40
0.0
 40
0.0
 40
0.0
 40
0.0
 40
0.2520618411
 40
1.0
 40
1.0
 40
1.0
 40
1.0
 10
103.9570611225
 20
395.0442819861
 30
0.0
 10
104.5397895664
 20
395.8929381522
 30
0.0
 10
106.8909893292
 20
399.232564376
 30
0.0
 10
109.3993149814
 20
402.4618831842
 30
0.0
 10
111.3614456412
 20
404.8030858637
 30
0.0
  0
SPLINE
  5
374
100
AcDbEntity
  8
_1
100
AcDbSpline
 62
7
  6
CONTINUOUS
 70
0
 71
3
 72
9
 73
5
 74
0
 42
0.0000001
 43
0.0000001
 44
0.0000000001
 40
0.0
 40
0.0
 40
0.0
 40
0.0
 40
0.2287622612
 40
1.0
 40
1.0
 40
1.0
 40
1.0
 10
103.6782524777
 20
394.2336294689
 30
0.0
 10
103.6782524777
 20
394.299543055
 30
0.0
 10
103.7083970965
 20
394.587359923
 30
0.0
 10
103.8312742855
 20
394.861092413
 30
0.0
 10
103.9570611225
 20
395.0442819861
 30
0.0
  0
SPLINE
  5
375
100
AcDbEntity
  8
_1
100
AcDbSpline
 62
7
  6
CONTINUOUS
 70
0
 71
3
 72
11
 73
7
 74
0
 42
0.0000001
 43
0.0000001
 44
0.0000000001
 40
0.0
 40
0.0
 40
0.0
 40
0.0
 40
0.2372273954
 40
0.499998382
 40
0.7627702492
 40
1.0
 40
1.0
 40
1.0
 40
1.0
 10
95.9001102683
 20
378.6923876252
 30
0.0
 10
97.0043340866
 20
379.3299077385
 30
0.0
 10
99.0940688345
 20
381.0886307673
 30
0.0
 10
101.5330147798
 20
384.4216704301
 30
0.0
 10
103.2000242249
 20
388.200399756
 30
0.0
 10
103.6782524777
 20
390.8895413116
 30
0.0
 10
103.6782524777
 20
392.1645999062
 30
0.0
  0
SPLINE
  5
376
100
AcDbEntity
  8
_1
100
AcDbSpline
 62
7
  6
CONTINUOUS
 70
0
 71
3
 72
9
 73
5
 74
0
 42
0.0000001
 43
0.0000001
 44
0.0000000001
 40
0.0
 40
0.0
 40
0.0
 40
0.0
 40
0.2657747364
 40
1.0
 40
1.0
 40
1.0
 40
1.0
 10
94.4421301072
 20
377.5352337183
 30
0.0
 10
94.4751255442
 20
377.6032970987
 30
0.0
 10
94.6158563401
 20
377.8500311697
 30
0.0
 10
94.8194368881
 20
378.0684642825
 30
0.0
 10
95.0004021127
 20
378.17294398
 30
0.0
  0
SPLINE
  5
377
100
AcDbEntity
  8
_1
100
AcDbSpline
 62
7
  6
CONTINUOUS
 70
0
 71
3
 72
9
 73
5
 74
0
 42
0.0000001
 43
0.0000001
 44
0.0000000001
 40
0.0
 40
0.0
 40
0.0
 40
0.0
 40
0.2599172045
 40
1.0
 40
1.0
 40
1.0
 40
1.0
 10
285.643392964
 20
220.9731317969
 30
0.0
 10
285.643392964
 20
220.0641946288
 30
0.0
 10
285.715615182
 20
216.5680062738
 30
0.0
 10
286.0866373253
 20
213.0744207552
 30
0.0
 10
286.5643343718
 20
210.5307996638
 30
0.0
  0
SPLINE
  5
378
100
AcDbEntity
  8
_1
100
AcDbSpline
 62
7
  6
CONTINUOUS
 70
0
 71
3
 72
9
 73
5
 74
0
 42
0.0000001
 43
0.0000001
 44
0.0000000001
 40
0.0
 40
0.0
 40
0.0
 40
0.0
 40
0.2287548644
 40
1.0
 40
1.0
 40
1.0
 40
1.0
 10
292.9911251539
 20
263.8655327144
 30
0.0
 10
292.9346989
 20
263.832955196
 30
0.0
 10
292.7030205387
 20
263.6651751102
 30
0.0
 10
292.5286779005
 20
263.4254908924
 30
0.0
 10
292.4328531484
 20
263.2278224526
 30
0.0
  0
SPLINE
  5
379
100
AcDbEntity
  8
_1
100
AcDbSpline
 62
7
  6
CONTINUOUS
 70
0
 71
3
 72
9
 73
5
 74
0
 42
0.0000001
 43
0.0000001
 44
0.0000000001
 40
0.0
 40
0.0
 40
0.0
 40
0.0
 40
0.2379711291
 40
1.0
 40
1.0
 40
1.0
 40
1.0
 10
301.6689755188
 20
277.8571886405
 30
0.0
 10
301.6689755188
 20
277.6287972167
 30
0.0
 10
301.6370103407
 20
276.6691289095
 30
0.0
 10
301.4869173985
 20
275.7150059799
 30
0.0
 10
301.3216184215
 20
275.0025782919
 30
0.0
  0
SPLINE
  5
37A
100
AcDbEntity
  8
_1
100
AcDbSpline
 62
7
  6
CONTINUOUS
 70
0
 71
3
 72
9
 73
5
 74
0
 42
0.0000001
 43
0.0000001
 44
0.0000000001
 40
0.0
 40
0.0
 40
0.0
 40
0.0
 40
0.2440001277
 40
1.0
 40
1.0
 40
1.0
 40
1.0
 10
301.3216184215
 20
275.0025782919
 30
0.0
 10
301.2709244728
 20
274.7840907167
 30
0.0
 10
301.0431930978
 20
273.8933491525
 30
0.0
 10
300.7388935039
 20
273.0226131053
 30
0.0
 10
300.4726620446
 20
272.380696973
 30
0.0
  0
SPLINE
  5
37B
100
AcDbEntity
  8
_1
100
AcDbSpline
 62
7
  6
CONTINUOUS
 70
0
 71
3
 72
9
 73
5
 74
0
 42
0.0000001
 43
0.0000001
 44
0.0000000001
 40
0.0
 40
0.0
 40
0.0
 40
0.0
 40
0.2555924085
 40
1.0
 40
1.0
 40
1.0
 40
1.0
 10
298.0354133879
 20
268.1592353695
 30
0.0
 10
297.8924793117
 20
267.9727834181
 30
0.0
 10
297.3192103059
 20
267.2542410126
 30
0.0
 10
296.6892581267
 20
266.5803386347
 30
0.0
 10
296.1893488951
 20
266.1131342905
 30
0.0
  0
SPLINE
  5
37C
100
AcDbEntity
  8
_1
100
AcDbSpline
 62
7
  6
CONTINUOUS
 70
0
 71
3
 72
9
 73
5
 74
0
 42
0.0000001
 43
0.0000001
 44
0.0000000001
 40
0.0
 40
0.0
 40
0.0
 40
0.0
 40
0.2616228674
 40
1.0
 40
1.0
 40
1.0
 40
1.0
 10
296.1893488951
 20
266.1131342905
 30
0.0
 10
296.0059117282
 20
265.9416978859
 30
0.0
 10
295.2886042324
 20
265.3042722565
 30
0.0
 10
294.5045114615
 20
264.7392814909
 30
0.0
 10
293.8908333095
 20
264.3849763595
 30
0.0
  0
SPLINE
  5
37D
100
AcDbEntity
  8
_1
100
AcDbSpline
 62
7
  6
CONTINUOUS
 70
0
 71
3
 72
9
 73
5
 74
0
 42
0.0000001
 43
0.0000001
 44
0.0000000001
 40
0.0
 40
0.0
 40
0.0
 40
0.0
 40
0.2656120559
 40
1.0
 40
1.0
 40
1.0
 40
1.0
 10
301.9477841637
 20
280.7368707204
 30
0.0
 10
301.9044984538
 20
280.6738316067
 30
0.0
 10
301.7582897859
 20
280.4264791449
 30
0.0
 10
301.6689755188
 20
280.1376478749
 30
0.0
 10
301.6689755188
 20
279.9262182033
 30
0.0
  0
SPLINE
  5
37E
100
AcDbEntity
  8
_1
100
AcDbSpline
 62
7
  6
CONTINUOUS
 70
0
 71
3
 72
9
 73
5
 74
0
 42
0.0000001
 43
0.0000001
 44
0.0000000001
 40
0.0
 40
0.0
 40
0.0
 40
0.0
 40
0.2477433959
 40
1.0
 40
1.0
 40
1.0
 40
1.0
 10
309.3521686823
 20
290.495674598
 30
0.0
 10
308.7022404618
 20
289.7201840955
 30
0.0
 10
306.1175566048
 20
286.5576920217
 30
0.0
 10
303.6868907416
 20
283.2696173819
 30
0.0
 10
301.9477841637
 20
280.7368707204
 30
0.0
  0
SPLINE
  5
37F
100
AcDbEntity
  8
_1
100
AcDbSpline
 62
7
  6
CONTINUOUS
 70
0
 71
3
 72
9
 73
5
 74
0
 42
0.0000001
 43
0.0000001
 44
0.0000000001
 40
0.0
 40
0.0
 40
0.0
 40
0.0
 40
0.2331851106
 40
1.0
 40
1.0
 40
1.0
 40
1.0
 10
309.6849234293
 20
290.7838486019
 30
0.0
 10
309.6552052903
 20
290.7666909287
 30
0.0
 10
309.5318006369
 20
290.6861506297
 30
0.0
 10
309.4246522456
 20
290.5821615563
 30
0.0
 10
309.3521686823
 20
290.495674598
 30
0.0
  0
SPLINE
  5
380
100
AcDbEntity
  8
_1
100
AcDbSpline
 62
7
  6
CONTINUOUS
 70
0
 71
3
 72
9
 73
5
 74
0
 42
0.0000001
 43
0.0000001
 44
0.0000000001
 40
0.0
 40
0.0
 40
0.0
 40
0.0
 40
0.2257964079
 40
1.0
 40
1.0
 40
1.0
 40
1.0
 10
360.9291544556
 20
320.2734834686
 30
0.0
 10
360.9029025754
 20
320.2744941773
 30
0.0
 10
360.7861606985
 20
320.2680222042
 30
0.0
 10
360.6744099251
 20
320.2224666312
 30
0.0
 10
360.5963997087
 20
320.1774276806
 30
0.0
  0
SPLINE
  5
381
100
AcDbEntity
  8
_1
100
AcDbSpline
 62
7
  6
CONTINUOUS
 70
0
 71
3
 72
9
 73
5
 74
0
 42
0.0000001
 43
0.0000001
 44
0.0000000001
 40
0.0
 40
0.0
 40
0.0
 40
0.0
 40
0.2448259985
 40
1.0
 40
1.0
 40
1.0
 40
1.0
 10
368.3335389742
 20
319.0644753457
 30
0.0
 10
367.7464565007
 20
319.2415720981
 30
0.0
 10
365.3244602672
 20
319.8841066052
 30
0.0
 10
362.8192274738
 20
320.2007148443
 30
0.0
 10
360.9291544556
 20
320.2734834686
 30
0.0
  0
SPLINE
  5
382
100
AcDbEntity
  8
_1
100
AcDbSpline
 62
7
  6
CONTINUOUS
 70
0
 71
3
 72
9
 73
5
 74
0
 42
0.0000001
 43
0.0000001
 44
0.0000000001
 40
0.0
 40
0.0
 40
0.0
 40
0.0
 40
0.258076644
 40
1.0
 40
1.0
 40
1.0
 40
1.0
 10
286.5643343718
 20
232.4788691216
 30
0.0
 10
286.4127999359
 20
231.4970090965
 30
0.0
 10
285.8920587252
 20
227.6828171189
 30
0.0
 10
285.643392964
 20
223.8292193165
 30
0.0
 10
285.643392964
 20
220.9731317969
 30
0.0
  0
ELLIPSE
  5
383
100
AcDbEntity
  8
_1
100
AcDbEllipse
 62
7
  6
CONTINUOUS
 10
124.7753858592
 20
464.549991157
 30
0.0
 11
6.9731426067
 21
12.1707374227
 31
0.0
 40
0.5773435439
 41
0.0437999741
 42
1.0448988438
  0
ELLIPSE
  5
384
100
AcDbEntity
  8
_1
100
AcDbEllipse
 62
7
  6
CONTINUOUS
 10
253.5080697534
 20
403.2328502188
 30
0.0
 11
113.9089605082
 21
-65.2633770834
 31
0.0
 40
0.0753343482
 41
2.6863030775
 42
3.4373422567
  0
ELLIPSE
  5
385
100
AcDbEntity
  8
_1
100
AcDbEllipse
 62
7
  6
CONTINUOUS
 10
78.6674389274
 20
479.05743047
 30
0.0
 11
150.7071699941
 21
-71.012205627
 31
0.0
 40
0.0853513576
 41
1.1275836498
 42
1.1600270884
  0
ELLIPSE
  5
386
100
AcDbEntity
  8
_1
100
AcDbEllipse
 62
7
  6
CONTINUOUS
 10
69.1399412219
 20
473.5567599396
 30
0.0
 11
121.7763997885
 21
-87.8773479329
 31
0.0
 40
0.0849703369
 41
-1.0585914013
 42
-0.9759002347
  0
ELLIPSE
  5
387
100
AcDbEntity
  8
_1
100
AcDbEllipse
 62
7
  6
CONTINUOUS
 10
69.1399412219
 20
473.5567599396
 30
0.0
 11
121.7763997885
 21
-87.8773479329
 31
0.0
 40
0.0849703369
 41
1.0983809597
 42
1.1810721263
  0
ELLIPSE
  5
388
100
AcDbEntity
  8
_1
100
AcDbEllipse
 62
7
  6
CONTINUOUS
 10
343.3226168186
 20
244.8264753674
 30
0.0
 11
293.798587876
 21
-97.3895902827
 31
0.0
 40
0.1687141403
 41
-2.6710531444
 42
-2.6445848385
  0
ENDSEC
  0
SECTION
  2
OBJECTS
  0
DICTIONARY
  5
C
100
AcDbDictionary
280
0
281
1
  3
ACAD_GROUP
350
D
  3
ACAD_MLINESTYLE
350
17
  3
ACAD_LAYOUT
350
1A
  3
ACAD_PLOTSETTINGS
350
19
  3
ACAD_PLOTSTYLENAME
350
E
  0
DICTIONARY
  5
D
102
{ACAD_REACTORS
330
C
102
}
100
AcDbDictionary
280
0
281
1
  0
ACDBDICTIONARYWDFLT
  5
E
102
{ACAD_REACTORS
330
C
102
}
100
AcDbDictionary
281
1
  3
Normal
350
F
100
AcDbDictionaryWithDefault
340
F
  0
DICTIONARY
  5
17
102
{ACAD_REACTORS
330
C
102
}
100
AcDbDictionary
280
0
281
1
  3
Standard
350
18
  0
DICTIONARY
  5
19
102
{ACAD_REACTORS
330
C
102
}
100
AcDbDictionary
281
1
  0
DICTIONARY
  5
1A
102
{ACAD_REACTORS
330
C
102
}
100
AcDbDictionary
281
1
  3
Model
350
389
  3
Layout1
350
38A
  0
ACDBPLACEHOLDER
  5
F
102
{ACAD_REACTORS
330
E
102
}
  0
MLINESTYLE
  5
18
102
{ACAD_REACTORS
330
17
102
}
100
AcDbMlineStyle
  2
STANDARD
 70
0
  3

 62
256
 51
90.0
 52
90.0
 71
2
 49
0.5
 62
256
  6
BYLAYER
 49
-0.5
 62
256
  6
BYLAYER
  0
LAYOUT
  5
389
102
{ACAD_REACTORS
330
1A
102
}
100
AcDbPlotSettings
  1

  2
none_device
  4

  6

 40
0.0
 41
0.0
 42
0.0
 43
0.0
 44
210.0
 45
297.0
 46
0.0
 47
0.0
 48
0.0
 49
0.0
140
0.0
141
0.0
142
1.0
143
1.0
 70
1024
 72
1
 73
0
 74
0
  7

 75
0
147
1.0
148
0.0
149
0.0
100
AcDbLayout
  1
Model
 70
0
 71
0
 10
0.0
 20
0.0
 11
210.0
 21
297.0
 12
0.0
 22
0.0
 32
0.0
 14
0.0
 24
0.0
 34
0.0
 15
0.0
 25
0.0
 35
0.0
146
0.0
 13
0.0
 23
0.0
 33
0.0
 16
1.0
 26
0.0
 36
0.0
 17
0.0
 27
1.0
 37
0.0
 76
0
330
211
345
0
346
0
  0
LAYOUT
  5
38A
102
{ACAD_REACTORS
330
1A
102
}
100
AcDbPlotSettings
  1

  2
none_device
  4

  6

 40
0.0
 41
0.0
 42
0.0
 43
0.0
 44
210.0
 45
297.0
 46
0.0
 47
0.0
 48
0.0
 49
0.0
140
0.0
141
0.0
142
1.0
143
1.0
 70
0
 72
1
 73
0
 74
0
  7

 75
0
147
1.0
148
0.0
149
0.0
100
AcDbLayout
  1
Layout1
 70
0
 71
1
 10
0.0
 20
0.0
 11
210.0
 21
297.0
 12
0.0
 22
0.0
 32
0.0
 14
0.0
 24
0.0
 34
0.0
 15
0.0
 25
0.0
 35
0.0
146
0.0
 13
0.0
 23
0.0
 33
0.0
 16
1.0
 26
0.0
 36
0.0
 17
0.0
 27
1.0
 37
0.0
 76
0
330
212
345
0
346
0
  0
ENDSEC
  0
EOF
