999
DXF file: C:\Users\sesa63760\Dev\_Creo\CAD\MCADID0001888_3D-CAD\drw0001_4.dxf
999
Pro/ENGINEER 2019471 by Parametric Technology Corporation
  0
SECTION
  2
HEADER
  9
$ACADVER
  1
AC1024
  9
$DWGCODEPAGE
  3
ANSI_1252
  9
$EXTMAX
 10
99.0735796294
 20
140.118348333
 30
0.0
  9
$EXTMIN
 10
0.0
 20
0.0
 30
0.0
  9
$LIMMIN
 10
0.0
 20
0.0
  9
$LIMMAX
 10
99.0735796294
 20
140.118348333
  9
$VIEWCTR
 10
49.5367898147
 20
70.0591741665
  9
$VIEWSIZE
 40
140.118348333
  9
$CLAYER
  8
0
  9
$LTSCALE
 40
9.1336404839
  9
$CELTYPE
  6
BYLAYER
  9
$DIMSCALE
 40
1.0
  9
$DIMASZ
 40
1.1794473765
  9
$DIMEXO
 40
1.0
  9
$DIMDLI
 40
6.3105152434
  9
$DIMEXE
 40
1.0
  9
$DIMCEN
 40
1.4945957156
  9
$DIMLFAC
 40
1.0
  9
$DIMBLK
  1
_FILLED
  9
$DIMALT
 70
0
  9
$DIMALTF
 40
0.0393700787
  9
$DIMTXT
 40
1.6512263272
  9
$DIMTOL
 70
1
  9
$DIMLIM
 70
0
  9
$DIMTFAC
 40
1.0
  9
$DIMTP
 40
0.01
  9
$DIMTM
 40
0.01
  9
$DIMGAP
 40
0.625
  9
$DIMDSEP
 70
46
  9
$AUNITS
 70
0
  9
$PDMODE
 70
3
  9
$PDSIZE
 40
0.3125
  9
$HANDSEED
  5
326
  9
$TILEMODE
 70
1
  9
$MEASUREMENT
 70
1
  9
$INSUNITS
 70
4
  0
ENDSEC
  0
SECTION
  2
CLASSES
  0
CLASS
  1
ACDBDICTIONARYWDFLT
  2
AcDbDictionaryWithDefault
  3
AutoCAD 2000
 90
0
 91
1
280
0
281
0
  0
CLASS
  1
ACDBPLACEHOLDER
  2
AcDbPlaceHolder
  3
AutoCAD 2000
 90
0
 91
1
280
0
281
0
  0
CLASS
  1
LAYOUT
  2
AcDbLayout
  3
AutoCAD 2000
 90
0
 91
0
280
0
281
0
  0
ENDSEC
  0
SECTION
  2
TABLES
  0
TABLE
  2
VPORT
  5
8
100
AcDbSymbolTable
 70
2
  0
VPORT
  5
1F4
100
AcDbSymbolTableRecord
100
AcDbViewportTableRecord
  2
*ACTIVE
 70
0
 10
0.0
 20
0.0
 11
1.0
 21
1.0
 12
49.5367898147
 22
70.0591741665
 13
0.0
 23
0.0
 14
1.0
 24
1.0
 15
0.0
 25
0.0
 16
0.0
 26
0.0
 36
1.0
 17
0.0
 27
0.0
 37
0.0
 40
140.118348333
 41
0.7070707071
 42
50.0
 43
0.0
 44
0.0
 50
0.0
 51
0.0
 71
0
 72
100
 73
1
 74
1
 75
0
 76
0
 77
0
 78
0
  0
ENDTAB
  0
TABLE
  2
LTYPE
  5
5
100
AcDbSymbolTable
 70
6
  0
LTYPE
  5
14
100
AcDbSymbolTableRecord
100
AcDbLinetypeTableRecord
  2
BYBLOCK
 70
0
  3

 72
65
 73
0
 40
0.0
  0
LTYPE
  5
15
100
AcDbSymbolTableRecord
100
AcDbLinetypeTableRecord
  2
BYLAYER
 70
0
  3

 72
65
 73
0
 40
0.0
  0
LTYPE
  5
16
100
AcDbSymbolTableRecord
100
AcDbLinetypeTableRecord
  2
CONTINUOUS
 70
64
  3
Solid line
 72
65
 73
0
 40
0.0
  0
LTYPE
  5
1F5
100
AcDbSymbolTableRecord
100
AcDbLinetypeTableRecord
  2
CENTER
 70
64
  3
____ _ ____ _ ____ _ ____ _ ____ _ ____ _ ____
 72
65
 73
4
 40
0.6
 49
0.375
 74
0
 49
-0.075
 74
0
 49
0.075
 74
0
 49
-0.075
 74
0
  0
LTYPE
  5
1F6
100
AcDbSymbolTableRecord
100
AcDbLinetypeTableRecord
  2
HIDDEN
 70
64
  3
- - - - - - - - - - - - - - - - - - - -
 72
65
 73
2
 40
0.2
 49
0.1
 74
0
 49
-0.1
 74
0
  0
LTYPE
  5
1F7
100
AcDbSymbolTableRecord
100
AcDbLinetypeTableRecord
  2
PHANTOM
 70
64
  3
_____ _ _ _____ _ _ _____ _ _ _____
 72
65
 73
6
 40
0.8
 49
0.45
 74
0
 49
-0.05
 74
0
 49
0.1
 74
0
 49
-0.05
 74
0
 49
0.1
 74
0
 49
-0.05
 74
0
  0
LTYPE
  5
1F8
100
AcDbSymbolTableRecord
100
AcDbLinetypeTableRecord
  2
DOT
 70
64
  3
. . . . . . . . . . . . . . . . . . . .
 72
65
 73
2
 40
0.2
 49
0.1
 74
0
 49
-0.1
 74
0
  0
LTYPE
  5
1F9
100
AcDbSymbolTableRecord
100
AcDbLinetypeTableRecord
  2
DASHED
 70
64
  3
- - - - - - - - - - - - - - - - - - - -
 72
65
 73
2
 40
0.2
 49
0.1
 74
0
 49
-0.1
 74
0
  0
ENDTAB
  0
TABLE
  2
LAYER
  5
2
100
AcDbSymbolTable
 70
36
  0
LAYER
  5
10
100
AcDbSymbolTableRecord
100
AcDbLayerTableRecord
  2
0
 70
0
 62
7
  6
CONTINUOUS
370
-3
390
F
  0
LAYER
  5
1FA
100
AcDbSymbolTableRecord
100
AcDbLayerTableRecord
  2
DEFAULT_1
 70
0
 62
7
  6
CENTER
370
-3
390
F
  0
LAYER
  5
1FB
100
AcDbSymbolTableRecord
100
AcDbLayerTableRecord
  2
DEFAULT_2
 70
0
 62
8
  6
HIDDEN
370
-3
390
F
  0
LAYER
  5
1FC
100
AcDbSymbolTableRecord
100
AcDbLayerTableRecord
  2
DEFAULT_3
 70
0
 62
7
  6
PHANTOM
370
-3
390
F
  0
LAYER
  5
1FD
100
AcDbSymbolTableRecord
100
AcDbLayerTableRecord
  2
00_COMPONENTS
 70
0
 62
7
  6
CONTINUOUS
370
-3
390
F
  0
LAYER
  5
1FE
100
AcDbSymbolTableRecord
100
AcDbLayerTableRecord
  2
01_1_DEFAULT_DATUMS
 70
0
 62
7
  6
CONTINUOUS
370
-3
390
F
  0
LAYER
  5
1FF
100
AcDbSymbolTableRecord
100
AcDbLayerTableRecord
  2
01_PLANES
 70
0
 62
7
  6
CONTINUOUS
370
-3
390
F
  0
LAYER
  5
200
100
AcDbSymbolTableRecord
100
AcDbLayerTableRecord
  2
02_COORD_SYS
 70
0
 62
7
  6
CONTINUOUS
370
-3
390
F
  0
LAYER
  5
201
100
AcDbSymbolTableRecord
100
AcDbLayerTableRecord
  2
03_AXES
 70
0
 62
7
  6
CONTINUOUS
370
-3
390
F
  0
LAYER
  5
202
100
AcDbSymbolTableRecord
100
AcDbLayerTableRecord
  2
04_POINTS
 70
0
 62
7
  6
CONTINUOUS
370
-3
390
F
  0
LAYER
  5
203
100
AcDbSymbolTableRecord
100
AcDbLayerTableRecord
  2
05_CURVES
 70
0
 62
7
  6
CONTINUOUS
370
-3
390
F
  0
LAYER
  5
204
100
AcDbSymbolTableRecord
100
AcDbLayerTableRecord
  2
06_SURFS
 70
0
 62
7
  6
CONTINUOUS
370
-3
390
F
  0
LAYER
  5
205
100
AcDbSymbolTableRecord
100
AcDbLayerTableRecord
  2
07_COSMETICS
 70
0
 62
7
  6
CONTINUOUS
370
-3
390
F
  0
LAYER
  5
206
100
AcDbSymbolTableRecord
100
AcDbLayerTableRecord
  2
10_NOTES
 70
0
 62
7
  6
CONTINUOUS
370
-3
390
F
  0
LAYER
  5
207
100
AcDbSymbolTableRecord
100
AcDbLayerTableRecord
  2
11_NOTES_PUB
 70
0
 62
7
  6
CONTINUOUS
370
-3
390
F
  0
LAYER
  5
208
100
AcDbSymbolTableRecord
100
AcDbLayerTableRecord
  2
13_REF_GTOL
 70
0
 62
7
  6
CONTINUOUS
370
-3
390
F
  0
LAYER
  5
209
100
AcDbSymbolTableRecord
100
AcDbLayerTableRecord
  2
16_MISC
 70
0
 62
7
  6
CONTINUOUS
370
-3
390
F
  0
LAYER
  5
20A
100
AcDbSymbolTableRecord
100
AcDbLayerTableRecord
  2
17_NO_PRINT
 70
0
 62
7
  6
CONTINUOUS
370
-3
390
F
  0
LAYER
  5
20B
100
AcDbSymbolTableRecord
100
AcDbLayerTableRecord
  2
18_DATUM_CAMS_JOINTS
 70
0
 62
7
  6
CONTINUOUS
370
-3
390
F
  0
LAYER
  5
20C
100
AcDbSymbolTableRecord
100
AcDbLayerTableRecord
  2
19_DATUM_FUNCTIONAL
 70
0
 62
7
  6
CONTINUOUS
370
-3
390
F
  0
LAYER
  5
20D
100
AcDbSymbolTableRecord
100
AcDbLayerTableRecord
  2
20_DATUM_KINEMATIC_SCHEME
 70
0
 62
7
  6
CONTINUOUS
370
-3
390
F
  0
ENDTAB
  0
TABLE
  2
STYLE
  5
3
100
AcDbSymbolTable
 70
1
  0
STYLE
  5
11
100
AcDbSymbolTableRecord
100
AcDbTextStyleTableRecord
  2
STANDARD
 70
0
 40
0.0
 41
0.8
 50
0.0
 71
0
 42
0.2
  3
txt
  4

  0
STYLE
  5
20E
100
AcDbSymbolTableRecord
100
AcDbTextStyleTableRecord
  2
TEXTSTYLE_1
 70
0
 40
0.0
 41
0.8
 50
0.0
 71
0
 42
0.2
  3
gdt
  4

  0
ENDTAB
  0
TABLE
  2
VIEW
  5
6
100
AcDbSymbolTable
 70
0
  0
ENDTAB
  0
TABLE
  2
UCS
  5
7
100
AcDbSymbolTable
 70
0
  0
ENDTAB
  0
TABLE
  2
APPID
  5
9
100
AcDbSymbolTable
 70
1
  0
APPID
  5
20F
100
AcDbSymbolTableRecord
100
AcDbRegAppTableRecord
  2
ACAD
 70
0
  0
ENDTAB
  0
TABLE
  2
BLOCK_RECORD
  5
1
100
AcDbSymbolTable
 70
0
  0
BLOCK_RECORD
  5
210
100
AcDbSymbolTableRecord
100
AcDbBlockTableRecord
  2
*Model_Space
  0
BLOCK_RECORD
  5
211
100
AcDbSymbolTableRecord
100
AcDbBlockTableRecord
  2
*Paper_Space
  0
BLOCK_RECORD
  5
212
100
AcDbSymbolTableRecord
100
AcDbBlockTableRecord
  2
_FILLED
  0
ENDTAB
  0
TABLE
  2
DIMSTYLE
  5
A
100
AcDbSymbolTable
 70
1
100
AcDbDimStyleTable
 71
0
  0
DIMSTYLE
105
213
100
AcDbSymbolTableRecord
100
AcDbDimStyleTableRecord
  2
STANDARD
 70
0
  3

  4

 40
1.0
 41
1.1794473765
 42
1.0
 43
0.38
 44
1.0
 45
0.0
 46
0.0
 47
0.01
 48
0.01
140
1.6512263272
141
0.09
142
0.0
143
25.4
144
1.0
145
0.0
146
1.0
147
0.625
 71
1
 72
0
 73
0
 74
0
 75
0
 76
0
 77
1
 78
8
 79
2
170
0
171
1
172
0
173
0
174
0
175
0
176
0
177
0
178
0
270
2
179
2
271
2
272
2
273
2
274
2
275
0
280
0
281
0
282
0
283
1
284
8
285
0
286
0
287
3
288
0
340
11
278
46
341
212
342
212
343
212
344
212
  0
ENDTAB
  0
ENDSEC
  0
SECTION
  2
BLOCKS
  0
BLOCK
  5
20
100
AcDbEntity
  8
0
100
AcDbBlockBegin
  2
*Model_Space
 70
0
 10
0.0
 20
0.0
 30
0.0
  3
*Model_Space
  1

  0
ENDBLK
  5
21
100
AcDbEntity
  8
0
100
AcDbBlockEnd
  0
BLOCK
  5
1C
100
AcDbEntity
  8
0
100
AcDbBlockBegin
  2
*Paper_Space
 70
0
 10
0.0
 20
0.0
 30
0.0
  3
*Paper_Space
  1

  0
ENDBLK
  5
1D
100
AcDbEntity
  8
0
100
AcDbBlockEnd
  0
BLOCK
  5
214
100
AcDbEntity
  8
0
100
AcDbBlockBegin
  2
_FILLED
 70
64
 10
0.0
 20
0.0
  3
_FILLED
  1

  0
SOLID
  5
215
100
AcDbEntity
  8
0
  6
BYBLOCK
 62
0
100
AcDbTrace
 10
0.0
 20
0.0
 11
-1.0
 21
0.25
 12
-1.0
 22
-0.25
 13
-1.0
 23
-0.25
  0
ENDBLK
  5
216
100
AcDbEntity
  8
0
  6
BYBLOCK
 62
0
100
AcDbBlockEnd
  0
ENDSEC
  0
SECTION
  2
ENTITIES
  0
LINE
  5
217
100
AcDbEntity
  8
0
100
AcDbLine
 62
7
  6
CONTINUOUS
 10
13.0342571332
 20
37.1014978303
 11
12.0342571332
 21
38.1014978303
  0
LINE
  5
218
100
AcDbEntity
  8
0
100
AcDbLine
 62
7
  6
CONTINUOUS
 10
11.0342571332
 20
38.1014978303
 11
11.0342571332
 21
33.6014978303
  0
LINE
  5
219
100
AcDbEntity
  8
0
100
AcDbLine
 62
7
  6
CONTINUOUS
 10
14.2118747912
 20
61.0626577777
 11
14.2118747912
 21
33.6626577777
  0
LINE
  5
21A
100
AcDbEntity
  8
0
100
AcDbLine
 62
7
  6
CONTINUOUS
 10
14.4118747912
 20
33.6626577777
 11
14.4118747912
 21
60.8626577777
  0
LINE
  5
21B
100
AcDbEntity
  8
0
100
AcDbLine
 62
7
  6
CONTINUOUS
 10
15.4118747912
 20
62.4626577777
 11
15.4118747912
 21
61.0626577777
  0
LINE
  5
21C
100
AcDbEntity
  8
0
100
AcDbLine
 62
7
  6
CONTINUOUS
 10
11.0342571332
 20
33.6014978303
 11
34.4251662241
 21
33.6014978303
  0
LINE
  5
21D
100
AcDbEntity
  8
0
100
AcDbLine
 62
7
  6
CONTINUOUS
 10
14.2118747912
 20
33.6626577777
 11
34.2118747912
 21
33.6626577777
  0
LINE
  5
21E
100
AcDbEntity
  8
0
100
AcDbLine
 62
7
  6
CONTINUOUS
 10
70.2118747912
 20
33.6626577777
 11
90.6118747912
 21
33.6626577777
  0
LINE
  5
21F
100
AcDbEntity
  8
0
100
AcDbLine
 62
7
  6
CONTINUOUS
 10
36.3342571332
 20
35.8906865782
 11
35.6342571332
 21
35.9890651625
  0
LINE
  5
220
100
AcDbEntity
  8
0
100
AcDbLine
 62
7
  6
CONTINUOUS
 10
15.6118747912
 20
60.8626577777
 11
15.6118747912
 21
62.6626577777
  0
LINE
  5
221
100
AcDbEntity
  8
0
100
AcDbLine
 62
7
  6
CONTINUOUS
 10
17.9342571332
 20
33.6626577777
 11
17.9342571332
 21
33.6014978303
  0
LINE
  5
222
100
AcDbEntity
  8
0
100
AcDbLine
 62
7
  6
CONTINUOUS
 10
21.7118747912
 20
35.4626577777
 11
25.7118747912
 21
35.4626577777
  0
LINE
  5
223
100
AcDbEntity
  8
0
100
AcDbLine
 62
7
  6
CONTINUOUS
 10
79.1118747912
 20
35.4626577777
 11
83.1118747912
 21
35.4626577777
  0
LINE
  5
224
100
AcDbEntity
  8
0
100
AcDbLine
 62
7
  6
CONTINUOUS
 10
25.5118747912
 20
36.3626577777
 11
21.9118747912
 21
36.3626577777
  0
LINE
  5
225
100
AcDbEntity
  8
0
100
AcDbLine
 62
7
  6
CONTINUOUS
 10
82.9118747912
 20
36.9626577777
 11
79.3118747912
 21
36.9626577777
  0
LINE
  5
226
100
AcDbEntity
  8
0
100
AcDbLine
 62
7
  6
CONTINUOUS
 10
35.6342571332
 20
37.1014978303
 11
34.8342571332
 21
37.1014978303
  0
LINE
  5
227
100
AcDbEntity
  8
0
100
AcDbLine
 62
7
  6
CONTINUOUS
 10
13.0342571332
 20
37.1014978303
 11
14.2118747912
 21
37.1014978303
  0
LINE
  5
228
100
AcDbEntity
  8
0
100
AcDbLine
 62
7
  6
CONTINUOUS
 10
34.2118747912
 20
37.1626577777
 11
70.2118747912
 21
37.1626577777
  0
LINE
  5
229
100
AcDbEntity
  8
0
100
AcDbLine
 62
7
  6
CONTINUOUS
 10
83.1118747912
 20
37.8626577777
 11
79.1118747912
 21
37.8626577777
  0
LINE
  5
22A
100
AcDbEntity
  8
0
100
AcDbLine
 62
7
  6
CONTINUOUS
 10
25.7118747912
 20
37.8626577777
 11
21.7118747912
 21
37.8626577777
  0
LINE
  5
22B
100
AcDbEntity
  8
0
100
AcDbLine
 62
7
  6
CONTINUOUS
 10
14.2118747912
 20
61.0626577777
 11
14.4118747912
 21
60.8626577777
  0
LINE
  5
22C
100
AcDbEntity
  8
0
100
AcDbLine
 62
7
  6
CONTINUOUS
 10
21.7118747912
 20
37.8626577777
 11
21.7118747912
 21
35.4626577777
  0
LINE
  5
22D
100
AcDbEntity
  8
0
100
AcDbLine
 62
7
  6
CONTINUOUS
 10
21.9118747912
 20
35.4626577777
 11
21.9118747912
 21
37.8626577777
  0
LINE
  5
22E
100
AcDbEntity
  8
0
100
AcDbLine
 62
7
  6
CONTINUOUS
 10
41.4954534353
 20
103.7496420149
 11
41.8439815723
 21
104.0981701519
  0
LINE
  5
22F
100
AcDbEntity
  8
0
100
AcDbLine
 62
7
  6
CONTINUOUS
 10
41.9854029286
 20
103.9567487957
 11
41.9368749266
 21
103.9082207926
  0
LINE
  5
230
100
AcDbEntity
  8
0
100
AcDbLine
 62
7
  6
CONTINUOUS
 10
12.0342571332
 20
38.1014978303
 11
11.0342571332
 21
38.1014978303
  0
LINE
  5
231
100
AcDbEntity
  8
0
100
AcDbLine
 62
7
  6
CONTINUOUS
 10
15.4118747912
 20
61.0626577777
 11
15.6118747912
 21
60.8626577777
  0
LINE
  5
232
100
AcDbEntity
  8
0
100
AcDbLine
 62
7
  6
CONTINUOUS
 10
23.6342571332
 20
33.6626577777
 11
23.6342571332
 21
33.6014978303
  0
LINE
  5
233
100
AcDbEntity
  8
0
100
AcDbLine
 62
7
  6
CONTINUOUS
 10
24.6118747912
 20
85.1626577777
 11
24.6118747912
 21
62.6626577777
  0
LINE
  5
234
100
AcDbEntity
  8
0
100
AcDbLine
 62
7
  6
CONTINUOUS
 10
25.1118747912
 20
62.6626577777
 11
25.1118747912
 21
85.6626577777
  0
LINE
  5
235
100
AcDbEntity
  8
0
100
AcDbLine
 62
7
  6
CONTINUOUS
 10
25.5118747912
 20
35.4626577777
 11
25.5118747912
 21
37.8626577777
  0
LINE
  5
236
100
AcDbEntity
  8
0
100
AcDbLine
 62
7
  6
CONTINUOUS
 10
25.7118747912
 20
35.4626577777
 11
25.7118747912
 21
37.8626577777
  0
LINE
  5
237
100
AcDbEntity
  8
0
100
AcDbLine
 62
7
  6
CONTINUOUS
 10
27.4118747912
 20
86.9505971759
 11
27.4118747912
 21
85.6626577777
  0
LINE
  5
238
100
AcDbEntity
  8
0
100
AcDbLine
 62
7
  6
CONTINUOUS
 10
27.6618747912
 20
64.1626577777
 11
27.6618747912
 21
65.9626577777
  0
LINE
  5
239
100
AcDbEntity
  8
0
100
AcDbLine
 62
7
  6
CONTINUOUS
 10
27.8118747912
 20
64.1626577777
 11
27.8118747912
 21
65.8126577777
  0
LINE
  5
23A
100
AcDbEntity
  8
0
100
AcDbLine
 62
7
  6
CONTINUOUS
 10
68.8118747912
 20
34.3626577777
 11
70.2118747912
 21
33.6626577777
  0
LINE
  5
23B
100
AcDbEntity
  8
0
100
AcDbLine
 62
7
  6
CONTINUOUS
 10
30.0118747912
 20
64.1626577777
 11
30.0118747912
 21
65.8126577777
  0
LINE
  5
23C
100
AcDbEntity
  8
0
100
AcDbLine
 62
7
  6
CONTINUOUS
 10
30.1618747912
 20
65.9626577777
 11
30.1618747912
 21
64.1626577777
  0
LINE
  5
23D
100
AcDbEntity
  8
0
100
AcDbLine
 62
7
  6
CONTINUOUS
 10
30.4118747912
 20
86.9505971759
 11
30.4118747912
 21
85.6626577777
  0
LINE
  5
23E
100
AcDbEntity
  8
0
100
AcDbLine
 62
7
  6
CONTINUOUS
 10
31.7206102922
 20
87.9609959398
 11
31.7206102922
 21
105.6593330711
  0
LINE
  5
23F
100
AcDbEntity
  8
0
100
AcDbLine
 62
7
  6
CONTINUOUS
 10
32.7118747912
 20
85.6626577777
 11
32.7118747912
 21
62.6626577777
  0
LINE
  5
240
100
AcDbEntity
  8
0
100
AcDbLine
 62
7
  6
CONTINUOUS
 10
33.2118747912
 20
62.6626577777
 11
33.2118747912
 21
85.1626577777
  0
LINE
  5
241
100
AcDbEntity
  8
0
100
AcDbLine
 62
7
  6
CONTINUOUS
 10
44.20289839
 20
104.3331510804
 11
44.1368748065
 21
104.1443631401
  0
LINE
  5
242
100
AcDbEntity
  8
0
100
AcDbLine
 62
7
  6
CONTINUOUS
 10
33.4712835272
 20
87.9126577777
 11
33.4712835272
 21
92.8126577777
  0
LINE
  5
243
100
AcDbEntity
  8
0
100
AcDbLine
 62
7
  6
CONTINUOUS
 10
33.5118747912
 20
68.3126577777
 11
33.5118747912
 21
62.6626577777
  0
LINE
  5
244
100
AcDbEntity
  8
0
100
AcDbLine
 62
7
  6
CONTINUOUS
 10
33.7118747912
 20
62.4626577777
 11
33.7118747912
 21
68.5126577777
  0
LINE
  5
245
100
AcDbEntity
  8
0
100
AcDbLine
 62
7
  6
CONTINUOUS
 10
34.0118747912
 20
88.5126577777
 11
34.0118747912
 21
87.7126577777
  0
LINE
  5
246
100
AcDbEntity
  8
0
100
AcDbLine
 62
7
  6
CONTINUOUS
 10
34.2118747912
 20
37.1626577777
 11
34.2118747912
 21
33.6626577777
  0
LINE
  5
247
100
AcDbEntity
  8
0
100
AcDbLine
 62
7
  6
CONTINUOUS
 10
34.3212835272
 20
89.1126577777
 11
34.3212835272
 21
93.0126577777
  0
LINE
  5
248
100
AcDbEntity
  8
0
100
AcDbLine
 62
7
  6
CONTINUOUS
 10
34.6049517457
 20
68.5126577777
 11
34.6049517457
 21
68.3126577777
  0
LINE
  5
249
100
AcDbEntity
  8
0
100
AcDbLine
 62
7
  6
CONTINUOUS
 10
34.8342571332
 20
37.1626577777
 11
34.8342571332
 21
33.9014978303
  0
LINE
  5
24A
100
AcDbEntity
  8
0
100
AcDbLine
 62
7
  6
CONTINUOUS
 10
35.0118747912
 20
65.5998374748
 11
35.0118747912
 21
61.4126577777
  0
LINE
  5
24B
100
AcDbEntity
  8
0
100
AcDbLine
 62
7
  6
CONTINUOUS
 10
35.2118747912
 20
65.6147260652
 11
35.2118747912
 21
61.6126577777
  0
LINE
  5
24C
100
AcDbEntity
  8
0
100
AcDbLine
 62
7
  6
CONTINUOUS
 10
35.5206102922
 20
93.0126577777
 11
35.5206102922
 21
91.1126577777
  0
LINE
  5
24D
100
AcDbEntity
  8
0
100
AcDbLine
 62
7
  6
CONTINUOUS
 10
35.6342571332
 20
37.1014978303
 11
35.6342571332
 21
35.9890651625
  0
LINE
  5
24E
100
AcDbEntity
  8
0
100
AcDbLine
 62
7
  6
CONTINUOUS
 10
35.7206102922
 20
66.0543242445
 11
35.7206102922
 21
64.8126577777
  0
LINE
  5
24F
100
AcDbEntity
  8
0
100
AcDbLine
 62
7
  6
CONTINUOUS
 10
35.8118747912
 20
68.5126577777
 11
35.8118747912
 21
84.4250002192
  0
LINE
  5
250
100
AcDbEntity
  8
0
100
AcDbLine
 62
7
  6
CONTINUOUS
 10
35.8118747912
 20
87.7126577777
 11
35.8118747912
 21
88.707384893
  0
LINE
  5
251
100
AcDbEntity
  8
0
100
AcDbLine
 62
7
  6
CONTINUOUS
 10
35.8118747912
 20
91.0179400498
 11
35.8118747912
 21
93.0126577777
  0
LINE
  5
252
100
AcDbEntity
  8
0
100
AcDbLine
 62
7
  6
CONTINUOUS
 10
35.8118747912
 20
97.7261877056
 11
35.8118747912
 21
102.8126577777
  0
LINE
  5
253
100
AcDbEntity
  8
0
100
AcDbLine
 62
7
  6
CONTINUOUS
 10
36.0206102922
 20
89.1126577777
 11
36.0206102922
 21
90.6126577777
  0
LINE
  5
254
100
AcDbEntity
  8
0
100
AcDbLine
 62
7
  6
CONTINUOUS
 10
36.3342571332
 20
35.1028455001
 11
36.3342571332
 21
35.8906865782
  0
LINE
  5
255
100
AcDbEntity
  8
0
100
AcDbLine
 62
7
  6
CONTINUOUS
 10
38.8602739511
 20
80.0805977538
 11
35.7206102922
 21
66.0543242445
  0
LINE
  5
256
100
AcDbEntity
  8
0
100
AcDbLine
 62
7
  6
CONTINUOUS
 10
33.7118747912
 20
62.4626577777
 11
33.5118747912
 21
62.6626577777
  0
LINE
  5
257
100
AcDbEntity
  8
0
100
AcDbLine
 62
7
  6
CONTINUOUS
 10
35.0118747912
 20
65.5998374748
 11
34.6049517457
 21
68.3126577777
  0
LINE
  5
258
100
AcDbEntity
  8
0
100
AcDbLine
 62
7
  6
CONTINUOUS
 10
34.8026059502
 20
68.3423918417
 11
35.2118785991
 21
65.6139075162
  0
LINE
  5
259
100
AcDbEntity
  8
0
100
AcDbLine
 62
7
  6
CONTINUOUS
 10
37.3118747811
 20
97.082427261
 11
37.3118747912
 21
103.0126577777
  0
LINE
  5
25A
100
AcDbEntity
  8
0
100
AcDbLine
 62
7
  6
CONTINUOUS
 10
89.2118747912
 20
55.8626577777
 11
90.4118747912
 21
55.8626577777
  0
LINE
  5
25B
100
AcDbEntity
  8
0
100
AcDbLine
 62
7
  6
CONTINUOUS
 10
90.6118747912
 20
56.0626577777
 11
89.4118747912
 21
56.0626577777
  0
LINE
  5
25C
100
AcDbEntity
  8
0
100
AcDbLine
 62
7
  6
CONTINUOUS
 10
82.0118747912
 20
57.4626577777
 11
89.4118747912
 21
57.4626577777
  0
LINE
  5
25D
100
AcDbEntity
  8
0
100
AcDbLine
 62
7
  6
CONTINUOUS
 10
89.2118747912
 20
57.6626577777
 11
82.2118747912
 21
57.6626577777
  0
LINE
  5
25E
100
AcDbEntity
  8
0
100
AcDbLine
 62
7
  6
CONTINUOUS
 10
34.5302975865
 20
90.5109628525
 11
34.8739728328
 21
88.8565608739
  0
LINE
  5
25F
100
AcDbEntity
  8
0
100
AcDbLine
 62
7
  6
CONTINUOUS
 10
41.4368747912
 20
103.6082206778
 11
41.4368747912
 21
103.0126577777
  0
LINE
  5
260
100
AcDbEntity
  8
0
100
AcDbLine
 62
7
  6
CONTINUOUS
 10
41.9368749855
 20
103.0126577777
 11
41.9368749266
 21
103.9082207926
  0
LINE
  5
261
100
AcDbEntity
  8
0
100
AcDbLine
 62
7
  6
CONTINUOUS
 10
42.5510883535
 20
104.1910633707
 11
42.5510883535
 21
104.3910633707
  0
LINE
  5
262
100
AcDbEntity
  8
0
100
AcDbLine
 62
7
  6
CONTINUOUS
 10
43.8618747912
 20
104.3910633707
 11
43.8618747912
 21
104.1910633707
  0
LINE
  5
263
100
AcDbEntity
  8
0
100
AcDbLine
 62
7
  6
CONTINUOUS
 10
44.136874503
 20
104.1443632454
 11
44.1368745656
 21
103.0126577777
  0
LINE
  5
264
100
AcDbEntity
  8
0
100
AcDbLine
 62
7
  6
CONTINUOUS
 10
14.4118747912
 20
60.8626577777
 11
15.6118747912
 21
60.8626577777
  0
LINE
  5
265
100
AcDbEntity
  8
0
100
AcDbLine
 62
7
  6
CONTINUOUS
 10
15.4118747912
 20
61.0626577777
 11
14.2118747912
 21
61.0626577777
  0
LINE
  5
266
100
AcDbEntity
  8
0
100
AcDbLine
 62
7
  6
CONTINUOUS
 10
35.0118747912
 20
61.4126577777
 11
64.8118747912
 21
61.4126577777
  0
LINE
  5
267
100
AcDbEntity
  8
0
100
AcDbLine
 62
7
  6
CONTINUOUS
 10
64.6118747912
 20
61.6126577777
 11
35.2118747912
 21
61.6126577777
  0
LINE
  5
268
100
AcDbEntity
  8
0
100
AcDbLine
 62
7
  6
CONTINUOUS
 10
38.7706102922
 20
61.7626577777
 11
58.9118747911
 21
61.7626577777
  0
LINE
  5
269
100
AcDbEntity
  8
0
100
AcDbLine
 62
7
  6
CONTINUOUS
 10
15.4118747912
 20
62.4626577777
 11
33.7118747912
 21
62.4626577777
  0
LINE
  5
26A
100
AcDbEntity
  8
0
100
AcDbLine
 62
7
  6
CONTINUOUS
 10
33.5118747912
 20
62.6626577777
 11
15.6118747912
 21
62.6626577777
  0
LINE
  5
26B
100
AcDbEntity
  8
0
100
AcDbLine
 62
7
  6
CONTINUOUS
 10
36.2065668939
 20
92.8568229082
 11
37.3159222028
 21
87.9571702941
  0
LINE
  5
26C
100
AcDbEntity
  8
0
100
AcDbLine
 62
7
  6
CONTINUOUS
 10
44.6368747912
 20
103.0126577777
 11
44.6368747912
 21
103.9607908884
  0
LINE
  5
26D
100
AcDbEntity
  8
0
100
AcDbLine
 62
7
  6
CONTINUOUS
 10
35.0118747912
 20
61.4126577777
 11
35.2118747912
 21
61.6126577777
  0
LINE
  5
26E
100
AcDbEntity
  8
0
100
AcDbLine
 62
7
  6
CONTINUOUS
 10
54.9118747912
 20
63.8626577777
 11
58.9118747912
 21
63.8626577777
  0
LINE
  5
26F
100
AcDbEntity
  8
0
100
AcDbLine
 62
7
  6
CONTINUOUS
 10
55.9118747912
 20
63.9126577777
 11
58.9118747912
 21
63.9126577777
  0
LINE
  5
270
100
AcDbEntity
  8
0
100
AcDbLine
 62
7
  6
CONTINUOUS
 10
30.1618747912
 20
64.1626577777
 11
27.6618747912
 21
64.1626577777
  0
LINE
  5
271
100
AcDbEntity
  8
0
100
AcDbLine
 62
7
  6
CONTINUOUS
 10
58.9118747912
 20
64.5126577777
 11
55.9118747912
 21
64.5126577777
  0
LINE
  5
272
100
AcDbEntity
  8
0
100
AcDbLine
 62
7
  6
CONTINUOUS
 10
27.8118747912
 20
64.7626577777
 11
30.0118747912
 21
64.7626577777
  0
LINE
  5
273
100
AcDbEntity
  8
0
100
AcDbLine
 62
7
  6
CONTINUOUS
 10
58.9118747912
 20
64.8126577777
 11
55.9118747912
 21
64.8126577777
  0
LINE
  5
274
100
AcDbEntity
  8
0
100
AcDbLine
 62
7
  6
CONTINUOUS
 10
39.3004645934
 20
65.2055149206
 11
37.5232849889
 21
65.2055149206
  0
LINE
  5
275
100
AcDbEntity
  8
0
100
AcDbLine
 62
7
  6
CONTINUOUS
 10
58.9118747912
 20
65.8126577777
 11
55.9118747912
 21
65.8126577777
  0
LINE
  5
276
100
AcDbEntity
  8
0
100
AcDbLine
 62
7
  6
CONTINUOUS
 10
30.1618747912
 20
65.8126577777
 11
30.0118747912
 21
65.8126577777
  0
LINE
  5
277
100
AcDbEntity
  8
0
100
AcDbLine
 62
7
  6
CONTINUOUS
 10
27.8118747912
 20
65.8126577777
 11
27.6618747912
 21
65.8126577777
  0
LINE
  5
278
100
AcDbEntity
  8
0
100
AcDbLine
 62
7
  6
CONTINUOUS
 10
27.6618747912
 20
65.9626577777
 11
30.1618747912
 21
65.9626577777
  0
LINE
  5
279
100
AcDbEntity
  8
0
100
AcDbLine
 62
7
  6
CONTINUOUS
 10
50.9618747912
 20
74.1896259813
 11
50.9618747912
 21
76.0126577777
  0
LINE
  5
27A
100
AcDbEntity
  8
0
100
AcDbLine
 62
7
  6
CONTINUOUS
 10
51.1618747912
 20
75.6157308066
 11
51.1618747912
 21
74.1126577777
  0
LINE
  5
27B
100
AcDbEntity
  8
0
100
AcDbLine
 62
7
  6
CONTINUOUS
 10
72.6118747912
 20
93.0626577777
 11
72.4118747912
 21
92.8626577777
  0
LINE
  5
27C
100
AcDbEntity
  8
0
100
AcDbLine
 62
7
  6
CONTINUOUS
 10
73.8118747912
 20
93.0626577777
 11
73.6118747912
 21
92.8626577777
  0
LINE
  5
27D
100
AcDbEntity
  8
0
100
AcDbLine
 62
7
  6
CONTINUOUS
 10
33.5118747912
 20
68.3126577777
 11
34.6049517457
 21
68.3126577777
  0
LINE
  5
27E
100
AcDbEntity
  8
0
100
AcDbLine
 62
7
  6
CONTINUOUS
 10
34.8026107165
 20
68.3126577777
 11
36.2261193085
 21
68.3126577777
  0
LINE
  5
27F
100
AcDbEntity
  8
0
100
AcDbLine
 62
7
  6
CONTINUOUS
 10
53.2825265371
 20
68.3126577777
 11
64.6118747912
 21
68.3126577777
  0
LINE
  5
280
100
AcDbEntity
  8
0
100
AcDbLine
 62
7
  6
CONTINUOUS
 10
64.6118747912
 20
68.5126577777
 11
53.2092974021
 21
68.5126577777
  0
LINE
  5
281
100
AcDbEntity
  8
0
100
AcDbLine
 62
7
  6
CONTINUOUS
 10
36.2708876307
 20
68.5126577777
 11
33.7118747912
 21
68.5126577777
  0
LINE
  5
282
100
AcDbEntity
  8
0
100
AcDbLine
 62
7
  6
CONTINUOUS
 10
51.3118747912
 20
76.1126577777
 11
51.3118747912
 21
74.1126577777
  0
LINE
  5
283
100
AcDbEntity
  8
0
100
AcDbLine
 62
7
  6
CONTINUOUS
 10
52.7118747912
 20
61.7626577777
 11
52.7118747912
 21
69.8711952256
  0
LINE
  5
284
100
AcDbEntity
  8
0
100
AcDbLine
 62
7
  6
CONTINUOUS
 10
53.4743630007
 20
67.7887229708
 11
53.4743630007
 21
61.7626577777
  0
LINE
  5
285
100
AcDbEntity
  8
0
100
AcDbLine
 62
7
  6
CONTINUOUS
 10
53.9888587561
 20
61.7626577777
 11
53.9888587561
 21
66.3835561466
  0
LINE
  5
286
100
AcDbEntity
  8
0
100
AcDbLine
 62
7
  6
CONTINUOUS
 10
34.6049517457
 20
68.3126577777
 11
34.8026185566
 21
68.3423077993
  0
LINE
  5
287
100
AcDbEntity
  8
0
100
AcDbLine
 62
7
  6
CONTINUOUS
 10
35.8118747912
 20
72.2126577777
 11
36.0118747912
 21
72.2126577777
  0
LINE
  5
288
100
AcDbEntity
  8
0
100
AcDbLine
 62
7
  6
CONTINUOUS
 10
64.4118726112
 20
72.2126577777
 11
64.6118747912
 21
72.2126577777
  0
LINE
  5
289
100
AcDbEntity
  8
0
100
AcDbLine
 62
7
  6
CONTINUOUS
 10
32.3871206421
 20
86.7138812685
 11
37.5996994997
 21
83.2301354444
  0
LINE
  5
28A
100
AcDbEntity
  8
0
100
AcDbLine
 62
7
  6
CONTINUOUS
 10
50.9618747912
 20
76.0126577777
 11
51.1618747912
 21
75.6157308066
  0
LINE
  5
28B
100
AcDbEntity
  8
0
100
AcDbLine
 62
7
  6
CONTINUOUS
 10
54.9118747912
 20
63.8626577777
 11
51.994754281
 21
71.8297613346
  0
LINE
  5
28C
100
AcDbEntity
  8
0
100
AcDbLine
 62
7
  6
CONTINUOUS
 10
55.5118747912
 20
93.8626577777
 11
55.5118747912
 21
88.8626577777
  0
LINE
  5
28D
100
AcDbEntity
  8
0
100
AcDbLine
 62
7
  6
CONTINUOUS
 10
55.9118747912
 20
63.9126577777
 11
55.9118747912
 21
65.8126577777
  0
LINE
  5
28E
100
AcDbEntity
  8
0
100
AcDbLine
 62
7
  6
CONTINUOUS
 10
57.1618747912
 20
103.0126577777
 11
57.1618747912
 21
101.8126577777
  0
LINE
  5
28F
100
AcDbEntity
  8
0
100
AcDbLine
 62
7
  6
CONTINUOUS
 10
59.2368742154
 20
102.2126531715
 11
59.311874743
 21
102.8126573922
  0
LINE
  5
290
100
AcDbEntity
  8
0
100
AcDbLine
 62
7
  6
CONTINUOUS
 10
60.2966209428
 20
102.8126577777
 11
60.2216209428
 21
102.2126577777
  0
LINE
  5
291
100
AcDbEntity
  8
0
100
AcDbLine
 62
7
  6
CONTINUOUS
 10
51.3118747912
 20
74.1126577777
 11
50.9955626889
 21
74.1126577777
  0
LINE
  5
292
100
AcDbEntity
  8
0
100
AcDbLine
 62
7
  6
CONTINUOUS
 10
80.8118747912
 20
74.3626577777
 11
82.0118747912
 21
74.3626577777
  0
LINE
  5
293
100
AcDbEntity
  8
0
100
AcDbLine
 62
7
  6
CONTINUOUS
 10
82.2118747912
 20
74.5626577777
 11
81.0118747912
 21
74.5626577777
  0
LINE
  5
294
100
AcDbEntity
  8
0
100
AcDbLine
 62
7
  6
CONTINUOUS
 10
50.9618747912
 20
74.8126577777
 11
50.6891825565
 21
74.8126577777
  0
LINE
  5
295
100
AcDbEntity
  8
0
100
AcDbLine
 62
7
  6
CONTINUOUS
 10
73.6118747912
 20
75.9626577777
 11
81.0118747912
 21
75.9626577777
  0
LINE
  5
296
100
AcDbEntity
  8
0
100
AcDbLine
 62
7
  6
CONTINUOUS
 10
50.9618747912
 20
76.0126577777
 11
50.1639594724
 21
76.0126577777
  0
LINE
  5
297
100
AcDbEntity
  8
0
100
AcDbLine
 62
7
  6
CONTINUOUS
 10
50.120190882
 20
76.1126577777
 11
51.3118747912
 21
76.1126577777
  0
LINE
  5
298
100
AcDbEntity
  8
0
100
AcDbLine
 62
7
  6
CONTINUOUS
 10
80.8118747912
 20
76.1626577777
 11
73.8118747912
 21
76.1626577777
  0
LINE
  5
299
100
AcDbEntity
  8
0
100
AcDbLine
 62
7
  6
CONTINUOUS
 10
51.1618747912
 20
74.7585879494
 11
50.9618747912
 21
74.8126577777
  0
LINE
  5
29A
100
AcDbEntity
  8
0
100
AcDbLine
 62
7
  6
CONTINUOUS
 10
64.8118747912
 20
61.4126577777
 11
64.6118747912
 21
61.6126577777
  0
LINE
  5
29B
100
AcDbEntity
  8
0
100
AcDbLine
 62
7
  6
CONTINUOUS
 10
58.6618747912
 20
102.0126577777
 11
58.6618747912
 21
102.8126577777
  0
LINE
  5
29C
100
AcDbEntity
  8
0
100
AcDbLine
 62
7
  6
CONTINUOUS
 10
58.9118747912
 20
63.9126577777
 11
58.9118747912
 21
65.8126577777
  0
LINE
  5
29D
100
AcDbEntity
  8
0
100
AcDbLine
 62
7
  6
CONTINUOUS
 10
59.2118747912
 20
63.5626577777
 11
59.2118747912
 21
62.0626577777
  0
LINE
  5
29E
100
AcDbEntity
  8
0
100
AcDbLine
 62
7
  6
CONTINUOUS
 10
61.5118747912
 20
88.8626577777
 11
61.5118747912
 21
93.8626577777
  0
LINE
  5
29F
100
AcDbEntity
  8
0
100
AcDbLine
 62
7
  6
CONTINUOUS
 10
59.2368155956
 20
102.2126548237
 11
59.2364384011
 21
102.0126577777
  0
LINE
  5
2A0
100
AcDbEntity
  8
0
100
AcDbLine
 62
7
  6
CONTINUOUS
 10
64.0873111812
 20
102.0126577777
 11
64.0869341438
 21
102.2126548459
  0
LINE
  5
2A1
100
AcDbEntity
  8
0
100
AcDbLine
 62
7
  6
CONTINUOUS
 10
63.1118747912
 20
102.0126577777
 11
63.1118635243
 21
95.3626573514
  0
LINE
  5
2A2
100
AcDbEntity
  8
0
100
AcDbLine
 62
7
  6
CONTINUOUS
 10
64.6118747912
 20
61.6126577777
 11
64.6118747912
 21
101.8126577777
  0
LINE
  5
2A3
100
AcDbEntity
  8
0
100
AcDbLine
 62
7
  6
CONTINUOUS
 10
64.8118747912
 20
61.4126577777
 11
64.8118747912
 21
94.6626577777
  0
LINE
  5
2A4
100
AcDbEntity
  8
0
100
AcDbLine
 62
7
  6
CONTINUOUS
 10
73.8118747912
 20
76.1626577777
 11
73.6118747912
 21
75.9626577777
  0
LINE
  5
2A5
100
AcDbEntity
  8
0
100
AcDbLine
 62
7
  6
CONTINUOUS
 10
68.8118747912
 20
35.3626577777
 11
68.8118747912
 21
34.3626577777
  0
LINE
  5
2A6
100
AcDbEntity
  8
0
100
AcDbLine
 62
7
  6
CONTINUOUS
 10
81.0118747912
 20
74.5626577777
 11
80.8118747912
 21
74.3626577777
  0
LINE
  5
2A7
100
AcDbEntity
  8
0
100
AcDbLine
 62
7
  6
CONTINUOUS
 10
24.6118747912
 20
85.1626577777
 11
33.2118747912
 21
85.1626577777
  0
LINE
  5
2A8
100
AcDbEntity
  8
0
100
AcDbLine
 62
7
  6
CONTINUOUS
 10
32.7118747912
 20
85.6626577777
 11
25.1118747912
 21
85.6626577777
  0
LINE
  5
2A9
100
AcDbEntity
  8
0
100
AcDbLine
 62
7
  6
CONTINUOUS
 10
27.4118747912
 20
86.9505971759
 11
30.4118747912
 21
86.9505971759
  0
LINE
  5
2AA
100
AcDbEntity
  8
0
100
AcDbLine
 62
7
  6
CONTINUOUS
 10
37.1209381964
 20
87.7126577777
 11
33.6712835272
 21
87.7126577777
  0
LINE
  5
2AB
100
AcDbEntity
  8
0
100
AcDbLine
 62
7
  6
CONTINUOUS
 10
41.9368748155
 20
103.9082206826
 11
41.7954534592
 21
104.0496420388
  0
LINE
  5
2AC
100
AcDbEntity
  8
0
100
AcDbLine
 62
7
  6
CONTINUOUS
 10
41.8439815723
 20
104.0981701519
 11
41.9854029286
 21
103.9567487957
  0
LINE
  5
2AD
100
AcDbEntity
  8
0
100
AcDbLine
 62
7
  6
CONTINUOUS
 10
63.1021286395
 20
102.2126577777
 11
63.0271286395
 21
102.8126577777
  0
LINE
  5
2AE
100
AcDbEntity
  8
0
100
AcDbLine
 62
7
  6
CONTINUOUS
 10
64.0118748509
 20
102.8126572997
 11
64.0868753767
 21
102.2126530934
  0
LINE
  5
2AF
100
AcDbEntity
  8
0
100
AcDbLine
 62
7
  6
CONTINUOUS
 10
70.0618747912
 20
35.8983720634
 11
70.0618747912
 21
37.1626577777
  0
LINE
  5
2B0
100
AcDbEntity
  8
0
100
AcDbLine
 62
7
  6
CONTINUOUS
 10
70.2118747912
 20
37.1626577777
 11
70.2118747912
 21
33.6626577777
  0
LINE
  5
2B1
100
AcDbEntity
  8
0
100
AcDbLine
 62
7
  6
CONTINUOUS
 10
72.4118747912
 20
94.6626577777
 11
72.4118747912
 21
92.8626577777
  0
LINE
  5
2B2
100
AcDbEntity
  8
0
100
AcDbLine
 62
7
  6
CONTINUOUS
 10
72.6118747912
 20
93.0626577777
 11
72.6118747912
 21
94.4626577777
  0
LINE
  5
2B3
100
AcDbEntity
  8
0
100
AcDbLine
 62
7
  6
CONTINUOUS
 10
82.2118747912
 20
74.5626577777
 11
82.0118747912
 21
74.3626577777
  0
LINE
  5
2B4
100
AcDbEntity
  8
0
100
AcDbLine
 62
7
  6
CONTINUOUS
 10
34.4251662241
 20
33.6014978303
 11
36.2525298659
 21
34.9415645009
  0
LINE
  5
2B5
100
AcDbEntity
  8
0
100
AcDbLine
 62
7
  6
CONTINUOUS
 10
56.0118747912
 20
88.3626577777
 11
61.0118747912
 21
88.3626577777
  0
LINE
  5
2B6
100
AcDbEntity
  8
0
100
AcDbLine
 62
7
  6
CONTINUOUS
 10
34.0118747912
 20
88.5126577777
 11
35.8118747912
 21
88.5126577777
  0
LINE
  5
2B7
100
AcDbEntity
  8
0
100
AcDbLine
 62
7
  6
CONTINUOUS
 10
35.0206102922
 20
88.6126577777
 11
34.8212835272
 21
88.6126577777
  0
LINE
  5
2B8
100
AcDbEntity
  8
0
100
AcDbLine
 62
7
  6
CONTINUOUS
 10
35.1686884803
 20
88.6126577777
 11
35.5206102922
 21
88.6126577777
  0
LINE
  5
2B9
100
AcDbEntity
  8
0
100
AcDbLine
 62
7
  6
CONTINUOUS
 10
34.8212835272
 20
91.1126577777
 11
35.5206102922
 21
91.1126577777
  0
LINE
  5
2BA
100
AcDbEntity
  8
0
100
AcDbLine
 62
7
  6
CONTINUOUS
 10
73.6118747912
 20
92.8626577777
 11
73.6118747912
 21
75.9626577777
  0
LINE
  5
2BB
100
AcDbEntity
  8
0
100
AcDbLine
 62
7
  6
CONTINUOUS
 10
73.8118747912
 20
76.1626577777
 11
73.8118747912
 21
93.0626577777
  0
LINE
  5
2BC
100
AcDbEntity
  8
0
100
AcDbLine
 62
7
  6
CONTINUOUS
 10
72.4118747912
 20
92.8626577777
 11
73.6118747912
 21
92.8626577777
  0
LINE
  5
2BD
100
AcDbEntity
  8
0
100
AcDbLine
 62
7
  6
CONTINUOUS
 10
36.0115042341
 20
93.0126577777
 11
33.6712835272
 21
93.0126577777
  0
LINE
  5
2BE
100
AcDbEntity
  8
0
100
AcDbLine
 62
7
  6
CONTINUOUS
 10
73.8118747912
 20
93.0626577777
 11
72.6118747912
 21
93.0626577777
  0
LINE
  5
2BF
100
AcDbEntity
  8
0
100
AcDbLine
 62
7
  6
CONTINUOUS
 10
61.0118747912
 20
94.3626577777
 11
56.0118747912
 21
94.3626577777
  0
LINE
  5
2C0
100
AcDbEntity
  8
0
100
AcDbLine
 62
7
  6
CONTINUOUS
 10
64.6118747912
 20
94.4626577777
 11
72.6118747912
 21
94.4626577777
  0
LINE
  5
2C1
100
AcDbEntity
  8
0
100
AcDbLine
 62
7
  6
CONTINUOUS
 10
72.4118747912
 20
94.6626577777
 11
64.8118747912
 21
94.6626577777
  0
LINE
  5
2C2
100
AcDbEntity
  8
0
100
AcDbLine
 62
7
  6
CONTINUOUS
 10
79.1118747912
 20
37.8626577777
 11
79.1118747912
 21
35.4626577777
  0
LINE
  5
2C3
100
AcDbEntity
  8
0
100
AcDbLine
 62
7
  6
CONTINUOUS
 10
79.3118747912
 20
35.4626577777
 11
79.3118747912
 21
37.8626577777
  0
LINE
  5
2C4
100
AcDbEntity
  8
0
100
AcDbLine
 62
7
  6
CONTINUOUS
 10
64.6118747912
 20
95.3626576863
 11
63.1118691577
 21
95.3626576863
  0
LINE
  5
2C5
100
AcDbEntity
  8
0
100
AcDbLine
 62
7
  6
CONTINUOUS
 10
80.8118747912
 20
76.1626577777
 11
80.8118747912
 21
74.3626577777
  0
LINE
  5
2C6
100
AcDbEntity
  8
0
100
AcDbLine
 62
7
  6
CONTINUOUS
 10
81.0118747912
 20
74.5626577777
 11
81.0118747912
 21
75.9626577777
  0
LINE
  5
2C7
100
AcDbEntity
  8
0
100
AcDbLine
 62
7
  6
CONTINUOUS
 10
82.0118747912
 20
74.3626577777
 11
82.0118747912
 21
57.4626577777
  0
LINE
  5
2C8
100
AcDbEntity
  8
0
100
AcDbLine
 62
7
  6
CONTINUOUS
 10
82.2118747912
 20
57.6626577777
 11
82.2118747912
 21
74.5626577777
  0
LINE
  5
2C9
100
AcDbEntity
  8
0
100
AcDbLine
 62
7
  6
CONTINUOUS
 10
82.9118747912
 20
35.4626577777
 11
82.9118747912
 21
37.8626577777
  0
LINE
  5
2CA
100
AcDbEntity
  8
0
100
AcDbLine
 62
7
  6
CONTINUOUS
 10
83.1118747912
 20
35.4626577777
 11
83.1118747912
 21
37.8626577777
  0
LINE
  5
2CB
100
AcDbEntity
  8
0
100
AcDbLine
 62
7
  6
CONTINUOUS
 10
82.2118747912
 20
57.6626577777
 11
82.0118747912
 21
57.4626577777
  0
LINE
  5
2CC
100
AcDbEntity
  8
0
100
AcDbLine
 62
7
  6
CONTINUOUS
 10
57.1618747912
 20
101.8126577777
 11
64.6118747912
 21
101.8126577777
  0
LINE
  5
2CD
100
AcDbEntity
  8
0
100
AcDbLine
 62
7
  6
CONTINUOUS
 10
57.9102062685
 20
102.0126577777
 11
64.4118747912
 21
102.0126577777
  0
LINE
  5
2CE
100
AcDbEntity
  8
0
100
AcDbLine
 62
7
  6
CONTINUOUS
 10
59.2368622597
 20
102.2126577777
 11
64.0868875606
 21
102.2126577777
  0
LINE
  5
2CF
100
AcDbEntity
  8
0
100
AcDbLine
 62
7
  6
CONTINUOUS
 10
42.5006690544
 20
104.3897915091
 11
42.5118747912
 21
104.3910633707
  0
LINE
  5
2D0
100
AcDbEntity
  8
0
100
AcDbLine
 62
7
  6
CONTINUOUS
 10
35.8118747912
 20
102.8126577777
 11
58.6618747912
 21
102.8126577777
  0
LINE
  5
2D1
100
AcDbEntity
  8
0
100
AcDbLine
 62
7
  6
CONTINUOUS
 10
59.3118747369
 20
102.8126577777
 11
64.0118748564
 21
102.8126577777
  0
LINE
  5
2D2
100
AcDbEntity
  8
0
100
AcDbLine
 62
7
  6
CONTINUOUS
 10
36.0118747912
 20
103.0126577777
 11
58.4618747912
 21
103.0126577777
  0
LINE
  5
2D3
100
AcDbEntity
  8
0
100
AcDbLine
 62
7
  6
CONTINUOUS
 10
42.5510883535
 20
104.1910633707
 11
43.8618747911
 21
104.1910633707
  0
LINE
  5
2D4
100
AcDbEntity
  8
0
100
AcDbLine
 62
7
  6
CONTINUOUS
 10
42.5118749251
 20
104.3910633707
 11
43.9118746572
 21
104.3910633707
  0
LINE
  5
2D5
100
AcDbEntity
  8
0
100
AcDbLine
 62
7
  6
CONTINUOUS
 10
32.9157377126
 20
105.6593330711
 11
31.7206102922
 21
105.6593330711
  0
LINE
  5
2D6
100
AcDbEntity
  8
0
100
AcDbLine
 62
7
  6
CONTINUOUS
 10
43.925806681
 20
104.3890831838
 11
43.9118747912
 21
104.3910633707
  0
LINE
  5
2D7
100
AcDbEntity
  8
0
100
AcDbLine
 62
7
  6
CONTINUOUS
 10
89.2118747912
 20
57.6626577777
 11
89.2118747912
 21
55.8626577777
  0
LINE
  5
2D8
100
AcDbEntity
  8
0
100
AcDbLine
 62
7
  6
CONTINUOUS
 10
89.4118747912
 20
56.0626577777
 11
89.4118747912
 21
57.4626577777
  0
LINE
  5
2D9
100
AcDbEntity
  8
0
100
AcDbLine
 62
7
  6
CONTINUOUS
 10
90.4118747912
 20
55.8626577777
 11
90.4118747912
 21
33.6626577777
  0
LINE
  5
2DA
100
AcDbEntity
  8
0
100
AcDbLine
 62
7
  6
CONTINUOUS
 10
90.6118747912
 20
33.6626577777
 11
90.6118747912
 21
56.0626577777
  0
LINE
  5
2DB
100
AcDbEntity
  8
0
100
AcDbLine
 62
7
  6
CONTINUOUS
 10
89.2118747912
 20
55.8626577777
 11
89.4118747912
 21
56.0626577777
  0
LINE
  5
2DC
100
AcDbEntity
  8
0
100
AcDbLine
 62
7
  6
CONTINUOUS
 10
90.4118747912
 20
55.8626577777
 11
90.6118747912
 21
56.0626577777
  0
LINE
  5
2DD
100
AcDbEntity
  8
0
100
AcDbLine
 62
7
  6
CONTINUOUS
 10
70.0618747912
 20
35.8983720634
 11
68.8118747912
 21
35.3626577777
  0
LINE
  5
2DE
100
AcDbEntity
  8
0
100
AcDbLine
 62
7
  6
CONTINUOUS
 10
67.8118747911
 20
36.8626577777
 11
68.8118747912
 21
37.1626577777
  0
ARC
  5
2DF
100
AcDbEntity
  8
0
100
AcDbCircle
 62
7
  6
CONTINUOUS
 10
38.7706102922
 20
64.8126577777
 40
3.05
100
AcDbArc
 50
180.0
 51
270.0
  0
CIRCLE
  5
2E0
100
AcDbEntity
  8
0
100
AcDbCircle
 62
7
  6
CONTINUOUS
 10
38.4118747912
 20
65.0626577777
 40
1.1
  0
CIRCLE
  5
2E1
100
AcDbEntity
  8
0
100
AcDbCircle
 62
7
  6
CONTINUOUS
 10
38.4118747912
 20
65.0626577777
 40
1.0
  0
ARC
  5
2E2
100
AcDbEntity
  8
0
100
AcDbCircle
 62
7
  6
CONTINUOUS
 10
38.4118747912
 20
65.0626577777
 40
0.9
100
AcDbArc
 50
170.8668022161
 51
9.1331977839
  0
ARC
  5
2E3
100
AcDbEntity
  8
0
100
AcDbCircle
 62
7
  6
CONTINUOUS
 10
33.7118747912
 20
68.3126577777
 40
0.2
100
AcDbArc
 50
90.0
 51
180.0
  0
ARC
  5
2E4
100
AcDbEntity
  8
0
100
AcDbCircle
 62
7
  6
CONTINUOUS
 10
15.6118747912
 20
62.4626577777
 40
0.2
100
AcDbArc
 50
90.0
 51
180.0
  0
ARC
  5
2E5
100
AcDbEntity
  8
0
100
AcDbCircle
 62
7
  6
CONTINUOUS
 10
36.1342571332
 20
35.1028455001
 40
0.2
100
AcDbArc
 50
306.2538377238
 51
359.9999999999
  0
ARC
  5
2E6
100
AcDbEntity
  8
0
100
AcDbCircle
 62
7
  6
CONTINUOUS
 10
33.2206102922
 20
87.9609959398
 40
1.5
100
AcDbArc
 50
180.0
 51
236.2438300957
  0
ARC
  5
2E7
100
AcDbEntity
  8
0
100
AcDbCircle
 62
7
  6
CONTINUOUS
 10
28.9118747912
 20
86.9505971759
 40
1.5
100
AcDbArc
 50
0.0
 51
180.0
  0
ARC
  5
2E8
100
AcDbEntity
  8
0
100
AcDbCircle
 62
7
  6
CONTINUOUS
 10
32.7118747912
 20
85.1626577777
 40
0.5
100
AcDbArc
 50
0.0
 51
90.0
  0
ARC
  5
2E9
100
AcDbEntity
  8
0
100
AcDbCircle
 62
7
  6
CONTINUOUS
 10
25.1118747912
 20
85.1626577777
 40
0.5
100
AcDbArc
 50
90.0
 51
180.0
  0
ARC
  5
2EA
100
AcDbEntity
  8
0
100
AcDbCircle
 62
7
  6
CONTINUOUS
 10
33.6712835272
 20
87.9126577777
 40
0.2
100
AcDbArc
 50
180.0
 51
270.0
  0
ARC
  5
2EB
100
AcDbEntity
  8
0
100
AcDbCircle
 62
7
  6
CONTINUOUS
 10
33.6712835272
 20
92.8126577777
 40
0.2
100
AcDbArc
 50
90.0
 51
180.0
  0
ARC
  5
2EC
100
AcDbEntity
  8
0
100
AcDbCircle
 62
7
  6
CONTINUOUS
 10
33.8205916848
 20
99.4095699704
 40
0.4326661531
100
AcDbArc
 50
332.8470279189
 51
56.3099324896
  0
ARC
  5
2ED
100
AcDbEntity
  8
0
100
AcDbCircle
 62
7
  6
CONTINUOUS
 10
33.6297826894
 20
100.3911971539
 40
0.4326661531
100
AcDbArc
 50
326.3099324821
 51
56.3099324879
  0
ARC
  5
2EE
100
AcDbEntity
  8
0
100
AcDbCircle
 62
7
  6
CONTINUOUS
 10
33.4389736941
 20
101.3728243373
 40
0.4326661531
100
AcDbArc
 50
326.309932462
 51
56.3099324431
  0
ARC
  5
2EF
100
AcDbEntity
  8
0
100
AcDbCircle
 62
7
  6
CONTINUOUS
 10
33.2481646987
 20
102.3544515208
 40
0.4326661531
100
AcDbArc
 50
326.3099324738
 51
56.3099324866
  0
ARC
  5
2F0
100
AcDbEntity
  8
0
100
AcDbCircle
 62
7
  6
CONTINUOUS
 10
33.0573557033
 20
103.3360787042
 40
0.4326661531
100
AcDbArc
 50
326.3099324818
 51
56.3099324864
  0
ARC
  5
2F1
100
AcDbEntity
  8
0
100
AcDbCircle
 62
7
  6
CONTINUOUS
 10
32.8665467079
 20
104.3177058877
 40
0.4326661531
100
AcDbArc
 50
326.3099324823
 51
56.3099324858
  0
ARC
  5
2F2
100
AcDbEntity
  8
0
100
AcDbCircle
 62
7
  6
CONTINUOUS
 10
32.6757377126
 20
105.2993330711
 40
0.4326661531
100
AcDbArc
 50
326.3099324738
 51
56.309932474
  0
ARC
  5
2F3
100
AcDbEntity
  8
0
100
AcDbCircle
 62
7
  6
CONTINUOUS
 10
34.2213950194
 20
99.9967889339
 40
0.2783633772
100
AcDbArc
 50
146.3099324609
 51
234.7128776819
  0
ARC
  5
2F4
100
AcDbEntity
  8
0
100
AcDbCircle
 62
7
  6
CONTINUOUS
 10
34.030586024
 20
100.9784161174
 40
0.2783633772
100
AcDbArc
 50
146.3099324938
 51
234.7128776845
  0
ARC
  5
2F5
100
AcDbEntity
  8
0
100
AcDbCircle
 62
7
  6
CONTINUOUS
 10
33.8397770286
 20
101.9600433008
 40
0.2783633772
100
AcDbArc
 50
146.3099324743
 51
234.7128777553
  0
ARC
  5
2F6
100
AcDbEntity
  8
0
100
AcDbCircle
 62
7
  6
CONTINUOUS
 10
33.6489680333
 20
102.9416704842
 40
0.2783633772
100
AcDbArc
 50
146.3099324613
 51
234.7128776866
  0
ARC
  5
2F7
100
AcDbEntity
  8
0
100
AcDbCircle
 62
7
  6
CONTINUOUS
 10
33.4581590379
 20
103.9232976677
 40
0.2783633772
100
AcDbArc
 50
146.3099324606
 51
234.7128776869
  0
ARC
  5
2F8
100
AcDbEntity
  8
0
100
AcDbCircle
 62
7
  6
CONTINUOUS
 10
33.2673500425
 20
104.9049248511
 40
0.2783633772
100
AcDbArc
 50
146.3099324744
 51
234.7128776878
  0
ARC
  5
2F9
100
AcDbEntity
  8
0
100
AcDbCircle
 62
7
  6
CONTINUOUS
 10
35.9327201995
 20
80.735906102
 40
3.0
100
AcDbArc
 50
347.3828048392
 51
56.2438300947
  0
ARC
  5
2FA
100
AcDbEntity
  8
0
100
AcDbCircle
 62
7
  6
CONTINUOUS
 10
35.5206102922
 20
89.1126577777
 40
0.5
100
AcDbArc
 50
270.0
 51
359.9999999986
  0
ARC
  5
2FB
100
AcDbEntity
  8
0
100
AcDbCircle
 62
7
  6
CONTINUOUS
 10
35.5206102922
 20
90.6126577777
 40
0.5
100
AcDbArc
 50
0.0000000014
 51
90.0
  0
ARC
  5
2FC
100
AcDbEntity
  8
0
100
AcDbCircle
 62
7
  6
CONTINUOUS
 10
35.0198465035
 20
90.6126577777
 40
0.5
100
AcDbArc
 50
90.0
 51
191.7352586391
  0
ARC
  5
2FD
100
AcDbEntity
  8
0
100
AcDbCircle
 62
7
  6
CONTINUOUS
 10
34.8212835272
 20
89.1126577777
 40
0.5
100
AcDbArc
 50
180.0
 51
270.0
  0
ARC
  5
2FE
100
AcDbEntity
  8
0
100
AcDbCircle
 62
7
  6
CONTINUOUS
 10
35.0206102922
 20
89.1126577777
 40
0.5
100
AcDbArc
 50
270.0
 51
279.6168545222
  0
ARC
  5
2FF
100
AcDbEntity
  8
0
100
AcDbCircle
 62
7
  6
CONTINUOUS
 10
34.8212835272
 20
90.6126577777
 40
0.5
100
AcDbArc
 50
90.0
 51
180.0
  0
ARC
  5
300
100
AcDbEntity
  8
0
100
AcDbCircle
 62
7
  6
CONTINUOUS
 10
35.1686884803
 20
88.9126577777
 40
0.3
100
AcDbArc
 50
190.7769042174
 51
270.0
  0
ARC
  5
301
100
AcDbEntity
  8
0
100
AcDbCircle
 62
7
  6
CONTINUOUS
 10
37.1209381964
 20
87.9126577777
 40
0.2
100
AcDbArc
 50
270.0
 51
12.8595697421
  0
ARC
  5
302
100
AcDbEntity
  8
0
100
AcDbCircle
 62
7
  6
CONTINUOUS
 10
36.0115042341
 20
92.8126577777
 40
0.2
100
AcDbArc
 50
12.7575321617
 51
90.0
  0
ARC
  5
303
100
AcDbEntity
  8
0
100
AcDbCircle
 62
7
  6
CONTINUOUS
 10
39.0424905147
 20
102.762360295
 40
6.0
100
AcDbArc
 50
216.2782738278
 51
259.2648056891
  0
ARC
  5
304
100
AcDbEntity
  8
0
100
AcDbCircle
 62
7
  6
CONTINUOUS
 10
43.8618747912
 20
103.3580276565
 40
1.0330357143
100
AcDbArc
 50
46.3504146109
 51
90.0000000007
  0
ARC
  5
305
100
AcDbEntity
  8
0
100
AcDbCircle
 62
7
  6
CONTINUOUS
 10
42.5510883535
 20
103.3910633707
 40
1.0
100
AcDbArc
 50
89.9999960892
 51
135.0000000005
  0
ARC
  5
306
100
AcDbEntity
  8
0
100
AcDbCircle
 62
7
  6
CONTINUOUS
 10
37.7385994177
 20
95.8848703453
 40
1.0
100
AcDbArc
 50
32.7221361964
 51
79.2648056901
  0
ARC
  5
307
100
AcDbEntity
  8
0
100
AcDbCircle
 62
7
  6
CONTINUOUS
 10
43.8618747912
 20
103.3580276565
 40
0.8330357143
100
AcDbArc
 50
70.7240893248
 51
90.0000000061
  0
ARC
  5
308
100
AcDbEntity
  8
0
100
AcDbCircle
 62
7
  6
CONTINUOUS
 10
42.5510883535
 20
103.3910633707
 40
0.8
100
AcDbArc
 50
89.9999999999
 51
135.0000000019
  0
ARC
  5
309
100
AcDbEntity
  8
0
100
AcDbCircle
 62
7
  6
CONTINUOUS
 10
44.4368747912
 20
103.960790878
 40
0.2
100
AcDbArc
 50
0.0
 51
46.3505836027
  0
ARC
  5
30A
100
AcDbEntity
  8
0
100
AcDbCircle
 62
7
  6
CONTINUOUS
 10
41.6368747912
 20
103.6082206583
 40
0.2
100
AcDbArc
 50
134.9999998575
 51
180.0
  0
ARC
  5
30B
100
AcDbEntity
  8
0
100
AcDbCircle
 62
7
  6
CONTINUOUS
 10
36.0118747912
 20
102.8126577777
 40
0.2
100
AcDbArc
 50
90.0
 51
180.0
  0
ARC
  5
30C
100
AcDbEntity
  8
0
100
AcDbCircle
 62
7
  6
CONTINUOUS
 10
67.5393747912
 20
37.770991111
 40
0.9483278412
100
AcDbArc
 50
219.9022672977
 51
286.6992442325
  0
ARC
  5
30D
100
AcDbEntity
  8
0
100
AcDbCircle
 62
7
  6
CONTINUOUS
 10
58.9118747912
 20
63.5626577777
 40
0.3
100
AcDbArc
 50
0.0
 51
90.0
  0
ARC
  5
30E
100
AcDbEntity
  8
0
100
AcDbCircle
 62
7
  6
CONTINUOUS
 10
58.9118747912
 20
62.0626577777
 40
0.3
100
AcDbArc
 50
270.0
 51
360.0
  0
ARC
  5
30F
100
AcDbEntity
  8
0
100
AcDbCircle
 62
7
  6
CONTINUOUS
 10
89.2118747912
 20
57.4626577777
 40
0.2
100
AcDbArc
 50
0.0
 51
90.0
  0
ARC
  5
310
100
AcDbEntity
  8
0
100
AcDbCircle
 62
7
  6
CONTINUOUS
 10
61.0118747912
 20
93.8626577777
 40
0.5
100
AcDbArc
 50
0.0
 51
90.0
  0
ARC
  5
311
100
AcDbEntity
  8
0
100
AcDbCircle
 62
7
  6
CONTINUOUS
 10
56.0118747912
 20
93.8626577777
 40
0.5
100
AcDbArc
 50
90.0
 51
180.0
  0
ARC
  5
312
100
AcDbEntity
  8
0
100
AcDbCircle
 62
7
  6
CONTINUOUS
 10
56.0118747912
 20
88.8626577777
 40
0.5
100
AcDbArc
 50
180.0
 51
270.0
  0
ARC
  5
313
100
AcDbEntity
  8
0
100
AcDbCircle
 62
7
  6
CONTINUOUS
 10
61.0118747912
 20
88.8626577777
 40
0.5
100
AcDbArc
 50
270.0
 51
360.0
  0
ARC
  5
314
100
AcDbEntity
  8
0
100
AcDbCircle
 62
7
  6
CONTINUOUS
 10
64.4118747912
 20
101.8126577777
 40
0.2
100
AcDbArc
 50
0.0
 51
90.0
  0
ARC
  5
315
100
AcDbEntity
  8
0
100
AcDbCircle
 62
7
  6
CONTINUOUS
 10
58.4618747912
 20
102.8126577777
 40
0.2
100
AcDbArc
 50
0.0
 51
90.0
  0
ARC
  5
316
100
AcDbEntity
  8
0
100
AcDbCircle
 62
7
  6
CONTINUOUS
 10
64.8118747912
 20
94.4626577777
 40
0.2
100
AcDbArc
 50
90.0
 51
180.0
  0
ARC
  5
317
100
AcDbEntity
  8
0
100
AcDbCircle
 62
7
  6
CONTINUOUS
 10
72.4118747912
 20
94.4626577777
 40
0.2
100
AcDbArc
 50
0.0
 51
90.0
  0
ARC
  5
318
100
AcDbEntity
  8
0
100
AcDbCircle
 62
7
  6
CONTINUOUS
 10
80.8118747912
 20
75.9626577777
 40
0.2
100
AcDbArc
 50
0.0
 51
90.0
  0
SPLINE
  5
319
100
AcDbEntity
  8
0
100
AcDbSpline
 62
7
  6
CONTINUOUS
 70
0
 71
3
 72
29
 73
25
 74
0
 42
0.0000001
 43
0.0000001
 44
0.0000000001
 40
0.0
 40
0.0
 40
0.0
 40
0.0
 40
0.1879379366
 40
0.3692895927
 40
0.5380100224
 40
0.615978599
 40
0.6888173832
 40
0.755872219
 40
0.8164639974
 40
0.8697996602
 40
0.8934737675
 40
0.9150060247
 40
0.9343043055
 40
0.9512841556
 40
0.965861223
 40
0.9779513883
 40
0.9874767837
 40
0.9912569045
 40
0.994371
 40
0.9968107598
 40
0.9985678036
 40
0.9991876732
 40
0.9996336959
 40
1.0
 40
1.0
 40
1.0
 40
1.0
 10
44.136874593
 20
104.1443631836
 30
0.0
 10
44.1696563562
 20
104.1374790562
 30
0.0
 10
44.2336921325
 20
104.1220993553
 30
0.0
 10
44.3257776223
 20
104.0952471739
 30
0.0
 10
44.3980055269
 20
104.0705853323
 30
0.0
 10
44.4511885212
 20
104.0502004274
 30
0.0
 10
44.4870734733
 20
104.035354415
 30
0.0
 10
44.5197504134
 20
104.0208863239
 30
0.0
 10
44.5489281472
 20
104.0071256101
 30
0.0
 10
44.5708917771
 20
103.9962100248
 30
0.0
 10
44.5865280249
 20
103.988210923
 30
0.0
 10
44.5967347862
 20
103.9829192779
 30
0.0
 10
44.6058562573
 20
103.9781269116
 30
0.0
 10
44.6138534694
 20
103.9738603069
 30
0.0
 10
44.6206894887
 20
103.9701471059
 30
0.0
 10
44.6263283877
 20
103.9670136683
 30
0.0
 10
44.630255922
 20
103.9647640813
 30
0.0
 10
44.6327816606
 20
103.9632848104
 30
0.0
 10
44.6342092529
 20
103.9624326678
 30
0.0
 10
44.6353300677
 20
103.9617626849
 30
0.0
 10
44.6360500896
 20
103.9613053537
 30
0.0
 10
44.6364925238
 20
103.961049812
 30
0.0
 10
44.6366801936
 20
103.9608936226
 30
0.0
 10
44.6368570687
 20
103.9608537253
 30
0.0
 10
44.6368747912
 20
103.9607908892
 30
0.0
  0
SPLINE
  5
31A
100
AcDbEntity
  8
0
100
AcDbSpline
 62
7
  6
CONTINUOUS
 70
0
 71
3
 72
32
 73
28
 74
0
 42
0.0000001
 43
0.0000001
 44
0.0000000001
 40
0.0
 40
0.0
 40
0.0
 40
0.0
 40
0.0000959179
 40
0.0003710414
 40
0.0008247792
 40
0.0014563602
 40
0.0032498773
 40
0.0057452156
 40
0.008935979
 40
0.0128157738
 40
0.0173782127
 40
0.0226169158
 40
0.035091599
 40
0.0501562183
 40
0.0677197154
 40
0.087691006
 40
0.1099762799
 40
0.1344592507
 40
0.1895090657
 40
0.2518309413
 40
0.3204767793
 40
0.3945279888
 40
0.4731332917
 40
0.555491441
 40
0.6408624021
 40
0.8181868165
 40
1.0
 40
1.0
 40
1.0
 40
1.0
 10
41.4368747912
 20
103.6082206778
 30
0.0
 10
41.4368747912
 20
103.6082393209
 30
0.0
 10
41.4369671159
 20
103.6082659165
 30
0.0
 10
41.437070257
 20
103.6083672446
 30
0.0
 10
41.4373102452
 20
103.6085022693
 30
0.0
 10
41.4377728185
 20
103.6088057787
 30
0.0
 10
41.4385919484
 20
103.6093085986
 30
0.0
 10
41.4398248997
 20
103.6100745467
 30
0.0
 10
41.4414112164
 20
103.6110460686
 30
0.0
 10
41.4433414723
 20
103.6122229475
 30
0.0
 10
41.4456159644
 20
103.6136006701
 30
0.0
 10
41.4493246592
 20
103.6158347559
 30
0.0
 10
41.45479402
 20
103.6191020557
 30
0.0
 10
41.4623273634
 20
103.623585234
 30
0.0
 10
41.4711139134
 20
103.6288117986
 30
0.0
 10
41.4811019454
 20
103.6347637398
 30
0.0
 10
41.4922348912
 20
103.6414216063
 30
0.0
 10
41.5092079608
 20
103.6515978792
 30
0.0
 10
41.5328426809
 20
103.6657963814
 30
0.0
 10
41.5638403275
 20
103.6844071421
 30
0.0
 10
41.5980096305
 20
103.7049101411
 30
0.0
 10
41.6348977172
 20
103.7270333654
 30
0.0
 10
41.6740718186
 20
103.7505267958
 30
0.0
 10
41.7151260692
 20
103.7751629787
 30
0.0
 10
41.7726159903
 20
103.8097005344
 30
0.0
 10
41.846784404
 20
103.8540114217
 30
0.0
 10
41.9067010345
 20
103.8898273317
 30
0.0
 10
41.9368750257
 20
103.9082208514
 30
0.0
  0
SPLINE
  5
31B
100
AcDbEntity
  8
0
100
AcDbSpline
 62
7
  6
CONTINUOUS
 70
0
 71
3
 72
10
 73
6
 74
0
 42
0.0000001
 43
0.0000001
 44
0.0000000001
 40
0.0
 40
0.0
 40
0.0
 40
0.0
 40
0.3720017052
 40
0.9383009489
 40
1.0
 40
1.0
 40
1.0
 40
1.0
 10
51.994754281
 20
71.8297613346
 30
0.0
 10
50.6311405598
 20
75.036663448
 30
0.0
 10
47.1916938298
 20
83.1254416822
 30
0.0
 10
42.0946728251
 20
90.9964750326
 30
0.0
 10
38.8937523255
 20
95.9394705549
 30
0.0
 10
38.5799036857
 20
96.4254372
 30
0.0
  0
SPLINE
  5
31C
100
AcDbEntity
  8
0
100
AcDbSpline
 62
7
  6
CONTINUOUS
 70
0
 71
3
 72
9
 73
5
 74
0
 42
0.0000001
 43
0.0000001
 44
0.0000000001
 40
0.0
 40
0.0
 40
0.0
 40
0.0
 40
0.5000981489
 40
1.0
 40
1.0
 40
1.0
 40
1.0
 10
34.8026107165
 20
68.3423599011
 30
0.0
 10
34.7957054493
 20
68.3882380933
 30
0.0
 10
34.7472760899
 20
68.4779913172
 30
0.0
 10
34.6513284833
 20
68.5126577777
 30
0.0
 10
34.6049517457
 20
68.5126577777
 30
0.0
  0
SPLINE
  5
31D
100
AcDbEntity
  8
0
100
AcDbSpline
 62
7
  6
CONTINUOUS
 70
0
 71
3
 72
12
 73
8
 74
0
 42
0.0000001
 43
0.0000001
 44
0.0000000001
 40
0.0
 40
0.0
 40
0.0
 40
0.0
 40
0.1427592499
 40
0.2778215535
 40
0.5249522289
 40
0.7622085007
 40
1.0
 40
1.0
 40
1.0
 40
1.0
 10
37.5232849889
 20
65.2055149205
 30
0.0
 10
37.5145568999
 20
65.2055149205
 30
0.0
 10
37.497353641
 20
65.2087767048
 30
0.0
 10
37.4698698174
 20
65.2265958788
 30
0.0
 10
37.4498197066
 20
65.2608937114
 30
0.0
 10
37.4444236942
 20
65.3054262777
 30
0.0
 10
37.4494061666
 20
65.3344398715
 30
0.0
 10
37.4535599437
 20
65.3483720634
 30
0.0
  0
SPLINE
  5
31E
100
AcDbEntity
  8
0
100
AcDbSpline
 62
7
  6
CONTINUOUS
 70
0
 71
3
 72
12
 73
8
 74
0
 42
0.0000001
 43
0.0000001
 44
0.0000000001
 40
0.0
 40
0.0
 40
0.0
 40
0.0
 40
0.1427592589
 40
0.2778218454
 40
0.5249524319
 40
0.7622086108
 40
1.0
 40
1.0
 40
1.0
 40
1.0
 10
39.3004645934
 20
65.2055149205
 30
0.0
 10
39.309192683
 20
65.2055149205
 30
0.0
 10
39.3263959542
 20
65.2087767261
 30
0.0
 10
39.3538798035
 20
65.2265958863
 30
0.0
 10
39.3739298826
 20
65.2608937523
 30
0.0
 10
39.3793258856
 20
65.3054262955
 30
0.0
 10
39.3743434139
 20
65.3344398778
 30
0.0
 10
39.3701896387
 20
65.3483720634
 30
0.0
  0
SPLINE
  5
31F
100
AcDbEntity
  8
0
100
AcDbSpline
 62
7
  6
CONTINUOUS
 70
0
 71
3
 72
18
 73
14
 74
0
 42
0.0000001
 43
0.0000001
 44
0.0000000001
 40
0.0
 40
0.0
 40
0.0
 40
0.0
 40
0.1975895111
 40
0.3881063625
 40
0.5627695835
 40
0.7148946207
 40
0.8385046619
 40
0.8879459278
 40
0.9283492076
 40
0.9593756013
 40
0.9807959193
 40
0.9924570992
 40
1.0
 40
1.0
 40
1.0
 40
1.0
 10
35.0118747912
 20
65.5998374748
 30
0.0
 10
35.0251185648
 20
65.6008252326
 30
0.0
 10
35.0511337778
 20
65.602739243
 30
0.0
 10
35.0888553124
 20
65.6055524758
 30
0.0
 10
35.1235148813
 20
65.6082813743
 30
0.0
 10
35.1537111804
 20
65.6105448554
 30
0.0
 10
35.1755254455
 20
65.6116350871
 30
0.0
 10
35.1898584901
 20
65.6127113199
 30
0.0
 10
35.1978842223
 20
65.6135884659
 30
0.0
 10
35.2041328393
 20
65.6150082234
 30
0.0
 10
35.2080283769
 20
65.6157261417
 30
0.0
 10
35.2112359801
 20
65.6167390098
 30
0.0
 10
35.2118387895
 20
65.6151648256
 30
0.0
 10
35.2117652452
 20
65.6146632083
 30
0.0
  0
SPLINE
  5
320
100
AcDbEntity
  8
0
100
AcDbSpline
 62
7
  6
CONTINUOUS
 70
0
 71
3
 72
11
 73
7
 74
0
 42
0.0000001
 43
0.0000001
 44
0.0000000001
 40
0.0
 40
0.0
 40
0.0
 40
0.0
 40
0.249973906
 40
0.4999727392
 40
0.7499936935
 40
1.0
 40
1.0
 40
1.0
 40
1.0
 10
36.8190069121
 20
90.1322826107
 30
0.0
 10
36.7811563556
 20
89.9312216771
 30
0.0
 10
36.7060110642
 20
89.5289662736
 30
0.0
 10
36.6013759129
 20
88.9241003205
 30
0.0
 10
36.500187092
 20
88.318635561
 30
0.0
 10
36.4323383328
 20
87.9150482727
 30
0.0
 10
36.3984122921
 20
87.7132611595
 30
0.0
  0
SPLINE
  5
321
100
AcDbEntity
  8
0
100
AcDbSpline
 62
7
  6
CONTINUOUS
 70
0
 71
3
 72
16
 73
12
 74
0
 42
0.0000001
 43
0.0000001
 44
0.0000000001
 40
0.0
 40
0.0
 40
0.0
 40
0.0
 40
0.0624989428
 40
0.1249967756
 40
0.1874983488
 40
0.2499986723
 40
0.3749986211
 40
0.4999991421
 40
0.7499991421
 40
0.8749995022
 40
1.0
 40
1.0
 40
1.0
 40
1.0
 10
36.076856634
 20
84.2490889414
 30
0.0
 10
36.0752681743
 20
83.99832213
 30
0.0
 10
36.0696993783
 20
83.4968057618
 30
0.0
 10
36.0555727941
 20
82.7446139681
 30
0.0
 10
36.0394837829
 20
81.9924590577
 30
0.0
 10
36.020349476
 20
80.9895284289
 30
0.0
 10
36.0022172248
 20
79.7357684931
 30
0.0
 10
35.9832992466
 20
77.7296408444
 30
0.0
 10
35.9804856867
 20
75.7233866253
 30
0.0
 10
35.9930545914
 20
73.7172065421
 30
0.0
 10
36.0050025517
 20
72.71416486
 30
0.0
 10
36.0118747912
 20
72.2126577777
 30
0.0
  0
SPLINE
  5
322
100
AcDbEntity
  8
0
100
AcDbSpline
 62
7
  6
CONTINUOUS
 70
0
 71
3
 72
39
 73
35
 74
0
 42
0.0000001
 43
0.0000001
 44
0.0000000001
 40
0.0
 40
0.0
 40
0.0
 40
0.0
 40
0.1252453226
 40
0.2504906451
 40
0.3131133238
 40
0.3757359678
 40
0.407047272
 40
0.4383586295
 40
0.4696699625
 40
0.5009812513
 40
0.5166373411
 40
0.5322927347
 40
0.54794776
 40
0.5636053685
 40
0.579256064
 40
0.5948957489
 40
0.6105117863
 40
0.6261005683
 40
0.6571958572
 40
0.6882052444
 40
0.7501324279
 40
0.7811456158
 40
0.7966851883
 40
0.8122492918
 40
0.8278410673
 40
0.8434600452
 40
0.8591018638
 40
0.8747538016
 40
0.8904106461
 40
0.9060658987
 40
0.9217214187
 40
0.9373773337
 40
0.9686886725
 40
1.0
 40
1.0
 40
1.0
 40
1.0
 10
64.4118718573
 20
72.2126577777
 30
0.0
 10
64.4118718573
 20
73.1849645593
 30
0.0
 10
64.4118727917
 20
75.1295781226
 30
0.0
 10
64.4118692876
 20
77.5603452113
 30
0.0
 10
64.4118762954
 20
79.5049587755
 30
0.0
 10
64.4118751298
 20
80.7203420469
 30
0.0
 10
64.4118650894
 20
81.6926486996
 30
0.0
 10
64.4118677302
 20
82.4218788004
 30
0.0
 10
64.4118952623
 20
83.1511088158
 30
0.0
 10
64.4118018545
 20
83.7588034586
 30
0.0
 10
64.4119877483
 20
84.2449578831
 30
0.0
 10
64.4119559325
 20
84.6095685488
 30
0.0
 10
64.4114511176
 20
84.9741937917
 30
0.0
 10
64.4133237823
 20
85.338772187
 30
0.0
 10
64.4037843252
 20
85.7032687
 30
0.0
 10
64.3728746496
 20
86.0662731786
 30
0.0
 10
64.3273204905
 20
86.4271461611
 30
0.0
 10
64.249464653
 20
86.904585376
 30
0.0
 10
64.1242902345
 20
87.4949134632
 30
0.0
 10
63.8879787102
 20
88.4284531693
 30
0.0
 10
63.6253914721
 20
89.3542603827
 30
0.0
 10
63.4199999298
 20
90.171134819
 30
0.0
 10
63.3164866526
 20
90.6421644259
 30
0.0
 10
63.2479599642
 20
90.9981869689
 30
0.0
 10
63.1908690449
 20
91.3568733783
 30
0.0
 10
63.1468654952
 20
91.7179984118
 30
0.0
 10
63.1176126976
 20
92.0812079249
 30
0.0
 10
63.1106816556
 20
92.445770662
 30
0.0
 10
63.1121366589
 20
92.8103424915
 30
0.0
 10
63.1118071209
 20
93.1749677747
 30
0.0
 10
63.1117809058
 20
93.5395789746
 30
0.0
 10
63.1118948457
 20
94.0257337067
 30
0.0
 10
63.1118372383
 20
94.6334271886
 30
0.0
 10
63.1118528397
 20
95.1195806806
 30
0.0
 10
63.1118528016
 20
95.3626573514
 30
0.0
  0
SPLINE
  5
323
100
AcDbEntity
  8
0
100
AcDbSpline
 62
7
  6
CONTINUOUS
 70
0
 71
3
 72
10
 73
6
 74
0
 42
0.0000001
 43
0.0000001
 44
0.0000000001
 40
0.0
 40
0.0
 40
0.0
 40
0.0
 40
0.5169726716
 40
0.7653940337
 40
1.0
 40
1.0
 40
1.0
 40
1.0
 10
57.1618747912
 20
101.8126577777
 30
0.0
 10
57.2877450671
 20
101.858619104
 30
0.0
 10
57.474128769
 20
101.9274306476
 30
0.0
 10
57.7244170092
 20
101.9949810596
 30
0.0
 10
57.8493964815
 20
102.0126577777
 30
0.0
 10
57.9102062685
 20
102.0126577777
 30
0.0
  0
ENDSEC
  0
SECTION
  2
OBJECTS
  0
DICTIONARY
  5
C
100
AcDbDictionary
280
0
281
1
  3
ACAD_GROUP
350
D
  3
ACAD_MLINESTYLE
350
17
  3
ACAD_LAYOUT
350
1A
  3
ACAD_PLOTSETTINGS
350
19
  3
ACAD_PLOTSTYLENAME
350
E
  0
DICTIONARY
  5
D
102
{ACAD_REACTORS
330
C
102
}
100
AcDbDictionary
280
0
281
1
  0
ACDBDICTIONARYWDFLT
  5
E
102
{ACAD_REACTORS
330
C
102
}
100
AcDbDictionary
281
1
  3
Normal
350
F
100
AcDbDictionaryWithDefault
340
F
  0
DICTIONARY
  5
17
102
{ACAD_REACTORS
330
C
102
}
100
AcDbDictionary
280
0
281
1
  3
Standard
350
18
  0
DICTIONARY
  5
19
102
{ACAD_REACTORS
330
C
102
}
100
AcDbDictionary
281
1
  0
DICTIONARY
  5
1A
102
{ACAD_REACTORS
330
C
102
}
100
AcDbDictionary
281
1
  3
Model
350
324
  3
Layout1
350
325
  0
ACDBPLACEHOLDER
  5
F
102
{ACAD_REACTORS
330
E
102
}
  0
MLINESTYLE
  5
18
102
{ACAD_REACTORS
330
17
102
}
100
AcDbMlineStyle
  2
STANDARD
 70
0
  3

 62
256
 51
90.0
 52
90.0
 71
2
 49
0.5
 62
256
  6
BYLAYER
 49
-0.5
 62
256
  6
BYLAYER
  0
LAYOUT
  5
324
102
{ACAD_REACTORS
330
1A
102
}
100
AcDbPlotSettings
  1

  2
none_device
  4

  6

 40
0.0
 41
0.0
 42
0.0
 43
0.0
 44
210.0
 45
297.0
 46
0.0
 47
0.0
 48
0.0
 49
0.0
140
0.0
141
0.0
142
1.0
143
1.0
 70
1024
 72
1
 73
0
 74
0
  7

 75
0
147
1.0
148
0.0
149
0.0
100
AcDbLayout
  1
Model
 70
0
 71
0
 10
0.0
 20
0.0
 11
210.0
 21
297.0
 12
0.0
 22
0.0
 32
0.0
 14
0.0
 24
0.0
 34
0.0
 15
0.0
 25
0.0
 35
0.0
146
0.0
 13
0.0
 23
0.0
 33
0.0
 16
1.0
 26
0.0
 36
0.0
 17
0.0
 27
1.0
 37
0.0
 76
0
330
210
345
0
346
0
  0
LAYOUT
  5
325
102
{ACAD_REACTORS
330
1A
102
}
100
AcDbPlotSettings
  1

  2
none_device
  4

  6

 40
0.0
 41
0.0
 42
0.0
 43
0.0
 44
210.0
 45
297.0
 46
0.0
 47
0.0
 48
0.0
 49
0.0
140
0.0
141
0.0
142
1.0
143
1.0
 70
0
 72
1
 73
0
 74
0
  7

 75
0
147
1.0
148
0.0
149
0.0
100
AcDbLayout
  1
Layout1
 70
0
 71
1
 10
0.0
 20
0.0
 11
210.0
 21
297.0
 12
0.0
 22
0.0
 32
0.0
 14
0.0
 24
0.0
 34
0.0
 15
0.0
 25
0.0
 35
0.0
146
0.0
 13
0.0
 23
0.0
 33
0.0
 16
1.0
 26
0.0
 36
0.0
 17
0.0
 27
1.0
 37
0.0
 76
0
330
211
345
0
346
0
  0
ENDSEC
  0
EOF
