999
DXF file: C:\Users\sesa63760\Dev\_Creo\CAD\MCADID0003966_3D-CAD\drw0001_7.dxf
999
Pro/ENGINEER 2019471 by Parametric Technology Corporation
  0
SECTION
  2
HEADER
  9
$ACADVER
  1
AC1024
  9
$DWGCODEPAGE
  3
ANSI_1252
  9
$EXTMAX
 10
45.5063535902
 20
64.3589857919
 30
0.0
  9
$EXTMIN
 10
0.0
 20
0.0
 30
0.0
  9
$LIMMIN
 10
0.0
 20
0.0
  9
$LIMMAX
 10
45.5063535902
 20
64.3589857919
  9
$VIEWCTR
 10
22.7531767951
 20
32.179492896
  9
$VIEWSIZE
 40
64.3589857919
  9
$CLAYER
  8
0
  9
$LTSCALE
 40
4.1952524072
  9
$CELTYPE
  6
BYLAYER
  9
$DIMSCALE
 40
1.0
  9
$DIMASZ
 40
0.5417423046
  9
$DIMEXO
 40
1.0
  9
$DIMDLI
 40
2.8985380268
  9
$DIMEXE
 40
1.0
  9
$DIMCEN
 40
0.6864958484
  9
$DIMLFAC
 40
1.0
  9
$DIMBLK
  1
_FILLED
  9
$DIMALT
 70
0
  9
$DIMALTF
 40
0.0393700787
  9
$DIMTXT
 40
0.7584392265
  9
$DIMTOL
 70
1
  9
$DIMLIM
 70
0
  9
$DIMTFAC
 40
1.0
  9
$DIMTP
 40
0.01
  9
$DIMTM
 40
0.01
  9
$DIMGAP
 40
0.625
  9
$DIMDSEP
 70
46
  9
$AUNITS
 70
0
  9
$PDMODE
 70
3
  9
$PDSIZE
 40
0.3125
  9
$HANDSEED
  5
27E
  9
$TILEMODE
 70
1
  9
$MEASUREMENT
 70
1
  9
$INSUNITS
 70
4
  0
ENDSEC
  0
SECTION
  2
CLASSES
  0
CLASS
  1
ACDBDICTIONARYWDFLT
  2
AcDbDictionaryWithDefault
  3
AutoCAD 2000
 90
0
 91
1
280
0
281
0
  0
CLASS
  1
ACDBPLACEHOLDER
  2
AcDbPlaceHolder
  3
AutoCAD 2000
 90
0
 91
1
280
0
281
0
  0
CLASS
  1
LAYOUT
  2
AcDbLayout
  3
AutoCAD 2000
 90
0
 91
0
280
0
281
0
  0
ENDSEC
  0
SECTION
  2
TABLES
  0
TABLE
  2
VPORT
  5
8
100
AcDbSymbolTable
 70
2
  0
VPORT
  5
1F4
100
AcDbSymbolTableRecord
100
AcDbViewportTableRecord
  2
*ACTIVE
 70
0
 10
0.0
 20
0.0
 11
1.0
 21
1.0
 12
22.7531767951
 22
32.179492896
 13
0.0
 23
0.0
 14
1.0
 24
1.0
 15
0.0
 25
0.0
 16
0.0
 26
0.0
 36
1.0
 17
0.0
 27
0.0
 37
0.0
 40
64.3589857919
 41
0.7070707071
 42
50.0
 43
0.0
 44
0.0
 50
0.0
 51
0.0
 71
0
 72
100
 73
1
 74
1
 75
0
 76
0
 77
0
 78
0
  0
ENDTAB
  0
TABLE
  2
LTYPE
  5
5
100
AcDbSymbolTable
 70
6
  0
LTYPE
  5
14
100
AcDbSymbolTableRecord
100
AcDbLinetypeTableRecord
  2
BYBLOCK
 70
0
  3

 72
65
 73
0
 40
0.0
  0
LTYPE
  5
15
100
AcDbSymbolTableRecord
100
AcDbLinetypeTableRecord
  2
BYLAYER
 70
0
  3

 72
65
 73
0
 40
0.0
  0
LTYPE
  5
16
100
AcDbSymbolTableRecord
100
AcDbLinetypeTableRecord
  2
CONTINUOUS
 70
64
  3
Solid line
 72
65
 73
0
 40
0.0
  0
LTYPE
  5
1F5
100
AcDbSymbolTableRecord
100
AcDbLinetypeTableRecord
  2
CENTER
 70
64
  3
____ _ ____ _ ____ _ ____ _ ____ _ ____ _ ____
 72
65
 73
4
 40
0.6
 49
0.375
 74
0
 49
-0.075
 74
0
 49
0.075
 74
0
 49
-0.075
 74
0
  0
LTYPE
  5
1F6
100
AcDbSymbolTableRecord
100
AcDbLinetypeTableRecord
  2
HIDDEN
 70
64
  3
- - - - - - - - - - - - - - - - - - - -
 72
65
 73
2
 40
0.2
 49
0.1
 74
0
 49
-0.1
 74
0
  0
LTYPE
  5
1F7
100
AcDbSymbolTableRecord
100
AcDbLinetypeTableRecord
  2
PHANTOM
 70
64
  3
_____ _ _ _____ _ _ _____ _ _ _____
 72
65
 73
6
 40
0.8
 49
0.45
 74
0
 49
-0.05
 74
0
 49
0.1
 74
0
 49
-0.05
 74
0
 49
0.1
 74
0
 49
-0.05
 74
0
  0
LTYPE
  5
1F8
100
AcDbSymbolTableRecord
100
AcDbLinetypeTableRecord
  2
DOT
 70
64
  3
. . . . . . . . . . . . . . . . . . . .
 72
65
 73
2
 40
0.2
 49
0.1
 74
0
 49
-0.1
 74
0
  0
LTYPE
  5
1F9
100
AcDbSymbolTableRecord
100
AcDbLinetypeTableRecord
  2
DASHED
 70
64
  3
- - - - - - - - - - - - - - - - - - - -
 72
65
 73
2
 40
0.2
 49
0.1
 74
0
 49
-0.1
 74
0
  0
ENDTAB
  0
TABLE
  2
LAYER
  5
2
100
AcDbSymbolTable
 70
36
  0
LAYER
  5
10
100
AcDbSymbolTableRecord
100
AcDbLayerTableRecord
  2
0
 70
0
 62
7
  6
CONTINUOUS
370
-3
390
F
  0
LAYER
  5
1FA
100
AcDbSymbolTableRecord
100
AcDbLayerTableRecord
  2
DEFAULT_1
 70
0
 62
7
  6
CENTER
370
-3
390
F
  0
LAYER
  5
1FB
100
AcDbSymbolTableRecord
100
AcDbLayerTableRecord
  2
DEFAULT_2
 70
0
 62
7
  6
HIDDEN
370
-3
390
F
  0
LAYER
  5
1FC
100
AcDbSymbolTableRecord
100
AcDbLayerTableRecord
  2
DEFAULT_3
 70
0
 62
7
  6
PHANTOM
370
-3
390
F
  0
LAYER
  5
1FD
100
AcDbSymbolTableRecord
100
AcDbLayerTableRecord
  2
00_COMPONENTS
 70
0
 62
7
  6
CONTINUOUS
370
-3
390
F
  0
LAYER
  5
1FE
100
AcDbSymbolTableRecord
100
AcDbLayerTableRecord
  2
01_1_DEFAULT_DATUMS
 70
0
 62
7
  6
CONTINUOUS
370
-3
390
F
  0
LAYER
  5
1FF
100
AcDbSymbolTableRecord
100
AcDbLayerTableRecord
  2
01_PLANES
 70
0
 62
7
  6
CONTINUOUS
370
-3
390
F
  0
LAYER
  5
200
100
AcDbSymbolTableRecord
100
AcDbLayerTableRecord
  2
02_COORD_SYS
 70
0
 62
7
  6
CONTINUOUS
370
-3
390
F
  0
LAYER
  5
201
100
AcDbSymbolTableRecord
100
AcDbLayerTableRecord
  2
03_AXES
 70
0
 62
7
  6
CONTINUOUS
370
-3
390
F
  0
LAYER
  5
202
100
AcDbSymbolTableRecord
100
AcDbLayerTableRecord
  2
04_POINTS
 70
0
 62
7
  6
CONTINUOUS
370
-3
390
F
  0
LAYER
  5
203
100
AcDbSymbolTableRecord
100
AcDbLayerTableRecord
  2
05_CURVES
 70
0
 62
7
  6
CONTINUOUS
370
-3
390
F
  0
LAYER
  5
204
100
AcDbSymbolTableRecord
100
AcDbLayerTableRecord
  2
06_SURFS
 70
0
 62
7
  6
CONTINUOUS
370
-3
390
F
  0
LAYER
  5
205
100
AcDbSymbolTableRecord
100
AcDbLayerTableRecord
  2
07_COSMETICS
 70
0
 62
7
  6
CONTINUOUS
370
-3
390
F
  0
LAYER
  5
206
100
AcDbSymbolTableRecord
100
AcDbLayerTableRecord
  2
10_NOTES
 70
0
 62
7
  6
CONTINUOUS
370
-3
390
F
  0
LAYER
  5
207
100
AcDbSymbolTableRecord
100
AcDbLayerTableRecord
  2
11_NOTES_PUB
 70
0
 62
7
  6
CONTINUOUS
370
-3
390
F
  0
LAYER
  5
208
100
AcDbSymbolTableRecord
100
AcDbLayerTableRecord
  2
13_REF_GTOL
 70
0
 62
7
  6
CONTINUOUS
370
-3
390
F
  0
LAYER
  5
209
100
AcDbSymbolTableRecord
100
AcDbLayerTableRecord
  2
16_MISC
 70
0
 62
7
  6
CONTINUOUS
370
-3
390
F
  0
LAYER
  5
20A
100
AcDbSymbolTableRecord
100
AcDbLayerTableRecord
  2
17_NO_PRINT
 70
0
 62
7
  6
CONTINUOUS
370
-3
390
F
  0
LAYER
  5
20B
100
AcDbSymbolTableRecord
100
AcDbLayerTableRecord
  2
18_DATUM_CAMS_JOINTS
 70
0
 62
7
  6
CONTINUOUS
370
-3
390
F
  0
LAYER
  5
20C
100
AcDbSymbolTableRecord
100
AcDbLayerTableRecord
  2
19_DATUM_FUNCTIONAL
 70
0
 62
7
  6
CONTINUOUS
370
-3
390
F
  0
LAYER
  5
20D
100
AcDbSymbolTableRecord
100
AcDbLayerTableRecord
  2
20_DATUM_KINEMATIC_SCHEME
 70
0
 62
7
  6
CONTINUOUS
370
-3
390
F
  0
ENDTAB
  0
TABLE
  2
STYLE
  5
3
100
AcDbSymbolTable
 70
1
  0
STYLE
  5
11
100
AcDbSymbolTableRecord
100
AcDbTextStyleTableRecord
  2
STANDARD
 70
0
 40
0.0
 41
1.0
 50
0.0
 71
0
 42
0.2
  3
ARIAL.TTF
  4

  0
STYLE
  5
20E
100
AcDbSymbolTableRecord
100
AcDbTextStyleTableRecord
  2
TEXTSTYLE_1
 70
0
 40
0.0
 41
0.8
 50
0.0
 71
0
 42
0.2
  3
gdt
  4

  0
ENDTAB
  0
TABLE
  2
VIEW
  5
6
100
AcDbSymbolTable
 70
0
  0
ENDTAB
  0
TABLE
  2
UCS
  5
7
100
AcDbSymbolTable
 70
0
  0
ENDTAB
  0
TABLE
  2
APPID
  5
9
100
AcDbSymbolTable
 70
1
  0
APPID
  5
20F
100
AcDbSymbolTableRecord
100
AcDbRegAppTableRecord
  2
ACAD
 70
0
  0
ENDTAB
  0
TABLE
  2
BLOCK_RECORD
  5
1
100
AcDbSymbolTable
 70
0
  0
BLOCK_RECORD
  5
210
100
AcDbSymbolTableRecord
100
AcDbBlockTableRecord
  2
*Model_Space
  0
BLOCK_RECORD
  5
211
100
AcDbSymbolTableRecord
100
AcDbBlockTableRecord
  2
*Paper_Space
  0
BLOCK_RECORD
  5
212
100
AcDbSymbolTableRecord
100
AcDbBlockTableRecord
  2
_FILLED
  0
ENDTAB
  0
TABLE
  2
DIMSTYLE
  5
A
100
AcDbSymbolTable
 70
1
100
AcDbDimStyleTable
 71
0
  0
DIMSTYLE
105
213
100
AcDbSymbolTableRecord
100
AcDbDimStyleTableRecord
  2
STANDARD
 70
0
  3

  4

 40
1.0
 41
0.5417423046
 42
1.0
 43
0.38
 44
1.0
 45
0.0
 46
0.0
 47
0.01
 48
0.01
140
0.7584392265
141
0.09
142
0.0
143
25.4
144
1.0
145
0.0
146
1.0
147
0.625
 71
1
 72
0
 73
0
 74
0
 75
0
 76
0
 77
1
 78
8
 79
2
170
0
171
1
172
0
173
0
174
0
175
0
176
0
177
0
178
0
270
2
179
2
271
2
272
2
273
2
274
2
275
0
280
0
281
0
282
0
283
1
284
8
285
0
286
0
287
3
288
0
340
11
278
46
341
212
342
212
343
212
344
212
  0
ENDTAB
  0
ENDSEC
  0
SECTION
  2
BLOCKS
  0
BLOCK
  5
20
100
AcDbEntity
  8
0
100
AcDbBlockBegin
  2
*Model_Space
 70
0
 10
0.0
 20
0.0
 30
0.0
  3
*Model_Space
  1

  0
ENDBLK
  5
21
100
AcDbEntity
  8
0
100
AcDbBlockEnd
  0
BLOCK
  5
1C
100
AcDbEntity
  8
0
100
AcDbBlockBegin
  2
*Paper_Space
 70
0
 10
0.0
 20
0.0
 30
0.0
  3
*Paper_Space
  1

  0
ENDBLK
  5
1D
100
AcDbEntity
  8
0
100
AcDbBlockEnd
  0
BLOCK
  5
214
100
AcDbEntity
  8
0
100
AcDbBlockBegin
  2
_FILLED
 70
64
 10
0.0
 20
0.0
  3
_FILLED
  1

  0
SOLID
  5
215
100
AcDbEntity
  8
0
  6
BYBLOCK
 62
0
100
AcDbTrace
 10
0.0
 20
0.0
 11
-1.0
 21
0.25
 12
-1.0
 22
-0.25
 13
-1.0
 23
-0.25
  0
ENDBLK
  5
216
100
AcDbEntity
  8
0
  6
BYBLOCK
 62
0
100
AcDbBlockEnd
  0
ENDSEC
  0
SECTION
  2
ENTITIES
  0
LINE
  5
217
100
AcDbEntity
  8
0
100
AcDbLine
 62
7
  6
BYLAYER
 10
8.3319532644
 20
59.0870424328
 11
7.8319532644
 21
58.5870424328
  0
LINE
  5
218
100
AcDbEntity
  8
0
100
AcDbLine
 62
7
  6
BYLAYER
 10
25.9319532644
 20
5.1870424328
 11
23.9319532644
 21
5.1870424328
  0
LINE
  5
219
100
AcDbEntity
  8
0
100
AcDbLine
 62
7
  6
BYLAYER
 10
4.8319532644
 20
45.4870424328
 11
4.8319532644
 21
40.4870424328
  0
LINE
  5
21A
100
AcDbEntity
  8
0
100
AcDbLine
 62
7
  6
BYLAYER
 10
4.8319532644
 20
49.4870424328
 11
4.8319532644
 21
54.4870424328
  0
LINE
  5
21B
100
AcDbEntity
  8
0
100
AcDbLine
 62
7
  6
BYLAYER
 10
5.4381710471
 20
44.8322818424
 11
5.4381710471
 21
41.1418030231
  0
LINE
  5
21C
100
AcDbEntity
  8
0
100
AcDbLine
 62
7
  6
BYLAYER
 10
5.4381710471
 20
50.1418030149
 11
5.4381710471
 21
53.8322818507
  0
LINE
  5
21D
100
AcDbEntity
  8
0
100
AcDbLine
 62
7
  6
BYLAYER
 10
26.1373447754
 20
15.1870424328
 11
23.7265617363
 21
15.1870424328
  0
LINE
  5
21E
100
AcDbEntity
  8
0
100
AcDbLine
 62
7
  6
BYLAYER
 10
7.8319532644
 20
58.5870424328
 11
7.8319532644
 21
54.4870424328
  0
LINE
  5
21F
100
AcDbEntity
  8
0
100
AcDbLine
 62
7
  6
BYLAYER
 10
7.8319532644
 20
49.4870424328
 11
7.8319532644
 21
45.4870424328
  0
LINE
  5
220
100
AcDbEntity
  8
0
100
AcDbLine
 62
7
  6
BYLAYER
 10
7.8319532644
 20
40.4870424328
 11
7.8319532644
 21
27.9370424328
  0
LINE
  5
221
100
AcDbEntity
  8
0
100
AcDbLine
 62
7
  6
BYLAYER
 10
26.3370706995
 20
15.3765752416
 11
23.5268358294
 21
15.3765752416
  0
LINE
  5
222
100
AcDbEntity
  8
0
100
AcDbLine
 62
7
  6
BYLAYER
 10
23.4418862581
 20
16.997509624
 11
26.4220202708
 21
16.997509624
  0
LINE
  5
223
100
AcDbEntity
  8
0
100
AcDbLine
 62
7
  6
BYLAYER
 10
28.8498891189
 20
17.1870424328
 11
16.8140195289
 21
17.1870424328
  0
LINE
  5
224
100
AcDbEntity
  8
0
100
AcDbLine
 62
7
  6
BYLAYER
 10
29.0468485505
 20
17.3523127973
 11
16.6170579783
 21
17.3523127973
  0
LINE
  5
225
100
AcDbEntity
  8
0
100
AcDbLine
 62
7
  6
BYLAYER
 10
8.5819532644
 20
59.2870424328
 11
8.5819532644
 21
59.0870424328
  0
LINE
  5
226
100
AcDbEntity
  8
0
100
AcDbLine
 62
7
  6
BYLAYER
 10
8.5819532644
 20
27.1870424328
 11
8.5819532644
 21
23.4870424328
  0
LINE
  5
227
100
AcDbEntity
  8
0
100
AcDbLine
 62
7
  6
BYLAYER
 10
8.5819532644
 20
23.3870424328
 11
8.5819532644
 21
20.5870424328
  0
LINE
  5
228
100
AcDbEntity
  8
0
100
AcDbLine
 62
7
  6
BYLAYER
 10
8.6319532644
 20
23.4870424328
 11
8.6319532644
 21
23.3870424328
  0
LINE
  5
229
100
AcDbEntity
  8
0
100
AcDbLine
 62
7
  6
BYLAYER
 10
8.5819532644
 20
27.1870424328
 11
7.8319532644
 21
27.9370424328
  0
LINE
  5
22A
100
AcDbEntity
  8
0
100
AcDbLine
 62
7
  6
BYLAYER
 10
16.1110948888
 20
20.2217720683
 11
29.5528116401
 21
20.2217720683
  0
LINE
  5
22B
100
AcDbEntity
  8
0
100
AcDbLine
 62
7
  6
BYLAYER
 10
36.8818787742
 20
20.3870424328
 11
8.7820277547
 21
20.3870424328
  0
LINE
  5
22C
100
AcDbEntity
  8
0
100
AcDbLine
 62
7
  6
BYLAYER
 10
37.0819532644
 20
20.5870424328
 11
8.5819532644
 21
20.5870424328
  0
LINE
  5
22D
100
AcDbEntity
  8
0
100
AcDbLine
 62
7
  6
BYLAYER
 10
8.5819532644
 20
23.3870424328
 11
37.081884476
 21
23.3870424328
  0
LINE
  5
22E
100
AcDbEntity
  8
0
100
AcDbLine
 62
7
  6
BYLAYER
 10
37.0818996602
 20
23.4870424328
 11
8.5820068687
 21
23.4870424328
  0
LINE
  5
22F
100
AcDbEntity
  8
0
100
AcDbLine
 62
7
  6
BYLAYER
 10
16.6170579783
 20
17.3523127973
 11
16.1110948888
 21
20.2217720683
  0
LINE
  5
230
100
AcDbEntity
  8
0
100
AcDbLine
 62
7
  6
BYLAYER
 10
8.5819532644
 20
27.1870424328
 11
37.0819532644
 21
27.1870424328
  0
LINE
  5
231
100
AcDbEntity
  8
0
100
AcDbLine
 62
7
  6
BYLAYER
 10
37.8319532644
 20
27.9370424328
 11
7.8319532644
 21
27.9370424328
  0
LINE
  5
232
100
AcDbEntity
  8
0
100
AcDbLine
 62
7
  6
BYLAYER
 10
23.5268358294
 20
15.3765752416
 11
23.4418862581
 21
16.997509624
  0
LINE
  5
233
100
AcDbEntity
  8
0
100
AcDbLine
 62
7
  6
BYLAYER
 10
21.6392672203
 20
59.0870424328
 11
21.6392672203
 21
59.2870424328
  0
LINE
  5
234
100
AcDbEntity
  8
0
100
AcDbLine
 62
7
  6
BYLAYER
 10
22.2257354818
 20
44.8322819105
 11
22.2257354818
 21
41.141802955
  0
LINE
  5
235
100
AcDbEntity
  8
0
100
AcDbLine
 62
7
  6
BYLAYER
 10
22.2257354818
 20
50.1418030046
 11
22.2257354818
 21
53.832281861
  0
LINE
  5
236
100
AcDbEntity
  8
0
100
AcDbLine
 62
7
  6
BYLAYER
 10
23.2649659663
 20
44.8066726393
 11
23.2649659663
 21
41.1674122263
  0
LINE
  5
237
100
AcDbEntity
  8
0
100
AcDbLine
 62
7
  6
BYLAYER
 10
23.2649659663
 20
50.167412221
 11
23.2649659663
 21
53.8066726445
  0
LINE
  5
238
100
AcDbEntity
  8
0
100
AcDbLine
 62
7
  6
BYLAYER
 10
23.9319532644
 20
5.1870424328
 11
23.9319532644
 21
15.1870424328
  0
LINE
  5
239
100
AcDbEntity
  8
0
100
AcDbLine
 62
7
  6
BYLAYER
 10
24.0246393086
 20
59.2870424328
 11
24.0246393086
 21
59.0870424328
  0
LINE
  5
23A
100
AcDbEntity
  8
0
100
AcDbLine
 62
7
  6
BYLAYER
 10
25.9319532644
 20
5.1870424328
 11
25.9319532644
 21
15.1870424328
  0
LINE
  5
23B
100
AcDbEntity
  8
0
100
AcDbLine
 62
7
  6
BYLAYER
 10
26.3370706995
 20
15.3765752416
 11
26.4220202708
 21
16.997509624
  0
LINE
  5
23C
100
AcDbEntity
  8
0
100
AcDbLine
 62
7
  6
BYLAYER
 10
29.0468485505
 20
17.3523127973
 11
29.5528116401
 21
20.2217720683
  0
LINE
  5
23D
100
AcDbEntity
  8
0
100
AcDbLine
 62
7
  6
BYLAYER
 10
40.8319532644
 20
40.4870424328
 11
4.8319532644
 21
40.4870424328
  0
LINE
  5
23E
100
AcDbEntity
  8
0
100
AcDbLine
 62
7
  6
BYLAYER
 10
4.8319532644
 20
45.4870424328
 11
40.8319532644
 21
45.4870424328
  0
LINE
  5
23F
100
AcDbEntity
  8
0
100
AcDbLine
 62
7
  6
BYLAYER
 10
37.0319532644
 20
23.4870424328
 11
37.0319532644
 21
23.3870424328
  0
LINE
  5
240
100
AcDbEntity
  8
0
100
AcDbLine
 62
7
  6
BYLAYER
 10
37.0819532644
 20
59.2870424328
 11
37.0819532644
 21
59.0870424328
  0
LINE
  5
241
100
AcDbEntity
  8
0
100
AcDbLine
 62
7
  6
BYLAYER
 10
37.0819532644
 20
27.1870424328
 11
37.0819532644
 21
23.4870424328
  0
LINE
  5
242
100
AcDbEntity
  8
0
100
AcDbLine
 62
7
  6
BYLAYER
 10
37.0819532644
 20
23.3870424328
 11
37.0819532644
 21
20.5870424328
  0
LINE
  5
243
100
AcDbEntity
  8
0
100
AcDbLine
 62
7
  6
BYLAYER
 10
37.8319532644
 20
58.5870424328
 11
37.8319532644
 21
54.4870424328
  0
LINE
  5
244
100
AcDbEntity
  8
0
100
AcDbLine
 62
7
  6
BYLAYER
 10
37.8319532644
 20
49.4870424328
 11
37.8319532644
 21
45.4870424328
  0
LINE
  5
245
100
AcDbEntity
  8
0
100
AcDbLine
 62
7
  6
BYLAYER
 10
37.8319532644
 20
40.4870424328
 11
37.8319532644
 21
27.9370424328
  0
LINE
  5
246
100
AcDbEntity
  8
0
100
AcDbLine
 62
7
  6
BYLAYER
 10
37.0819532644
 20
27.1870424328
 11
37.8319532644
 21
27.9370424328
  0
LINE
  5
247
100
AcDbEntity
  8
0
100
AcDbLine
 62
7
  6
BYLAYER
 10
40.3989405625
 20
44.8066726752
 11
40.3989405625
 21
41.1674121904
  0
LINE
  5
248
100
AcDbEntity
  8
0
100
AcDbLine
 62
7
  6
BYLAYER
 10
40.3989405625
 20
50.1674122192
 11
40.3989405625
 21
53.8066726463
  0
LINE
  5
249
100
AcDbEntity
  8
0
100
AcDbLine
 62
7
  6
BYLAYER
 10
40.8319532644
 20
49.4870424328
 11
4.8319532644
 21
49.4870424328
  0
LINE
  5
24A
100
AcDbEntity
  8
0
100
AcDbLine
 62
7
  6
BYLAYER
 10
40.8319532644
 20
40.4870424328
 11
40.8319532644
 21
45.4870424328
  0
LINE
  5
24B
100
AcDbEntity
  8
0
100
AcDbLine
 62
7
  6
BYLAYER
 10
40.8319532644
 20
49.4870424328
 11
40.8319532644
 21
54.4870424328
  0
LINE
  5
24C
100
AcDbEntity
  8
0
100
AcDbLine
 62
7
  6
BYLAYER
 10
4.8319532644
 20
54.4870424328
 11
40.8319532644
 21
54.4870424328
  0
LINE
  5
24D
100
AcDbEntity
  8
0
100
AcDbLine
 62
7
  6
BYLAYER
 10
7.8319532644
 20
58.5870424328
 11
37.8319532644
 21
58.5870424328
  0
LINE
  5
24E
100
AcDbEntity
  8
0
100
AcDbLine
 62
7
  6
BYLAYER
 10
8.3319532644
 20
59.0870424328
 11
37.3319170149
 21
59.0870424328
  0
LINE
  5
24F
100
AcDbEntity
  8
0
100
AcDbLine
 62
7
  6
BYLAYER
 10
8.5819532644
 20
59.2870424328
 11
21.6392672203
 21
59.2870424328
  0
LINE
  5
250
100
AcDbEntity
  8
0
100
AcDbLine
 62
7
  6
BYLAYER
 10
24.0246393086
 20
59.2870424328
 11
37.0819532644
 21
59.2870424328
  0
LINE
  5
251
100
AcDbEntity
  8
0
100
AcDbLine
 62
7
  6
BYLAYER
 10
8.7819532644
 20
59.4870424328
 11
36.8819418594
 21
59.4870424328
  0
LINE
  5
252
100
AcDbEntity
  8
0
100
AcDbLine
 62
7
  6
BYLAYER
 10
37.3319532644
 20
59.0870424328
 11
37.8319532644
 21
58.5870424328
  0
ARC
  5
253
100
AcDbEntity
  8
0
100
AcDbCircle
 62
7
  6
BYLAYER
 10
20.8611722315
 20
-22.6409618797
 40
76.4854172288
100
AcDbArc
 50
88.1990041537
 51
88.97774156
  0
ARC
  5
254
100
AcDbEntity
  8
0
100
AcDbCircle
 62
7
  6
BYLAYER
 10
20.861172233
 20
-31.6409618795
 40
76.4854172285
100
AcDbArc
 50
88.1990041548
 51
88.9777415612
  0
ARC
  5
255
100
AcDbEntity
  8
0
100
AcDbCircle
 62
7
  6
BYLAYER
 10
20.8611722315
 20
126.615046745
 40
76.4854172286
100
AcDbArc
 50
271.0222584399
 51
271.8009958463
  0
ARC
  5
256
100
AcDbEntity
  8
0
100
AcDbCircle
 62
7
  6
BYLAYER
 10
20.861172233
 20
117.615046745
 40
76.4854172285
100
AcDbArc
 50
271.0222584388
 51
271.8009958452
  0
ARC
  5
257
100
AcDbEntity
  8
0
100
AcDbCircle
 62
7
  6
BYLAYER
 10
6.2354794253
 20
67.2035525027
 40
26.0739426826
100
AcDbArc
 50
266.9143519331
 51
268.2476939567
  0
ARC
  5
258
100
AcDbEntity
  8
0
100
AcDbCircle
 62
7
  6
BYLAYER
 10
6.2354794253
 20
18.7705323628
 40
26.0739426826
100
AcDbArc
 50
91.7523060433
 51
93.0856480669
  0
ARC
  5
259
100
AcDbEntity
  8
0
100
AcDbCircle
 62
7
  6
BYLAYER
 10
6.235479427
 20
76.2035525027
 40
26.0739426827
100
AcDbArc
 50
266.9143519293
 51
268.247693953
  0
ARC
  5
25A
100
AcDbEntity
  8
0
100
AcDbCircle
 62
7
  6
BYLAYER
 10
6.235479427
 20
27.7705323629
 40
26.0739426827
100
AcDbArc
 50
91.752306047
 51
93.0856480707
  0
ARC
  5
25B
100
AcDbEntity
  8
0
100
AcDbCircle
 62
7
  6
BYLAYER
 10
41.4039068744
 20
40.4878142638
 40
13.3567191583
100
AcDbArc
 50
92.4542367694
 51
94.3150413461
  0
ARC
  5
25C
100
AcDbEntity
  8
0
100
AcDbCircle
 62
7
  6
BYLAYER
 10
41.4033125445
 20
54.4762213535
 40
13.3466536787
100
AcDbArc
 50
265.6842569143
 51
267.5464649544
  0
ARC
  5
25D
100
AcDbEntity
  8
0
100
AcDbCircle
 62
7
  6
BYLAYER
 10
41.4021615222
 20
31.5173255548
 40
13.3271602068
100
AcDbArc
 50
92.4521730112
 51
94.3171051201
  0
ARC
  5
25E
100
AcDbEntity
  8
0
100
AcDbCircle
 62
7
  6
BYLAYER
 10
41.4014064008
 20
63.4439913834
 40
13.3143716648
100
AcDbArc
 50
265.6819991688
 51
267.5487227157
  0
ARC
  5
25F
100
AcDbEntity
  8
0
100
AcDbCircle
 62
7
  6
BYLAYER
 10
36.8819532644
 20
59.2870424328
 40
0.2
100
AcDbArc
 50
0.0
 51
90.0
  0
ARC
  5
260
100
AcDbEntity
  8
0
100
AcDbCircle
 62
7
  6
BYLAYER
 10
8.7819532644
 20
59.2870424328
 40
0.2
100
AcDbArc
 50
90.0
 51
180.0
  0
ARC
  5
261
100
AcDbEntity
  8
0
100
AcDbCircle
 62
7
  6
BYLAYER
 10
28.8498869999
 20
17.3870424328
 40
0.2
100
AcDbArc
 50
270.0
 51
350.0
  0
ARC
  5
262
100
AcDbEntity
  8
0
100
AcDbCircle
 62
7
  6
BYLAYER
 10
16.8140195289
 20
17.3870424328
 40
0.2
100
AcDbArc
 50
190.0
 51
270.0
  0
ARC
  5
263
100
AcDbEntity
  8
0
100
AcDbCircle
 62
7
  6
BYLAYER
 10
29.7497731907
 20
20.1870424328
 40
0.2
100
AcDbArc
 50
90.0
 51
170.0
  0
ARC
  5
264
100
AcDbEntity
  8
0
100
AcDbCircle
 62
7
  6
BYLAYER
 10
23.2421603511
 20
16.9870424328
 40
0.2
100
AcDbArc
 50
2.9999999861
 51
90.0
  0
ARC
  5
265
100
AcDbEntity
  8
0
100
AcDbCircle
 62
7
  6
BYLAYER
 10
26.6217461778
 20
16.9870424328
 40
0.2
100
AcDbArc
 50
90.0
 51
177.0000000139
  0
ARC
  5
266
100
AcDbEntity
  8
0
100
AcDbCircle
 62
7
  6
BYLAYER
 10
23.7265617364
 20
15.3870424328
 40
0.2
100
AcDbArc
 50
182.9999999861
 51
270.0
  0
ARC
  5
267
100
AcDbEntity
  8
0
100
AcDbCircle
 62
7
  6
BYLAYER
 10
8.7819532644
 20
20.5870424328
 40
0.2
100
AcDbArc
 50
180.0
 51
270.0
  0
ARC
  5
268
100
AcDbEntity
  8
0
100
AcDbCircle
 62
7
  6
BYLAYER
 10
26.1373447925
 20
15.3870424328
 40
0.2
100
AcDbArc
 50
270.0000000016
 51
357.0000000139
  0
ARC
  5
269
100
AcDbEntity
  8
0
100
AcDbCircle
 62
7
  6
BYLAYER
 10
36.8819532644
 20
20.5870424328
 40
0.2
100
AcDbArc
 50
270.0
 51
360.0
  0
ARC
  5
26A
100
AcDbEntity
  8
0
100
AcDbCircle
 62
7
  6
BYLAYER
 10
15.9141333382
 20
20.1870424328
 40
0.2
100
AcDbArc
 50
10.0
 51
90.0
  0
SPLINE
  5
26B
100
AcDbEntity
  8
0
100
AcDbSpline
 62
7
  6
BYLAYER
 70
0
 71
3
 72
45
 73
41
 74
0
 42
0.0000001
 43
0.0000001
 44
0.0000000001
 40
0.0
 40
0.0
 40
0.0
 40
0.0
 40
0.0077730921
 40
0.0116805227
 40
0.0155840714
 40
0.0194936445
 40
0.0234025282
 40
0.0312164513
 40
0.0390297344
 40
0.046843058
 40
0.0624686871
 40
0.0780948489
 40
0.0937210834
 40
0.1249726345
 40
0.1562249155
 40
0.1874774082
 40
0.2187300341
 40
0.2499827365
 40
0.3124875276
 40
0.374992599
 40
0.4374978431
 40
0.5000031519
 40
0.562508428
 40
0.6250136628
 40
0.6875187746
 40
0.7500235436
 40
0.7812762369
 40
0.8125288731
 40
0.8437813702
 40
0.875033638
 40
0.9062852315
 40
0.9375342862
 40
0.9531600978
 40
0.9609734775
 40
0.9687873183
 40
0.9765997971
 40
0.984416739
 40
0.9883190201
 40
0.9922265787
 40
1.0
 40
1.0
 40
1.0
 40
1.0
 10
24.0246393086
 20
59.2870424328
 30
0.0
 10
24.0246393086
 20
59.2933467412
 30
0.0
 10
24.0187263002
 20
59.3023773109
 30
0.0
 10
24.0089410657
 20
59.3101238282
 30
0.0
 10
24.0008289875
 20
59.3151744745
 30
0.0
 10
23.9924724601
 20
59.3196964795
 30
0.0
 10
23.9809556833
 20
59.3250243586
 30
0.0
 10
23.9661230532
 20
59.3306304321
 30
0.0
 10
23.9480661903
 20
59.3365888521
 30
0.0
 10
23.9236996434
 20
59.3435895422
 30
0.0
 10
23.8928868459
 20
59.3510220014
 30
0.0
 10
23.8556090135
 20
59.3585242928
 30
0.0
 10
23.8056675241
 20
59.3672474634
 30
0.0
 10
23.7429249913
 20
59.3762195032
 30
0.0
 10
23.6673792614
 20
59.3849268287
 30
0.0
 10
23.5916749697
 20
59.3921234829
 30
0.0
 10
23.5158632258
 20
59.3980649567
 30
0.0
 10
23.4146906258
 20
59.4047098351
 30
0.0
 10
23.2881005916
 20
59.4109590369
 30
0.0
 10
23.1360936004
 20
59.4159309412
 30
0.0
 10
22.9840312906
 20
59.4187008341
 30
0.0
 10
22.8319476613
 20
59.4196710202
 30
0.0
 10
22.6798628796
 20
59.4187680292
 30
0.0
 10
22.5278026541
 20
59.4158883996
 30
0.0
 10
22.3757946567
 20
59.4109605288
 30
0.0
 10
22.2492043705
 20
59.4047116452
 30
0.0
 10
22.1480315217
 20
59.398070019
 30
0.0
 10
22.0722218657
 20
59.3921007133
 30
0.0
 10
21.9965159818
 20
59.3849297971
 30
0.0
 10
21.9209672619
 20
59.3762230621
 30
0.0
 10
21.8456920586
 20
59.3654301289
 30
0.0
 10
21.783327661
 20
59.3539967894
 30
0.0
 10
21.7402155573
 20
59.3435135933
 30
0.0
 10
21.7157990998
 20
59.3366938571
 30
0.0
 10
21.6977028536
 20
59.3308463479
 30
0.0
 10
21.6799953493
 20
59.3238608923
 30
0.0
 10
21.6657886821
 20
59.3168378004
 30
0.0
 10
21.6549589001
 20
59.3101330114
 30
0.0
 10
21.645182839
 20
59.3023732768
 30
0.0
 10
21.6392672203
 20
59.2933470081
 30
0.0
 10
21.6392672203
 20
59.2870424328
 30
0.0
  0
SPLINE
  5
26C
100
AcDbEntity
  8
0
100
AcDbSpline
 62
7
  6
BYLAYER
 70
0
 71
3
 72
11
 73
7
 74
0
 42
0.0000001
 43
0.0000001
 44
0.0000000001
 40
0.0
 40
0.0
 40
0.0
 40
0.0
 40
0.2502929405
 40
0.5003528055
 40
0.7502281706
 40
1.0
 40
1.0
 40
1.0
 40
1.0
 10
22.2257354818
 20
41.1418030046
 30
0.0
 10
21.5301545675
 20
41.0397703571
 30
0.0
 10
20.1367093805
 20
40.8550257569
 30
0.0
 10
18.0393785275
 20
40.6464804396
 30
0.0
 10
15.9370923123
 20
40.5165146357
 30
0.0
 10
14.533509755
 20
40.4870423811
 30
0.0
 10
13.83194894
 20
40.4870424588
 30
0.0
  0
SPLINE
  5
26D
100
AcDbEntity
  8
0
100
AcDbSpline
 62
7
  6
BYLAYER
 70
0
 71
3
 72
11
 73
7
 74
0
 42
0.0000001
 43
0.0000001
 44
0.0000000001
 40
0.0
 40
0.0
 40
0.0
 40
0.0
 40
0.2497638439
 40
0.4996353364
 40
0.7496977987
 40
1.0
 40
1.0
 40
1.0
 40
1.0
 10
31.83194894
 20
40.4870424587
 30
0.0
 10
31.1158365107
 20
40.4870425028
 30
0.0
 10
29.683122304
 20
40.5177559127
 30
0.0
 10
27.537336227
 20
40.6530875503
 30
0.0
 10
25.3967956267
 20
40.8699142579
 30
0.0
 10
23.9747840723
 20
41.0616371381
 30
0.0
 10
23.2649659663
 20
41.1674122263
 30
0.0
  0
SPLINE
  5
26E
100
AcDbEntity
  8
0
100
AcDbSpline
 62
7
  6
BYLAYER
 70
0
 71
3
 72
11
 73
7
 74
0
 42
0.0000001
 43
0.0000001
 44
0.0000000001
 40
0.0
 40
0.0
 40
0.0
 40
0.0
 40
0.249771832
 40
0.4996471994
 40
0.7497070643
 40
1.0
 40
1.0
 40
1.0
 40
1.0
 10
13.83194894
 20
40.4870424588
 30
0.0
 10
13.1303888348
 20
40.4870425015
 30
0.0
 10
11.7268076672
 20
40.5165132873
 30
0.0
 10
9.6245236476
 20
40.6464806436
 30
0.0
 10
7.5271951237
 20
40.8550271373
 30
0.0
 10
6.1337512361
 20
41.0397704787
 30
0.0
 10
5.4381710471
 20
41.1418030231
 30
0.0
  0
SPLINE
  5
26F
100
AcDbEntity
  8
0
100
AcDbSpline
 62
7
  6
BYLAYER
 70
0
 71
3
 72
11
 73
7
 74
0
 42
0.0000001
 43
0.0000001
 44
0.0000000001
 40
0.0
 40
0.0
 40
0.0
 40
0.0
 40
0.250292937
 40
0.5003528029
 40
0.7502281695
 40
1.0
 40
1.0
 40
1.0
 40
1.0
 10
5.4381710471
 20
44.8322818424
 30
0.0
 10
6.1337512397
 20
44.9343143873
 30
0.0
 10
7.5271951324
 20
45.11905774
 30
0.0
 10
9.6245236624
 20
45.3276042201
 30
0.0
 10
11.7268076782
 20
45.4575715756
 30
0.0
 10
13.1303888393
 20
45.487042364
 30
0.0
 10
13.83194894
 20
45.4870424068
 30
0.0
  0
SPLINE
  5
270
100
AcDbEntity
  8
0
100
AcDbSpline
 62
7
  6
BYLAYER
 70
0
 71
3
 72
11
 73
7
 74
0
 42
0.0000001
 43
0.0000001
 44
0.0000000001
 40
0.0
 40
0.0
 40
0.0
 40
0.0
 40
0.2503022065
 40
0.5003646691
 40
0.7502361591
 40
1.0
 40
1.0
 40
1.0
 40
1.0
 10
40.3989405625
 20
41.1674122193
 30
0.0
 10
39.6891217302
 20
41.0616370241
 30
0.0
 10
38.2671088817
 20
40.8699128505
 30
0.0
 10
36.12656595
 20
40.6530872774
 30
0.0
 10
33.9807776706
 20
40.5177572983
 30
0.0
 10
32.5480620782
 20
40.4870423798
 30
0.0
 10
31.83194894
 20
40.4870424587
 30
0.0
  0
SPLINE
  5
271
100
AcDbEntity
  8
0
100
AcDbSpline
 62
7
  6
BYLAYER
 70
0
 71
3
 72
11
 73
7
 74
0
 42
0.0000001
 43
0.0000001
 44
0.0000000001
 40
0.0
 40
0.0
 40
0.0
 40
0.0
 40
0.2497638427
 40
0.4996353335
 40
0.749697795
 40
1.0
 40
1.0
 40
1.0
 40
1.0
 10
31.83194894
 20
45.4870424068
 30
0.0
 10
32.5480620835
 20
45.4870424857
 30
0.0
 10
33.9807776836
 20
45.4563275711
 30
0.0
 10
36.1265659673
 20
45.3209975895
 30
0.0
 10
38.267108892
 20
45.104172001
 30
0.0
 10
39.6891217345
 20
44.9124478408
 30
0.0
 10
40.3989405625
 20
44.8066726463
 30
0.0
  0
SPLINE
  5
272
100
AcDbEntity
  8
0
100
AcDbSpline
 62
7
  6
BYLAYER
 70
0
 71
3
 72
11
 73
7
 74
0
 42
0.0000001
 43
0.0000001
 44
0.0000000001
 40
0.0
 40
0.0
 40
0.0
 40
0.0
 40
0.2503022028
 40
0.5003646663
 40
0.7502361579
 40
1.0
 40
1.0
 40
1.0
 40
1.0
 10
23.2649659663
 20
44.8066726393
 30
0.0
 10
23.9747840765
 20
44.9124477281
 30
0.0
 10
25.3967956368
 20
45.1041706218
 30
0.0
 10
27.5373362442
 20
45.3209973134
 30
0.0
 10
29.6831223168
 20
45.4563289494
 30
0.0
 10
31.1158365159
 20
45.4870423628
 30
0.0
 10
31.83194894
 20
45.4870424068
 30
0.0
  0
SPLINE
  5
273
100
AcDbEntity
  8
0
100
AcDbSpline
 62
7
  6
BYLAYER
 70
0
 71
3
 72
11
 73
7
 74
0
 42
0.0000001
 43
0.0000001
 44
0.0000000001
 40
0.0
 40
0.0
 40
0.0
 40
0.0
 40
0.249771831
 40
0.4996471968
 40
0.7497070608
 40
1.0
 40
1.0
 40
1.0
 40
1.0
 10
13.83194894
 20
45.4870424068
 30
0.0
 10
14.5335097596
 20
45.4870424844
 30
0.0
 10
15.9370923234
 20
45.457570233
 30
0.0
 10
18.0393785425
 20
45.3276044273
 30
0.0
 10
20.1367093894
 20
45.119059097
 30
0.0
 10
21.5301545712
 20
44.9343145079
 30
0.0
 10
22.2257354818
 20
44.8322818609
 30
0.0
  0
SPLINE
  5
274
100
AcDbEntity
  8
0
100
AcDbSpline
 62
7
  6
BYLAYER
 70
0
 71
3
 72
11
 73
7
 74
0
 42
0.0000001
 43
0.0000001
 44
0.0000000001
 40
0.0
 40
0.0
 40
0.0
 40
0.0
 40
0.2503022065
 40
0.5003646691
 40
0.7502361591
 40
1.0
 40
1.0
 40
1.0
 40
1.0
 10
40.3989405625
 20
50.1674122192
 30
0.0
 10
39.6891217302
 20
50.0616370241
 30
0.0
 10
38.2671088817
 20
49.8699128505
 30
0.0
 10
36.12656595
 20
49.6530872774
 30
0.0
 10
33.9807776706
 20
49.5177572983
 30
0.0
 10
32.5480620782
 20
49.4870423798
 30
0.0
 10
31.83194894
 20
49.4870424587
 30
0.0
  0
SPLINE
  5
275
100
AcDbEntity
  8
0
100
AcDbSpline
 62
7
  6
BYLAYER
 70
0
 71
3
 72
11
 73
7
 74
0
 42
0.0000001
 43
0.0000001
 44
0.0000000001
 40
0.0
 40
0.0
 40
0.0
 40
0.0
 40
0.2497638427
 40
0.4996353335
 40
0.749697795
 40
1.0
 40
1.0
 40
1.0
 40
1.0
 10
31.83194894
 20
54.4870424068
 30
0.0
 10
32.5480620835
 20
54.4870424857
 30
0.0
 10
33.9807776835
 20
54.4563275711
 30
0.0
 10
36.1265659673
 20
54.3209975895
 30
0.0
 10
38.2671088919
 20
54.104172001
 30
0.0
 10
39.6891217345
 20
53.9124478408
 30
0.0
 10
40.3989405625
 20
53.8066726463
 30
0.0
  0
SPLINE
  5
276
100
AcDbEntity
  8
0
100
AcDbSpline
 62
7
  6
BYLAYER
 70
0
 71
3
 72
11
 73
7
 74
0
 42
0.0000001
 43
0.0000001
 44
0.0000000001
 40
0.0
 40
0.0
 40
0.0
 40
0.0
 40
0.2497638439
 40
0.4996353364
 40
0.7496977987
 40
1.0
 40
1.0
 40
1.0
 40
1.0
 10
31.83194894
 20
49.4870424587
 30
0.0
 10
31.1158365107
 20
49.4870425027
 30
0.0
 10
29.683122304
 20
49.5177559127
 30
0.0
 10
27.537336227
 20
49.6530875503
 30
0.0
 10
25.3967956267
 20
49.8699142579
 30
0.0
 10
23.9747840723
 20
50.0616371381
 30
0.0
 10
23.2649659663
 20
50.1674122263
 30
0.0
  0
SPLINE
  5
277
100
AcDbEntity
  8
0
100
AcDbSpline
 62
7
  6
BYLAYER
 70
0
 71
3
 72
11
 73
7
 74
0
 42
0.0000001
 43
0.0000001
 44
0.0000000001
 40
0.0
 40
0.0
 40
0.0
 40
0.0
 40
0.2502929405
 40
0.5003528055
 40
0.7502281706
 40
1.0
 40
1.0
 40
1.0
 40
1.0
 10
22.2257354818
 20
50.1418030046
 30
0.0
 10
21.5301545675
 20
50.0397703571
 30
0.0
 10
20.1367093805
 20
49.8550257569
 30
0.0
 10
18.0393785275
 20
49.6464804396
 30
0.0
 10
15.9370923123
 20
49.5165146357
 30
0.0
 10
14.533509755
 20
49.4870423811
 30
0.0
 10
13.83194894
 20
49.4870424588
 30
0.0
  0
SPLINE
  5
278
100
AcDbEntity
  8
0
100
AcDbSpline
 62
7
  6
BYLAYER
 70
0
 71
3
 72
11
 73
7
 74
0
 42
0.0000001
 43
0.0000001
 44
0.0000000001
 40
0.0
 40
0.0
 40
0.0
 40
0.0
 40
0.249771832
 40
0.4996471994
 40
0.7497070643
 40
1.0
 40
1.0
 40
1.0
 40
1.0
 10
13.83194894
 20
49.4870424588
 30
0.0
 10
13.1303888349
 20
49.4870425015
 30
0.0
 10
11.7268076672
 20
49.5165132873
 30
0.0
 10
9.6245236476
 20
49.6464806436
 30
0.0
 10
7.5271951237
 20
49.8550271373
 30
0.0
 10
6.1337512361
 20
50.0397704787
 30
0.0
 10
5.4381710471
 20
50.1418030231
 30
0.0
  0
SPLINE
  5
279
100
AcDbEntity
  8
0
100
AcDbSpline
 62
7
  6
BYLAYER
 70
0
 71
3
 72
11
 73
7
 74
0
 42
0.0000001
 43
0.0000001
 44
0.0000000001
 40
0.0
 40
0.0
 40
0.0
 40
0.0
 40
0.250292937
 40
0.5003528029
 40
0.7502281695
 40
1.0
 40
1.0
 40
1.0
 40
1.0
 10
5.4381710471
 20
53.8322818424
 30
0.0
 10
6.1337512397
 20
53.9343143873
 30
0.0
 10
7.5271951324
 20
54.11905774
 30
0.0
 10
9.6245236624
 20
54.3276042202
 30
0.0
 10
11.7268076782
 20
54.4575715756
 30
0.0
 10
13.1303888393
 20
54.487042364
 30
0.0
 10
13.83194894
 20
54.4870424068
 30
0.0
  0
SPLINE
  5
27A
100
AcDbEntity
  8
0
100
AcDbSpline
 62
7
  6
BYLAYER
 70
0
 71
3
 72
11
 73
7
 74
0
 42
0.0000001
 43
0.0000001
 44
0.0000000001
 40
0.0
 40
0.0
 40
0.0
 40
0.0
 40
0.249771831
 40
0.4996471968
 40
0.7497070608
 40
1.0
 40
1.0
 40
1.0
 40
1.0
 10
13.83194894
 20
54.4870424068
 30
0.0
 10
14.5335097595
 20
54.4870424845
 30
0.0
 10
15.9370923234
 20
54.457570233
 30
0.0
 10
18.0393785424
 20
54.3276044273
 30
0.0
 10
20.1367093894
 20
54.119059097
 30
0.0
 10
21.5301545712
 20
53.9343145079
 30
0.0
 10
22.2257354818
 20
53.832281861
 30
0.0
  0
SPLINE
  5
27B
100
AcDbEntity
  8
0
100
AcDbSpline
 62
7
  6
BYLAYER
 70
0
 71
3
 72
11
 73
7
 74
0
 42
0.0000001
 43
0.0000001
 44
0.0000000001
 40
0.0
 40
0.0
 40
0.0
 40
0.0
 40
0.2503022028
 40
0.5003646663
 40
0.7502361579
 40
1.0
 40
1.0
 40
1.0
 40
1.0
 10
23.2649659663
 20
53.8066726393
 30
0.0
 10
23.9747840765
 20
53.9124477281
 30
0.0
 10
25.3967956368
 20
54.1041706218
 30
0.0
 10
27.5373362442
 20
54.3209973134
 30
0.0
 10
29.6831223168
 20
54.4563289494
 30
0.0
 10
31.1158365159
 20
54.4870423628
 30
0.0
 10
31.83194894
 20
54.4870424068
 30
0.0
  0
ENDSEC
  0
SECTION
  2
OBJECTS
  0
DICTIONARY
  5
C
100
AcDbDictionary
280
0
281
1
  3
ACAD_GROUP
350
D
  3
ACAD_MLINESTYLE
350
17
  3
ACAD_LAYOUT
350
1A
  3
ACAD_PLOTSETTINGS
350
19
  3
ACAD_PLOTSTYLENAME
350
E
  0
DICTIONARY
  5
D
102
{ACAD_REACTORS
330
C
102
}
100
AcDbDictionary
280
0
281
1
  0
ACDBDICTIONARYWDFLT
  5
E
102
{ACAD_REACTORS
330
C
102
}
100
AcDbDictionary
281
1
  3
Normal
350
F
100
AcDbDictionaryWithDefault
340
F
  0
DICTIONARY
  5
17
102
{ACAD_REACTORS
330
C
102
}
100
AcDbDictionary
280
0
281
1
  3
Standard
350
18
  0
DICTIONARY
  5
19
102
{ACAD_REACTORS
330
C
102
}
100
AcDbDictionary
281
1
  0
DICTIONARY
  5
1A
102
{ACAD_REACTORS
330
C
102
}
100
AcDbDictionary
281
1
  3
Model
350
27C
  3
Layout1
350
27D
  0
ACDBPLACEHOLDER
  5
F
102
{ACAD_REACTORS
330
E
102
}
  0
MLINESTYLE
  5
18
102
{ACAD_REACTORS
330
17
102
}
100
AcDbMlineStyle
  2
STANDARD
 70
0
  3

 62
256
 51
90.0
 52
90.0
 71
2
 49
0.5
 62
256
  6
BYLAYER
 49
-0.5
 62
256
  6
BYLAYER
  0
LAYOUT
  5
27C
102
{ACAD_REACTORS
330
1A
102
}
100
AcDbPlotSettings
  1

  2
none_device
  4

  6

 40
0.0
 41
0.0
 42
0.0
 43
0.0
 44
210.0
 45
297.0
 46
0.0
 47
0.0
 48
0.0
 49
0.0
140
0.0
141
0.0
142
1.0
143
1.0
 70
1024
 72
1
 73
0
 74
0
  7

 75
0
147
1.0
148
0.0
149
0.0
100
AcDbLayout
  1
Model
 70
0
 71
0
 10
0.0
 20
0.0
 11
210.0
 21
297.0
 12
0.0
 22
0.0
 32
0.0
 14
0.0
 24
0.0
 34
0.0
 15
0.0
 25
0.0
 35
0.0
146
0.0
 13
0.0
 23
0.0
 33
0.0
 16
1.0
 26
0.0
 36
0.0
 17
0.0
 27
1.0
 37
0.0
 76
0
330
210
345
0
346
0
  0
LAYOUT
  5
27D
102
{ACAD_REACTORS
330
1A
102
}
100
AcDbPlotSettings
  1

  2
none_device
  4

  6

 40
0.0
 41
0.0
 42
0.0
 43
0.0
 44
210.0
 45
297.0
 46
0.0
 47
0.0
 48
0.0
 49
0.0
140
0.0
141
0.0
142
1.0
143
1.0
 70
0
 72
1
 73
0
 74
0
  7

 75
0
147
1.0
148
0.0
149
0.0
100
AcDbLayout
  1
Layout1
 70
0
 71
1
 10
0.0
 20
0.0
 11
210.0
 21
297.0
 12
0.0
 22
0.0
 32
0.0
 14
0.0
 24
0.0
 34
0.0
 15
0.0
 25
0.0
 35
0.0
146
0.0
 13
0.0
 23
0.0
 33
0.0
 16
1.0
 26
0.0
 36
0.0
 17
0.0
 27
1.0
 37
0.0
 76
0
330
211
345
0
346
0
  0
ENDSEC
  0
EOF
