999
DXF file: C:\Users\sesa63760\Dev\_Creo\CAD\MCADID0004615_3D-CAD\drw0001_2.dxf
999
Pro/ENGINEER 2019471 by Parametric Technology Corporation
  0
SECTION
  2
HEADER
  9
$ACADVER
  1
AC1024
  9
$DWGCODEPAGE
  3
ANSI_1252
  9
$EXTMAX
 10
183.3255427854
 20
259.274696225
 30
0.0
  9
$EXTMIN
 10
0.0
 20
0.0
 30
0.0
  9
$LIMMIN
 10
0.0
 20
0.0
  9
$LIMMAX
 10
183.3255427854
 20
259.274696225
  9
$VIEWCTR
 10
91.6627713927
 20
129.6373481125
  9
$VIEWSIZE
 40
259.274696225
  9
$CLAYER
  8
0
  9
$LTSCALE
 40
16.9008690873
  9
$CELTYPE
  6
BYLAYER
  9
$DIMSCALE
 40
1.0
  9
$DIMASZ
 40
2.1824469379
  9
$DIMEXO
 40
1.0
  9
$DIMDLI
 40
11.6769640967
  9
$DIMEXE
 40
1.0
  9
$DIMCEN
 40
2.7655967597
  9
$DIMLFAC
 40
1.0
  9
$DIMBLK
  1
_FILLED
  9
$DIMALT
 70
0
  9
$DIMALTF
 40
0.0393700787
  9
$DIMTXT
 40
3.0554257131
  9
$DIMTOL
 70
1
  9
$DIMLIM
 70
0
  9
$DIMTFAC
 40
1.0
  9
$DIMTP
 40
0.01
  9
$DIMTM
 40
0.01
  9
$DIMGAP
 40
0.625
  9
$DIMDSEP
 70
46
  9
$AUNITS
 70
0
  9
$PDMODE
 70
3
  9
$PDSIZE
 40
0.3125
  9
$HANDSEED
  5
454
  9
$TILEMODE
 70
1
  9
$MEASUREMENT
 70
1
  9
$INSUNITS
 70
4
  0
ENDSEC
  0
SECTION
  2
CLASSES
  0
CLASS
  1
ACDBDICTIONARYWDFLT
  2
AcDbDictionaryWithDefault
  3
AutoCAD 2000
 90
0
 91
1
280
0
281
0
  0
CLASS
  1
ACDBPLACEHOLDER
  2
AcDbPlaceHolder
  3
AutoCAD 2000
 90
0
 91
1
280
0
281
0
  0
CLASS
  1
LAYOUT
  2
AcDbLayout
  3
AutoCAD 2000
 90
0
 91
0
280
0
281
0
  0
ENDSEC
  0
SECTION
  2
TABLES
  0
TABLE
  2
VPORT
  5
8
100
AcDbSymbolTable
 70
2
  0
VPORT
  5
1F4
100
AcDbSymbolTableRecord
100
AcDbViewportTableRecord
  2
*ACTIVE
 70
0
 10
0.0
 20
0.0
 11
1.0
 21
1.0
 12
91.6627713927
 22
129.6373481125
 13
0.0
 23
0.0
 14
1.0
 24
1.0
 15
0.0
 25
0.0
 16
0.0
 26
0.0
 36
1.0
 17
0.0
 27
0.0
 37
0.0
 40
259.274696225
 41
0.7070707071
 42
50.0
 43
0.0
 44
0.0
 50
0.0
 51
0.0
 71
0
 72
100
 73
1
 74
1
 75
0
 76
0
 77
0
 78
0
  0
ENDTAB
  0
TABLE
  2
LTYPE
  5
5
100
AcDbSymbolTable
 70
6
  0
LTYPE
  5
14
100
AcDbSymbolTableRecord
100
AcDbLinetypeTableRecord
  2
BYBLOCK
 70
0
  3

 72
65
 73
0
 40
0.0
  0
LTYPE
  5
15
100
AcDbSymbolTableRecord
100
AcDbLinetypeTableRecord
  2
BYLAYER
 70
0
  3

 72
65
 73
0
 40
0.0
  0
LTYPE
  5
16
100
AcDbSymbolTableRecord
100
AcDbLinetypeTableRecord
  2
CONTINUOUS
 70
64
  3
Solid line
 72
65
 73
0
 40
0.0
  0
LTYPE
  5
1F5
100
AcDbSymbolTableRecord
100
AcDbLinetypeTableRecord
  2
CENTER
 70
64
  3
____ _ ____ _ ____ _ ____ _ ____ _ ____ _ ____
 72
65
 73
4
 40
0.6
 49
0.375
 74
0
 49
-0.075
 74
0
 49
0.075
 74
0
 49
-0.075
 74
0
  0
LTYPE
  5
1F6
100
AcDbSymbolTableRecord
100
AcDbLinetypeTableRecord
  2
HIDDEN
 70
64
  3
- - - - - - - - - - - - - - - - - - - -
 72
65
 73
2
 40
0.2
 49
0.1
 74
0
 49
-0.1
 74
0
  0
LTYPE
  5
1F7
100
AcDbSymbolTableRecord
100
AcDbLinetypeTableRecord
  2
PHANTOM
 70
64
  3
_____ _ _ _____ _ _ _____ _ _ _____
 72
65
 73
6
 40
0.8
 49
0.45
 74
0
 49
-0.05
 74
0
 49
0.1
 74
0
 49
-0.05
 74
0
 49
0.1
 74
0
 49
-0.05
 74
0
  0
LTYPE
  5
1F8
100
AcDbSymbolTableRecord
100
AcDbLinetypeTableRecord
  2
DOT
 70
64
  3
. . . . . . . . . . . . . . . . . . . .
 72
65
 73
2
 40
0.2
 49
0.1
 74
0
 49
-0.1
 74
0
  0
LTYPE
  5
1F9
100
AcDbSymbolTableRecord
100
AcDbLinetypeTableRecord
  2
DASHED
 70
64
  3
- - - - - - - - - - - - - - - - - - - -
 72
65
 73
2
 40
0.2
 49
0.1
 74
0
 49
-0.1
 74
0
  0
ENDTAB
  0
TABLE
  2
LAYER
  5
2
100
AcDbSymbolTable
 70
36
  0
LAYER
  5
10
100
AcDbSymbolTableRecord
100
AcDbLayerTableRecord
  2
0
 70
0
 62
7
  6
CONTINUOUS
370
-3
390
F
  0
LAYER
  5
1FA
100
AcDbSymbolTableRecord
100
AcDbLayerTableRecord
  2
DEFAULT_1
 70
0
 62
7
  6
CENTER
370
-3
390
F
  0
LAYER
  5
1FB
100
AcDbSymbolTableRecord
100
AcDbLayerTableRecord
  2
DEFAULT_2
 70
0
 62
7
  6
HIDDEN
370
-3
390
F
  0
LAYER
  5
1FC
100
AcDbSymbolTableRecord
100
AcDbLayerTableRecord
  2
DEFAULT_3
 70
0
 62
7
  6
PHANTOM
370
-3
390
F
  0
LAYER
  5
1FD
100
AcDbSymbolTableRecord
100
AcDbLayerTableRecord
  2
00_COMPONENTS
 70
0
 62
7
  6
CONTINUOUS
370
-3
390
F
  0
LAYER
  5
1FE
100
AcDbSymbolTableRecord
100
AcDbLayerTableRecord
  2
01_1_DEFAULT_DATUMS
 70
0
 62
7
  6
CONTINUOUS
370
-3
390
F
  0
LAYER
  5
1FF
100
AcDbSymbolTableRecord
100
AcDbLayerTableRecord
  2
01_PLANES
 70
0
 62
7
  6
CONTINUOUS
370
-3
390
F
  0
LAYER
  5
200
100
AcDbSymbolTableRecord
100
AcDbLayerTableRecord
  2
02_COORD_SYS
 70
0
 62
7
  6
CONTINUOUS
370
-3
390
F
  0
LAYER
  5
201
100
AcDbSymbolTableRecord
100
AcDbLayerTableRecord
  2
03_AXES
 70
0
 62
7
  6
CONTINUOUS
370
-3
390
F
  0
LAYER
  5
202
100
AcDbSymbolTableRecord
100
AcDbLayerTableRecord
  2
04_POINTS
 70
0
 62
7
  6
CONTINUOUS
370
-3
390
F
  0
LAYER
  5
203
100
AcDbSymbolTableRecord
100
AcDbLayerTableRecord
  2
05_CURVES
 70
0
 62
7
  6
CONTINUOUS
370
-3
390
F
  0
LAYER
  5
204
100
AcDbSymbolTableRecord
100
AcDbLayerTableRecord
  2
06_SURFS
 70
0
 62
7
  6
CONTINUOUS
370
-3
390
F
  0
LAYER
  5
205
100
AcDbSymbolTableRecord
100
AcDbLayerTableRecord
  2
07_COSMETICS
 70
0
 62
7
  6
CONTINUOUS
370
-3
390
F
  0
LAYER
  5
206
100
AcDbSymbolTableRecord
100
AcDbLayerTableRecord
  2
10_NOTES
 70
0
 62
7
  6
CONTINUOUS
370
-3
390
F
  0
LAYER
  5
207
100
AcDbSymbolTableRecord
100
AcDbLayerTableRecord
  2
11_NOTES_PUB
 70
0
 62
7
  6
CONTINUOUS
370
-3
390
F
  0
LAYER
  5
208
100
AcDbSymbolTableRecord
100
AcDbLayerTableRecord
  2
13_REF_GTOL
 70
0
 62
7
  6
CONTINUOUS
370
-3
390
F
  0
LAYER
  5
209
100
AcDbSymbolTableRecord
100
AcDbLayerTableRecord
  2
16_MISC
 70
0
 62
7
  6
CONTINUOUS
370
-3
390
F
  0
LAYER
  5
20A
100
AcDbSymbolTableRecord
100
AcDbLayerTableRecord
  2
17_NO_PRINT
 70
0
 62
7
  6
CONTINUOUS
370
-3
390
F
  0
LAYER
  5
20B
100
AcDbSymbolTableRecord
100
AcDbLayerTableRecord
  2
18_DATUM_CAMS_JOINTS
 70
0
 62
7
  6
CONTINUOUS
370
-3
390
F
  0
LAYER
  5
20C
100
AcDbSymbolTableRecord
100
AcDbLayerTableRecord
  2
19_DATUM_FUNCTIONAL
 70
0
 62
7
  6
CONTINUOUS
370
-3
390
F
  0
LAYER
  5
20D
100
AcDbSymbolTableRecord
100
AcDbLayerTableRecord
  2
20_DATUM_KINEMATIC_SCHEME
 70
0
 62
7
  6
CONTINUOUS
370
-3
390
F
  0
ENDTAB
  0
TABLE
  2
STYLE
  5
3
100
AcDbSymbolTable
 70
1
  0
STYLE
  5
11
100
AcDbSymbolTableRecord
100
AcDbTextStyleTableRecord
  2
STANDARD
 70
0
 40
0.0
 41
1.0
 50
0.0
 71
0
 42
0.2
  3
ARIAL.TTF
  4

  0
STYLE
  5
20E
100
AcDbSymbolTableRecord
100
AcDbTextStyleTableRecord
  2
TEXTSTYLE_1
 70
0
 40
0.0
 41
0.8
 50
0.0
 71
0
 42
0.2
  3
gdt
  4

  0
ENDTAB
  0
TABLE
  2
VIEW
  5
6
100
AcDbSymbolTable
 70
0
  0
ENDTAB
  0
TABLE
  2
UCS
  5
7
100
AcDbSymbolTable
 70
0
  0
ENDTAB
  0
TABLE
  2
APPID
  5
9
100
AcDbSymbolTable
 70
1
  0
APPID
  5
20F
100
AcDbSymbolTableRecord
100
AcDbRegAppTableRecord
  2
ACAD
 70
0
  0
ENDTAB
  0
TABLE
  2
BLOCK_RECORD
  5
1
100
AcDbSymbolTable
 70
0
  0
BLOCK_RECORD
  5
210
100
AcDbSymbolTableRecord
100
AcDbBlockTableRecord
  2
*Model_Space
  0
BLOCK_RECORD
  5
211
100
AcDbSymbolTableRecord
100
AcDbBlockTableRecord
  2
*Paper_Space
  0
BLOCK_RECORD
  5
212
100
AcDbSymbolTableRecord
100
AcDbBlockTableRecord
  2
_FILLED
  0
ENDTAB
  0
TABLE
  2
DIMSTYLE
  5
A
100
AcDbSymbolTable
 70
1
100
AcDbDimStyleTable
 71
0
  0
DIMSTYLE
105
213
100
AcDbSymbolTableRecord
100
AcDbDimStyleTableRecord
  2
STANDARD
 70
0
  3

  4

 40
1.0
 41
2.1824469379
 42
1.0
 43
0.38
 44
1.0
 45
0.0
 46
0.0
 47
0.01
 48
0.01
140
3.0554257131
141
0.09
142
0.0
143
25.4
144
1.0
145
0.0
146
1.0
147
0.625
 71
1
 72
0
 73
0
 74
0
 75
0
 76
0
 77
1
 78
8
 79
2
170
0
171
1
172
0
173
0
174
0
175
0
176
0
177
0
178
0
270
2
179
2
271
2
272
2
273
2
274
2
275
0
280
0
281
0
282
0
283
1
284
8
285
0
286
0
287
3
288
0
340
11
278
46
341
212
342
212
343
212
344
212
  0
ENDTAB
  0
ENDSEC
  0
SECTION
  2
BLOCKS
  0
BLOCK
  5
20
100
AcDbEntity
  8
0
100
AcDbBlockBegin
  2
*Model_Space
 70
0
 10
0.0
 20
0.0
 30
0.0
  3
*Model_Space
  1

  0
ENDBLK
  5
21
100
AcDbEntity
  8
0
100
AcDbBlockEnd
  0
BLOCK
  5
1C
100
AcDbEntity
  8
0
100
AcDbBlockBegin
  2
*Paper_Space
 70
0
 10
0.0
 20
0.0
 30
0.0
  3
*Paper_Space
  1

  0
ENDBLK
  5
1D
100
AcDbEntity
  8
0
100
AcDbBlockEnd
  0
BLOCK
  5
214
100
AcDbEntity
  8
0
100
AcDbBlockBegin
  2
_FILLED
 70
64
 10
0.0
 20
0.0
  3
_FILLED
  1

  0
SOLID
  5
215
100
AcDbEntity
  8
0
  6
BYBLOCK
 62
0
100
AcDbTrace
 10
0.0
 20
0.0
 11
-1.0
 21
0.25
 12
-1.0
 22
-0.25
 13
-1.0
 23
-0.25
  0
ENDBLK
  5
216
100
AcDbEntity
  8
0
  6
BYBLOCK
 62
0
100
AcDbBlockEnd
  0
ENDSEC
  0
SECTION
  2
ENTITIES
  0
LINE
  5
217
100
AcDbEntity
  8
0
100
AcDbLine
 62
7
  6
BYLAYER
 10
104.9121580364
 20
31.8155777437
 11
101.7121580364
 21
31.8155777437
  0
LINE
  5
218
100
AcDbEntity
  8
0
100
AcDbLine
 62
7
  6
BYLAYER
 10
86.0587525754
 20
31.8155777437
 11
86.5273255061
 21
31.8155777437
  0
LINE
  5
219
100
AcDbEntity
  8
0
100
AcDbLine
 62
7
  6
BYLAYER
 10
86.137322361
 20
208.4822767269
 11
85.6226872915
 21
208.3142803786
  0
LINE
  5
21A
100
AcDbEntity
  8
0
100
AcDbLine
 62
7
  6
BYLAYER
 10
101.7122142557
 20
50.3155777437
 11
104.9062165323
 21
50.3155777437
  0
LINE
  5
21B
100
AcDbEntity
  8
0
100
AcDbLine
 62
7
  6
BYLAYER
 10
87.3007010535
 20
209.9583140841
 11
87.3011250153
 21
209.9585752727
  0
LINE
  5
21C
100
AcDbEntity
  8
0
100
AcDbLine
 62
7
  6
BYLAYER
 10
104.9120957502
 20
66.8155777437
 11
101.7122203225
 21
66.8155777437
  0
LINE
  5
21D
100
AcDbEntity
  8
0
100
AcDbLine
 62
7
  6
BYLAYER
 10
101.7122142557
 20
68.8155777437
 11
104.9062165323
 21
68.8155777437
  0
LINE
  5
21E
100
AcDbEntity
  8
0
100
AcDbLine
 62
7
  6
BYLAYER
 10
104.9120957502
 20
80.3155777437
 11
101.7122203225
 21
80.3155777437
  0
LWPOLYLINE
  5
21F
100
AcDbEntity
  8
0
100
AcDbPolyline
 62
7
  6
BYLAYER
 90
3
 70
0
 10
86.4804725872
 20
173.6968372797
 10
85.8061260798
 20
173.0325244219
 10
85.6252076825
 20
172.3136845783
  0
LINE
  5
220
100
AcDbEntity
  8
0
100
AcDbLine
 62
7
  6
BYLAYER
 10
101.7122142557
 20
105.3155777437
 11
104.9062165323
 21
105.3155777437
  0
LINE
  5
221
100
AcDbEntity
  8
0
100
AcDbLine
 62
7
  6
BYLAYER
 10
100.5695173492
 20
110.8155777437
 11
97.5695173492
 21
110.8155777437
  0
LINE
  5
222
100
AcDbEntity
  8
0
100
AcDbLine
 62
7
  6
BYLAYER
 10
97.5695173492
 20
112.8155777437
 11
100.5695024332
 21
112.8155777437
  0
LWPOLYLINE
  5
223
100
AcDbEntity
  8
0
100
AcDbPolyline
 62
7
  6
BYLAYER
 90
4
 70
0
 10
85.6237856961
 20
130.3175640933
 10
85.6348067458
 20
130.1378614947
 10
86.1059352327
 20
129.2001097516
 10
86.7773892227
 20
128.8161528095
  0
LWPOLYLINE
  5
224
100
AcDbEntity
  8
0
100
AcDbPolyline
 62
7
  6
BYLAYER
 90
4
 70
0
 10
85.6277359291
 20
127.3151980342
 10
85.6380649758
 20
127.1411691256
 10
86.105261099
 20
126.2017138978
 10
86.7757863925
 20
125.8127895283
  0
LWPOLYLINE
  5
225
100
AcDbEntity
  8
0
100
AcDbPolyline
 62
7
  6
BYLAYER
 90
4
 70
0
 10
85.6209293323
 20
124.3144279704
 10
85.6310230507
 20
124.1425475766
 10
86.1049991098
 20
123.1958249042
 10
86.7634688469
 20
122.8160270605
  0
LWPOLYLINE
  5
226
100
AcDbEntity
  8
0
100
AcDbPolyline
 62
7
  6
BYLAYER
 90
5
 70
0
 10
85.6284767983
 20
142.3162696239
 10
85.6356307367
 20
142.1715318864
 10
86.0464718444
 20
141.2631520532
 10
86.7112705017
 20
140.8305347202
 10
86.7620742926
 20
140.8144459186
  0
LINE
  5
227
100
AcDbEntity
  8
0
100
AcDbLine
 62
7
  6
BYLAYER
 10
82.3599500286
 20
105.2945168133
 11
82.6890555784
 21
80.2945168133
  0
LINE
  5
228
100
AcDbEntity
  8
0
100
AcDbLine
 62
7
  6
BYLAYER
 10
82.8404441312
 20
68.7945168133
 11
82.8667725752
 21
66.7945168133
  0
LINE
  5
229
100
AcDbEntity
  8
0
100
AcDbLine
 62
7
  6
BYLAYER
 10
83.0839822381
 20
50.2945168133
 11
83.3273846184
 21
31.8048270676
  0
LINE
  5
22A
100
AcDbEntity
  8
0
100
AcDbLine
 62
7
  6
BYLAYER
 10
80.952637947
 20
219.7958331215
 11
82.4599413649
 21
105.2958331215
  0
LINE
  5
22B
100
AcDbEntity
  8
0
100
AcDbLine
 62
7
  6
BYLAYER
 10
82.7890469146
 20
80.2958331215
 11
82.9404354675
 21
68.7958331215
  0
LINE
  5
22C
100
AcDbEntity
  8
0
100
AcDbLine
 62
7
  6
BYLAYER
 10
82.9667639115
 20
66.7958331215
 11
83.1839735743
 21
50.2958331215
  0
LINE
  5
22D
100
AcDbEntity
  8
0
100
AcDbLine
 62
7
  6
BYLAYER
 10
83.9523172196
 20
219.8399421654
 11
85.4596814536
 21
105.3353223659
  0
LINE
  5
22E
100
AcDbEntity
  8
0
100
AcDbLine
 62
7
  6
BYLAYER
 10
85.7887870033
 20
80.3353223659
 11
85.9401755562
 21
68.8353223659
  0
LINE
  5
22F
100
AcDbEntity
  8
0
100
AcDbLine
 62
7
  6
BYLAYER
 10
85.9665040002
 20
66.8353223659
 11
86.183713663
 21
50.3353223659
  0
LINE
  5
230
100
AcDbEntity
  8
0
100
AcDbLine
 62
7
  6
BYLAYER
 10
85.5596727898
 20
105.3366386741
 11
85.8887783396
 21
80.3366386741
  0
LINE
  5
231
100
AcDbEntity
  8
0
100
AcDbLine
 62
7
  6
BYLAYER
 10
86.0401668925
 20
68.8366386741
 11
86.0664953365
 21
66.8366386741
  0
LINE
  5
232
100
AcDbEntity
  8
0
100
AcDbLine
 62
7
  6
BYLAYER
 10
86.2837049993
 20
50.3366386741
 11
86.5272431061
 21
31.8366386741
  0
LINE
  5
233
100
AcDbEntity
  8
0
100
AcDbLine
 62
7
  6
BYLAYER
 10
85.6240423819
 20
175.3173679363
 11
85.6240432776
 21
175.3171345032
  0
LINE
  5
234
100
AcDbEntity
  8
0
100
AcDbLine
 62
7
  6
BYLAYER
 10
85.6284767983
 20
142.3162696239
 11
85.6284772575
 21
142.315870877
  0
LINE
  5
235
100
AcDbEntity
  8
0
100
AcDbLine
 62
7
  6
BYLAYER
 10
85.6279601699
 20
151.3160436657
 11
85.6279605916
 21
151.3155703095
  0
LINE
  5
236
100
AcDbEntity
  8
0
100
AcDbLine
 62
7
  6
BYLAYER
 10
85.6204591755
 20
184.3146781585
 11
85.6204595663
 21
184.3142331368
  0
LINE
  5
237
100
AcDbEntity
  8
0
100
AcDbLine
 62
7
  6
BYLAYER
 10
85.6257105689
 20
211.3144666862
 11
85.6257110017
 21
211.3139890735
  0
LINE
  5
238
100
AcDbEntity
  8
0
100
AcDbLine
 62
7
  6
BYLAYER
 10
85.6260304421
 20
133.3143225099
 11
85.6260307886
 21
133.3138604289
  0
LINE
  5
239
100
AcDbEntity
  8
0
100
AcDbLine
 62
7
  6
BYLAYER
 10
85.6264798173
 20
136.3171167866
 11
85.6264801947
 21
136.3166456687
  0
LINE
  5
23A
100
AcDbEntity
  8
0
100
AcDbLine
 62
7
  6
BYLAYER
 10
85.6262309347
 20
163.3145766295
 11
85.6262313008
 21
163.3140905987
  0
LINE
  5
23B
100
AcDbEntity
  8
0
100
AcDbLine
 62
7
  6
BYLAYER
 10
85.6199597917
 20
169.3164148436
 11
85.6199601498
 21
169.3159676498
  0
LINE
  5
23C
100
AcDbEntity
  8
0
100
AcDbLine
 62
7
  6
BYLAYER
 10
85.6268814625
 20
166.3169557858
 11
85.6268818473
 21
166.3164858432
  0
LINE
  5
23D
100
AcDbEntity
  8
0
100
AcDbLine
 62
7
  6
BYLAYER
 10
85.6215559101
 20
187.3142575496
 11
85.621556225
 21
187.3138328749
  0
LINE
  5
23E
100
AcDbEntity
  8
0
100
AcDbLine
 62
7
  6
BYLAYER
 10
85.621208423
 20
193.3143637504
 11
85.6212087276
 21
193.3139226066
  0
LINE
  5
23F
100
AcDbEntity
  8
0
100
AcDbLine
 62
7
  6
BYLAYER
 10
85.6264960703
 20
196.3168169382
 11
85.6264964305
 21
196.3163339551
  0
LINE
  5
240
100
AcDbEntity
  8
0
100
AcDbLine
 62
7
  6
BYLAYER
 10
85.6234976666
 20
202.3141112052
 11
85.6234980144
 21
202.3136467507
  0
LINE
  5
241
100
AcDbEntity
  8
0
100
AcDbLine
 62
7
  6
BYLAYER
 10
85.622193314
 20
214.3174189251
 11
85.6221936613
 21
214.3169426561
  0
LINE
  5
242
100
AcDbEntity
  8
0
100
AcDbLine
 62
7
  6
BYLAYER
 10
85.619810667
 20
139.31609018
 11
85.6198108892
 21
139.3156477044
  0
LINE
  5
243
100
AcDbEntity
  8
0
100
AcDbLine
 62
7
  6
BYLAYER
 10
85.6229778295
 20
148.3140101268
 11
85.6229780858
 21
148.3135632614
  0
LINE
  5
244
100
AcDbEntity
  8
0
100
AcDbLine
 62
7
  6
BYLAYER
 10
85.6275980527
 20
157.316110686
 11
85.6275983154
 21
157.3156583709
  0
LINE
  5
245
100
AcDbEntity
  8
0
100
AcDbLine
 62
7
  6
BYLAYER
 10
85.6252073889
 20
172.314141337
 11
85.6252076825
 21
172.3136845783
  0
LINE
  5
246
100
AcDbEntity
  8
0
100
AcDbLine
 62
7
  6
BYLAYER
 10
85.6258157162
 20
181.3172100535
 11
85.6258159736
 21
181.3167371529
  0
LINE
  5
247
100
AcDbEntity
  8
0
100
AcDbLine
 62
7
  6
BYLAYER
 10
85.6241898881
 20
199.31741902
 11
85.624190165
 21
199.316963956
  0
LINE
  5
248
100
AcDbEntity
  8
0
100
AcDbLine
 62
7
  6
BYLAYER
 10
85.6212130088
 20
154.3143403237
 11
85.6212131477
 21
154.3139129295
  0
LINE
  5
249
100
AcDbEntity
  8
0
100
AcDbLine
 62
7
  6
BYLAYER
 10
85.6200997596
 20
160.3165984879
 11
85.6200999324
 21
160.3161457927
  0
LINE
  5
24A
100
AcDbEntity
  8
0
100
AcDbLine
 62
7
  6
BYLAYER
 10
85.6244568636
 20
178.3141357881
 11
85.6244570954
 21
178.3136474542
  0
LINE
  5
24B
100
AcDbEntity
  8
0
100
AcDbLine
 62
7
  6
BYLAYER
 10
85.6245574176
 20
205.3173856599
 11
85.6245575854
 21
205.3169181193
  0
LINE
  5
24C
100
AcDbEntity
  8
0
100
AcDbLine
 62
7
  6
BYLAYER
 10
85.6213883419
 20
145.3173260475
 11
85.6213884018
 21
145.3168668071
  0
LINE
  5
24D
100
AcDbEntity
  8
0
100
AcDbLine
 62
7
  6
BYLAYER
 10
85.625397304
 20
217.3143905403
 11
85.6253974002
 21
217.313923936
  0
LINE
  5
24E
100
AcDbEntity
  8
0
100
AcDbLine
 62
7
  6
BYLAYER
 10
85.6262281737
 20
190.3169342064
 11
85.6262281748
 21
190.3164899089
  0
LINE
  5
24F
100
AcDbEntity
  8
0
100
AcDbLine
 62
7
  6
BYLAYER
 10
85.6209286582
 20
124.3143122233
 11
85.6209285463
 21
124.3141609239
  0
LINE
  5
250
100
AcDbEntity
  8
0
100
AcDbLine
 62
7
  6
BYLAYER
 10
85.6226872915
 20
208.3142803786
 11
85.6226867835
 21
208.3139254831
  0
LINE
  5
251
100
AcDbEntity
  8
0
100
AcDbLine
 62
7
  6
BYLAYER
 10
85.6277359291
 20
127.3151980342
 11
85.6277351103
 21
127.3149130975
  0
LINE
  5
252
100
AcDbEntity
  8
0
100
AcDbLine
 62
7
  6
BYLAYER
 10
85.6237856961
 20
130.3175640933
 11
85.6237848194
 21
130.3172773927
  0
LINE
  5
253
100
AcDbEntity
  8
0
100
AcDbLine
 62
7
  6
BYLAYER
 10
85.6235504072
 20
121.317596663
 11
85.6235495074
 21
121.3173072097
  0
LWPOLYLINE
  5
254
100
AcDbEntity
  8
0
100
AcDbPolyline
 62
7
  6
BYLAYER
 90
7
 70
0
 10
87.7341227268
 20
119.9933786292
 10
87.7593140297
 20
119.9990501823
 10
88.0878746004
 20
120.057848635
 10
88.6818982373
 20
120.1348276937
 10
89.5229437281
 20
120.2207851965
 10
90.6186747887
 20
120.3143763711
 10
91.9671261771
 20
120.4158660613
  0
LINE
  5
255
100
AcDbEntity
  8
0
100
AcDbLine
 62
7
  6
BYLAYER
 10
100.617547363
 20
121.1177808686
 11
101.2212016027
 21
121.2352415688
  0
LINE
  5
256
100
AcDbEntity
  8
0
100
AcDbLine
 62
7
  6
BYLAYER
 10
99.8140707127
 20
121.0132708422
 11
100.617547363
 21
121.1177808686
  0
LWPOLYLINE
  5
257
100
AcDbEntity
  8
0
100
AcDbPolyline
 62
7
  6
BYLAYER
 90
3
 70
0
 10
97.4580958054
 20
120.8022187412
 10
98.759344916
 20
120.9090606123
 10
99.8140707127
 20
121.0132708422
  0
LINE
  5
258
100
AcDbEntity
  8
0
100
AcDbLine
 62
7
  6
BYLAYER
 10
91.9671261771
 20
120.4158660613
 11
97.4580958054
 21
120.8022187412
  0
LWPOLYLINE
  5
259
100
AcDbEntity
  8
0
100
AcDbPolyline
 62
7
  6
BYLAYER
 90
4
 70
0
 10
96.0296070188
 20
118.9333568137
 10
97.3935258886
 20
118.832294819
 10
98.5396144704
 20
118.7367332274
 10
98.9807543124
 20
118.6931588813
  0
LWPOLYLINE
  5
25A
100
AcDbEntity
  8
0
100
AcDbPolyline
 62
7
  6
BYLAYER
 90
9
 70
0
 10
85.6235504072
 20
121.317596663
 10
85.7959027947
 20
120.6153585332
 10
86.4811345157
 20
119.9335581628
 10
87.0979718841
 20
119.7159832761
 10
87.7490515597
 20
119.5982840468
 10
88.6434827529
 20
119.489621841
 10
89.823061969
 20
119.379478429
 10
91.2547088369
 20
119.2664757761
 10
96.0296070188
 20
118.9333568137
  0
LWPOLYLINE
  5
25B
100
AcDbEntity
  8
0
100
AcDbPolyline
 62
7
  6
BYLAYER
 90
5
 70
0
 10
85.6213883419
 20
145.3173260475
 10
85.633471884
 20
145.1292039031
 10
86.0744552163
 20
144.2286387381
 10
86.7798014109
 20
143.8056586211
 10
86.7837082377
 20
143.8047000339
  0
LWPOLYLINE
  5
25C
100
AcDbEntity
  8
0
100
AcDbPolyline
 62
7
  6
BYLAYER
 90
4
 70
0
 10
85.6262281737
 20
190.3169342064
 10
85.6368647152
 20
190.1403527282
 10
86.0987628173
 20
189.2083693572
 10
86.7893208504
 20
188.8070917424
  0
LWPOLYLINE
  5
25D
100
AcDbEntity
  8
0
100
AcDbPolyline
 62
7
  6
BYLAYER
 90
4
 70
0
 10
85.6258157162
 20
181.3172100535
 10
85.6363293131
 20
181.141660489
 10
86.1033306317
 20
180.2039075301
 10
86.7847335641
 20
179.8050602768
  0
LWPOLYLINE
  5
25E
100
AcDbEntity
  8
0
100
AcDbPolyline
 62
7
  6
BYLAYER
 90
4
 70
0
 10
85.6234976666
 20
202.3141112052
 10
85.6335216893
 20
202.1427593226
 10
86.0987665883
 20
201.2033934396
 10
86.7654845092
 20
200.8144194011
  0
LWPOLYLINE
  5
25F
100
AcDbEntity
  8
0
100
AcDbPolyline
 62
7
  6
BYLAYER
 90
4
 70
0
 10
85.6268814625
 20
166.3169557858
 10
85.6367865563
 20
166.1465658681
 10
86.0935166339
 20
165.2140877063
 10
86.7692595499
 20
164.8120191234
  0
LWPOLYLINE
  5
260
100
AcDbEntity
  8
0
100
AcDbPolyline
 62
7
  6
BYLAYER
 90
5
 70
0
 10
85.6279601699
 20
151.3160436657
 10
85.6377069743
 20
151.1470048338
 10
86.0958723106
 20
150.2118182938
 10
86.7724072168
 20
149.8077929688
 10
86.7838677407
 20
149.8049218699
  0
LINE
  5
261
100
AcDbEntity
  8
0
100
AcDbLine
 62
7
  6
BYLAYER
 10
87.6700224126
 20
232.5655777437
 11
87.6700224126
 21
226.8155777437
  0
LINE
  5
262
100
AcDbEntity
  8
0
100
AcDbLine
 62
7
  6
BYLAYER
 10
90.6700224126
 20
232.5655777437
 11
90.6700224126
 21
226.8155777437
  0
LINE
  5
263
100
AcDbEntity
  8
0
100
AcDbLine
 62
7
  6
BYLAYER
 10
88.4779636078
 20
118.001163789
 11
87.7567452006
 21
112.2167010327
  0
LINE
  5
264
100
AcDbEntity
  8
0
100
AcDbLine
 62
7
  6
BYLAYER
 10
91.4549136039
 20
117.6299916984
 11
90.7336951967
 21
111.845528942
  0
LWPOLYLINE
  5
265
100
AcDbEntity
  8
0
100
AcDbPolyline
 62
7
  6
BYLAYER
 90
4
 70
0
 10
100.535860284
 20
130.1054608541
 10
101.1818319445
 20
130.2245410702
 10
101.7907411441
 20
130.4475231591
 10
101.8121580364
 20
130.4696746526
  0
LWPOLYLINE
  5
266
100
AcDbEntity
  8
0
100
AcDbPolyline
 62
7
  6
BYLAYER
 90
4
 70
0
 10
100.411943826
 20
124.0876078158
 10
101.1096231027
 20
124.2073780619
 10
101.7451275973
 20
124.4239810183
 10
101.8121580364
 20
124.4900963525
  0
LWPOLYLINE
  5
267
100
AcDbEntity
  8
0
100
AcDbPolyline
 62
7
  6
BYLAYER
 90
5
 70
0
 10
87.8691004288
 20
126.0494752199
 10
87.1951357232
 20
125.9366919829
 10
86.6380356455
 20
125.7720891995
 10
85.9514698208
 20
125.2638097291
 10
85.6209285463
 20
124.3141609254
  0
LWPOLYLINE
  5
268
100
AcDbEntity
  8
0
100
AcDbPolyline
 62
7
  6
BYLAYER
 90
5
 70
0
 10
87.9397706995
 20
129.0593059399
 10
87.2406353845
 20
128.947166326
 10
86.6792685141
 20
128.7884026841
 10
85.9906074694
 20
128.3054247815
 10
85.6277351103
 20
127.314913099
  0
LWPOLYLINE
  5
269
100
AcDbEntity
  8
0
100
AcDbPolyline
 62
7
  6
BYLAYER
 90
5
 70
0
 10
88.0940832287
 20
123.0783834289
 10
87.3222152788
 20
122.962806261
 10
86.7044708076
 20
122.8005286437
 10
85.9922687147
 20
122.3142350777
 10
85.6235495074
 20
121.3173072112
  0
LWPOLYLINE
  5
26A
100
AcDbEntity
  8
0
100
AcDbPolyline
 62
7
  6
BYLAYER
 90
4
 70
0
 10
100.0789142015
 20
127.0440099821
 10
100.8554277829
 20
127.1565866916
 10
101.4570187133
 20
127.3047418391
 10
101.8121580364
 20
127.5164808714
  0
LINE
  5
26B
100
AcDbEntity
  8
0
100
AcDbLine
 62
7
  6
BYLAYER
 10
99.6429153165
 20
129.9949538767
 11
100.535860284
 21
130.1054608541
  0
LWPOLYLINE
  5
26C
100
AcDbEntity
  8
0
100
AcDbPolyline
 62
7
  6
BYLAYER
 90
3
 70
0
 10
96.9417337568
 20
129.763189891
 10
98.4452562874
 20
129.8816056519
 10
99.6429153165
 20
129.9949538767
  0
LWPOLYLINE
  5
26D
100
AcDbEntity
  8
0
100
AcDbPolyline
 62
7
  6
BYLAYER
 90
4
 70
0
 10
91.3877246257
 20
126.3744860756
 10
89.9833400518
 20
126.2652535618
 10
88.7895047939
 20
126.1566658096
 10
87.8691004288
 20
126.0494752199
  0
LWPOLYLINE
  5
26E
100
AcDbEntity
  8
0
100
AcDbPolyline
 62
7
  6
BYLAYER
 90
4
 70
0
 10
91.4976920475
 20
129.3827991314
 10
90.089438349
 20
129.2739308159
 10
88.8853056898
 20
129.1658425045
 10
87.9397706995
 20
129.0593059399
  0
LWPOLYLINE
  5
26F
100
AcDbEntity
  8
0
100
AcDbPolyline
 62
7
  6
BYLAYER
 90
4
 70
0
 10
96.5538922168
 20
123.7347534826
 10
98.070757473
 20
123.8504029038
 10
99.4049017914
 20
123.9704047581
 10
100.411943826
 20
124.0876078158
  0
LWPOLYLINE
  5
270
100
AcDbEntity
  8
0
100
AcDbPolyline
 62
7
  6
BYLAYER
 90
4
 70
0
 10
91.8751281415
 20
123.4099858037
 10
90.4284004904
 20
123.3016346966
 10
89.1387326017
 20
123.1905860724
 10
88.0940832287
 20
123.0783834289
  0
LWPOLYLINE
  5
271
100
AcDbEntity
  8
0
100
AcDbPolyline
 62
7
  6
BYLAYER
 90
4
 70
0
 10
95.9132202068
 20
126.6890022618
 10
97.5611363049
 20
126.8101331066
 10
98.9842644019
 20
126.9298579092
 10
100.0789142015
 20
127.0440099821
  0
LINE
  5
272
100
AcDbEntity
  8
0
100
AcDbLine
 62
7
  6
BYLAYER
 10
91.4976920475
 20
129.3827991314
 11
96.9417337568
 21
129.763189891
  0
LINE
  5
273
100
AcDbEntity
  8
0
100
AcDbLine
 62
7
  6
BYLAYER
 10
91.8751281415
 20
123.4099858037
 11
96.5538922168
 21
123.7347534826
  0
LINE
  5
274
100
AcDbEntity
  8
0
100
AcDbLine
 62
7
  6
BYLAYER
 10
91.3877246257
 20
126.3744860756
 11
95.9132202068
 21
126.6890022618
  0
LINE
  5
275
100
AcDbEntity
  8
0
100
AcDbLine
 62
7
  6
BYLAYER
 10
94.547706036
 20
129.5947660753
 11
93.0183177048
 21
129.4902581107
  0
LINE
  5
276
100
AcDbEntity
  8
0
100
AcDbLine
 62
7
  6
BYLAYER
 10
101.8121580364
 20
121.1147739447
 11
101.5737888176
 21
121.2845588563
  0
LWPOLYLINE
  5
277
100
AcDbEntity
  8
0
100
AcDbPolyline
 62
7
  6
BYLAYER
 90
4
 70
0
 10
85.6200997596
 20
160.3165984879
 10
85.7931281805
 20
159.6134113862
 10
86.4718251945
 20
158.9366582043
 10
86.8095138824
 20
158.8157636411
  0
LWPOLYLINE
  5
278
100
AcDbEntity
  8
0
100
AcDbPolyline
 62
7
  6
BYLAYER
 90
4
 70
0
 10
85.6262309347
 20
163.3145766295
 10
85.7939468747
 20
162.6212449581
 10
86.4789953386
 20
161.9328311605
 10
86.8122021888
 20
161.816091617
  0
LWPOLYLINE
  5
279
100
AcDbEntity
  8
0
100
AcDbPolyline
 62
7
  6
BYLAYER
 90
4
 70
0
 10
85.619810667
 20
139.31609018
 10
85.7863647052
 20
138.6257069703
 10
86.4639656284
 20
137.9404446238
 10
86.8110128967
 20
137.8163795438
  0
LWPOLYLINE
  5
27A
100
AcDbEntity
  8
0
100
AcDbPolyline
 62
7
  6
BYLAYER
 90
4
 70
0
 10
85.6260304421
 20
133.3143225099
 10
85.79161109
 20
132.6252741665
 10
86.4755227687
 20
131.9344310655
 10
86.8059829784
 20
131.8179103255
  0
LWPOLYLINE
  5
27B
100
AcDbEntity
  8
0
100
AcDbPolyline
 62
7
  6
BYLAYER
 90
4
 70
0
 10
85.6229778295
 20
148.3140101268
 10
85.7880175469
 20
147.6263002756
 10
86.466907194
 20
146.9378535513
 10
86.7852455019
 20
146.8247448701
  0
LWPOLYLINE
  5
27C
100
AcDbEntity
  8
0
100
AcDbPolyline
 62
7
  6
BYLAYER
 90
4
 70
0
 10
85.6212130088
 20
154.3143403237
 10
85.7862130607
 20
153.6268724134
 10
86.4664582006
 20
152.9379919925
 10
86.8110311119
 20
152.8150627719
  0
LWPOLYLINE
  5
27D
100
AcDbEntity
  8
0
100
AcDbPolyline
 62
7
  6
BYLAYER
 90
4
 70
0
 10
85.6264798173
 20
136.3171167866
 10
85.7909041472
 20
135.6303263
 10
86.4589445155
 20
134.9460249848
 10
86.8149739068
 20
134.8145287465
  0
LWPOLYLINE
  5
27E
100
AcDbEntity
  8
0
100
AcDbPolyline
 62
7
  6
BYLAYER
 90
4
 70
0
 10
85.6275980527
 20
157.316110686
 10
85.7864872388
 20
156.6404427664
 10
86.4358252278
 20
155.9583497419
 10
86.814169518
 20
155.8153961284
  0
LINE
  5
27F
100
AcDbEntity
  8
0
100
AcDbLine
 62
7
  6
BYLAYER
 10
97.5695173492
 20
110.8155777437
 11
97.5695173492
 21
112.8155777437
  0
LINE
  5
280
100
AcDbEntity
  8
0
100
AcDbLine
 62
7
  6
BYLAYER
 10
100.5695173492
 20
110.8155777437
 11
100.5695173492
 21
112.8155777437
  0
LWPOLYLINE
  5
281
100
AcDbEntity
  8
0
100
AcDbPolyline
 62
7
  6
BYLAYER
 90
5
 70
0
 10
87.5196690088
 20
131.9972925836
 10
86.9461187197
 20
131.8783213783
 10
86.3345340483
 20
131.6146736214
 10
85.7228497055
 20
130.8538836111
 10
85.6237867904
 20
130.3172774112
  0
LWPOLYLINE
  5
282
100
AcDbEntity
  8
0
100
AcDbPolyline
 62
7
  6
BYLAYER
 90
5
 70
0
 10
100.5139203584
 20
133.1407131715
 10
100.3099298256
 20
133.0989771818
 10
99.8601861211
 20
133.0328586783
 10
99.2012980267
 20
132.9576105016
 10
98.8015917606
 20
132.9182401003
  0
LWPOLYLINE
  5
283
100
AcDbEntity
  8
0
100
AcDbPolyline
 62
7
  6
BYLAYER
 90
5
 70
0
 10
100.5035895573
 20
139.1390532223
 10
100.278930353
 20
139.0934548927
 10
99.7769308904
 20
139.0217145548
 10
99.0245574193
 20
138.9397161518
 10
98.0459067577
 20
138.8517352514
  0
LWPOLYLINE
  5
284
100
AcDbEntity
  8
0
100
AcDbPolyline
 62
7
  6
BYLAYER
 90
4
 70
0
 10
100.5022528342
 20
136.1374172705
 10
100.2758744295
 20
136.0923210163
 10
99.7584012216
 20
136.0198151204
 10
98.989304559
 20
135.9366327463
  0
LWPOLYLINE
  5
285
100
AcDbEntity
  8
0
100
AcDbPolyline
 62
7
  6
BYLAYER
 90
4
 70
0
 10
87.7341131842
 20
134.993291972
 10
88.0177161416
 20
135.0472880888
 10
88.599019551
 20
135.125221131
 10
89.4459056295
 20
135.2133883657
  0
LWPOLYLINE
  5
286
100
AcDbEntity
  8
0
100
AcDbPolyline
 62
7
  6
BYLAYER
 90
4
 70
0
 10
100.5128038456
 20
136.1016501078
 10
101.1696941753
 20
136.2227045764
 10
101.7833553598
 20
136.4465627882
 10
101.8121580364
 20
136.4759338863
  0
LWPOLYLINE
  5
287
100
AcDbEntity
  8
0
100
AcDbPolyline
 62
7
  6
BYLAYER
 90
4
 70
0
 10
100.5003759249
 20
139.1003014702
 10
101.1604653056
 20
139.2195433196
 10
101.7716032709
 20
139.437172322
 10
101.8121580364
 20
139.4782387834
  0
LWPOLYLINE
  5
288
100
AcDbEntity
  8
0
100
AcDbPolyline
 62
7
  6
BYLAYER
 90
5
 70
0
 10
87.8457739282
 20
135.046753613
 10
87.1211865895
 20
134.9208752905
 10
86.4896682738
 20
134.7015512907
 10
85.8073547913
 20
134.0335426048
 10
85.6260307886
 20
133.3138604289
  0
LWPOLYLINE
  5
289
100
AcDbEntity
  8
0
100
AcDbPolyline
 62
7
  6
BYLAYER
 90
4
 70
0
 10
100.4180431169
 20
133.0879308462
 10
101.109087174
 20
133.2073094071
 10
101.744395121
 20
133.4259925239
 10
101.8121580364
 20
133.492896921
  0
LINE
  5
28A
100
AcDbEntity
  8
0
100
AcDbLine
 62
7
  6
BYLAYER
 10
87.879862195
 20
132.0505806393
 11
87.5196690088
 21
131.9972925836
  0
LINE
  5
28B
100
AcDbEntity
  8
0
100
AcDbLine
 62
7
  6
BYLAYER
 10
99.5905184216
 20
135.9890065208
 11
100.5067121367
 21
136.1009060953
  0
LINE
  5
28C
100
AcDbEntity
  8
0
100
AcDbLine
 62
7
  6
BYLAYER
 10
99.4742752552
 20
132.9774709478
 11
100.4180431169
 21
133.0879308462
  0
LINE
  5
28D
100
AcDbEntity
  8
0
100
AcDbLine
 62
7
  6
BYLAYER
 10
88.9245696432
 20
135.1698785716
 11
87.8457739282
 21
135.046753613
  0
LINE
  5
28E
100
AcDbEntity
  8
0
100
AcDbLine
 62
7
  6
BYLAYER
 10
99.5905184216
 20
135.9890065208
 11
97.9736629878
 21
135.8456406442
  0
LINE
  5
28F
100
AcDbEntity
  8
0
100
AcDbLine
 62
7
  6
BYLAYER
 10
99.4742752552
 20
132.9774709478
 11
97.8712053726
 21
132.8370017329
  0
LINE
  5
290
100
AcDbEntity
  8
0
100
AcDbLine
 62
7
  6
BYLAYER
 10
88.9245696432
 20
135.1698785716
 11
90.5388842004
 21
135.3079938548
  0
LWPOLYLINE
  5
291
100
AcDbEntity
  8
0
100
AcDbPolyline
 62
7
  6
BYLAYER
 90
4
 70
0
 10
91.2885279031
 20
132.3674351478
 10
89.9192035618
 20
132.2601032918
 10
88.7780000205
 20
132.154998128
 10
87.879862195
 20
132.0505806393
  0
LINE
  5
292
100
AcDbEntity
  8
0
100
AcDbLine
 62
7
  6
BYLAYER
 10
96.7127451234
 20
135.7472542892
 11
98.3044644668
 21
135.8700050953
  0
LINE
  5
293
100
AcDbEntity
  8
0
100
AcDbLine
 62
7
  6
BYLAYER
 10
98.2680169232
 20
132.8669558577
 11
96.780732369
 21
132.7524748705
  0
LINE
  5
294
100
AcDbEntity
  8
0
100
AcDbLine
 62
7
  6
BYLAYER
 10
91.9611796159
 20
135.416241968
 11
90.3492823728
 21
135.2949928106
  0
LINE
  5
295
100
AcDbEntity
  8
0
100
AcDbLine
 62
7
  6
BYLAYER
 10
91.2885279031
 20
132.3674351478
 11
93.7870759763
 21
132.5429335871
  0
LINE
  5
296
100
AcDbEntity
  8
0
100
AcDbLine
 62
7
  6
BYLAYER
 10
96.8611496251
 20
132.7570845464
 11
92.8041400977
 21
132.4754592674
  0
LINE
  5
297
100
AcDbEntity
  8
0
100
AcDbLine
 62
7
  6
BYLAYER
 10
91.8525517558
 20
135.4076873113
 11
96.7209504436
 21
135.7470359347
  0
LWPOLYLINE
  5
298
100
AcDbEntity
  8
0
100
AcDbPolyline
 62
7
  6
BYLAYER
 90
3
 70
0
 10
101.8121580364
 20
130.1127214487
 10
101.5592181802
 20
130.2901452049
 10
101.4466868032
 20
130.3215307193
  0
LWPOLYLINE
  5
299
100
AcDbEntity
  8
0
100
AcDbPolyline
 62
7
  6
BYLAYER
 90
3
 70
0
 10
101.8121580364
 20
127.1122927104
 10
101.5760108559
 20
127.2816891641
 10
101.469029759
 20
127.3119029926
  0
LWPOLYLINE
  5
29A
100
AcDbEntity
  8
0
100
AcDbPolyline
 62
7
  6
BYLAYER
 90
4
 70
0
 10
85.6244568636
 20
178.3141357881
 10
85.7977179655
 20
177.6100658211
 10
86.4945577992
 20
176.9237934621
 10
86.7879789939
 20
176.8240555251
  0
LWPOLYLINE
  5
29B
100
AcDbEntity
  8
0
100
AcDbPolyline
 62
7
  6
BYLAYER
 90
4
 70
0
 10
85.621208423
 20
193.3143637504
 10
85.7919062758
 20
192.6156262168
 10
86.4641801416
 20
191.9392051909
 10
86.8079800568
 20
191.8145913455
  0
LWPOLYLINE
  5
29C
100
AcDbEntity
  8
0
100
AcDbPolyline
 62
7
  6
BYLAYER
 90
4
 70
0
 10
85.6204591755
 20
184.3146781585
 10
85.7890951394
 20
183.6200906056
 10
86.4536993837
 20
182.9450362527
 10
86.804890676
 20
182.8145804799
  0
LWPOLYLINE
  5
29D
100
AcDbEntity
  8
0
100
AcDbPolyline
 62
7
  6
BYLAYER
 90
4
 70
0
 10
85.6199597917
 20
169.3164148436
 10
85.7839297469
 20
168.6311572192
 10
86.4531025796
 20
167.9465683713
 10
86.8126237382
 20
167.8156813753
  0
LWPOLYLINE
  5
29E
100
AcDbEntity
  8
0
100
AcDbPolyline
 62
7
  6
BYLAYER
 90
4
 70
0
 10
85.6252073889
 20
172.314141337
 10
85.7883658212
 20
171.6300154615
 10
86.4652701429
 20
170.9394914663
 10
86.7866735734
 20
170.8254904451
  0
LWPOLYLINE
  5
29F
100
AcDbEntity
  8
0
100
AcDbPolyline
 62
7
  6
BYLAYER
 90
4
 70
0
 10
85.6215559101
 20
187.3142575496
 10
85.778548388
 20
186.6429959349
 10
86.4458099757
 20
185.9491486145
 10
86.8091228434
 20
185.8163238441
  0
LWPOLYLINE
  5
2A0
100
AcDbEntity
  8
0
100
AcDbPolyline
 62
7
  6
BYLAYER
 90
4
 70
0
 10
85.6240423819
 20
175.3173679363
 10
85.7538164969
 20
174.7047854777
 10
86.3319974993
 20
174.0199749666
 10
86.7408424651
 20
173.8190636893
  0
LINE
  5
2A1
100
AcDbEntity
  8
0
100
AcDbLine
 62
7
  6
BYLAYER
 10
101.7121580364
 20
105.3155777437
 11
101.7121580364
 21
80.3155777437
  0
LINE
  5
2A2
100
AcDbEntity
  8
0
100
AcDbLine
 62
7
  6
BYLAYER
 10
101.7121580364
 20
68.8155777437
 11
101.7121580364
 21
66.8155777437
  0
LINE
  5
2A3
100
AcDbEntity
  8
0
100
AcDbLine
 62
7
  6
BYLAYER
 10
101.7121580364
 20
50.3155777437
 11
101.7121580364
 21
31.8155777437
  0
LINE
  5
2A4
100
AcDbEntity
  8
0
100
AcDbLine
 62
7
  6
BYLAYER
 10
101.8121580364
 20
50.3155777437
 11
101.8121580364
 21
66.8155777437
  0
LINE
  5
2A5
100
AcDbEntity
  8
0
100
AcDbLine
 62
7
  6
BYLAYER
 10
101.8121580364
 20
68.8155777437
 11
101.8121580364
 21
80.3155777437
  0
LINE
  5
2A6
100
AcDbEntity
  8
0
100
AcDbLine
 62
7
  6
BYLAYER
 10
101.8121580364
 20
105.3155777437
 11
101.8121580364
 21
220.9675015323
  0
LINE
  5
2A7
100
AcDbEntity
  8
0
100
AcDbLine
 62
7
  6
BYLAYER
 10
104.8121580364
 20
50.3155777437
 11
104.8121580364
 21
66.8155777437
  0
LINE
  5
2A8
100
AcDbEntity
  8
0
100
AcDbLine
 62
7
  6
BYLAYER
 10
104.8121580364
 20
68.8155777437
 11
104.8121580364
 21
80.3155777437
  0
LINE
  5
2A9
100
AcDbEntity
  8
0
100
AcDbLine
 62
7
  6
BYLAYER
 10
104.8121580364
 20
105.3155777437
 11
104.8121580364
 21
220.9675015323
  0
LINE
  5
2AA
100
AcDbEntity
  8
0
100
AcDbLine
 62
7
  6
BYLAYER
 10
104.9121580364
 20
105.3155777437
 11
104.9121580364
 21
80.3155777437
  0
LINE
  5
2AB
100
AcDbEntity
  8
0
100
AcDbLine
 62
7
  6
BYLAYER
 10
104.9121580364
 20
68.8155777437
 11
104.9121580364
 21
66.8155777437
  0
LINE
  5
2AC
100
AcDbEntity
  8
0
100
AcDbLine
 62
7
  6
BYLAYER
 10
104.9121580364
 20
50.3155777437
 11
104.9121580364
 21
31.8155777437
  0
LWPOLYLINE
  5
2AD
100
AcDbEntity
  8
0
100
AcDbPolyline
 62
7
  6
BYLAYER
 90
8
 70
0
 10
100.5695043452
 20
112.8155777437
 10
100.695903034
 20
114.0820292319
 10
100.9198055794
 20
115.0826488097
 10
101.1488266936
 20
115.8718647271
 10
101.3637231162
 20
116.5162421053
 10
101.5591534493
 20
117.0516248968
 10
101.7341479428
 20
117.5007890688
 10
101.8121580364
 20
117.691274255
  0
LWPOLYLINE
  5
2AE
100
AcDbEntity
  8
0
100
AcDbPolyline
 62
7
  6
BYLAYER
 90
12
 70
0
 10
99.4908982266
 20
119.8813268685
 10
99.3881258788
 20
119.6535394828
 10
99.2683750462
 20
119.3811035391
 10
99.1311045681
 20
119.0591506549
 10
98.967734238
 20
118.661464621
 10
98.7682318752
 20
118.1514639131
 10
98.5433559067
 20
117.5375344566
 10
98.2975564763
 20
116.8029267177
 10
98.0357893898
 20
115.9075105334
 10
97.7773376808
 20
114.7901031388
 10
97.5864771767
 20
113.3405627019
 10
97.5695430354
 20
112.8155777437
  0
LWPOLYLINE
  5
2AF
100
AcDbEntity
  8
0
100
AcDbPolyline
 62
7
  6
BYLAYER
 90
4
 70
0
 10
99.6756924086
 20
120.2766694191
 10
99.6137796781
 20
120.1463459011
 10
99.5359758531
 20
119.9794899494
 10
99.4908982266
 20
119.8813268685
  0
LINE
  5
2B0
100
AcDbEntity
  8
0
100
AcDbLine
 62
7
  6
BYLAYER
 10
99.7532371793
 20
120.4370187698
 11
99.6756924086
 21
120.2766694191
  0
LINE
  5
2B1
100
AcDbEntity
  8
0
100
AcDbLine
 62
7
  6
BYLAYER
 10
101.2212016027
 20
121.2352415688
 11
101.6938439718
 21
121.4143907388
  0
LWPOLYLINE
  5
2B2
100
AcDbEntity
  8
0
100
AcDbPolyline
 62
7
  6
BYLAYER
 90
5
 70
0
 10
100.500872944
 20
145.138088428
 10
100.2644766642
 20
145.0906434844
 10
99.7332033825
 20
145.0163721024
 10
98.9560414136
 20
144.9332055352
 10
97.9684551
 20
144.8453415815
  0
LWPOLYLINE
  5
2B3
100
AcDbEntity
  8
0
100
AcDbPolyline
 62
7
  6
BYLAYER
 90
4
 70
0
 10
87.7294358239
 20
137.9907763777
 10
87.9723715805
 20
138.0393247126
 10
88.4958182878
 20
138.1131373666
 10
89.2525157892
 20
138.1952417858
  0
LWPOLYLINE
  5
2B4
100
AcDbEntity
  8
0
100
AcDbPolyline
 62
7
  6
BYLAYER
 90
4
 70
0
 10
87.7289525974
 20
143.9911981804
 10
87.9949214573
 20
144.0431146447
 10
88.5507615959
 20
144.1195924317
 10
89.3848220388
 20
144.2079132473
  0
LWPOLYLINE
  5
2B5
100
AcDbEntity
  8
0
100
AcDbPolyline
 62
7
  6
BYLAYER
 90
4
 70
0
 10
87.7387426291
 20
140.9942536081
 10
88.0360324246
 20
141.0504880975
 10
88.6562690218
 20
141.1319839323
 10
89.5425080927
 20
141.2223077535
  0
LWPOLYLINE
  5
2B6
100
AcDbEntity
  8
0
100
AcDbPolyline
 62
7
  6
BYLAYER
 90
4
 70
0
 10
100.5094917445
 20
142.1008541194
 10
101.1621509163
 20
142.2206499387
 10
101.774600701
 20
142.4426413216
 10
101.8121580364
 20
142.4808333528
  0
LWPOLYLINE
  5
2B7
100
AcDbEntity
  8
0
100
AcDbPolyline
 62
7
  6
BYLAYER
 90
5
 70
0
 10
87.7969206878
 20
138.0394487315
 10
87.1149005245
 20
137.9205694335
 10
86.5030009267
 20
137.7107755961
 10
85.8121280403
 20
137.0444706886
 10
85.6264801947
 20
136.3166456687
  0
LWPOLYLINE
  5
2B8
100
AcDbEntity
  8
0
100
AcDbPolyline
 62
7
  6
BYLAYER
 90
5
 70
0
 10
87.8190790128
 20
144.0428339844
 10
87.114282334
 20
143.9202635612
 10
86.4865462525
 20
143.7008168574
 10
85.8048779902
 20
143.0262550578
 10
85.6284772575
 20
142.315870877
  0
LWPOLYLINE
  5
2B9
100
AcDbEntity
  8
0
100
AcDbPolyline
 62
7
  6
BYLAYER
 90
6
 70
0
 10
88.1369865677
 20
141.0839012103
 10
87.3793530366
 20
140.9727722774
 10
86.7874115407
 20
140.8290537701
 10
86.1065576946
 20
140.4365165926
 10
85.6340013277
 20
139.5194783201
 10
85.6198108892
 20
139.3156477044
  0
LWPOLYLINE
  5
2BA
100
AcDbEntity
  8
0
100
AcDbPolyline
 62
7
  6
BYLAYER
 90
5
 70
0
 10
99.6471300414
 20
144.9951733916
 10
100.5141542777
 20
145.1023113174
 10
101.1494235295
 20
145.2174808901
 10
101.7596339273
 20
145.4314789352
 10
101.8121580364
 20
145.4835337573
  0
LINE
  5
2BB
100
AcDbEntity
  8
0
100
AcDbLine
 62
7
  6
BYLAYER
 10
88.715370461
 20
138.1485043976
 11
87.7969206878
 21
138.0394487315
  0
LINE
  5
2BC
100
AcDbEntity
  8
0
100
AcDbLine
 62
7
  6
BYLAYER
 10
88.8272547207
 20
144.1599572455
 11
87.8190790128
 21
144.0428339844
  0
LINE
  5
2BD
100
AcDbEntity
  8
0
100
AcDbLine
 62
7
  6
BYLAYER
 10
98.483750878
 20
144.8849355422
 11
99.6471300414
 21
144.9951733916
  0
LWPOLYLINE
  5
2BE
100
AcDbEntity
  8
0
100
AcDbPolyline
 62
7
  6
BYLAYER
 90
3
 70
0
 10
98.4755808262
 20
138.8841940574
 10
99.6179356519
 20
138.9922745658
 10
100.5003759249
 20
139.1003014702
  0
LINE
  5
2BF
100
AcDbEntity
  8
0
100
AcDbLine
 62
7
  6
BYLAYER
 10
88.715370461
 20
138.1485043976
 11
90.2264680343
 21
138.282357306
  0
LINE
  5
2C0
100
AcDbEntity
  8
0
100
AcDbLine
 62
7
  6
BYLAYER
 10
88.8272547207
 20
144.1599572455
 11
90.5242586426
 21
144.306771645
  0
LWPOLYLINE
  5
2C1
100
AcDbEntity
  8
0
100
AcDbPolyline
 62
7
  6
BYLAYER
 90
3
 70
0
 10
90.6635584818
 20
141.3178702245
 10
89.1756773384
 20
141.1943183597
 10
88.1369865677
 20
141.0839012103
  0
LWPOLYLINE
  5
2C2
100
AcDbEntity
  8
0
100
AcDbPolyline
 62
7
  6
BYLAYER
 90
4
 70
0
 10
96.9550492867
 20
141.7642085746
 10
98.4553980886
 20
141.8828514241
 10
99.633184006
 20
141.9936326679
 10
100.5094917445
 20
142.1008541194
  0
LINE
  5
2C3
100
AcDbEntity
  8
0
100
AcDbLine
 62
7
  6
BYLAYER
 10
98.4755808262
 20
138.8841940574
 11
96.8620238833
 21
138.7586056799
  0
LINE
  5
2C4
100
AcDbEntity
  8
0
100
AcDbLine
 62
7
  6
BYLAYER
 10
98.483750878
 20
144.8849355422
 11
96.7992556476
 21
144.7538380123
  0
LINE
  5
2C5
100
AcDbEntity
  8
0
100
AcDbLine
 62
7
  6
BYLAYER
 10
91.4586103074
 20
138.3799436547
 11
89.9411055274
 21
138.261824888
  0
LINE
  5
2C6
100
AcDbEntity
  8
0
100
AcDbLine
 62
7
  6
BYLAYER
 10
90.1616454109
 20
144.2799750617
 11
91.965925247
 21
144.4157233742
  0
LINE
  5
2C7
100
AcDbEntity
  8
0
100
AcDbLine
 62
7
  6
BYLAYER
 10
91.9962484315
 20
141.4181098377
 11
90.4856616321
 21
141.3059998576
  0
LINE
  5
2C8
100
AcDbEntity
  8
0
100
AcDbLine
 62
7
  6
BYLAYER
 10
91.3924723889
 20
138.3736762965
 11
97.1221364064
 21
138.7765969558
  0
LINE
  5
2C9
100
AcDbEntity
  8
0
100
AcDbLine
 62
7
  6
BYLAYER
 10
91.7051658533
 20
144.3979070931
 11
97.0349156866
 21
144.7701803535
  0
LINE
  5
2CA
100
AcDbEntity
  8
0
100
AcDbLine
 62
7
  6
BYLAYER
 10
96.9550492867
 20
141.7642085746
 11
91.9588575316
 21
141.4158777153
  0
LWPOLYLINE
  5
2CB
100
AcDbEntity
  8
0
100
AcDbPolyline
 62
7
  6
BYLAYER
 90
3
 70
0
 10
101.8121580364
 20
133.1386017095
 10
101.740464492
 20
133.2074246591
 10
101.4267265744
 20
133.3166459492
  0
LWPOLYLINE
  5
2CC
100
AcDbEntity
  8
0
100
AcDbPolyline
 62
7
  6
BYLAYER
 90
3
 70
0
 10
101.8121580364
 20
136.1427684177
 10
101.7545060314
 20
136.1996826732
 10
101.4243229552
 20
136.3155909195
  0
LWPOLYLINE
  5
2CD
100
AcDbEntity
  8
0
100
AcDbPolyline
 62
7
  6
BYLAYER
 90
4
 70
0
 10
85.625397304
 20
217.3143905403
 10
85.7949366749
 20
216.6175203204
 10
86.4886736918
 20
215.9273064207
 10
86.8133766864
 20
215.8160339042
  0
LWPOLYLINE
  5
2CE
100
AcDbEntity
  8
0
100
AcDbPolyline
 62
7
  6
BYLAYER
 90
4
 70
0
 10
85.6245574176
 20
205.3173856599
 10
85.7938605943
 20
204.621024506
 10
86.4733015937
 20
203.9377897526
 10
86.8152859928
 20
203.8155871689
  0
LWPOLYLINE
  5
2CF
100
AcDbEntity
  8
0
100
AcDbPolyline
 62
7
  6
BYLAYER
 90
4
 70
0
 10
85.622193314
 20
214.3174189251
 10
85.7902433398
 20
213.6237414472
 10
86.4683639513
 20
212.939703222
 10
86.8181950295
 20
212.8150346964
  0
LWPOLYLINE
  5
2D0
100
AcDbEntity
  8
0
100
AcDbPolyline
 62
7
  6
BYLAYER
 90
4
 70
0
 10
85.6257105689
 20
211.3144666862
 10
85.7938376627
 20
210.6203709846
 10
86.4694254736
 20
209.9376514375
 10
86.7990504632
 20
209.8201087758
  0
LWPOLYLINE
  5
2D1
100
AcDbEntity
  8
0
100
AcDbPolyline
 62
7
  6
BYLAYER
 90
4
 70
0
 10
85.6226872915
 20
208.3142803786
 10
85.7898480023
 20
207.6223235267
 10
86.4755355994
 20
206.9332829878
 10
86.8124404389
 20
206.8154600721
  0
LWPOLYLINE
  5
2D2
100
AcDbEntity
  8
0
100
AcDbPolyline
 62
7
  6
BYLAYER
 90
4
 70
0
 10
85.6264960703
 20
196.3168169382
 10
85.7931710074
 20
195.6255189653
 10
86.4695910369
 20
194.939931018
 10
86.8124052809
 20
194.8175020028
  0
LWPOLYLINE
  5
2D3
100
AcDbEntity
  8
0
100
AcDbPolyline
 62
7
  6
BYLAYER
 90
4
 70
0
 10
85.6241898881
 20
199.31741902
 10
85.7872329966
 20
198.6335633813
 10
86.4563123207
 20
197.946869276
 10
86.8153610786
 20
197.8163798902
  0
LWPOLYLINE
  5
2D4
100
AcDbEntity
  8
0
100
AcDbPolyline
 62
7
  6
BYLAYER
 90
7
 70
0
 10
100.5110975278
 20
148.1405690066
 10
100.4644184858
 20
148.1292502555
 10
100.1502165017
 20
148.0731703249
 10
99.6024511321
 20
148.0011861063
 10
98.8417764786
 20
147.9219470477
 10
97.877648791
 20
147.837625755
 10
96.7290753899
 20
147.7487087904
  0
LWPOLYLINE
  5
2D5
100
AcDbEntity
  8
0
100
AcDbPolyline
 62
7
  6
BYLAYER
 90
4
 70
0
 10
100.4995593456
 20
154.1377414367
 10
100.2665812511
 20
154.0909674511
 10
99.762571438
 20
154.0199522421
 10
99.0261528196
 20
153.9400469894
  0
LWPOLYLINE
  5
2D6
100
AcDbEntity
  8
0
100
AcDbPolyline
 62
7
  6
BYLAYER
 90
4
 70
0
 10
87.7374868201
 20
146.9925368202
 10
87.9852227739
 20
147.0419033765
 10
88.516192816
 20
147.1160086499
 10
89.2927425381
 20
147.1989828327
  0
LWPOLYLINE
  5
2D7
100
AcDbEntity
  8
0
100
AcDbPolyline
 62
7
  6
BYLAYER
 90
4
 70
0
 10
87.736865391
 20
149.9936957549
 10
87.9622984515
 20
150.0385817566
 10
88.4708463891
 20
150.1100511435
 10
89.2009470429
 20
150.1896741533
  0
LWPOLYLINE
  5
2D8
100
AcDbEntity
  8
0
100
AcDbPolyline
 62
7
  6
BYLAYER
 90
4
 70
0
 10
100.5073676032
 20
151.1383909183
 10
100.2483789527
 20
151.0880922097
 10
99.6949553766
 20
151.0123595206
 10
98.9059376734
 20
150.928485781
  0
LWPOLYLINE
  5
2D9
100
AcDbEntity
  8
0
100
AcDbPolyline
 62
7
  6
BYLAYER
 90
4
 70
0
 10
100.6032352979
 20
148.1150755125
 10
101.1999121626
 20
148.2283989256
 10
101.7784108657
 20
148.4426294602
 10
101.8121580364
 20
148.4770380145
  0
LWPOLYLINE
  5
2DA
100
AcDbEntity
  8
0
100
AcDbPolyline
 62
7
  6
BYLAYER
 90
4
 70
0
 10
100.462361002
 20
151.0940298762
 10
101.1511379919
 20
151.2180385235
 10
101.7780267764
 20
151.4448489582
 10
101.8121580364
 20
151.47977786
  0
LWPOLYLINE
  5
2DB
100
AcDbEntity
  8
0
100
AcDbPolyline
 62
7
  6
BYLAYER
 90
5
 70
0
 10
87.7811829678
 20
150.0374302167
 10
87.102369569
 20
149.9161623132
 10
86.4892346803
 20
149.7020178694
 10
85.8039916255
 20
149.032389576
 10
85.6229780858
 20
148.3135632614
  0
LWPOLYLINE
  5
2DC
100
AcDbEntity
  8
0
100
AcDbPolyline
 62
7
  6
BYLAYER
 90
4
 70
0
 10
100.4253442857
 20
154.0893319376
 10
101.1195118714
 20
154.2094534171
 10
101.7610619837
 20
154.4328580827
 10
101.8121580364
 20
154.4842347003
  0
LWPOLYLINE
  5
2DD
100
AcDbEntity
  8
0
100
AcDbPolyline
 62
7
  6
BYLAYER
 90
6
 70
0
 10
88.1079014284
 20
147.0801314371
 10
87.3824479149
 20
146.9735575069
 10
86.8036694016
 20
146.8352065311
 10
86.1139489143
 20
146.4435618748
 10
85.6351853297
 20
145.5179075944
 10
85.6213884018
 20
145.3168668071
  0
LINE
  5
2DE
100
AcDbEntity
  8
0
100
AcDbLine
 62
7
  6
BYLAYER
 10
99.7824952326
 20
148.0102576659
 11
100.6032352979
 21
148.1150755125
  0
LINE
  5
2DF
100
AcDbEntity
  8
0
100
AcDbLine
 62
7
  6
BYLAYER
 10
99.4795827484
 20
150.9777108097
 11
100.462361002
 21
151.0940298762
  0
LWPOLYLINE
  5
2E0
100
AcDbEntity
  8
0
100
AcDbPolyline
 62
7
  6
BYLAYER
 90
3
 70
0
 10
90.1227058107
 20
150.2735214502
 10
88.7413281615
 20
150.1516932876
 10
87.7811829678
 20
150.0374302167
  0
LINE
  5
2E1
100
AcDbEntity
  8
0
100
AcDbLine
 62
7
  6
BYLAYER
 10
99.4795827484
 20
150.9777108097
 11
97.9067324363
 21
150.8399485961
  0
LWPOLYLINE
  5
2E2
100
AcDbEntity
  8
0
100
AcDbPolyline
 62
7
  6
BYLAYER
 90
3
 70
0
 10
90.2984958166
 20
147.291222959
 10
89.0789271056
 20
147.18502247
 10
88.1079014284
 20
147.0801314371
  0
LWPOLYLINE
  5
2E3
100
AcDbEntity
  8
0
100
AcDbPolyline
 62
7
  6
BYLAYER
 90
3
 70
0
 10
97.4182540631
 20
147.7988914899
 10
98.7198487225
 20
147.9057765427
 10
99.7824952326
 20
148.0102576659
  0
LINE
  5
2E4
100
AcDbEntity
  8
0
100
AcDbLine
 62
7
  6
BYLAYER
 10
96.7198288753
 20
150.7477980653
 11
98.1897769679
 21
150.8605330324
  0
LINE
  5
2E5
100
AcDbEntity
  8
0
100
AcDbLine
 62
7
  6
BYLAYER
 10
91.5462542302
 20
150.3861514639
 11
90.0277914099
 21
150.2688527412
  0
LINE
  5
2E6
100
AcDbEntity
  8
0
100
AcDbLine
 62
7
  6
BYLAYER
 10
91.7090755485
 20
147.3979885206
 11
90.2856694845
 21
147.287053726
  0
LINE
  5
2E7
100
AcDbEntity
  8
0
100
AcDbLine
 62
7
  6
BYLAYER
 10
91.4824450857
 20
147.3803805636
 11
97.4182540631
 21
147.7988914899
  0
LINE
  5
2E8
100
AcDbEntity
  8
0
100
AcDbLine
 62
7
  6
BYLAYER
 10
91.21546422
 20
150.3606251602
 11
96.7201130844
 21
150.7468719837
  0
LWPOLYLINE
  5
2E9
100
AcDbEntity
  8
0
100
AcDbPolyline
 62
7
  6
BYLAYER
 90
3
 70
0
 10
101.8121580364
 20
148.1456858185
 10
101.7549106649
 20
148.2014236788
 10
101.433895589
 20
148.31504803
  0
LWPOLYLINE
  5
2EA
100
AcDbEntity
  8
0
100
AcDbPolyline
 62
7
  6
BYLAYER
 90
3
 70
0
 10
101.8121580364
 20
151.1412666773
 10
101.7522942964
 20
151.2002637317
 10
101.4214560993
 20
151.3158405084
  0
LWPOLYLINE
  5
2EB
100
AcDbEntity
  8
0
100
AcDbPolyline
 62
7
  6
BYLAYER
 90
3
 70
0
 10
101.8121580364
 20
145.1511530272
 10
101.768131672
 20
145.1948718433
 10
101.4309523312
 20
145.3162117761
  0
LWPOLYLINE
  5
2EC
100
AcDbEntity
  8
0
100
AcDbPolyline
 62
7
  6
BYLAYER
 90
4
 70
0
 10
100.5020030894
 20
160.1384300043
 10
100.258847826
 20
160.0897745437
 10
99.7126258889
 20
160.0138697374
 10
98.9108772349
 20
159.9288142587
  0
LWPOLYLINE
  5
2ED
100
AcDbEntity
  8
0
100
AcDbPolyline
 62
7
  6
BYLAYER
 90
4
 70
0
 10
100.5098370809
 20
157.1390586043
 10
100.2881685003
 20
157.0947797498
 10
99.7905594437
 20
157.0240111371
 10
99.0711025344
 20
156.9446207292
  0
LWPOLYLINE
  5
2EE
100
AcDbEntity
  8
0
100
AcDbPolyline
 62
7
  6
BYLAYER
 90
5
 70
0
 10
87.7299478899
 20
158.9911187691
 10
87.9916819911
 20
159.042570238
 10
88.5367376851
 20
159.1180717788
 10
89.3234182957
 20
159.2021056605
 10
90.3306399601
 20
159.290983381
  0
LWPOLYLINE
  5
2EF
100
AcDbEntity
  8
0
100
AcDbPolyline
 62
7
  6
BYLAYER
 90
5
 70
0
 10
87.7405454936
 20
155.9947511514
 10
88.0318624456
 20
156.049828286
 10
88.6197045412
 20
156.1277752347
 10
89.4460227202
 20
156.2133214944
 10
90.4872140995
 20
156.3037272788
  0
LWPOLYLINE
  5
2F0
100
AcDbEntity
  8
0
100
AcDbPolyline
 62
7
  6
BYLAYER
 90
5
 70
0
 10
87.7356471714
 20
159.0310447514
 10
87.0753716187
 20
158.9111739805
 10
86.4795705455
 20
158.6973544265
 10
85.810417609
 20
158.0382693064
 10
85.6275983154
 20
157.3156583709
  0
LWPOLYLINE
  5
2F1
100
AcDbEntity
  8
0
100
AcDbPolyline
 62
7
  6
BYLAYER
 90
4
 70
0
 10
100.4778097944
 20
157.0963203749
 10
101.1498196102
 20
157.2177569581
 10
101.7558664914
 20
157.4323617569
 10
101.8121580364
 20
157.4882022199
  0
LWPOLYLINE
  5
2F2
100
AcDbEntity
  8
0
100
AcDbPolyline
 62
7
  6
BYLAYER
 90
5
 70
0
 10
87.7644847834
 20
156.0348680295
 10
87.0893921467
 20
155.9131638689
 10
86.4722637398
 20
155.6939404344
 10
85.7957301178
 20
155.0201338009
 10
85.6212131477
 20
154.3139129295
  0
LWPOLYLINE
  5
2F3
100
AcDbEntity
  8
0
100
AcDbPolyline
 62
7
  6
BYLAYER
 90
4
 70
0
 10
100.4764827127
 20
160.0968272834
 10
101.1463383175
 20
160.2162266073
 10
101.7647564786
 20
160.4335451172
 10
101.8121580364
 20
160.48098829
  0
LWPOLYLINE
  5
2F4
100
AcDbEntity
  8
0
100
AcDbPolyline
 62
7
  6
BYLAYER
 90
5
 70
0
 10
87.8241534562
 20
153.0435567989
 10
87.125342053
 20
152.9227466216
 10
86.5040278943
 20
152.7098825697
 10
85.8139880039
 20
152.044223926
 10
85.6279605916
 20
151.3155703095
  0
LINE
  5
2F5
100
AcDbEntity
  8
0
100
AcDbLine
 62
7
  6
BYLAYER
 10
99.5673483054
 20
156.986686322
 11
100.4778097944
 21
157.0963203749
  0
LINE
  5
2F6
100
AcDbEntity
  8
0
100
AcDbLine
 62
7
  6
BYLAYER
 10
99.5081508529
 20
159.980739308
 11
100.4764827127
 21
160.0968272834
  0
LINE
  5
2F7
100
AcDbEntity
  8
0
100
AcDbLine
 62
7
  6
BYLAYER
 10
99.4860863027
 20
153.9786909495
 11
100.4253442857
 21
154.0893319376
  0
LWPOLYLINE
  5
2F8
100
AcDbEntity
  8
0
100
AcDbPolyline
 62
7
  6
BYLAYER
 90
3
 70
0
 10
89.8500740988
 20
159.2540067422
 10
88.6314271265
 20
159.139801219
 10
87.7356471714
 20
159.0310447514
  0
LINE
  5
2F9
100
AcDbEntity
  8
0
100
AcDbLine
 62
7
  6
BYLAYER
 10
99.5673483054
 20
156.986686322
 11
98.1542778442
 21
156.8606136177
  0
LWPOLYLINE
  5
2FA
100
AcDbEntity
  8
0
100
AcDbPolyline
 62
7
  6
BYLAYER
 90
3
 70
0
 10
90.0069584515
 20
156.2671922056
 10
88.7278647907
 20
156.1503599356
 10
87.7644847834
 20
156.0348680295
  0
LINE
  5
2FB
100
AcDbEntity
  8
0
100
AcDbLine
 62
7
  6
BYLAYER
 10
99.4860863027
 20
153.9786909495
 11
98.0925419307
 21
153.8556969154
  0
LINE
  5
2FC
100
AcDbEntity
  8
0
100
AcDbLine
 62
7
  6
BYLAYER
 10
99.5081508529
 20
159.980739308
 11
97.8902735354
 21
159.8388770358
  0
LINE
  5
2FD
100
AcDbEntity
  8
0
100
AcDbLine
 62
7
  6
BYLAYER
 10
96.9901439594
 20
156.7668258288
 11
98.3865891847
 21
156.8769737994
  0
LINE
  5
2FE
100
AcDbEntity
  8
0
100
AcDbLine
 62
7
  6
BYLAYER
 10
96.9013185397
 20
153.7600743384
 11
98.2897937399
 21
153.8685650315
  0
LWPOLYLINE
  5
2FF
100
AcDbEntity
  8
0
100
AcDbPolyline
 62
7
  6
BYLAYER
 90
4
 70
0
 10
91.3613965741
 20
153.3728224609
 10
89.9755784167
 20
153.264554628
 10
88.7717696216
 20
153.1543342695
 10
87.8241534562
 20
153.0435567989
  0
LINE
  5
300
100
AcDbEntity
  8
0
100
AcDbLine
 62
7
  6
BYLAYER
 10
89.8500740988
 20
159.2540067422
 11
91.5216528083
 21
159.3832859979
  0
LINE
  5
301
100
AcDbEntity
  8
0
100
AcDbLine
 62
7
  6
BYLAYER
 10
96.6494565878
 20
159.741776228
 11
98.1933000963
 21
159.8604642358
  0
LINE
  5
302
100
AcDbEntity
  8
0
100
AcDbLine
 62
7
  6
BYLAYER
 10
90.0069584515
 20
156.2671922056
 11
91.7301780292
 21
156.3988372708
  0
LINE
  5
303
100
AcDbEntity
  8
0
100
AcDbLine
 62
7
  6
BYLAYER
 10
91.3613965741
 20
153.3728224609
 11
96.9819047347
 21
153.7675266657
  0
LINE
  5
304
100
AcDbEntity
  8
0
100
AcDbLine
 62
7
  6
BYLAYER
 10
91.4846704893
 20
156.3816260294
 11
97.0578880087
 21
156.7730940138
  0
LINE
  5
305
100
AcDbEntity
  8
0
100
AcDbLine
 62
7
  6
BYLAYER
 10
91.3593695316
 20
159.3726744444
 11
96.6850858425
 21
159.745370126
  0
LWPOLYLINE
  5
306
100
AcDbEntity
  8
0
100
AcDbPolyline
 62
7
  6
BYLAYER
 90
3
 70
0
 10
101.8121580364
 20
154.1700694572
 10
101.4868603665
 20
154.3179047736
 10
101.4544233251
 20
154.3260784163
  0
LWPOLYLINE
  5
307
100
AcDbEntity
  8
0
100
AcDbPolyline
 62
7
  6
BYLAYER
 90
3
 70
0
 10
101.8121580364
 20
160.1364701385
 10
101.7297896736
 20
160.2151285143
 10
101.4305962631
 20
160.3161177765
  0
LWPOLYLINE
  5
308
100
AcDbEntity
  8
0
100
AcDbPolyline
 62
7
  6
BYLAYER
 90
3
 70
0
 10
101.8121580364
 20
163.1459299148
 10
101.7594781216
 20
163.1978037582
 10
101.4278797283
 20
163.3143433039
  0
LWPOLYLINE
  5
309
100
AcDbEntity
  8
0
100
AcDbPolyline
 62
7
  6
BYLAYER
 90
3
 70
0
 10
101.8121580364
 20
157.146417741
 10
101.7640605303
 20
157.1942218889
 10
101.4253212785
 20
157.3153137346
  0
LWPOLYLINE
  5
30A
100
AcDbEntity
  8
0
100
AcDbPolyline
 62
7
  6
BYLAYER
 90
5
 70
0
 10
100.5037789389
 20
166.137716262
 10
100.4203516959
 20
166.1187170999
 10
100.0329665852
 20
166.0555710999
 10
99.7410825914
 20
166.0177889472
 10
98.9852190389
 20
165.9362775695
  0
LWPOLYLINE
  5
30B
100
AcDbEntity
  8
0
100
AcDbPolyline
 62
7
  6
BYLAYER
 90
4
 70
0
 10
100.5028726425
 20
169.1388401653
 10
100.2764399474
 20
169.092959158
 10
99.7736613532
 20
169.0212899863
 10
99.0351072591
 20
168.9407833549
  0
LWPOLYLINE
  5
30C
100
AcDbEntity
  8
0
100
AcDbPolyline
 62
7
  6
BYLAYER
 90
4
 70
0
 10
87.7383144389
 20
161.9932941691
 10
88.014284973
 20
162.0471356285
 10
88.6057151484
 20
162.1264494976
 10
89.0028233908
 20
162.1698186062
  0
LWPOLYLINE
  5
30D
100
AcDbEntity
  8
0
100
AcDbPolyline
 62
7
  6
BYLAYER
 90
5
 70
0
 10
87.7331366218
 20
164.9930186659
 10
87.9915963452
 20
165.0431559042
 10
88.5416392304
 20
165.1184519665
 10
89.3293277524
 20
165.2022503209
 10
90.3294269925
 20
165.2909203581
  0
LWPOLYLINE
  5
30E
100
AcDbEntity
  8
0
100
AcDbPolyline
 62
7
  6
BYLAYER
 90
4
 70
0
 10
100.5781549268
 20
163.1110365718
 10
101.1875603681
 20
163.225656
 10
101.7779169404
 20
163.4435208141
 10
101.8121580364
 20
163.4785283393
  0
LWPOLYLINE
  5
30F
100
AcDbEntity
  8
0
100
AcDbPolyline
 62
7
  6
BYLAYER
 90
4
 70
0
 10
100.5041169624
 20
166.1003110587
 10
101.1678238809
 20
166.222232698
 10
101.790878408
 20
166.4509057808
 10
101.8121580364
 20
166.4728689468
  0
LWPOLYLINE
  5
310
100
AcDbEntity
  8
0
100
AcDbPolyline
 62
7
  6
BYLAYER
 90
5
 70
0
 10
87.7328149102
 20
162.029955445
 10
87.0932661357
 20
161.9145301754
 10
86.4789316902
 20
161.6993684733
 10
85.7991570197
 20
161.0308995663
 10
85.6200999324
 20
160.3161457927
  0
LWPOLYLINE
  5
311
100
AcDbEntity
  8
0
100
AcDbPolyline
 62
7
  6
BYLAYER
 90
4
 70
0
 10
100.1125576879
 20
169.0486573396
 10
100.8648702688
 20
169.1590212029
 10
101.45903357
 20
169.3037198654
 10
101.8121580364
 20
169.5119570952
  0
LWPOLYLINE
  5
312
100
AcDbEntity
  8
0
100
AcDbPolyline
 62
7
  6
BYLAYER
 90
6
 70
0
 10
88.1780079371
 20
165.0892895985
 10
87.4077537304
 20
164.9787050451
 10
86.8135250302
 20
164.8368004629
 10
86.1358817992
 20
164.4574324571
 10
85.6417336753
 20
163.5273787561
 10
85.6262313008
 20
163.3140905987
  0
LINE
  5
313
100
AcDbEntity
  8
0
100
AcDbLine
 62
7
  6
BYLAYER
 10
100.1913334377
 20
163.0581652968
 11
100.5781549268
 21
163.1110365718
  0
LINE
  5
314
100
AcDbEntity
  8
0
100
AcDbLine
 62
7
  6
BYLAYER
 10
88.5944750292
 20
162.136185789
 11
87.7337799608
 21
162.0300744219
  0
LINE
  5
315
100
AcDbEntity
  8
0
100
AcDbLine
 62
7
  6
BYLAYER
 10
99.5452440918
 20
165.9843125802
 11
100.5041169624
 21
166.1003110587
  0
LINE
  5
316
100
AcDbEntity
  8
0
100
AcDbLine
 62
7
  6
BYLAYER
 10
88.5944750292
 20
162.136185789
 11
89.9788633957
 21
162.2611183245
  0
LWPOLYLINE
  5
317
100
AcDbEntity
  8
0
100
AcDbPolyline
 62
7
  6
BYLAYER
 90
3
 70
0
 10
89.8103710742
 20
165.2504863129
 10
88.6542882931
 20
165.1424300763
 10
88.1780079371
 20
165.0892895985
  0
LINE
  5
318
100
AcDbEntity
  8
0
100
AcDbLine
 62
7
  6
BYLAYER
 10
99.5452440918
 20
165.9843125802
 11
98.023599783
 21
165.8498061484
  0
LINE
  5
319
100
AcDbEntity
  8
0
100
AcDbLine
 62
7
  6
BYLAYER
 10
91.1886172149
 20
162.3597964601
 11
89.7465622175
 21
162.2454373592
  0
LINE
  5
31A
100
AcDbEntity
  8
0
100
AcDbLine
 62
7
  6
BYLAYER
 10
89.8103710742
 20
165.2504863129
 11
91.5182349553
 21
165.3832517003
  0
LINE
  5
31B
100
AcDbEntity
  8
0
100
AcDbLine
 62
7
  6
BYLAYER
 10
96.6810850618
 20
165.7441078719
 11
98.2312010364
 21
165.863920841
  0
LWPOLYLINE
  5
31C
100
AcDbEntity
  8
0
100
AcDbPolyline
 62
7
  6
BYLAYER
 90
4
 70
0
 10
96.5759520127
 20
162.7363188978
 10
98.0132766879
 20
162.8459827659
 10
99.222159038
 20
162.9524868332
 10
100.1913334377
 20
163.0581652968
  0
LINE
  5
31D
100
AcDbEntity
  8
0
100
AcDbLine
 62
7
  6
BYLAYER
 10
91.1765851368
 20
162.357528368
 11
96.5759520127
 21
162.7363188978
  0
LINE
  5
31E
100
AcDbEntity
  8
0
100
AcDbLine
 62
7
  6
BYLAYER
 10
96.8892512483
 20
165.7603663854
 11
91.2328632016
 21
165.3631188131
  0
LWPOLYLINE
  5
31F
100
AcDbEntity
  8
0
100
AcDbPolyline
 62
7
  6
BYLAYER
 90
3
 70
0
 10
101.8121580364
 20
166.1385454487
 10
101.7436181462
 20
166.2052465621
 10
101.4237158536
 20
166.3161500097
  0
LWPOLYLINE
  5
320
100
AcDbEntity
  8
0
100
AcDbPolyline
 62
7
  6
BYLAYER
 90
3
 70
0
 10
101.8121580364
 20
172.147216849
 10
101.7607893713
 20
172.1973071257
 10
101.4299080615
 20
172.3164682712
  0
LWPOLYLINE
  5
321
100
AcDbEntity
  8
0
100
AcDbPolyline
 62
7
  6
BYLAYER
 90
3
 70
0
 10
101.8121580364
 20
169.1549001598
 10
101.7753725684
 20
169.1917912565
 10
101.4605295382
 20
169.3046020367
  0
LWPOLYLINE
  5
322
100
AcDbEntity
  8
0
100
AcDbPolyline
 62
7
  6
BYLAYER
 90
4
 70
0
 10
88.3345301205
 20
223.8155777437
 10
89.566543628
 20
220.8019931148
 10
90.8244973034
 20
219.3917285351
 10
90.9301513619
 20
219.3387156715
  0
LWPOLYLINE
  5
323
100
AcDbEntity
  8
0
100
AcDbPolyline
 62
7
  6
BYLAYER
 90
5
 70
0
 10
100.5121771567
 20
178.1407327088
 10
100.4491036524
 20
178.1257952051
 10
100.1095120618
 20
178.0670420758
 10
99.5345586378
 20
177.993409104
 10
98.7570080229
 20
177.913983737
  0
LWPOLYLINE
  5
324
100
AcDbEntity
  8
0
100
AcDbPolyline
 62
7
  6
BYLAYER
 90
6
 70
0
 10
87.7283062417
 20
167.9905695237
 10
87.8000122968
 20
168.0073165893
 10
88.1485927542
 20
168.0668237851
 10
88.7285281034
 20
168.1404194061
 10
89.515939538
 20
168.2202753435
 10
90.4878754888
 20
168.3037617082
  0
LWPOLYLINE
  5
325
100
AcDbEntity
  8
0
100
AcDbPolyline
 62
7
  6
BYLAYER
 90
6
 70
0
 10
100.5131724001
 20
172.1407023326
 10
100.4434197542
 20
172.1244168264
 10
100.0901708213
 20
172.0642649045
 10
99.5028693324
 20
171.9899807378
 10
98.7154087329
 20
171.9101444519
 10
97.7410908783
 20
171.8264652963
  0
LWPOLYLINE
  5
326
100
AcDbEntity
  8
0
100
AcDbPolyline
 62
7
  6
BYLAYER
 90
5
 70
0
 10
100.50343986
 20
175.1375711115
 10
100.2603449958
 20
175.0898129594
 10
99.7203993272
 20
175.0152816464
 10
98.9500536577
 20
174.9328084465
 10
97.9726863478
 20
174.845514978
  0
LWPOLYLINE
  5
327
100
AcDbEntity
  8
0
100
AcDbPolyline
 62
7
  6
BYLAYER
 90
4
 70
0
 10
87.7415337408
 20
170.9938284105
 10
88.0029604117
 20
171.0451169483
 10
88.5442712372
 20
171.1193435732
 10
89.3504388886
 20
171.2043903104
  0
LWPOLYLINE
  5
328
100
AcDbEntity
  8
0
100
AcDbPolyline
 62
7
  6
BYLAYER
 90
5
 70
0
 10
87.7287656406
 20
173.9911704231
 10
87.9909632028
 20
174.0424742368
 10
88.5275998348
 20
174.1167978196
 10
89.2919106756
 20
174.1989672404
 10
90.2686221036
 20
174.2859523464
  0
LWPOLYLINE
  5
329
100
AcDbEntity
  8
0
100
AcDbPolyline
 62
7
  6
BYLAYER
 90
4
 70
0
 10
100.5096255949
 20
175.1016259227
 10
101.1656607498
 20
175.2211569498
 10
101.7639839208
 20
175.4335275586
 10
101.8121580364
 20
175.4815261683
  0
LWPOLYLINE
  5
32A
100
AcDbEntity
  8
0
100
AcDbPolyline
 62
7
  6
BYLAYER
 90
4
 70
0
 10
100.4587624607
 20
172.0937027957
 10
101.1390501322
 20
172.2140359934
 10
101.7537959116
 20
172.4305327916
 10
101.8121580364
 20
172.4886631618
  0
LWPOLYLINE
  5
32B
100
AcDbEntity
  8
0
100
AcDbPolyline
 62
7
  6
BYLAYER
 90
5
 70
0
 10
87.836316058
 20
168.0449702848
 10
87.1347598768
 20
167.9250507769
 10
86.5032882469
 20
167.7106579598
 10
85.8115545518
 20
167.0425168909
 10
85.6268818473
 20
166.3164858432
  0
LWPOLYLINE
  5
32C
100
AcDbEntity
  8
0
100
AcDbPolyline
 62
7
  6
BYLAYER
 90
6
 70
0
 10
88.1538616217
 20
171.0859247306
 10
87.3936987181
 20
170.9753818227
 10
86.8017813546
 20
170.8340002942
 10
86.1220891205
 20
170.4511460386
 10
85.6351874028
 20
169.5271440417
 10
85.6199601498
 20
169.3159676498
  0
LWPOLYLINE
  5
32D
100
AcDbEntity
  8
0
100
AcDbPolyline
 62
7
  6
BYLAYER
 90
4
 70
0
 10
88.5781800544
 20
174.1345453637
 10
87.7091217907
 20
174.0272084115
 10
87.0640121347
 20
173.9072522549
 10
86.4804725872
 20
173.6968372797
  0
LINE
  5
32E
100
AcDbEntity
  8
0
100
AcDbLine
 62
7
  6
BYLAYER
 10
89.7078531402
 20
174.2417629488
 11
88.5781800544
 21
174.1345453637
  0
LWPOLYLINE
  5
32F
100
AcDbEntity
  8
0
100
AcDbPolyline
 62
7
  6
BYLAYER
 90
3
 70
0
 10
98.4921919365
 20
174.8856479081
 10
99.6331002969
 20
174.9936989296
 10
100.5078920907
 20
175.1014124755
  0
LWPOLYLINE
  5
330
100
AcDbEntity
  8
0
100
AcDbPolyline
 62
7
  6
BYLAYER
 90
3
 70
0
 10
98.2982840301
 20
171.8694530729
 10
99.5441717147
 20
171.9846942654
 10
100.4587624607
 20
172.0937027957
  0
LWPOLYLINE
  5
331
100
AcDbEntity
  8
0
100
AcDbPolyline
 62
7
  6
BYLAYER
 90
3
 70
0
 10
89.9899742974
 20
168.2658894853
 10
88.7862184138
 20
168.1557741898
 10
87.836316058
 20
168.0449702848
  0
LWPOLYLINE
  5
332
100
AcDbEntity
  8
0
100
AcDbPolyline
 62
7
  6
BYLAYER
 90
3
 70
0
 10
97.8613894321
 20
168.8335702186
 10
99.1058595126
 20
168.9408939248
 10
100.1125576879
 20
169.0486573396
  0
LWPOLYLINE
  5
333
100
AcDbEntity
  8
0
100
AcDbPolyline
 62
7
  6
BYLAYER
 90
3
 70
0
 10
90.4298474285
 20
171.3016140015
 10
89.1736061097
 20
171.1941170158
 10
88.1538616217
 20
171.0859247306
  0
LINE
  5
334
100
AcDbEntity
  8
0
100
AcDbLine
 62
7
  6
BYLAYER
 10
98.4921919365
 20
174.8856479081
 11
96.8025070368
 21
174.7539073758
  0
LINE
  5
335
100
AcDbEntity
  8
0
100
AcDbLine
 62
7
  6
BYLAYER
 10
89.7078531402
 20
174.2417629488
 11
91.4358953837
 21
174.3769924698
  0
LINE
  5
336
100
AcDbEntity
  8
0
100
AcDbLine
 62
7
  6
BYLAYER
 10
89.9899742974
 20
168.2658894853
 11
91.622993804
 21
168.3907450531
  0
LINE
  5
337
100
AcDbEntity
  8
0
100
AcDbLine
 62
7
  6
BYLAYER
 10
98.2982840301
 20
171.8694530729
 11
96.6031351585
 21
171.739380046
  0
LINE
  5
338
100
AcDbEntity
  8
0
100
AcDbLine
 62
7
  6
BYLAYER
 10
96.4680613622
 20
168.7286736591
 11
98.0962831261
 21
168.8559727678
  0
LINE
  5
339
100
AcDbEntity
  8
0
100
AcDbLine
 62
7
  6
BYLAYER
 10
91.8197446672
 20
171.405916759
 11
90.4071617662
 21
171.2970026911
  0
LINE
  5
33A
100
AcDbEntity
  8
0
100
AcDbLine
 62
7
  6
BYLAYER
 10
91.0494592373
 20
174.349346432
 11
97.140459985
 21
174.7780445944
  0
LINE
  5
33B
100
AcDbEntity
  8
0
100
AcDbLine
 62
7
  6
BYLAYER
 10
96.98019383
 20
168.7674736223
 11
91.3740634879
 21
168.3737477939
  0
LINE
  5
33C
100
AcDbEntity
  8
0
100
AcDbLine
 62
7
  6
BYLAYER
 10
96.7107012612
 20
171.746048994
 11
91.7060149412
 21
171.3969500752
  0
LINE
  5
33D
100
AcDbEntity
  8
0
100
AcDbLine
 62
7
  6
BYLAYER
 10
86.7408422351
 20
173.8190637724
 11
86.7275228724
 21
173.8239330191
  0
LWPOLYLINE
  5
33E
100
AcDbEntity
  8
0
100
AcDbPolyline
 62
7
  6
BYLAYER
 90
3
 70
0
 10
101.8121580364
 20
184.1383210202
 10
101.7328967298
 20
184.2139478802
 10
101.4295661705
 20
184.3166230276
  0
LWPOLYLINE
  5
33F
100
AcDbEntity
  8
0
100
AcDbPolyline
 62
7
  6
BYLAYER
 90
3
 70
0
 10
101.8121580364
 20
181.1358901852
 10
101.7367991455
 20
181.2088787166
 10
101.4242257914
 20
181.3153195542
  0
LINE
  5
340
100
AcDbEntity
  8
0
100
AcDbLine
 62
7
  6
BYLAYER
 10
100.8339829136
 20
226.1505548228
 11
97.0176467811
 21
235.4986310342
  0
LWPOLYLINE
  5
341
100
AcDbEntity
  8
0
100
AcDbPolyline
 62
7
  6
BYLAYER
 90
4
 70
0
 10
100.5061241087
 20
184.1396580634
 10
100.295169684
 20
184.0963716576
 10
99.8109214388
 20
184.0260413788
 10
99.0680626449
 20
183.9439439127
  0
LWPOLYLINE
  5
342
100
AcDbEntity
  8
0
100
AcDbPolyline
 62
7
  6
BYLAYER
 90
4
 70
0
 10
100.5030718811
 20
181.1375176159
 10
100.2690654991
 20
181.0912269092
 10
99.7463214647
 20
181.0183803516
 10
98.9977183688
 20
180.9374381992
  0
LWPOLYLINE
  5
343
100
AcDbEntity
  8
0
100
AcDbPolyline
 62
7
  6
BYLAYER
 90
4
 70
0
 10
87.7401727655
 20
176.9934625626
 10
88.0016198618
 20
177.0448578734
 10
88.5449796836
 20
177.1194429147
 10
89.3354544959
 20
177.202986628
  0
LWPOLYLINE
  5
344
100
AcDbEntity
  8
0
100
AcDbPolyline
 62
7
  6
BYLAYER
 90
5
 70
0
 10
87.734174824
 20
179.993289508
 10
88.0211239443
 20
180.0477731456
 10
88.5961298219
 20
180.1248933036
 10
89.4383477855
 20
180.212729897
 10
90.5374475392
 20
180.307891132
  0
LWPOLYLINE
  5
345
100
AcDbEntity
  8
0
100
AcDbPolyline
 62
7
  6
BYLAYER
 90
5
 70
0
 10
87.8032117261
 20
180.0407479283
 10
87.1162094619
 20
179.9195802683
 10
86.4967332715
 20
179.7055604602
 10
85.8098306368
 20
179.0408260656
 10
85.6244570954
 20
178.3136474542
  0
LWPOLYLINE
  5
346
100
AcDbEntity
  8
0
100
AcDbPolyline
 62
7
  6
BYLAYER
 90
4
 70
0
 10
100.3764886332
 20
178.0822915803
 10
101.1103353966
 20
178.2074991925
 10
101.7479746706
 20
178.4275324042
 10
101.8121580364
 20
178.4911831751
  0
LWPOLYLINE
  5
347
100
AcDbEntity
  8
0
100
AcDbPolyline
 62
7
  6
BYLAYER
 90
4
 70
0
 10
100.398312609
 20
184.0856683101
 10
101.1020717727
 20
184.2056445974
 10
101.741819983
 20
184.4224368619
 10
101.8121580364
 20
184.4915147136
  0
LWPOLYLINE
  5
348
100
AcDbEntity
  8
0
100
AcDbPolyline
 62
7
  6
BYLAYER
 90
6
 70
0
 10
88.1802058025
 20
177.0889820345
 10
87.4082120288
 20
176.9781228722
 10
86.812613711
 20
176.8378730359
 10
86.1257591314
 20
176.4526191442
 10
85.6387331771
 20
175.5237252687
 10
85.6240432776
 20
175.3171345048
  0
LWPOLYLINE
  5
349
100
AcDbEntity
  8
0
100
AcDbPolyline
 62
7
  6
BYLAYER
 90
5
 70
0
 10
99.5870863443
 20
180.9886246319
 10
100.5188047522
 20
181.1026663685
 10
101.1737782506
 20
181.2236134384
 10
101.7890575193
 20
181.4489096088
 10
101.8121580364
 20
181.4727642758
  0
LINE
  5
34A
100
AcDbEntity
  8
0
100
AcDbLine
 62
7
  6
BYLAYER
 10
99.3173188812
 20
177.9617194165
 11
100.3764886332
 21
178.0822915803
  0
LWPOLYLINE
  5
34B
100
AcDbEntity
  8
0
100
AcDbPolyline
 62
7
  6
BYLAYER
 90
3
 70
0
 10
89.9473137948
 20
180.2621188408
 10
88.745915423
 20
180.1520650168
 10
87.8032117261
 20
180.0407479283
  0
LINE
  5
34C
100
AcDbEntity
  8
0
100
AcDbLine
 62
7
  6
BYLAYER
 10
99.5870863443
 20
180.9886246319
 11
98.0535192713
 21
180.8522660601
  0
LINE
  5
34D
100
AcDbEntity
  8
0
100
AcDbLine
 62
7
  6
BYLAYER
 10
99.3173188812
 20
177.9617194165
 11
97.7923997924
 21
177.830674275
  0
LWPOLYLINE
  5
34E
100
AcDbEntity
  8
0
100
AcDbPolyline
 62
7
  6
BYLAYER
 90
3
 70
0
 10
90.4841279087
 20
177.3059917224
 10
89.2133396922
 20
177.1977552267
 10
88.1802058025
 20
177.0889820345
  0
LINE
  5
34F
100
AcDbEntity
  8
0
100
AcDbLine
 62
7
  6
BYLAYER
 10
96.7246022169
 20
180.7473149488
 11
98.2966448878
 21
180.8692919621
  0
LINE
  5
350
100
AcDbEntity
  8
0
100
AcDbLine
 62
7
  6
BYLAYER
 10
96.5175290149
 20
177.7320339553
 11
97.9793307167
 21
177.8431450742
  0
LINE
  5
351
100
AcDbEntity
  8
0
100
AcDbLine
 62
7
  6
BYLAYER
 10
89.9473137948
 20
180.2621188408
 11
91.8680949565
 21
180.4087879976
  0
LINE
  5
352
100
AcDbEntity
  8
0
100
AcDbLine
 62
7
  6
BYLAYER
 10
91.887361823
 20
177.4108131351
 11
90.3359281905
 21
177.2911823385
  0
LINE
  5
353
100
AcDbEntity
  8
0
100
AcDbLine
 62
7
  6
BYLAYER
 10
96.9302144725
 20
180.7634524268
 11
91.3207709538
 21
180.3696325805
  0
LINE
  5
354
100
AcDbEntity
  8
0
100
AcDbLine
 62
7
  6
BYLAYER
 10
96.6643812749
 20
177.7439180744
 11
91.5164795924
 21
177.3829757338
  0
LWPOLYLINE
  5
355
100
AcDbEntity
  8
0
100
AcDbPolyline
 62
7
  6
BYLAYER
 90
3
 70
0
 10
101.8121580364
 20
190.1378776768
 10
101.7418836358
 20
190.20603162
 10
101.4244459484
 20
190.3158437706
  0
LWPOLYLINE
  5
356
100
AcDbEntity
  8
0
100
AcDbPolyline
 62
7
  6
BYLAYER
 90
3
 70
0
 10
101.8121580364
 20
187.1424882332
 10
101.7545145106
 20
187.1992307645
 10
101.4259150422
 20
187.3142108911
  0
LINE
  5
357
100
AcDbEntity
  8
0
100
AcDbLine
 62
7
  6
BYLAYER
 10
103.6114432129
 20
227.2844482418
 11
99.7951070805
 21
236.6325244532
  0
LWPOLYLINE
  5
358
100
AcDbEntity
  8
0
100
AcDbPolyline
 62
7
  6
BYLAYER
 90
5
 70
0
 10
87.7358434198
 20
182.9922292715
 10
88.011756207
 20
183.0460095487
 10
88.5741227768
 20
183.1228275616
 10
89.3817835569
 20
183.2076268314
 10
90.4095111552
 20
183.2972906608
  0
LWPOLYLINE
  5
359
100
AcDbEntity
  8
0
100
AcDbPolyline
 62
7
  6
BYLAYER
 90
4
 70
0
 10
100.5067746143
 20
190.1382586656
 10
100.2421648264
 20
190.0870127919
 10
99.6702216603
 20
190.0093602527
 10
98.8527175626
 20
189.9233604745
  0
LWPOLYLINE
  5
35A
100
AcDbEntity
  8
0
100
AcDbPolyline
 62
7
  6
BYLAYER
 90
5
 70
0
 10
87.6952078843
 20
189.0248047631
 10
87.0540983167
 20
188.9047558377
 10
86.450747202
 20
188.682207667
 10
85.7952098528
 20
188.0184289828
 10
85.621556225
 20
187.3138328749
  0
LWPOLYLINE
  5
35B
100
AcDbEntity
  8
0
100
AcDbPolyline
 62
7
  6
BYLAYER
 90
5
 70
0
 10
87.7042032705
 20
186.0259503555
 10
87.0661675417
 20
185.9076938615
 10
86.4850789984
 20
185.701138073
 10
85.809435187
 20
185.0476815886
 10
85.6204595663
 20
184.3142331368
  0
LWPOLYLINE
  5
35C
100
AcDbEntity
  8
0
100
AcDbPolyline
 62
7
  6
BYLAYER
 90
4
 70
0
 10
100.5025684661
 20
190.1002561615
 10
101.163452827
 20
190.2210754141
 10
101.7860183199
 20
190.447133129
 10
101.8121580364
 20
190.4740581626
  0
LWPOLYLINE
  5
35D
100
AcDbEntity
  8
0
100
AcDbPolyline
 62
7
  6
BYLAYER
 90
4
 70
0
 10
100.4815037721
 20
187.0970886127
 10
101.1562682362
 20
187.2178998217
 10
101.7636776296
 20
187.4348512075
 10
101.8121580364
 20
187.4836159953
  0
LWPOLYLINE
  5
35E
100
AcDbEntity
  8
0
100
AcDbPolyline
 62
7
  6
BYLAYER
 90
5
 70
0
 10
87.7731421973
 20
183.0360541619
 10
87.1015216579
 20
182.9174810751
 10
86.4956432005
 20
182.7073032526
 10
85.8089978858
 20
182.0398925229
 10
85.6258159736
 20
181.3167371529
  0
LINE
  5
35F
100
AcDbEntity
  8
0
100
AcDbLine
 62
7
  6
BYLAYER
 10
88.5686260371
 20
186.1336267712
 11
87.7042032705
 21
186.0259503555
  0
LINE
  5
360
100
AcDbEntity
  8
0
100
AcDbLine
 62
7
  6
BYLAYER
 10
88.5868451018
 20
189.1355915013
 11
87.6952078843
 21
189.0248047631
  0
LINE
  5
361
100
AcDbEntity
  8
0
100
AcDbLine
 62
7
  6
BYLAYER
 10
99.5601418299
 20
189.9858119894
 11
100.5025684661
 21
190.1002561615
  0
LINE
  5
362
100
AcDbEntity
  8
0
100
AcDbLine
 62
7
  6
BYLAYER
 10
99.4455394419
 20
183.9745039405
 11
100.398312609
 21
184.0856683101
  0
LINE
  5
363
100
AcDbEntity
  8
0
100
AcDbLine
 62
7
  6
BYLAYER
 10
89.8141832215
 20
189.2509951349
 11
88.5868451018
 21
189.1355915013
  0
LWPOLYLINE
  5
364
100
AcDbEntity
  8
0
100
AcDbPolyline
 62
7
  6
BYLAYER
 90
3
 70
0
 10
89.8558585494
 20
183.2546708273
 10
88.6698010228
 20
183.143792254
 10
87.7731421973
 20
183.0360541619
  0
LINE
  5
365
100
AcDbEntity
  8
0
100
AcDbLine
 62
7
  6
BYLAYER
 10
99.4455394419
 20
183.9745039405
 11
98.0759912781
 21
183.8541986683
  0
LINE
  5
366
100
AcDbEntity
  8
0
100
AcDbLine
 62
7
  6
BYLAYER
 10
99.5601418299
 20
189.9858119894
 11
97.8193451156
 21
189.832784472
  0
LWPOLYLINE
  5
367
100
AcDbEntity
  8
0
100
AcDbPolyline
 62
7
  6
BYLAYER
 90
4
 70
0
 10
97.0362823677
 20
186.7700558008
 10
98.4018051688
 20
186.8780852582
 10
99.5718285592
 20
186.9875675082
 10
100.4815037721
 20
187.0970886127
  0
LWPOLYLINE
  5
368
100
AcDbEntity
  8
0
100
AcDbPolyline
 62
7
  6
BYLAYER
 90
3
 70
0
 10
91.3107123581
 20
186.3688091354
 10
89.7710882234
 20
186.2473982568
 10
88.5686260371
 20
186.1336267712
  0
LINE
  5
369
100
AcDbEntity
  8
0
100
AcDbLine
 62
7
  6
BYLAYER
 10
96.8092054604
 20
183.7533309406
 11
98.2284146085
 21
183.8633948378
  0
LINE
  5
36A
100
AcDbEntity
  8
0
100
AcDbLine
 62
7
  6
BYLAYER
 10
89.8558585494
 20
183.2546708273
 11
91.6312184067
 21
183.3913437801
  0
LINE
  5
36B
100
AcDbEntity
  8
0
100
AcDbLine
 62
7
  6
BYLAYER
 10
98.2670572298
 20
189.8668239697
 11
96.600323819
 21
189.7390060347
  0
LINE
  5
36C
100
AcDbEntity
  8
0
100
AcDbLine
 62
7
  6
BYLAYER
 10
89.8141832215
 20
189.2509951349
 11
91.9203494348
 21
189.4125776769
  0
LINE
  5
36D
100
AcDbEntity
  8
0
100
AcDbLine
 62
7
  6
BYLAYER
 10
91.3107123581
 20
186.3688091354
 11
97.0362823677
 21
186.7700558008
  0
LINE
  5
36E
100
AcDbEntity
  8
0
100
AcDbLine
 62
7
  6
BYLAYER
 10
96.851526057
 20
183.7578262195
 11
91.3265401166
 21
183.370217509
  0
LINE
  5
36F
100
AcDbEntity
  8
0
100
AcDbLine
 62
7
  6
BYLAYER
 10
96.7047893809
 20
189.7458529012
 11
91.3113534374
 21
189.3688812577
  0
LWPOLYLINE
  5
370
100
AcDbEntity
  8
0
100
AcDbPolyline
 62
7
  6
BYLAYER
 90
3
 70
0
 10
101.8121580364
 20
199.1352924856
 10
101.7337424097
 20
199.2106524507
 10
101.4552210788
 20
199.3065602403
  0
LWPOLYLINE
  5
371
100
AcDbEntity
  8
0
100
AcDbPolyline
 62
7
  6
BYLAYER
 90
3
 70
0
 10
101.8121580364
 20
196.1370614387
 10
101.7393126933
 20
196.2073205283
 10
101.4263146908
 20
196.3168818598
  0
LWPOLYLINE
  5
372
100
AcDbEntity
  8
0
100
AcDbPolyline
 62
7
  6
BYLAYER
 90
3
 70
0
 10
101.8121580364
 20
205.140365903
 10
101.7479594332
 20
205.2033081863
 10
101.4261187871
 20
205.3147558597
  0
LWPOLYLINE
  5
373
100
AcDbEntity
  8
0
100
AcDbPolyline
 62
7
  6
BYLAYER
 90
3
 70
0
 10
101.8121580364
 20
202.1496867897
 10
101.7638805565
 20
202.1973037245
 10
101.4262300815
 20
202.3165408502
  0
LWPOLYLINE
  5
374
100
AcDbEntity
  8
0
100
AcDbPolyline
 62
7
  6
BYLAYER
 90
4
 70
0
 10
100.5063222975
 20
193.1396461599
 10
100.2891223676
 20
193.0952872279
 10
99.7870245201
 20
193.0230350066
 10
99.020303684
 20
192.9392408684
  0
LWPOLYLINE
  5
375
100
AcDbEntity
  8
0
100
AcDbPolyline
 62
7
  6
BYLAYER
 90
5
 70
0
 10
87.7346257005
 20
191.9918902487
 10
87.9673374797
 20
192.0387846901
 10
88.4652730646
 20
192.1097217712
 10
89.1988488537
 20
192.1899005008
 10
90.1411114246
 20
192.275066905
  0
LWPOLYLINE
  5
376
100
AcDbEntity
  8
0
100
AcDbPolyline
 62
7
  6
BYLAYER
 90
5
 70
0
 10
87.732324736
 20
194.9927919029
 10
87.9990728694
 20
195.0443953296
 10
88.5708825122
 20
195.1219783515
 10
89.4120637995
 20
195.2102106314
 10
89.9293519861
 20
195.2571009845
  0
LWPOLYLINE
  5
377
100
AcDbEntity
  8
0
100
AcDbPolyline
 62
7
  6
BYLAYER
 90
5
 70
0
 10
87.6857021148
 20
195.0233415643
 10
87.052623353
 20
194.9044095542
 10
86.4749797907
 20
194.695426162
 10
85.8056847414
 20
194.0391026976
 10
85.6212087276
 20
193.3139226066
  0
LWPOLYLINE
  5
378
100
AcDbEntity
  8
0
100
AcDbPolyline
 62
7
  6
BYLAYER
 90
5
 70
0
 10
87.6974718639
 20
192.025228624
 10
87.0520480275
 20
191.9058041539
 10
86.4402396144
 20
191.6771597997
 10
85.7922394656
 20
191.0064300018
 10
85.6262281748
 20
190.3164899089
  0
LWPOLYLINE
  5
379
100
AcDbEntity
  8
0
100
AcDbPolyline
 62
7
  6
BYLAYER
 90
4
 70
0
 10
100.4707379113
 20
193.095597269
 10
101.1460086033
 20
193.2154888465
 10
101.773601024
 20
193.4399821414
 10
101.8121580364
 20
193.4792942323
  0
LWPOLYLINE
  5
37A
100
AcDbEntity
  8
0
100
AcDbPolyline
 62
7
  6
BYLAYER
 90
4
 70
0
 10
100.4523764327
 20
196.0926576144
 10
101.1343698735
 20
196.2130984445
 10
101.7677837493
 20
196.4382706395
 10
101.8121580364
 20
196.4832558001
  0
LWPOLYLINE
  5
37B
100
AcDbEntity
  8
0
100
AcDbPolyline
 62
7
  6
BYLAYER
 90
4
 70
0
 10
100.2254769971
 20
199.0625787413
 10
100.937526162
 20
199.172755607
 10
101.491930207
 20
199.3160481671
 10
101.8121580364
 20
199.5090515538
  0
LINE
  5
37C
100
AcDbEntity
  8
0
100
AcDbLine
 62
7
  6
BYLAYER
 10
88.5483377239
 20
195.1314691074
 11
87.6857021148
 21
195.0233415643
  0
LINE
  5
37D
100
AcDbEntity
  8
0
100
AcDbLine
 62
7
  6
BYLAYER
 10
88.5690124488
 20
192.1331290531
 11
87.6974718639
 21
192.025228624
  0
LINE
  5
37E
100
AcDbEntity
  8
0
100
AcDbLine
 62
7
  6
BYLAYER
 10
99.5650233743
 20
192.9868562399
 11
100.4707379113
 21
193.095597269
  0
LINE
  5
37F
100
AcDbEntity
  8
0
100
AcDbLine
 62
7
  6
BYLAYER
 10
99.526776424
 20
195.9827031384
 11
100.4523764327
 21
196.0926576144
  0
LINE
  5
380
100
AcDbEntity
  8
0
100
AcDbLine
 62
7
  6
BYLAYER
 10
99.526776424
 20
195.9827031384
 11
98.1119790021
 21
195.8570588941
  0
LINE
  5
381
100
AcDbEntity
  8
0
100
AcDbLine
 62
7
  6
BYLAYER
 10
99.5650233743
 20
192.9868562399
 11
98.0111283031
 21
192.8487844591
  0
LINE
  5
382
100
AcDbEntity
  8
0
100
AcDbLine
 62
7
  6
BYLAYER
 10
98.6684047388
 20
195.9011759738
 11
98.6685596576
 21
195.9011896412
  0
LWPOLYLINE
  5
383
100
AcDbEntity
  8
0
100
AcDbPolyline
 62
7
  6
BYLAYER
 90
3
 70
0
 10
91.1466743915
 20
195.3554143099
 10
89.6953270848
 20
195.2408391488
 10
88.5483377239
 20
195.1314691074
  0
LINE
  5
384
100
AcDbEntity
  8
0
100
AcDbLine
 62
7
  6
BYLAYER
 10
98.6685596576
 20
195.9011896412
 11
96.9718458802
 21
195.7665926286
  0
LWPOLYLINE
  5
385
100
AcDbEntity
  8
0
100
AcDbPolyline
 62
7
  6
BYLAYER
 90
3
 70
0
 10
91.2878718247
 20
192.367369972
 10
89.7700363644
 20
192.2473146899
 10
88.5690124488
 20
192.1331290531
  0
LINE
  5
386
100
AcDbEntity
  8
0
100
AcDbLine
 62
7
  6
BYLAYER
 10
98.4022781851
 20
192.878105045
 11
96.7924633602
 21
192.7534088729
  0
LINE
  5
387
100
AcDbEntity
  8
0
100
AcDbLine
 62
7
  6
BYLAYER
 10
91.088091559
 20
195.3522222281
 11
94.1591489247
 21
195.5681070148
  0
LINE
  5
388
100
AcDbEntity
  8
0
100
AcDbLine
 62
7
  6
BYLAYER
 10
97.4408873792
 20
195.8007335176
 11
92.6275604975
 21
195.4631387233
  0
LINE
  5
389
100
AcDbEntity
  8
0
100
AcDbLine
 62
7
  6
BYLAYER
 10
91.270633148
 20
192.3645371449
 11
97.0297130727
 21
192.7695717918
  0
LWPOLYLINE
  5
38A
100
AcDbEntity
  8
0
100
AcDbPolyline
 62
7
  6
BYLAYER
 90
3
 70
0
 10
101.8121580364
 20
211.1511210633
 10
101.7680864356
 20
211.1939926748
 10
101.4244008227
 20
211.3155845421
  0
LWPOLYLINE
  5
38B
100
AcDbEntity
  8
0
100
AcDbPolyline
 62
7
  6
BYLAYER
 90
3
 70
0
 10
101.8121580364
 20
208.149913436
 10
101.7639015195
 20
208.1974426098
 10
101.4312893419
 20
208.3155677051
  0
LWPOLYLINE
  5
38C
100
AcDbEntity
  8
0
100
AcDbPolyline
 62
7
  6
BYLAYER
 90
4
 70
0
 10
100.5082727451
 20
202.1399324174
 10
100.4101514586
 20
202.117797859
 10
99.9457594221
 20
202.0438012479
 10
99.1567920777
 20
201.9528002543
  0
LWPOLYLINE
  5
38D
100
AcDbEntity
  8
0
100
AcDbPolyline
 62
7
  6
BYLAYER
 90
5
 70
0
 10
100.5094366396
 20
208.1403117126
 10
100.3026604796
 20
208.0977788252
 10
99.8224449196
 20
208.0276630042
 10
99.1153529488
 20
207.9486156957
 10
98.2030969616
 20
207.8648449145
  0
LWPOLYLINE
  5
38E
100
AcDbEntity
  8
0
100
AcDbPolyline
 62
7
  6
BYLAYER
 90
5
 70
0
 10
100.5029429688
 20
205.1374871036
 10
100.2676201036
 20
205.0909806272
 10
99.7438718386
 20
205.0180660058
 10
98.9828628948
 20
204.9359650152
 10
98.0101502302
 20
204.8486209658
  0
LWPOLYLINE
  5
38F
100
AcDbEntity
  8
0
100
AcDbPolyline
 62
7
  6
BYLAYER
 90
4
 70
0
 10
87.7308709989
 20
203.9923155157
 10
88.026286735
 20
204.0484740212
 10
88.611400044
 20
204.1267056277
 10
89.4377670927
 20
204.2127698894
  0
LWPOLYLINE
  5
390
100
AcDbEntity
  8
0
100
AcDbPolyline
 62
7
  6
BYLAYER
 90
4
 70
0
 10
100.5553398959
 20
205.1082467701
 10
101.1913133631
 20
205.2276336502
 10
101.7980756237
 20
205.4527667323
 10
101.8121580364
 20
205.4674316488
  0
LWPOLYLINE
  5
391
100
AcDbEntity
  8
0
100
AcDbPolyline
 62
7
  6
BYLAYER
 90
4
 70
0
 10
100.4490944759
 20
202.0922977403
 10
101.1462444416
 20
202.2157609515
 10
101.7763479326
 20
202.4425646047
 10
101.8121580364
 20
202.4791191306
  0
LWPOLYLINE
  5
392
100
AcDbEntity
  8
0
100
AcDbPolyline
 62
7
  6
BYLAYER
 90
5
 70
0
 10
87.8054497117
 20
204.0410102322
 10
87.1115961229
 20
203.9184953524
 10
86.4912637049
 20
203.7030545835
 10
85.8072039939
 20
203.0376254965
 10
85.6234980144
 20
202.3136467507
  0
LWPOLYLINE
  5
393
100
AcDbEntity
  8
0
100
AcDbPolyline
 62
7
  6
BYLAYER
 90
5
 70
0
 10
87.851901746
 20
198.0471420889
 10
87.1524002768
 20
197.9289472366
 10
86.511627014
 20
197.7149360882
 10
85.8116099627
 20
197.0431797001
 10
85.6264964305
 20
196.3163339551
  0
LWPOLYLINE
  5
394
100
AcDbEntity
  8
0
100
AcDbPolyline
 62
7
  6
BYLAYER
 90
6
 70
0
 10
88.1933342601
 20
201.0905693998
 10
87.4117025587
 20
200.979182907
 10
86.8002957
 20
200.8344635682
 10
86.1076427281
 20
200.4356363064
 10
85.6387960101
 20
199.5239165409
 10
85.624190165
 20
199.316963956
  0
LINE
  5
395
100
AcDbEntity
  8
0
100
AcDbLine
 62
7
  6
BYLAYER
 10
99.678376684
 20
204.9983779291
 11
100.5553398959
 21
205.1082467701
  0
LINE
  5
396
100
AcDbEntity
  8
0
100
AcDbLine
 62
7
  6
BYLAYER
 10
99.493972556
 20
201.9794693125
 11
100.4490944759
 21
202.0922977403
  0
LINE
  5
397
100
AcDbEntity
  8
0
100
AcDbLine
 62
7
  6
BYLAYER
 10
88.7985769116
 20
204.157454275
 11
87.8054497117
 21
204.0410102322
  0
LINE
  5
398
100
AcDbEntity
  8
0
100
AcDbLine
 62
7
  6
BYLAYER
 10
98.4731999738
 20
204.8841139797
 11
99.678376684
 21
204.9983779291
  0
LINE
  5
399
100
AcDbEntity
  8
0
100
AcDbLine
 62
7
  6
BYLAYER
 10
99.493972556
 20
201.9794693125
 11
98.0637644276
 21
201.8530745761
  0
LWPOLYLINE
  5
39A
100
AcDbEntity
  8
0
100
AcDbPolyline
 62
7
  6
BYLAYER
 90
3
 70
0
 10
98.0239986682
 20
198.8467713417
 10
99.2511961488
 20
198.9547357718
 10
100.2254769971
 20
199.0625787413
  0
LINE
  5
39B
100
AcDbEntity
  8
0
100
AcDbLine
 62
7
  6
BYLAYER
 10
88.7985769116
 20
204.157454275
 11
90.4798198258
 21
204.303249918
  0
LWPOLYLINE
  5
39C
100
AcDbEntity
  8
0
100
AcDbPolyline
 62
7
  6
BYLAYER
 90
3
 70
0
 10
90.7291849249
 20
201.3251534267
 10
89.2865707162
 20
201.2044257687
 10
88.1933342601
 20
201.0905693998
  0
LINE
  5
39D
100
AcDbEntity
  8
0
100
AcDbLine
 62
7
  6
BYLAYER
 10
98.5634897754
 20
198.8965391653
 11
97.0853548838
 21
198.7754776712
  0
LINE
  5
39E
100
AcDbEntity
  8
0
100
AcDbLine
 62
7
  6
BYLAYER
 10
98.4731999738
 20
204.8841139797
 11
96.8442233159
 21
204.7570185146
  0
LWPOLYLINE
  5
39F
100
AcDbEntity
  8
0
100
AcDbPolyline
 62
7
  6
BYLAYER
 90
4
 70
0
 10
91.5927224065
 20
198.3897119369
 10
90.075910234
 20
198.2730578129
 10
88.8211182853
 20
198.1593673181
 10
87.851901746
 20
198.0471420889
  0
LINE
  5
3A0
100
AcDbEntity
  8
0
100
AcDbLine
 62
7
  6
BYLAYER
 10
96.6076046832
 20
201.738554612
 11
98.1992495694
 21
201.8611626346
  0
LINE
  5
3A1
100
AcDbEntity
  8
0
100
AcDbLine
 62
7
  6
BYLAYER
 10
90.121466226
 20
204.276560926
 11
91.7047983362
 21
204.3968767459
  0
LINE
  5
3A2
100
AcDbEntity
  8
0
100
AcDbLine
 62
7
  6
BYLAYER
 10
98.0239986682
 20
198.8467713417
 11
95.210354076
 21
198.6403420715
  0
LINE
  5
3A3
100
AcDbEntity
  8
0
100
AcDbLine
 62
7
  6
BYLAYER
 10
96.6228812534
 20
198.7399051499
 11
91.5927224065
 21
198.3897119369
  0
LINE
  5
3A4
100
AcDbEntity
  8
0
100
AcDbLine
 62
7
  6
BYLAYER
 10
96.6898108602
 20
201.7458103891
 11
90.7291849249
 21
201.3251534267
  0
LINE
  5
3A5
100
AcDbEntity
  8
0
100
AcDbLine
 62
7
  6
BYLAYER
 10
91.6668342441
 20
204.3949942418
 11
96.9945847601
 21
204.7672068407
  0
LWPOLYLINE
  5
3A6
100
AcDbEntity
  8
0
100
AcDbPolyline
 62
7
  6
BYLAYER
 90
8
 70
0
 10
101.8121580364
 20
220.1449134463
 10
101.7551716936
 20
220.2003602085
 10
101.0738556461
 20
220.4318176834
 10
100.2748051365
 20
220.5622547882
 10
99.1379070992
 20
220.6868264527
 10
97.6383808519
 20
220.8151936107
 10
95.8150023103
 20
220.949049759
 10
94.1200645321
 20
221.0655883208
  0
LWPOLYLINE
  5
3A7
100
AcDbEntity
  8
0
100
AcDbPolyline
 62
7
  6
BYLAYER
 90
5
 70
0
 10
87.3049695351
 20
209.9593110672
 10
86.8995851194
 20
209.8646260166
 10
86.3319969039
 20
209.6132951599
 10
85.7552523612
 20
208.9357765705
 10
85.6226867832
 20
208.3139255456
  0
LWPOLYLINE
  5
3A8
100
AcDbEntity
  8
0
100
AcDbPolyline
 62
7
  6
BYLAYER
 90
4
 70
0
 10
100.5114399091
 20
211.1403699024
 10
100.2518724203
 20
211.0892023295
 10
99.7181365152
 20
211.0149656286
 10
98.9616771121
 20
210.9334717345
  0
LINE
  5
3A9
100
AcDbEntity
  8
0
100
AcDbLine
 62
7
  6
BYLAYER
 10
87.3006320121
 20
209.9584800326
 11
87.3006854234
 21
209.9584903567
  0
LWPOLYLINE
  5
3AA
100
AcDbEntity
  8
0
100
AcDbPolyline
 62
7
  6
BYLAYER
 90
4
 70
0
 10
100.5957379761
 20
208.1144416285
 10
101.2088213881
 20
208.2314659456
 10
101.8120130236
 20
208.4594964415
 10
101.8121580364
 20
208.4596501359
  0
LWPOLYLINE
  5
3AB
100
AcDbEntity
  8
0
100
AcDbPolyline
 62
7
  6
BYLAYER
 90
4
 70
0
 10
100.5894692199
 20
214.1134878368
 10
101.2014706231
 20
214.2297253649
 10
101.7727691674
 20
214.4380857984
 10
101.8121580364
 20
214.4773305535
  0
LWPOLYLINE
  5
3AC
100
AcDbEntity
  8
0
100
AcDbPolyline
 62
7
  6
BYLAYER
 90
3
 70
0
 10
100.4979678642
 20
214.1366181664
 10
100.1699139214
 20
214.0753058456
 10
99.4974986897
 20
213.9893172577
  0
LWPOLYLINE
  5
3AD
100
AcDbEntity
  8
0
100
AcDbPolyline
 62
7
  6
BYLAYER
 90
4
 70
0
 10
100.440040883
 20
211.0908498212
 10
101.129158088
 20
211.2122239932
 10
101.7519576795
 20
211.4302578347
 10
101.8121580364
 20
211.4900089084
  0
LWPOLYLINE
  5
3AE
100
AcDbEntity
  8
0
100
AcDbPolyline
 62
7
  6
BYLAYER
 90
5
 70
0
 10
87.8397841308
 20
207.0452698837
 10
87.1242260682
 20
206.9225099857
 10
86.4889932622
 20
206.7044062291
 10
85.80407992
 20
206.0330475339
 10
85.6245575854
 20
205.3169181193
  0
LINE
  5
3AF
100
AcDbEntity
  8
0
100
AcDbLine
 62
7
  6
BYLAYER
 10
88.1592882594
 20
210.0864744264
 11
87.3006320125
 21
209.9584800327
  0
LWPOLYLINE
  5
3B0
100
AcDbEntity
  8
0
100
AcDbPolyline
 62
7
  6
BYLAYER
 90
4
 70
0
 10
87.8182689692
 20
207.0115329058
 10
88.5842398986
 20
207.1240933788
 10
90.098212725
 20
207.2718386845
 10
91.9234303995
 20
207.4126920333
  0
LINE
  5
3B1
100
AcDbEntity
  8
0
100
AcDbLine
 62
7
  6
BYLAYER
 10
99.784438811
 20
214.0101629071
 11
100.5894692199
 21
214.1134878368
  0
LINE
  5
3B2
100
AcDbEntity
  8
0
100
AcDbLine
 62
7
  6
BYLAYER
 10
99.7604885182
 20
208.0075420364
 11
100.5957379761
 21
208.1144416285
  0
LINE
  5
3B3
100
AcDbEntity
  8
0
100
AcDbLine
 62
7
  6
BYLAYER
 10
99.5072125011
 20
210.9807227938
 11
100.440040883
 21
211.0908498212
  0
LINE
  5
3B4
100
AcDbEntity
  8
0
100
AcDbLine
 62
7
  6
BYLAYER
 10
98.6446793739
 20
207.8988531214
 11
99.7604885182
 21
208.0075420364
  0
LWPOLYLINE
  5
3B5
100
AcDbEntity
  8
0
100
AcDbPolyline
 62
7
  6
BYLAYER
 90
3
 70
0
 10
90.1343839365
 20
207.2779464688
 10
88.8433104741
 20
207.1616792154
 10
87.8397841308
 20
207.0452698837
  0
LINE
  5
3B6
100
AcDbEntity
  8
0
100
AcDbLine
 62
7
  6
BYLAYER
 10
99.5072125011
 20
210.9807227938
 11
97.9965730369
 21
210.8473825807
  0
LINE
  5
3B7
100
AcDbEntity
  8
0
100
AcDbLine
 62
7
  6
BYLAYER
 10
98.6446793739
 20
207.8988531214
 11
97.1144915571
 21
207.7776343459
  0
LWPOLYLINE
  5
3B8
100
AcDbEntity
  8
0
100
AcDbPolyline
 62
7
  6
BYLAYER
 90
3
 70
0
 10
91.2159404209
 20
210.3619025984
 10
89.5488115849
 20
210.2282468512
 10
88.1592882594
 20
210.0864744264
  0
LINE
  5
3B9
100
AcDbEntity
  8
0
100
AcDbLine
 62
7
  6
BYLAYER
 10
98.3070572071
 20
210.8702569732
 11
96.1552598349
 21
210.7069379133
  0
LINE
  5
3BA
100
AcDbEntity
  8
0
100
AcDbLine
 62
7
  6
BYLAYER
 10
91.6028049192
 20
207.3903876764
 11
97.2449122014
 21
207.7858847754
  0
LINE
  5
3BB
100
AcDbEntity
  8
0
100
AcDbLine
 62
7
  6
BYLAYER
 10
96.8898534173
 20
210.7592334397
 11
91.2159404209
 21
210.3619025984
  0
LWPOLYLINE
  5
3BC
100
AcDbEntity
  8
0
100
AcDbPolyline
 62
7
  6
BYLAYER
 90
6
 70
0
 10
100.5008718069
 20
220.1373163757
 10
100.4106046441
 20
220.1168820667
 10
99.9720024759
 20
220.0470049367
 10
99.2562348003
 20
219.963441063
 10
98.3021262038
 20
219.8735430547
 10
97.1161872397
 20
219.7775676789
  0
LWPOLYLINE
  5
3BD
100
AcDbEntity
  8
0
100
AcDbPolyline
 62
7
  6
BYLAYER
 90
4
 70
0
 10
100.5102331844
 20
217.140114716
 10
100.2605092775
 20
217.0906384088
 10
99.7567164432
 20
217.0196539788
 10
99.0378266452
 20
216.9409283022
  0
LWPOLYLINE
  5
3BE
100
AcDbEntity
  8
0
100
AcDbPolyline
 62
7
  6
BYLAYER
 90
4
 70
0
 10
100.4333728695
 20
217.0899408582
 10
101.1388380895
 20
217.2143870435
 10
101.7747523099
 20
217.4422718993
 10
101.8121580364
 20
217.4805127851
  0
LWPOLYLINE
  5
3BF
100
AcDbEntity
  8
0
100
AcDbPolyline
 62
7
  6
BYLAYER
 90
5
 70
0
 10
87.8392354579
 20
216.0450815154
 10
87.1473018331
 20
215.9272321118
 10
86.5059464931
 20
215.713658606
 10
85.8200160767
 20
215.0666663424
 10
85.6221936613
 20
214.3169426561
  0
LWPOLYLINE
  5
3C0
100
AcDbEntity
  8
0
100
AcDbPolyline
 62
7
  6
BYLAYER
 90
5
 70
0
 10
87.9146788351
 20
213.0560841343
 10
87.1514610172
 20
212.9278541427
 10
86.5007568768
 20
212.7075733954
 10
85.8226782323
 20
212.0625309498
 10
85.6257110017
 20
211.3139890735
  0
LINE
  5
3C1
100
AcDbEntity
  8
0
100
AcDbLine
 62
7
  6
BYLAYER
 10
98.5352079416
 20
213.8941131782
 11
99.784438811
 21
214.0101629071
  0
LWPOLYLINE
  5
3C2
100
AcDbEntity
  8
0
100
AcDbPolyline
 62
7
  6
BYLAYER
 90
3
 70
0
 10
98.0856228417
 20
216.85188067
 10
99.4233311947
 20
216.9722143538
 10
100.4333728695
 20
217.0899408582
  0
LINE
  5
3C3
100
AcDbEntity
  8
0
100
AcDbLine
 62
7
  6
BYLAYER
 10
97.2703180507
 20
213.7878181002
 11
98.6900343623
 21
213.9028458603
  0
LWPOLYLINE
  5
3C4
100
AcDbEntity
  8
0
100
AcDbPolyline
 62
7
  6
BYLAYER
 90
8
 70
0
 10
91.3105440959
 20
219.3689397715
 10
89.6843490612
 20
219.2397304648
 10
88.3868293552
 20
219.1135689947
 10
87.4614488552
 20
218.9879942321
 10
86.8012234079
 20
218.8326633348
 10
86.1108204575
 20
218.4347299421
 10
85.6379698617
 20
217.505927095
 10
85.6253974002
 20
217.313923936
  0
LINE
  5
3C5
100
AcDbEntity
  8
0
100
AcDbLine
 62
7
  6
BYLAYER
 10
96.5213033483
 20
216.7323077663
 11
98.1182187903
 21
216.8575597904
  0
LWPOLYLINE
  5
3C6
100
AcDbEntity
  8
0
100
AcDbPolyline
 62
7
  6
BYLAYER
 90
4
 70
0
 10
91.7145155262
 20
216.3984009867
 10
90.1013617162
 20
216.2752335124
 10
88.79618978
 20
216.1570534946
 10
87.8392354579
 20
216.0450815154
  0
LWPOLYLINE
  5
3C7
100
AcDbEntity
  8
0
100
AcDbPolyline
 62
7
  6
BYLAYER
 90
4
 70
0
 10
92.223581466
 20
213.4349030841
 10
90.474857087
 20
213.3050382989
 10
89.0153799786
 20
213.1787084233
 10
87.9146788351
 20
213.0560841343
  0
LINE
  5
3C8
100
AcDbEntity
  8
0
100
AcDbLine
 62
7
  6
BYLAYER
 10
97.3120153814
 20
213.7926456217
 11
92.223581466
 21
213.4349030841
  0
LINE
  5
3C9
100
AcDbEntity
  8
0
100
AcDbLine
 62
7
  6
BYLAYER
 10
97.0122808753
 20
216.769839006
 11
91.7145155262
 21
216.3984009867
  0
LINE
  5
3CA
100
AcDbEntity
  8
0
100
AcDbLine
 62
7
  6
BYLAYER
 10
97.1161872397
 20
219.7775676789
 11
91.3105440959
 21
219.3689397715
  0
LINE
  5
3CB
100
AcDbEntity
  8
0
100
AcDbLine
 62
7
  6
BYLAYER
 10
83.5131681631
 20
219.8155777437
 11
80.9525663846
 21
219.8155777437
  0
LWPOLYLINE
  5
3CC
100
AcDbEntity
  8
0
100
AcDbPolyline
 62
7
  6
BYLAYER
 90
4
 70
0
 10
94.1200645908
 20
221.0655881714
 10
93.4125389071
 20
221.1949030739
 10
92.2789599979
 20
222.0579562029
 10
91.3445089238
 20
223.8434033682
  0
LINE
  5
3CD
100
AcDbEntity
  8
0
100
AcDbLine
 62
7
  6
BYLAYER
 10
101.8121580364
 20
220.9675015323
 11
104.8121580364
 21
220.9675015323
  0
LINE
  5
3CE
100
AcDbEntity
  8
0
100
AcDbLine
 62
7
  6
BYLAYER
 10
86.3415952879
 20
223.8155777437
 11
92.3075514232
 21
223.8155777437
  0
LINE
  5
3CF
100
AcDbEntity
  8
0
100
AcDbLine
 62
7
  6
BYLAYER
 10
86.3415952879
 20
226.8155777437
 11
92.3075514232
 21
226.8155777437
  0
LINE
  5
3D0
100
AcDbEntity
  8
0
100
AcDbLine
 62
7
  6
BYLAYER
 10
87.6700224126
 20
232.5655777437
 11
90.6700224126
 21
232.5655777437
  0
ARC
  5
3D1
100
AcDbEntity
  8
0
100
AcDbCircle
 62
7
  6
BYLAYER
 10
83.517708115
 20
246.0021211795
 40
214.2016165122
100
AcDbArc
 50
270.0744419128
 51
270.679698415
  0
ARC
  5
3D2
100
AcDbEntity
  8
0
100
AcDbCircle
 62
7
  6
BYLAYER
 10
99.0203728916
 20
110.816291184
 40
11.3503505014
100
AcDbArc
 50
172.9127692302
 51
180.003601397
  0
ARC
  5
3D3
100
AcDbEntity
  8
0
100
AcDbCircle
 62
7
  6
BYLAYER
 10
90.1669834794
 20
219.815574857
 40
9.2144754881
100
AcDbArc
 50
179.7664133316
 51
179.9999820507
  0
ARC
  5
3D4
100
AcDbEntity
  8
0
100
AcDbCircle
 62
7
  6
BYLAYER
 10
99.0204507301
 20
110.8162882898
 40
8.3504283478
100
AcDbArc
 50
172.9199451153
 51
180.0048753536
  0
ARC
  5
3D5
100
AcDbEntity
  8
0
100
AcDbCircle
 62
7
  6
BYLAYER
 10
92.316469022
 20
225.3155777437
 40
1.5
100
AcDbArc
 50
270.0
 51
90.0
  0
ARC
  5
3D6
100
AcDbEntity
  8
0
100
AcDbCircle
 62
7
  6
BYLAYER
 10
98.6139203445
 20
196.5158453969
 40
0.6170795481
100
AcDbArc
 50
275.0816483317
 51
281.7097697087
  0
ARC
  5
3D7
100
AcDbEntity
  8
0
100
AcDbCircle
 62
7
  6
BYLAYER
 10
98.617258938
 20
198.2996133984
 40
0.5993425554
100
AcDbArc
 50
93.9397276904
 51
95.1330108395
  0
ARC
  5
3D8
100
AcDbEntity
  8
0
100
AcDbCircle
 62
7
  6
BYLAYER
 10
99.6225273711
 20
236.562264273
 40
0.1863269005
100
AcDbArc
 50
22.1520854057
 51
24.9189709484
  0
SPLINE
  5
3D9
100
AcDbEntity
  8
0
100
AcDbSpline
 62
7
  6
BYLAYER
 70
0
 71
3
 72
15
 73
11
 74
0
 42
0.0000001
 43
0.0000001
 44
0.0000000001
 40
0.0
 40
0.0
 40
0.0
 40
0.0
 40
0.0121651014
 40
0.0334394455
 40
0.108597844
 40
0.2238833786
 40
0.3700927822
 40
0.5349287999
 40
0.7043239872
 40
1.0
 40
1.0
 40
1.0
 40
1.0
 10
91.4548549323
 20
117.6299990064
 30
0.0
 10
91.456124306
 20
117.6404760263
 30
0.0
 10
91.4378492147
 20
117.6682544756
 30
0.0
 10
91.3576699845
 20
117.7151810989
 30
0.0
 10
91.1822159334
 20
117.7776163191
 30
0.0
 10
90.8998198202
 20
117.8486098759
 30
0.0
 10
90.5363457672
 20
117.9198227516
 30
0.0
 10
90.1244149956
 20
117.9833664418
 30
0.0
 10
89.5816886047
 20
118.0469892908
 30
0.0
 10
89.1784011892
 20
118.0760500102
 30
0.0
 10
88.9218922454
 20
118.0760500102
 30
0.0
  0
SPLINE
  5
3DA
100
AcDbEntity
  8
0
100
AcDbSpline
 62
7
  6
BYLAYER
 70
0
 71
3
 72
14
 73
10
 74
0
 42
0.0000001
 43
0.0000001
 44
0.0000000001
 40
0.0
 40
0.0
 40
0.0
 40
0.0
 40
0.329874873
 40
0.4831595437
 40
0.6224806856
 40
0.7439358858
 40
0.845232467
 40
0.9287065899
 40
1.0
 40
1.0
 40
1.0
 40
1.0
 10
83.952555889
 20
219.8399312419
 30
0.0
 10
83.9547336821
 20
220.3937433727
 30
0.0
 10
84.0642057545
 20
221.2115883362
 30
0.0
 10
84.4261772123
 20
222.1952170108
 30
0.0
 10
84.7683950397
 20
222.8042739675
 30
0.0
 10
85.1587023057
 20
223.2752783145
 30
0.0
 10
85.5653697038
 20
223.5968511568
 30
0.0
 10
85.960827799
 20
223.7773178256
 30
0.0
 10
86.2219030534
 20
223.8155777437
 30
0.0
 10
86.3415952879
 20
223.8155777437
 30
0.0
  0
SPLINE
  5
3DB
100
AcDbEntity
  8
0
100
AcDbSpline
 62
7
  6
BYLAYER
 70
0
 71
3
 72
14
 73
10
 74
0
 42
0.0000001
 43
0.0000001
 44
0.0000000001
 40
0.0
 40
0.0
 40
0.0
 40
0.0
 40
0.2703856999
 40
0.4014520569
 40
0.5281629461
 40
0.6504363512
 40
0.7690138088
 40
0.8850923488
 40
1.0
 40
1.0
 40
1.0
 40
1.0
 10
80.952584567
 20
219.8531408468
 30
0.0
 10
80.9561573576
 20
220.7295615966
 30
0.0
 10
81.1458839896
 20
222.0422059635
 30
0.0
 10
81.7747091092
 20
223.6404246925
 30
0.0
 10
82.414191828
 20
224.7012581167
 30
0.0
 10
83.2143499362
 20
225.5945006794
 30
0.0
 10
84.1587400626
 20
226.2798912931
 30
0.0
 10
85.2168402718
 20
226.7154489492
 30
0.0
 10
85.9691337021
 20
226.8155777437
 30
0.0
 10
86.3415952879
 20
226.8155777437
 30
0.0
  0
SPLINE
  5
3DC
100
AcDbEntity
  8
0
100
AcDbSpline
 62
7
  6
BYLAYER
 70
0
 71
3
 72
11
 73
7
 74
0
 42
0.0000001
 43
0.0000001
 44
0.0000000001
 40
0.0
 40
0.0
 40
0.0
 40
0.0
 40
0.0699945384
 40
0.2583828321
 40
0.5683578788
 40
1.0
 40
1.0
 40
1.0
 40
1.0
 10
85.888710221
 20
80.3366377784
 30
0.0
 10
85.888695468
 20
80.3358112472
 30
0.0
 10
85.884401696
 20
80.3352511217
 30
0.0
 10
85.8789887071
 20
80.3339591565
 30
0.0
 10
85.8673687022
 20
80.3329388308
 30
0.0
 10
85.8588663713
 20
80.3321783308
 30
0.0
 10
85.8537828678
 20
80.3317959827
 30
0.0
  0
SPLINE
  5
3DD
100
AcDbEntity
  8
0
100
AcDbSpline
 62
7
  6
BYLAYER
 70
0
 71
3
 72
9
 73
5
 74
0
 42
0.0000001
 43
0.0000001
 44
0.0000000001
 40
0.0
 40
0.0
 40
0.0
 40
0.0
 40
0.162506027
 40
1.0
 40
1.0
 40
1.0
 40
1.0
 10
85.8537828678
 20
80.3317959827
 30
0.0
 10
85.8402250697
 20
80.330776253
 30
0.0
 10
85.7566973893
 20
80.3258691468
 30
0.0
 10
85.6730675512
 20
80.3231118411
 30
0.0
 10
85.6030346009
 20
80.3208623795
 30
0.0
  0
SPLINE
  5
3DE
100
AcDbEntity
  8
0
100
AcDbSpline
 62
7
  6
BYLAYER
 70
0
 71
3
 72
9
 73
5
 74
0
 42
0.0000001
 43
0.0000001
 44
0.0000000001
 40
0.0
 40
0.0
 40
0.0
 40
0.0
 40
0.4791037245
 40
1.0
 40
1.0
 40
1.0
 40
1.0
 10
85.6030346009
 20
80.3208623795
 30
0.0
 10
85.2126719972
 20
80.3083239143
 30
0.0
 10
84.3975352801
 20
80.2949551245
 30
0.0
 10
83.5823752031
 20
80.2857956703
 30
0.0
 10
83.157742121
 20
80.2857956703
 30
0.0
  0
SPLINE
  5
3DF
100
AcDbEntity
  8
0
100
AcDbSpline
 62
7
  6
BYLAYER
 70
0
 71
3
 72
11
 73
7
 74
0
 42
0.0000001
 43
0.0000001
 44
0.0000000001
 40
0.0
 40
0.0
 40
0.0
 40
0.0
 40
0.0679921081
 40
0.255938623
 40
0.5669131415
 40
1.0
 40
1.0
 40
1.0
 40
1.0
 10
85.5596041603
 20
105.3366377721
 30
0.0
 10
85.5596216887
 20
105.3375118927
 30
0.0
 10
85.5548366705
 20
105.3379638097
 30
0.0
 10
85.5490536859
 20
105.3391695627
 30
0.0
 10
85.5362662885
 20
105.3398956226
 30
0.0
 10
85.5269847218
 20
105.3404523764
 30
0.0
 10
85.5214216226
 20
105.3407080931
 30
0.0
  0
SPLINE
  5
3E0
100
AcDbEntity
  8
0
100
AcDbSpline
 62
7
  6
BYLAYER
 70
0
 71
3
 72
11
 73
7
 74
0
 42
0.0000001
 43
0.0000001
 44
0.0000000001
 40
0.0
 40
0.0
 40
0.0
 40
0.0
 40
0.0699945384
 40
0.2583828321
 40
0.5683578788
 40
1.0
 40
1.0
 40
1.0
 40
1.0
 10
86.0664272178
 20
66.8366377784
 30
0.0
 10
86.0664124649
 20
66.8358112472
 30
0.0
 10
86.0621186929
 20
66.8352511217
 30
0.0
 10
86.056705704
 20
66.8339591565
 30
0.0
 10
86.0450856991
 20
66.8329388308
 30
0.0
 10
86.0365833682
 20
66.8321783308
 30
0.0
 10
86.0314998647
 20
66.8317959827
 30
0.0
  0
SPLINE
  5
3E1
100
AcDbEntity
  8
0
100
AcDbSpline
 62
7
  6
BYLAYER
 70
0
 71
3
 72
9
 73
5
 74
0
 42
0.0000001
 43
0.0000001
 44
0.0000000001
 40
0.0
 40
0.0
 40
0.0
 40
0.0
 40
0.162506027
 40
1.0
 40
1.0
 40
1.0
 40
1.0
 10
86.0314998647
 20
66.8317959827
 30
0.0
 10
86.0179420666
 20
66.830776253
 30
0.0
 10
85.9344143862
 20
66.8258691468
 30
0.0
 10
85.8507845481
 20
66.8231118411
 30
0.0
 10
85.7807515978
 20
66.8208623795
 30
0.0
  0
SPLINE
  5
3E2
100
AcDbEntity
  8
0
100
AcDbSpline
 62
7
  6
BYLAYER
 70
0
 71
3
 72
9
 73
5
 74
0
 42
0.0000001
 43
0.0000001
 44
0.0000000001
 40
0.0
 40
0.0
 40
0.0
 40
0.0
 40
0.4791037245
 40
1.0
 40
1.0
 40
1.0
 40
1.0
 10
85.7807515978
 20
66.8208623795
 30
0.0
 10
85.390388994
 20
66.8083239143
 30
0.0
 10
84.5752522769
 20
66.7949551245
 30
0.0
 10
83.7600922
 20
66.7857956703
 30
0.0
 10
83.3354591179
 20
66.7857956703
 30
0.0
  0
SPLINE
  5
3E3
100
AcDbEntity
  8
0
100
AcDbSpline
 62
7
  6
BYLAYER
 70
0
 71
3
 72
11
 73
7
 74
0
 42
0.0000001
 43
0.0000001
 44
0.0000000001
 40
0.0
 40
0.0
 40
0.0
 40
0.0
 40
0.0679921081
 40
0.255938623
 40
0.5669131415
 40
1.0
 40
1.0
 40
1.0
 40
1.0
 10
86.0400982629
 20
68.8366377721
 30
0.0
 10
86.0401157913
 20
68.8375118927
 30
0.0
 10
86.0353307731
 20
68.8379638097
 30
0.0
 10
86.0295477885
 20
68.8391695627
 30
0.0
 10
86.0167603911
 20
68.8398956226
 30
0.0
 10
86.0074788244
 20
68.8404523764
 30
0.0
 10
86.0019157253
 20
68.8407080931
 30
0.0
  0
SPLINE
  5
3E4
100
AcDbEntity
  8
0
100
AcDbSpline
 62
7
  6
BYLAYER
 70
0
 71
3
 72
17
 73
13
 74
0
 42
0.0000001
 43
0.0000001
 44
0.0000000001
 40
0.0
 40
0.0
 40
0.0
 40
0.0
 40
0.0046406122
 40
0.0170898631
 40
0.0376295661
 40
0.0662941712
 40
0.1476954479
 40
0.2604819364
 40
0.4037722251
 40
0.576267898
 40
0.7757796005
 40
1.0
 40
1.0
 40
1.0
 40
1.0
 10
86.5271537149
 20
31.8366374973
 30
0.0
 10
86.5271632522
 20
31.8359117011
 30
0.0
 10
86.5234276734
 20
31.8352817572
 30
0.0
 10
86.5186743693
 20
31.8341716691
 30
0.0
 10
86.508504207
 20
31.8331662131
 30
0.0
 10
86.4885032874
 20
31.8313667434
 30
0.0
 10
86.4534470677
 20
31.829262874
 30
0.0
 10
86.4008478318
 20
31.826674073
 30
0.0
 10
86.3338184845
 20
31.8239855483
 30
0.0
 10
86.2532838029
 20
31.8211860147
 30
0.0
 10
86.1600630378
 20
31.818326579
 30
0.0
 10
86.0938117399
 20
31.8165007679
 30
0.0
 10
86.0587525754
 20
31.8155777437
 30
0.0
  0
SPLINE
  5
3E5
100
AcDbEntity
  8
0
100
AcDbSpline
 62
7
  6
BYLAYER
 70
0
 71
3
 72
11
 73
7
 74
0
 42
0.0000001
 43
0.0000001
 44
0.0000000001
 40
0.0
 40
0.0
 40
0.0
 40
0.0
 40
0.0679921081
 40
0.255938623
 40
0.5669131415
 40
1.0
 40
1.0
 40
1.0
 40
1.0
 10
86.2836363697
 20
50.3366377721
 30
0.0
 10
86.2836538981
 20
50.3375118927
 30
0.0
 10
86.2788688799
 20
50.3379638097
 30
0.0
 10
86.2730858954
 20
50.3391695627
 30
0.0
 10
86.2602984979
 20
50.3398956226
 30
0.0
 10
86.2510169312
 20
50.3404523764
 30
0.0
 10
86.2454538321
 20
50.3407080931
 30
0.0
  0
SPLINE
  5
3E6
100
AcDbEntity
  8
0
100
AcDbSpline
 62
7
  6
BYLAYER
 70
0
 71
3
 72
14
 73
10
 74
0
 42
0.0000001
 43
0.0000001
 44
0.0000000001
 40
0.0
 40
0.0
 40
0.0
 40
0.0
 40
0.0929926368
 40
0.1922897735
 40
0.3020945516
 40
0.4238508137
 40
0.5569153943
 40
0.6993234403
 40
1.0
 40
1.0
 40
1.0
 40
1.0
 10
94.1191519849
 20
20.4153330908
 30
0.0
 10
93.6538827095
 20
20.4153686192
 30
0.0
 10
92.6869928953
 20
20.5566716336
 30
0.0
 10
91.2927199551
 20
21.1812577069
 30
0.0
 10
89.9788308992
 20
22.2118256243
 30
0.0
 10
88.8030342537
 20
23.6216205559
 30
0.0
 10
87.8222400325
 20
25.3618348114
 30
0.0
 10
86.8236419409
 20
28.07500327
 30
0.0
 10
86.5273817255
 20
30.3112052446
 30
0.0
 10
86.5273817255
 20
31.8155777437
 30
0.0
  0
SPLINE
  5
3E7
100
AcDbEntity
  8
0
100
AcDbSpline
 62
7
  6
BYLAYER
 70
0
 71
3
 72
14
 73
10
 74
0
 42
0.0000001
 43
0.0000001
 44
0.0000000001
 40
0.0
 40
0.0
 40
0.0
 40
0.0
 40
0.2776954236
 40
0.4114604204
 40
0.5395863423
 40
0.6615766562
 40
0.7779418038
 40
0.8900851794
 40
1.0
 40
1.0
 40
1.0
 40
1.0
 10
104.9121580364
 20
31.8155777437
 30
0.0
 10
104.9121580364
 20
29.9620803577
 30
0.0
 10
104.5307654884
 20
27.1908835196
 30
0.0
 10
103.2446459101
 20
23.8149120973
 30
0.0
 10
101.9446949664
 20
21.5910357707
 30
0.0
 10
100.3308267279
 20
19.7318915286
 30
0.0
 10
98.4431541753
 20
18.3158150475
 30
0.0
 10
96.3436813234
 20
17.4213296305
 30
0.0
 10
94.8541680735
 20
17.2158392709
 30
0.0
 10
94.1205339779
 20
17.2157446388
 30
0.0
  0
SPLINE
  5
3E8
100
AcDbEntity
  8
0
100
AcDbSpline
 62
7
  6
BYLAYER
 70
0
 71
3
 72
9
 73
5
 74
0
 42
0.0000001
 43
0.0000001
 44
0.0000000001
 40
0.0
 40
0.0
 40
0.0
 40
0.0
 40
0.3366056054
 40
1.0
 40
1.0
 40
1.0
 40
1.0
 10
83.37720352
 20
50.3105320428
 30
0.0
 10
83.348111215
 20
50.3096070752
 30
0.0
 10
83.2617013561
 20
50.3065507412
 30
0.0
 10
83.1752363862
 20
50.3036416579
 30
0.0
 10
83.1180367253
 20
50.2992877012
 30
0.0
  0
SPLINE
  5
3E9
100
AcDbEntity
  8
0
100
AcDbSpline
 62
7
  6
BYLAYER
 70
0
 71
3
 72
11
 73
7
 74
0
 42
0.0000001
 43
0.0000001
 44
0.0000000001
 40
0.0
 40
0.0
 40
0.0
 40
0.0
 40
0.4314043184
 40
0.7413088992
 40
0.9297639193
 40
1.0
 40
1.0
 40
1.0
 40
1.0
 10
83.1180367253
 20
50.2992877012
 30
0.0
 10
83.1130916056
 20
50.2989112858
 30
0.0
 10
83.1048171767
 20
50.2981651655
 30
0.0
 10
83.0935184828
 20
50.2971519772
 30
0.0
 10
83.0882360798
 20
50.2958930844
 30
0.0
 10
83.0840670556
 20
50.2953249871
 30
0.0
 10
83.0840508676
 20
50.2945177152
 30
0.0
  0
SPLINE
  5
3EA
100
AcDbEntity
  8
0
100
AcDbSpline
 62
7
  6
BYLAYER
 70
0
 71
3
 72
9
 73
5
 74
0
 42
0.0000001
 43
0.0000001
 44
0.0000000001
 40
0.0
 40
0.0
 40
0.0
 40
0.0
 40
0.6279175053
 40
1.0
 40
1.0
 40
1.0
 40
1.0
 10
83.3354591179
 20
66.7857956703
 30
0.0
 10
83.2456318002
 20
66.7857956703
 30
0.0
 10
83.1025935492
 20
66.7864441758
 30
0.0
 10
82.9595054703
 20
66.7879979365
 30
0.0
 10
82.9063305406
 20
66.7903877427
 30
0.0
  0
SPLINE
  5
3EB
100
AcDbEntity
  8
0
100
AcDbSpline
 62
7
  6
BYLAYER
 70
0
 71
3
 72
9
 73
5
 74
0
 42
0.0000001
 43
0.0000001
 44
0.0000000001
 40
0.0
 40
0.0
 40
0.0
 40
0.0
 40
0.3316997336
 40
1.0
 40
1.0
 40
1.0
 40
1.0
 10
82.9063305406
 20
66.7903877427
 30
0.0
 10
82.9026088286
 20
66.7905550052
 30
0.0
 10
82.8913969106
 20
66.7911382886
 30
0.0
 10
82.8801593758
 20
66.7917481519
 30
0.0
 10
82.872725466
 20
66.7927858061
 30
0.0
  0
SPLINE
  5
3EC
100
AcDbEntity
  8
0
100
AcDbSpline
 62
7
  6
BYLAYER
 70
0
 71
3
 72
14
 73
10
 74
0
 42
0.0000001
 43
0.0000001
 44
0.0000000001
 40
0.0
 40
0.0
 40
0.0
 40
0.0
 40
0.1099191084
 40
0.2220659279
 40
0.3384326745
 40
0.4604215983
 40
0.588543315
 40
0.7223033495
 40
1.0
 40
1.0
 40
1.0
 40
1.0
 10
94.1205339779
 20
17.2157446388
 30
0.0
 10
93.3872077512
 20
17.2156500465
 30
0.0
 10
91.8982948974
 20
17.420780475
 30
0.0
 10
89.7994351725
 20
18.3141256511
 30
0.0
 10
87.9120646033
 20
19.7288422027
 30
0.0
 10
86.2981886768
 20
21.5864426359
 30
0.0
 10
84.9979262195
 20
23.8086832849
 30
0.0
 10
83.7109087106
 20
27.182481799
 30
0.0
 10
83.3283876926
 20
29.9521747827
 30
0.0
 10
83.3273846351
 20
31.8048299918
 30
0.0
  0
SPLINE
  5
3ED
100
AcDbEntity
  8
0
100
AcDbSpline
 62
7
  6
BYLAYER
 70
0
 71
3
 72
14
 73
10
 74
0
 42
0.0000001
 43
0.0000001
 44
0.0000000001
 40
0.0
 40
0.0
 40
0.0
 40
0.0
 40
0.3006801812
 40
0.443090423
 40
0.5761563945
 40
0.6979113774
 40
0.8077116927
 40
0.9070048366
 40
1.0
 40
1.0
 40
1.0
 40
1.0
 10
101.7121580364
 20
31.8155777437
 30
0.0
 10
101.7121580364
 20
30.3110646474
 30
0.0
 10
101.4158447747
 20
28.0746464855
 30
0.0
 10
100.4170458388
 20
25.361258999
 30
0.0
 10
99.4360581864
 20
23.6209526022
 30
0.0
 10
98.2600424614
 20
22.2111598631
 30
0.0
 10
96.9459297393
 20
21.1807502353
 30
0.0
 10
95.5514824061
 20
20.5562657749
 30
0.0
 10
94.5844717817
 20
20.4152975585
 30
0.0
 10
94.1191519849
 20
20.4153330908
 30
0.0
  0
SPLINE
  5
3EE
100
AcDbEntity
  8
0
100
AcDbSpline
 62
7
  6
BYLAYER
 70
0
 71
3
 72
9
 73
5
 74
0
 42
0.0000001
 43
0.0000001
 44
0.0000000001
 40
0.0
 40
0.0
 40
0.0
 40
0.0
 40
0.3366056054
 40
1.0
 40
1.0
 40
1.0
 40
1.0
 10
83.1336654131
 20
68.8105320428
 30
0.0
 10
83.1045731082
 20
68.8096070752
 30
0.0
 10
83.0181632493
 20
68.8065507412
 30
0.0
 10
82.9316982794
 20
68.8036416579
 30
0.0
 10
82.8744986185
 20
68.7992877012
 30
0.0
  0
SPLINE
  5
3EF
100
AcDbEntity
  8
0
100
AcDbSpline
 62
7
  6
BYLAYER
 70
0
 71
3
 72
11
 73
7
 74
0
 42
0.0000001
 43
0.0000001
 44
0.0000000001
 40
0.0
 40
0.0
 40
0.0
 40
0.0
 40
0.4314043184
 40
0.7413088992
 40
0.9297639193
 40
1.0
 40
1.0
 40
1.0
 40
1.0
 10
82.8744986185
 20
68.7992877012
 30
0.0
 10
82.8695534988
 20
68.7989112858
 30
0.0
 10
82.8612790698
 20
68.7981651655
 30
0.0
 10
82.8499803759
 20
68.7971519772
 30
0.0
 10
82.844697973
 20
68.7958930844
 30
0.0
 10
82.8405289487
 20
68.7953249871
 30
0.0
 10
82.8405127608
 20
68.7945177152
 30
0.0
  0
SPLINE
  5
3F0
100
AcDbEntity
  8
0
100
AcDbSpline
 62
7
  6
BYLAYER
 70
0
 71
3
 72
9
 73
5
 74
0
 42
0.0000001
 43
0.0000001
 44
0.0000000001
 40
0.0
 40
0.0
 40
0.0
 40
0.0
 40
0.6279175053
 40
1.0
 40
1.0
 40
1.0
 40
1.0
 10
83.157742121
 20
80.2857956703
 30
0.0
 10
83.0679148033
 20
80.2857956703
 30
0.0
 10
82.9248765524
 20
80.2864441758
 30
0.0
 10
82.7817884734
 20
80.2879979365
 30
0.0
 10
82.7286135437
 20
80.2903877427
 30
0.0
  0
SPLINE
  5
3F1
100
AcDbEntity
  8
0
100
AcDbSpline
 62
7
  6
BYLAYER
 70
0
 71
3
 72
9
 73
5
 74
0
 42
0.0000001
 43
0.0000001
 44
0.0000000001
 40
0.0
 40
0.0
 40
0.0
 40
0.0
 40
0.3316997336
 40
1.0
 40
1.0
 40
1.0
 40
1.0
 10
82.7286135437
 20
80.2903877427
 30
0.0
 10
82.7248918318
 20
80.2905550052
 30
0.0
 10
82.7136799137
 20
80.2911382886
 30
0.0
 10
82.7024423789
 20
80.2917481519
 30
0.0
 10
82.6950084691
 20
80.2927858061
 30
0.0
  0
SPLINE
  5
3F2
100
AcDbEntity
  8
0
100
AcDbSpline
 62
7
  6
BYLAYER
 70
0
 71
3
 72
9
 73
5
 74
0
 42
0.0000001
 43
0.0000001
 44
0.0000000001
 40
0.0
 40
0.0
 40
0.0
 40
0.0
 40
0.3366056054
 40
1.0
 40
1.0
 40
1.0
 40
1.0
 10
82.6531713105
 20
105.3105320428
 30
0.0
 10
82.6240790056
 20
105.3096070752
 30
0.0
 10
82.5376691466
 20
105.3065507412
 30
0.0
 10
82.4512041767
 20
105.3036416579
 30
0.0
 10
82.3940045159
 20
105.2992877012
 30
0.0
  0
SPLINE
  5
3F3
100
AcDbEntity
  8
0
100
AcDbSpline
 62
7
  6
BYLAYER
 70
0
 71
3
 72
11
 73
7
 74
0
 42
0.0000001
 43
0.0000001
 44
0.0000000001
 40
0.0
 40
0.0
 40
0.0
 40
0.0
 40
0.4314043184
 40
0.7413088992
 40
0.9297639193
 40
1.0
 40
1.0
 40
1.0
 40
1.0
 10
82.3940045159
 20
105.2992877012
 30
0.0
 10
82.3890593961
 20
105.2989112858
 30
0.0
 10
82.3807849672
 20
105.2981651655
 30
0.0
 10
82.3694862733
 20
105.2971519772
 30
0.0
 10
82.3642038704
 20
105.2958930844
 30
0.0
 10
82.3600348461
 20
105.2953249871
 30
0.0
 10
82.3600186582
 20
105.2945177152
 30
0.0
  0
SPLINE
  5
3F4
100
AcDbEntity
  8
0
100
AcDbSpline
 62
7
  6
BYLAYER
 70
0
 71
3
 72
12
 73
8
 74
0
 42
0.0000001
 43
0.0000001
 44
0.0000000001
 40
0.0
 40
0.0
 40
0.0
 40
0.0
 40
0.401291284
 40
0.7050012815
 40
0.8166784372
 40
0.9015365295
 40
1.0
 40
1.0
 40
1.0
 40
1.0
 10
88.9218922454
 20
118.0760500102
 30
0.0
 10
88.8602244233
 20
118.0760500102
 30
0.0
 10
88.7516745602
 20
118.0735804953
 30
0.0
 10
88.6270177523
 20
118.0631830993
 30
0.0
 10
88.5506335204
 20
118.0474872895
 30
0.0
 10
88.5093128788
 20
118.034605846
 30
0.0
 10
88.4798422373
 20
118.0161778542
 30
0.0
 10
88.4780222794
 20
118.0011564809
 30
0.0
  0
SPLINE
  5
3F5
100
AcDbEntity
  8
0
100
AcDbSpline
 62
7
  6
BYLAYER
 70
0
 71
3
 72
14
 73
10
 74
0
 42
0.0000001
 43
0.0000001
 44
0.0000000001
 40
0.0
 40
0.0
 40
0.0
 40
0.0
 40
0.3161369099
 40
0.4643706528
 40
0.6008604068
 40
0.7225817179
 40
0.8279790186
 40
0.9185379117
 40
1.0
 40
1.0
 40
1.0
 40
1.0
 10
97.5695173492
 20
110.8155777437
 30
0.0
 10
97.5695173492
 20
110.0693672671
 30
0.0
 10
97.4246620245
 20
108.963714097
 30
0.0
 10
96.9366253176
 20
107.6276311502
 30
0.0
 10
96.4662466393
 20
106.7860441698
 30
0.0
 10
95.9163723466
 20
106.1198650201
 30
0.0
 10
95.3229792226
 20
105.6512470015
 30
0.0
 10
94.7213547261
 20
105.3749172461
 30
0.0
 10
94.3130512548
 20
105.3155212804
 30
0.0
 10
94.1207679113
 20
105.3155664771
 30
0.0
  0
SPLINE
  5
3F6
100
AcDbEntity
  8
0
100
AcDbSpline
 62
7
  6
BYLAYER
 70
0
 71
3
 72
13
 73
9
 74
0
 42
0.0000001
 43
0.0000001
 44
0.0000000001
 40
0.0
 40
0.0
 40
0.0
 40
0.0
 40
0.1133191576
 40
0.228175571
 40
0.3460981298
 40
0.4683693871
 40
0.7268785916
 40
1.0
 40
1.0
 40
1.0
 40
1.0
 10
94.1207776918
 20
102.3157788225
 30
0.0
 10
93.6760772047
 20
102.3156480355
 30
0.0
 10
92.77625106
 20
102.4371427377
 30
0.0
 10
91.510378637
 20
102.9658410848
 30
0.0
 10
90.3788392248
 20
103.7995904993
 30
0.0
 10
89.0760059968
 20
105.276335012
 30
0.0
 10
87.9612063652
 20
107.6458250514
 30
0.0
 10
87.6700224126
 20
109.7437622521
 30
0.0
 10
87.6700224126
 20
110.8155777437
 30
0.0
  0
SPLINE
  5
3F7
100
AcDbEntity
  8
0
100
AcDbSpline
 62
7
  6
BYLAYER
 70
0
 71
3
 72
13
 73
9
 74
0
 42
0.0000001
 43
0.0000001
 44
0.0000000001
 40
0.0
 40
0.0
 40
0.0
 40
0.0
 40
0.2731268472
 40
0.5316318262
 40
0.6538994497
 40
0.7718165305
 40
0.8866734917
 40
1.0
 40
1.0
 40
1.0
 40
1.0
 10
100.5695173492
 20
110.8155777437
 30
0.0
 10
100.5695173492
 20
109.7439208501
 30
0.0
 10
100.2784222692
 20
107.6463343769
 30
0.0
 10
99.1640161617
 20
105.2771870264
 30
0.0
 10
97.8616687011
 20
103.8005300738
 30
0.0
 10
96.7305704997
 20
102.966678778
 30
0.0
 10
95.4650995235
 20
102.4375404971
 30
0.0
 10
94.5654323636
 20
102.3159095961
 30
0.0
 10
94.1207776918
 20
102.3157788225
 30
0.0
  0
SPLINE
  5
3F8
100
AcDbEntity
  8
0
100
AcDbSpline
 62
7
  6
BYLAYER
 70
0
 71
3
 72
14
 73
10
 74
0
 42
0.0000001
 43
0.0000001
 44
0.0000000001
 40
0.0
 40
0.0
 40
0.0
 40
0.0
 40
0.0815128126
 40
0.1720113446
 40
0.2774055981
 40
0.3991062497
 40
0.5355877196
 40
0.6838262352
 40
1.0
 40
1.0
 40
1.0
 40
1.0
 10
94.1207679113
 20
105.3155664771
 30
0.0
 10
93.9283112714
 20
105.3156117145
 30
0.0
 10
93.5198697952
 20
105.3743315144
 30
0.0
 10
92.9178637138
 20
105.6503770704
 30
0.0
 10
92.3242707341
 20
106.1187441858
 30
0.0
 10
91.7740713749
 20
106.7848805647
 30
0.0
 10
91.3033876003
 20
107.626542627
 30
0.0
 10
90.8149829226
 20
108.9630026027
 30
0.0
 10
90.6700224126
 20
110.0690724992
 30
0.0
 10
90.6700224126
 20
110.8155777437
 30
0.0
  0
SPLINE
  5
3F9
100
AcDbEntity
  8
0
100
AcDbSpline
 62
7
  6
BYLAYER
 70
0
 71
3
 72
9
 73
5
 74
0
 42
0.0000001
 43
0.0000001
 44
0.0000000001
 40
0.0
 40
0.0
 40
0.0
 40
0.0
 40
0.2414935996
 40
1.0
 40
1.0
 40
1.0
 40
1.0
 10
100.8339829136
 20
226.1505548228
 30
0.0
 10
100.9950282553
 20
225.75607591
 30
0.0
 10
101.5733716302
 20
224.0872003126
 30
0.0
 10
101.8121580364
 20
222.3057933178
 30
0.0
 10
101.8121580364
 20
220.9675015323
 30
0.0
  0
SPLINE
  5
3FA
100
AcDbEntity
  8
0
100
AcDbSpline
 62
7
  6
BYLAYER
 70
0
 71
3
 72
9
 73
5
 74
0
 42
0.0000001
 43
0.0000001
 44
0.0000000001
 40
0.0
 40
0.0
 40
0.0
 40
0.0
 40
0.2445580583
 40
1.0
 40
1.0
 40
1.0
 40
1.0
 10
103.6114432129
 20
227.2844482418
 30
0.0
 10
103.8102638105
 20
226.7974392273
 30
0.0
 10
104.5170467513
 20
224.7636441879
 30
0.0
 10
104.8121580364
 20
222.5924122761
 30
0.0
 10
104.8121580364
 20
220.9675015323
 30
0.0
  0
SPLINE
  5
3FB
100
AcDbEntity
  8
0
100
AcDbSpline
 62
7
  6
BYLAYER
 70
0
 71
3
 72
13
 73
9
 74
0
 42
0.0000001
 43
0.0000001
 44
0.0000000001
 40
0.0
 40
0.0
 40
0.0
 40
0.0
 40
0.2731257361
 40
0.5316302671
 40
0.6539038946
 40
0.7718178832
 40
0.8866752795
 40
1.0
 40
1.0
 40
1.0
 40
1.0
 10
87.6700224126
 20
232.5655777437
 30
0.0
 10
87.6700224126
 20
233.6372089051
 30
0.0
 10
87.9611045297
 20
235.7347472483
 30
0.0
 10
89.0754718801
 20
238.1038706005
 30
0.0
 10
90.3777719402
 20
239.5805290322
 30
0.0
 10
91.508832398
 20
240.4144056813
 30
0.0
 10
92.7742503152
 20
240.9435543856
 30
0.0
 10
93.673883879
 20
241.0652275667
 30
0.0
 10
94.1185226573
 20
241.0653909476
 30
0.0
  0
SPLINE
  5
3FC
100
AcDbEntity
  8
0
100
AcDbSpline
 62
7
  6
BYLAYER
 70
0
 71
3
 72
13
 73
9
 74
0
 42
0.0000001
 43
0.0000001
 44
0.0000000001
 40
0.0
 40
0.0
 40
0.0
 40
0.0
 40
0.092464977
 40
0.1894997583
 40
0.2956580778
 40
0.4130172047
 40
0.6841175602
 40
1.0
 40
1.0
 40
1.0
 40
1.0
 10
94.121632862
 20
238.0656184598
 30
0.0
 10
94.2475550559
 20
238.0656654799
 30
0.0
 10
94.5063504136
 20
238.0417025218
 30
0.0
 10
94.8948067624
 20
237.9277226597
 30
0.0
 10
95.28782799
 20
237.733108771
 30
0.0
 10
95.8385431842
 20
237.3408107308
 30
0.0
 10
96.4802615996
 20
236.6107211671
 30
0.0
 10
96.8550539064
 20
235.8969006132
 30
0.0
 10
97.0176467811
 20
235.4986310342
 30
0.0
  0
SPLINE
  5
3FD
100
AcDbEntity
  8
0
100
AcDbSpline
 62
7
  6
BYLAYER
 70
0
 71
3
 72
14
 73
10
 74
0
 42
0.0000001
 43
0.0000001
 44
0.0000000001
 40
0.0
 40
0.0
 40
0.0
 40
0.0
 40
0.3161799319
 40
0.4644263431
 40
0.600907136
 40
0.7226010426
 40
0.8279927031
 40
0.9184662784
 40
1.0
 40
1.0
 40
1.0
 40
1.0
 10
90.6700224126
 20
232.5655777437
 30
0.0
 10
90.6700224126
 20
233.3121876838
 30
0.0
 10
90.8150292491
 20
234.4184272714
 30
0.0
 10
91.3035762591
 20
235.7550527771
 30
0.0
 10
91.7744025066
 20
236.5967767079
 30
0.0
 10
92.3247607679
 20
237.2628799036
 30
0.0
 10
92.9184129603
 20
237.7312024148
 30
0.0
 10
93.5206189512
 20
238.00701308
 30
0.0
 10
93.9291036196
 20
238.0655465681
 30
0.0
 10
94.121632862
 20
238.0656184598
 30
0.0
  0
SPLINE
  5
3FE
100
AcDbEntity
  8
0
100
AcDbSpline
 62
7
  6
BYLAYER
 70
0
 71
3
 72
13
 73
9
 74
0
 42
0.0000001
 43
0.0000001
 44
0.0000000001
 40
0.0
 40
0.0
 40
0.0
 40
0.0
 40
0.1180821604
 40
0.2368832374
 40
0.357122689
 40
0.4795374722
 40
0.7327121337
 40
1.0
 40
1.0
 40
1.0
 40
1.0
 10
94.1185226573
 20
241.0653909476
 30
0.0
 10
94.4188873477
 20
241.0655013155
 30
0.0
 10
95.0228748814
 20
241.0111153621
 30
0.0
 10
95.9028885332
 20
240.7685030496
 30
0.0
 10
96.738742166
 20
240.3751337074
 30
0.0
 10
97.7829088538
 20
239.6593983047
 30
0.0
 10
98.9060250625
 20
238.440216621
 30
0.0
 10
99.5381297338
 20
237.2619878279
 30
0.0
 10
99.7951070805
 20
236.6325244532
 30
0.0
  0
SPLINE
  5
3FF
100
AcDbEntity
  8
0
100
AcDbSpline
 62
7
  6
BYLAYER
 70
0
 71
3
 72
25
 73
21
 74
0
 42
0.0000001
 43
0.0000001
 44
0.0000000001
 40
0.0
 40
0.0
 40
0.0
 40
0.0
 40
0.0429635054
 40
0.0981767125
 40
0.2398193626
 40
0.4080733603
 40
0.4962263222
 40
0.5838537304
 40
0.6685047746
 40
0.7477276012
 40
0.8190725409
 40
0.8803069145
 40
0.9300467026
 40
0.9502443791
 40
0.9671391928
 40
0.9805991775
 40
0.9905124989
 40
0.9941228028
 40
0.9968482549
 40
1.0
 40
1.0
 40
1.0
 40
1.0
 10
101.8666663321
 20
146.6141120548
 30
0.0
 10
101.6350236426
 20
146.5823267568
 30
0.0
 10
101.1038555959
 20
146.5233954771
 30
0.0
 10
99.8037306864
 20
146.408964247
 30
0.0
 10
97.8209430135
 20
146.2774060176
 30
0.0
 10
95.658375877
 20
146.1519371765
 30
0.0
 10
93.7890304738
 20
146.0470114772
 30
0.0
 10
92.3739831767
 20
145.9670944804
 30
0.0
 10
91.0076040201
 20
145.8873103552
 30
0.0
 10
89.7299816354
 20
145.8077511409
 30
0.0
 10
88.580026774
 20
145.7286644998
 30
0.0
 10
87.5909515833
 20
145.6495812495
 30
0.0
 10
86.8803642926
 20
145.5807548141
 30
0.0
 10
86.4112260902
 20
145.5234592188
 30
0.0
 10
86.1390230912
 20
145.4839846958
 30
0.0
 10
85.923119548
 20
145.4444974389
 30
0.0
 10
85.780725078
 20
145.4106575475
 30
0.0
 10
85.6963238423
 20
145.3804906652
 30
0.0
 10
85.6515944989
 20
145.3594871369
 30
0.0
 10
85.6215353505
 20
145.3344776448
 30
0.0
 10
85.6213883419
 20
145.3173260475
 30
0.0
  0
SPLINE
  5
400
100
AcDbEntity
  8
0
100
AcDbSpline
 62
7
  6
BYLAYER
 70
0
 71
3
 72
26
 73
22
 74
0
 42
0.0000001
 43
0.0000001
 44
0.0000000001
 40
0.0
 40
0.0
 40
0.0
 40
0.0
 40
0.0442803463
 40
0.1005565628
 40
0.2428715207
 40
0.3252742282
 40
0.4119524692
 40
0.5003484898
 40
0.5879040259
 40
0.672136959
 40
0.75083241
 40
0.8218358888
 40
0.8829972402
 40
0.9322305818
 40
0.9519510759
 40
0.9683152186
 40
0.9812678266
 40
0.9907745277
 40
0.9942438227
 40
0.9968822847
 40
1.0
 40
1.0
 40
1.0
 40
1.0
 10
101.8293635802
 20
149.6083823892
 30
0.0
 10
101.5910308393
 20
149.5767737581
 30
0.0
 10
101.0480756923
 20
149.5182985493
 30
0.0
 10
99.7343059742
 20
149.4045892312
 30
0.0
 10
98.2118960873
 20
149.3032392247
 30
0.0
 10
96.5242369119
 20
149.201839759
 30
0.0
 10
95.1285317328
 20
149.1222233302
 30
0.0
 10
93.7048197128
 20
149.0424718898
 30
0.0
 10
92.2944017841
 20
148.9627474102
 30
0.0
 10
90.9367399936
 20
148.8830032082
 30
0.0
 10
89.6690979384
 20
148.8034666492
 30
0.0
 10
88.5269548184
 20
148.7243752843
 30
0.0
 10
87.5451613038
 20
148.6459577656
 30
0.0
 10
86.8419593791
 20
148.5774289702
 30
0.0
 10
86.3822391539
 20
148.5199210314
 30
0.0
 10
86.1189762815
 20
148.4804845614
 30
0.0
 10
85.9115906962
 20
148.4410407629
 30
0.0
 10
85.7753724965
 20
148.4071230876
 30
0.0
 10
85.6949421723
 20
148.3770193131
 30
0.0
 10
85.6518220453
 20
148.3557983508
 30
0.0
 10
85.6231095485
 20
148.330937214
 30
0.0
 10
85.6229778295
 20
148.3140101268
 30
0.0
  0
SPLINE
  5
401
100
AcDbEntity
  8
0
100
AcDbSpline
 62
7
  6
BYLAYER
 70
0
 71
3
 72
14
 73
10
 74
0
 42
0.0000001
 43
0.0000001
 44
0.0000000001
 40
0.0
 40
0.0
 40
0.0
 40
0.0
 40
0.0618002388
 40
0.1376602177
 40
0.2346668286
 40
0.354307367
 40
0.4955079513
 40
0.6539846186
 40
1.0
 40
1.0
 40
1.0
 40
1.0
 10
91.7393678804
 20
129.3991885777
 30
0.0
 10
91.704737524
 20
129.396681413
 30
0.0
 10
91.6254056294
 20
129.4183362222
 30
0.0
 10
91.5270553753
 20
129.5099861349
 30
0.0
 10
91.4382264364
 20
129.6493776889
 30
0.0
 10
91.3607592289
 20
129.8357374423
 30
0.0
 10
91.2980161851
 20
130.0632560113
 30
0.0
 10
91.2336071426
 20
130.4205584238
 30
0.0
 10
91.2148237082
 20
130.7046667505
 30
0.0
 10
91.2149926707
 20
130.8990671908
 30
0.0
  0
SPLINE
  5
402
100
AcDbEntity
  8
0
100
AcDbSpline
 62
7
  6
BYLAYER
 70
0
 71
3
 72
25
 73
21
 74
0
 42
0.0000001
 43
0.0000001
 44
0.0000000001
 40
0.0
 40
0.0
 40
0.0
 40
0.0
 40
0.0435885565
 40
0.0997530822
 40
0.2419066209
 40
0.4102452781
 40
0.4985937318
 40
0.5863141851
 40
0.6708236815
 40
0.7495644971
 40
0.8204148114
 40
0.8816316784
 40
0.9314931599
 40
0.951634065
 40
0.9683044923
 40
0.9813712621
 40
0.9908624611
 40
0.9943011861
 40
0.9969079377
 40
1.0
 40
1.0
 40
1.0
 40
1.0
 10
101.8454616448
 20
152.6104647565
 30
0.0
 10
101.6107947075
 20
152.5785410732
 30
0.0
 10
101.0718494643
 20
152.5198692587
 30
0.0
 10
99.7623717632
 20
152.4067651925
 30
0.0
 10
97.7744800039
 20
152.274349401
 30
0.0
 10
95.6111262922
 20
152.1490230626
 30
0.0
 10
93.7427866997
 20
152.0444474265
 30
0.0
 10
92.3292406846
 20
151.9647306961
 30
0.0
 10
90.9679688397
 20
151.8851771726
 30
0.0
 10
89.6985209591
 20
151.8056430548
 30
0.0
 10
88.5558775199
 20
151.726338556
 30
0.0
 10
87.5705359674
 20
151.6475391464
 30
0.0
 10
86.8608098404
 20
151.5791450702
 30
0.0
 10
86.3933086787
 20
151.5219955471
 30
0.0
 10
86.1252074654
 20
151.4827242936
 30
0.0
 10
85.9154471671
 20
151.4432719864
 30
0.0
 10
85.7787103896
 20
151.4092946712
 30
0.0
 10
85.6987546045
 20
151.3790889021
 30
0.0
 10
85.6560247817
 20
151.3578121621
 30
0.0
 10
85.6280897156
 20
151.3328431763
 30
0.0
 10
85.6279601699
 20
151.3160436657
 30
0.0
  0
SPLINE
  5
403
100
AcDbEntity
  8
0
100
AcDbSpline
 62
7
  6
BYLAYER
 70
0
 71
3
 72
12
 73
8
 74
0
 42
0.0000001
 43
0.0000001
 44
0.0000000001
 40
0.0
 40
0.0
 40
0.0
 40
0.0
 40
0.0984696353
 40
0.1833383976
 40
0.2950206485
 40
0.5987170842
 40
1.0
 40
1.0
 40
1.0
 40
1.0
 10
90.7336466632
 20
111.8455349906
 30
0.0
 10
90.7318288399
 20
111.8305120673
 30
0.0
 10
90.7023520081
 20
111.8120814853
 30
0.0
 10
90.6610270457
 20
111.7992031414
 30
0.0
 10
90.58464023
 20
111.7835083329
 30
0.0
 10
90.4599834622
 20
111.7731110991
 30
0.0
 10
90.3514344601
 20
111.7706427209
 30
0.0
 10
90.2897665592
 20
111.7706427209
 30
0.0
  0
SPLINE
  5
404
100
AcDbEntity
  8
0
100
AcDbSpline
 62
7
  6
BYLAYER
 70
0
 71
3
 72
13
 73
9
 74
0
 42
0.0000001
 43
0.0000001
 44
0.0000000001
 40
0.0
 40
0.0
 40
0.0
 40
0.0
 40
0.2979456992
 40
0.5696179477
 40
0.6901589038
 40
0.8004808723
 40
0.9025135257
 40
1.0
 40
1.0
 40
1.0
 40
1.0
 10
99.5802955918
 20
197.3989383287
 30
0.0
 10
99.5804151631
 20
197.5966645512
 30
0.0
 10
99.5309318838
 20
197.9756854577
 30
0.0
 10
99.3534643014
 20
198.407344619
 30
0.0
 10
99.1414431152
 20
198.6678100876
 30
0.0
 10
98.9661375945
 20
198.8056643139
 30
0.0
 10
98.7751088331
 20
198.8884870592
 30
0.0
 10
98.6406221872
 20
198.9019837919
 30
0.0
 10
98.5760798805
 20
198.8975396347
 30
0.0
  0
SPLINE
  5
405
100
AcDbEntity
  8
0
100
AcDbSpline
 62
7
  6
BYLAYER
 70
0
 71
3
 72
10
 73
6
 74
0
 42
0.0000001
 43
0.0000001
 44
0.0000000001
 40
0.0
 40
0.0
 40
0.0
 40
0.0
 40
0.2485340308
 40
0.5040920136
 40
1.0
 40
1.0
 40
1.0
 40
1.0
 10
99.306569316
 20
112.8155777437
 30
0.0
 10
99.3065706229
 20
113.2979836373
 30
0.0
 10
99.3973570867
 20
114.2768079365
 30
0.0
 10
99.8049528525
 20
116.1765911007
 30
0.0
 10
100.2718038907
 20
117.563445344
 30
0.0
 10
100.6182673038
 20
118.4614904439
 30
0.0
  0
LINE
  5
406
100
AcDbEntity
  8
0
100
AcDbLine
 62
7
  6
BYLAYER
 10
100.6182673038
 20
118.4614904439
 11
100.6297624151
 21
118.4912417387
  0
SPLINE
  5
407
100
AcDbEntity
  8
0
100
AcDbSpline
 62
7
  6
BYLAYER
 70
0
 71
3
 72
17
 73
13
 74
0
 42
0.0000001
 43
0.0000001
 44
0.0000000001
 40
0.0
 40
0.0
 40
0.0
 40
0.0
 40
0.369984717
 40
0.5356302996
 40
0.6843264643
 40
0.8116374169
 40
0.8653204138
 40
0.91128189
 40
0.9486679679
 40
0.9765446531
 40
0.9939696735
 40
1.0
 40
1.0
 40
1.0
 40
1.0
 10
100.6297624151
 20
118.4912417387
 30
0.0
 10
100.7590066697
 20
118.8252500694
 30
0.0
 10
100.954257718
 20
119.3056950457
 30
0.0
 10
101.217247966
 20
119.913686617
 30
0.0
 10
101.3920175043
 20
120.3038589115
 30
0.0
 10
101.5257464344
 20
120.5936369522
 30
0.0
 10
101.6194999424
 20
120.7923140136
 30
0.0
 10
101.6765982768
 20
120.912052489
 30
0.0
 10
101.723861779
 20
121.0087587977
 30
0.0
 10
101.7583805744
 20
121.0810466182
 30
0.0
 10
101.7818147072
 20
121.1247713614
 30
0.0
 10
101.7905250065
 20
121.1459208002
 30
0.0
 10
101.793763256
 20
121.1507775318
 30
0.0
  0
SPLINE
  5
408
100
AcDbEntity
  8
0
100
AcDbSpline
 62
7
  6
BYLAYER
 70
0
 71
3
 72
9
 73
5
 74
0
 42
0.0000001
 43
0.0000001
 44
0.0000000001
 40
0.0
 40
0.0
 40
0.0
 40
0.0
 40
0.4997308016
 40
1.0
 40
1.0
 40
1.0
 40
1.0
 10
99.7545272594
 20
120.4428357829
 30
0.0
 10
99.8168889772
 20
120.5790330241
 30
0.0
 10
99.9833148071
 20
120.8346510856
 30
0.0
 10
100.2198852097
 20
121.027225231
 30
0.0
 10
100.3488724779
 20
121.1037061614
 30
0.0
  0
SPLINE
  5
409
100
AcDbEntity
  8
0
100
AcDbSpline
 62
7
  6
BYLAYER
 70
0
 71
3
 72
9
 73
5
 74
0
 42
0.0000001
 43
0.0000001
 44
0.0000000001
 40
0.0
 40
0.0
 40
0.0
 40
0.0
 40
0.5198126014
 40
1.0
 40
1.0
 40
1.0
 40
1.0
 10
83.5526687807
 20
50.2857956703
 30
0.0
 10
83.9751222311
 20
50.2857956703
 30
0.0
 10
84.7877900305
 20
50.2948719191
 30
0.0
 10
85.6004309
 20
50.3082220135
 30
0.0
 10
85.9904837174
 20
50.3206234446
 30
0.0
  0
SPLINE
  5
40A
100
AcDbEntity
  8
0
100
AcDbSpline
 62
7
  6
BYLAYER
 70
0
 71
3
 72
14
 73
10
 74
0
 42
0.0000001
 43
0.0000001
 44
0.0000000001
 40
0.0
 40
0.0
 40
0.0
 40
0.0
 40
0.4288608852
 40
0.6008062447
 40
0.7430119648
 40
0.8544367015
 40
0.9344465363
 40
0.9828805358
 40
1.0
 40
1.0
 40
1.0
 40
1.0
 10
85.9904837174
 20
50.3206234446
 30
0.0
 10
86.0324719145
 20
50.3219584273
 30
0.0
 10
86.0913531796
 20
50.3239427948
 30
0.0
 10
86.1639332185
 20
50.3270492928
 30
0.0
 10
86.20586359
 20
50.3289535085
 30
0.0
 10
86.2377294347
 20
50.3312100961
 30
0.0
 10
86.2628932526
 20
50.3322491786
 30
0.0
 10
86.2739846298
 20
50.3351489395
 30
0.0
 10
86.2836027492
 20
50.3349611583
 30
0.0
 10
86.2836363697
 20
50.3366377721
 30
0.0
  0
SPLINE
  5
40B
100
AcDbEntity
  8
0
100
AcDbSpline
 62
7
  6
BYLAYER
 70
0
 71
3
 72
11
 73
7
 74
0
 42
0.0000001
 43
0.0000001
 44
0.0000000001
 40
0.0
 40
0.0
 40
0.0
 40
0.0
 40
0.256202697
 40
0.5093162599
 40
0.756692591
 40
1.0
 40
1.0
 40
1.0
 40
1.0
 10
86.1373483883
 20
208.4822757921
 30
0.0
 10
86.137348674
 20
208.655362463
 30
0.0
 10
86.1968319434
 20
209.0014372249
 30
0.0
 10
86.4403362193
 20
209.4614888964
 30
0.0
 10
86.8227851442
 20
209.8034938261
 30
0.0
 10
87.1392972215
 20
209.9272985924
 30
0.0
 10
87.3006854234
 20
209.9584903567
 30
0.0
  0
SPLINE
  5
40C
100
AcDbEntity
  8
0
100
AcDbSpline
 62
7
  6
BYLAYER
 70
0
 71
3
 72
12
 73
8
 74
0
 42
0.0000001
 43
0.0000001
 44
0.0000000001
 40
0.0
 40
0.0
 40
0.0
 40
0.0
 40
0.1035118347
 40
0.2109661643
 40
0.445700481
 40
0.7125314926
 40
1.0
 40
1.0
 40
1.0
 40
1.0
 10
86.3415952879
 20
226.8155777437
 30
0.0
 10
86.2720105814
 20
226.8155777437
 30
0.0
 10
86.1294976359
 20
226.7952183019
 30
0.0
 10
85.8519736878
 20
226.6742912059
 30
0.0
 10
85.5526070604
 20
226.3747069801
 30
0.0
 10
85.3317142202
 20
225.8838121869
 30
0.0
 10
85.2809351161
 20
225.508825325
 30
0.0
 10
85.2809351161
 20
225.3155777437
 30
0.0
  0
SPLINE
  5
40D
100
AcDbEntity
  8
0
100
AcDbSpline
 62
7
  6
BYLAYER
 70
0
 71
3
 72
22
 73
18
 74
0
 42
0.0000001
 43
0.0000001
 44
0.0000000001
 40
0.0
 40
0.0
 40
0.0
 40
0.0
 40
0.0012762141
 40
0.0050663545
 40
0.0113144568
 40
0.0199645535
 40
0.0309606766
 40
0.0442468579
 40
0.0774781671
 40
0.1193145658
 40
0.1694470546
 40
0.2275523996
 40
0.2932589122
 40
0.4450667716
 40
0.6180187253
 40
0.8052468437
 40
1.0
 40
1.0
 40
1.0
 40
1.0
 10
94.1200645321
 20
221.0655883208
 30
0.0
 10
94.1194321841
 20
221.0655028305
 30
0.0
 10
94.1209483901
 20
221.0616321582
 30
0.0
 10
94.1194888058
 20
221.0572550801
 30
0.0
 10
94.1203035078
 20
221.04719042
 30
0.0
 10
94.1199428603
 20
221.0345572393
 30
0.0
 10
94.1200756115
 20
221.0179715042
 30
0.0
 10
94.1200082745
 20
220.9892708336
 30
0.0
 10
94.120046359
 20
220.9450584789
 30
0.0
 10
94.1200285083
 20
220.882474266
 30
0.0
 10
94.120036797
 20
220.8074325257
 30
0.0
 10
94.1200396079
 20
220.7204629971
 30
0.0
 10
94.1200515566
 20
220.5826537633
 30
0.0
 10
94.1200683215
 20
220.3874230032
 30
0.0
 10
94.1201177209
 20
220.131431197
 30
0.0
 10
94.1200911551
 20
219.8539682676
 30
0.0
 10
94.1202987979
 20
219.662977198
 30
0.0
 10
94.1196799035
 20
219.5656035497
 30
0.0
  0
SPLINE
  5
40E
100
AcDbEntity
  8
0
100
AcDbSpline
 62
7
  6
BYLAYER
 70
0
 71
3
 72
26
 73
22
 74
0
 42
0.0000001
 43
0.0000001
 44
0.0000000001
 40
0.0
 40
0.0
 40
0.0
 40
0.0
 40
0.0431911762
 40
0.0988629127
 40
0.2403087764
 40
0.3223485988
 40
0.4089697392
 40
0.4975565225
 40
0.5854880927
 40
0.6701472753
 40
0.7491396187
 40
0.8204237194
 40
0.8819933376
 40
0.9318517211
 40
0.9518031787
 40
0.9682914989
 40
0.9812908885
 40
0.9907966316
 40
0.9942570571
 40
0.996886287
 40
1.0
 40
1.0
 40
1.0
 40
1.0
 10
101.8835578627
 20
218.6153897248
 30
0.0
 10
101.6505108412
 20
218.5831873347
 30
0.0
 10
101.1150736688
 20
218.524390378
 30
0.0
 10
99.8110954438
 20
218.4103078908
 30
0.0
 10
98.2937969053
 20
218.3086243774
 30
0.0
 10
96.6077562692
 20
218.2065940298
 30
0.0
 10
95.2088100098
 20
218.1266360565
 30
0.0
 10
93.7777391323
 20
218.0464936208
 30
0.0
 10
92.3573662146
 20
217.9664112693
 30
0.0
 10
90.9893363877
 20
217.8863631695
 30
0.0
 10
89.7121474233
 20
217.806341806
 30
0.0
 10
88.5609570057
 20
217.726781605
 30
0.0
 10
87.5688536026
 20
217.6477466892
 30
0.0
 10
86.8564532957
 20
217.5791747962
 30
0.0
 10
86.3898772246
 20
217.521439834
 30
0.0
 10
86.1235606368
 20
217.4817959741
 30
0.0
 10
85.9145861026
 20
217.4421418974
 30
0.0
 10
85.7777215851
 20
217.4080254709
 30
0.0
 10
85.6971985629
 20
217.3777337902
 30
0.0
 10
85.6540524578
 20
217.3563733822
 30
0.0
 10
85.6255392312
 20
217.3313502706
 30
0.0
 10
85.625397304
 20
217.3143905403
 30
0.0
  0
SPLINE
  5
40F
100
AcDbEntity
  8
0
100
AcDbSpline
 62
7
  6
BYLAYER
 70
0
 71
3
 72
26
 73
22
 74
0
 42
0.0000001
 43
0.0000001
 44
0.0000000001
 40
0.0
 40
0.0
 40
0.0
 40
0.0
 40
0.0444054867
 40
0.1007441599
 40
0.2432280584
 40
0.3256527405
 40
0.412284009
 40
0.5005910286
 40
0.5880437999
 40
0.6722221672
 40
0.75089644
 40
0.8218578247
 40
0.8829019675
 40
0.9320032483
 40
0.951732128
 40
0.9681385448
 40
0.9811510567
 40
0.9907187882
 40
0.9942136516
 40
0.9968713758
 40
1.0
 40
1.0
 40
1.0
 40
1.0
 10
101.8191314259
 20
155.6071243805
 30
0.0
 10
101.5802328295
 20
155.5756144891
 30
0.0
 10
101.0365498113
 20
155.5172035752
 30
0.0
 10
99.7215523554
 20
155.4035576438
 30
0.0
 10
98.1985850627
 20
155.3024180331
 30
0.0
 10
96.5110610224
 20
155.2011126414
 30
0.0
 10
95.1167340549
 20
155.1215795557
 30
0.0
 10
93.6950930874
 20
155.0419173822
 30
0.0
 10
92.286781625
 20
154.9622577593
 30
0.0
 10
90.9308268057
 20
154.8826182782
 30
0.0
 10
89.664510989
 20
154.803208551
 30
0.0
 10
88.5239669306
 20
154.7242467636
 30
0.0
 10
87.5442856558
 20
154.6459500401
 30
0.0
 10
86.8427966011
 20
154.5773240464
 30
0.0
 10
86.3837579365
 20
154.519956415
 30
0.0
 10
86.1200325919
 20
154.480570219
 30
0.0
 10
85.9118429164
 20
154.4411795781
 30
0.0
 10
85.7748972228
 20
154.4073225293
 30
0.0
 10
85.6938533576
 20
154.3772693678
 30
0.0
 10
85.6504644859
 20
154.3561160035
 30
0.0
 10
85.6213450759
 20
154.3313173797
 30
0.0
 10
85.6212130088
 20
154.3143403237
 30
0.0
  0
SPLINE
  5
410
100
AcDbEntity
  8
0
100
AcDbSpline
 62
7
  6
BYLAYER
 70
0
 71
3
 72
25
 73
21
 74
0
 42
0.0000001
 43
0.0000001
 44
0.0000000001
 40
0.0
 40
0.0
 40
0.0
 40
0.0
 40
0.0437152913
 40
0.0999980308
 40
0.2423749845
 40
0.4107197399
 40
0.4990198839
 40
0.5866837055
 40
0.6711402972
 40
0.7498340075
 40
0.8206046818
 40
0.8817303399
 40
0.9315200438
 40
0.9516419884
 40
0.9683095193
 40
0.981377327
 40
0.9908667667
 40
0.9943041663
 40
0.9969096142
 40
1.0
 40
1.0
 40
1.0
 40
1.0
 10
101.8349835955
 20
158.6091505728
 30
0.0
 10
101.5997564974
 20
158.5773427297
 30
0.0
 10
101.0598229392
 20
158.5186436772
 30
0.0
 10
99.7486008397
 20
158.4057268252
 30
0.0
 10
97.7600608019
 20
158.2735179692
 30
0.0
 10
95.5970803858
 20
158.148234536
 30
0.0
 10
93.7304502241
 20
158.0437410327
 30
0.0
 10
92.3186480541
 20
157.9641053537
 30
0.0
 10
90.9590808415
 20
157.8846324371
 30
0.0
 10
89.6914031164
 20
157.8052111919
 30
0.0
 10
88.5506611643
 20
157.7259830117
 30
0.0
 10
87.5672580036
 20
157.647252623
 30
0.0
 10
86.8589683061
 20
157.5789179611
 30
0.0
 10
86.3922704502
 20
157.521826009
 30
0.0
 10
86.124447977
 20
157.4826072607
 30
0.0
 10
85.9148341641
 20
157.4432084838
 30
0.0
 10
85.7781905979
 20
157.4092659864
 30
0.0
 10
85.6983072245
 20
157.3790896115
 30
0.0
 10
85.6556233945
 20
157.3578358863
 30
0.0
 10
85.6277263311
 20
157.3328905582
 30
0.0
 10
85.6275980527
 20
157.316110686
 30
0.0
  0
SPLINE
  5
411
100
AcDbEntity
  8
0
100
AcDbSpline
 62
7
  6
BYLAYER
 70
0
 71
3
 72
27
 73
23
 74
0
 42
0.0000001
 43
0.0000001
 44
0.0000000001
 40
0.0
 40
0.0
 40
0.0
 40
0.0
 40
0.0623965104
 40
0.1247877474
 40
0.1871789789
 40
0.2495734833
 40
0.3743684689
 40
0.4991555525
 40
0.5615492176
 40
0.6239425046
 40
0.6863349497
 40
0.7487267315
 40
0.7643246978
 40
0.7799227178
 40
0.7956026061
 40
0.8114501588
 40
0.8434716881
 40
0.8755638282
 40
0.9073043763
 40
0.9384463416
 40
0.96911173
 40
1.0
 40
1.0
 40
1.0
 40
1.0
 10
101.897812671
 20
206.6183217579
 30
0.0
 10
101.5604387898
 20
206.5717625996
 30
0.0
 10
100.8827407162
 20
206.5009090029
 30
0.0
 10
99.8645276174
 20
206.4175979099
 30
0.0
 10
98.8455798571
 20
206.3430212647
 30
0.0
 10
97.4861457476
 20
206.25524863
 30
0.0
 10
95.7860126727
 20
206.1593086148
 30
0.0
 10
94.0858768414
 20
206.0638084204
 30
0.0
 10
92.7257637805
 20
205.9880570195
 30
0.0
 10
91.7057766498
 20
205.9296318552
 30
0.0
 10
90.6859467532
 20
205.8686413468
 30
0.0
 10
89.9212969241
 20
205.8194390525
 30
0.0
 10
89.4115954734
 20
205.7856171038
 30
0.0
 10
89.1564087569
 20
205.7671610918
 30
0.0
 10
88.8995506555
 20
205.7527759852
 30
0.0
 10
88.5526860208
 20
205.746449417
 30
0.0
 10
88.1162472936
 20
205.7507246983
 30
0.0
 10
87.593063873
 20
205.7554128248
 30
0.0
 10
87.0746520452
 20
205.7380959231
 30
0.0
 10
86.5666702081
 20
205.6770729679
 30
0.0
 10
86.0750797295
 20
205.5492659555
 30
0.0
 10
85.7685301667
 20
205.4051108071
 30
0.0
 10
85.6245574176
 20
205.3173856599
 30
0.0
  0
SPLINE
  5
412
100
AcDbEntity
  8
0
100
AcDbSpline
 62
7
  6
BYLAYER
 70
0
 71
3
 72
9
 73
5
 74
0
 42
0.0000001
 43
0.0000001
 44
0.0000000001
 40
0.0
 40
0.0
 40
0.0
 40
0.0
 40
0.5198126014
 40
1.0
 40
1.0
 40
1.0
 40
1.0
 10
83.3091306739
 20
68.7857956703
 30
0.0
 10
83.7315841243
 20
68.7857956703
 30
0.0
 10
84.5442519236
 20
68.7948719191
 30
0.0
 10
85.3568927932
 20
68.8082220135
 30
0.0
 10
85.7469456106
 20
68.8206234446
 30
0.0
  0
SPLINE
  5
413
100
AcDbEntity
  8
0
100
AcDbSpline
 62
7
  6
BYLAYER
 70
0
 71
3
 72
14
 73
10
 74
0
 42
0.0000001
 43
0.0000001
 44
0.0000000001
 40
0.0
 40
0.0
 40
0.0
 40
0.0
 40
0.4288608852
 40
0.6008062447
 40
0.7430119648
 40
0.8544367015
 40
0.9344465363
 40
0.9828805358
 40
1.0
 40
1.0
 40
1.0
 40
1.0
 10
85.7469456106
 20
68.8206234446
 30
0.0
 10
85.7889338077
 20
68.8219584273
 30
0.0
 10
85.8478150728
 20
68.8239427948
 30
0.0
 10
85.9203951117
 20
68.8270492928
 30
0.0
 10
85.9623254832
 20
68.8289535085
 30
0.0
 10
85.9941913278
 20
68.8312100961
 30
0.0
 10
86.0193551458
 20
68.8322491786
 30
0.0
 10
86.030446523
 20
68.8351489395
 30
0.0
 10
86.0400646424
 20
68.8349611583
 30
0.0
 10
86.0400982629
 20
68.8366377721
 30
0.0
  0
SPLINE
  5
414
100
AcDbEntity
  8
0
100
AcDbSpline
 62
7
  6
BYLAYER
 70
0
 71
3
 72
30
 73
26
 74
0
 42
0.0000001
 43
0.0000001
 44
0.0000000001
 40
0.0
 40
0.0
 40
0.0
 40
0.0
 40
0.1238656441
 40
0.2477282406
 40
0.37159545
 40
0.4954629296
 40
0.5573972763
 40
0.6193331997
 40
0.6812683097
 40
0.7432012103
 40
0.7741668914
 40
0.8051323222
 40
0.820615078
 40
0.8283564942
 40
0.836098711
 40
0.8440764659
 40
0.8524486108
 40
0.8701381412
 40
0.8886088548
 40
0.9072252117
 40
0.9424026616
 40
0.9580385566
 40
0.9722245424
 40
0.985659129
 40
1.0
 40
1.0
 40
1.0
 40
1.0
 10
101.8177085614
 20
161.6073727851
 30
0.0
 10
101.1451819342
 20
161.5228174459
 30
0.0
 10
99.7936614981
 20
161.4086724675
 30
0.0
 10
97.7649546644
 20
161.272576467
 30
0.0
 10
95.7348214315
 20
161.1549374173
 30
0.0
 10
94.0428520115
 20
161.061204663
 30
0.0
 10
92.6892841651
 20
160.9855595036
 30
0.0
 10
91.6741200381
 20
160.9284406868
 30
0.0
 10
90.6591289717
 20
160.8684253254
 30
0.0
 10
89.8135555747
 20
160.8145013911
 30
0.0
 10
89.1373450375
 20
160.7679177639
 30
0.0
 10
88.7148208507
 20
160.737349752
 30
0.0
 10
88.4191505851
 20
160.7146840742
 30
0.0
 10
88.2501749947
 20
160.7019353401
 30
0.0
 10
88.1222733177
 20
160.6907282696
 30
0.0
 10
87.9905020189
 20
160.6847349444
 30
0.0
 10
87.8041674393
 20
160.6873383784
 30
0.0
 10
87.560943788
 20
160.7041228177
 30
0.0
 10
87.2626987096
 20
160.7346869018
 30
0.0
 10
86.869522929
 20
160.7740892622
 30
0.0
 10
86.4882247382
 20
160.7962581842
 30
0.0
 10
86.1340946398
 20
160.7501837927
 30
0.0
 10
85.9081023905
 20
160.6711083777
 30
0.0
 10
85.7225134134
 20
160.5273015289
 30
0.0
 10
85.6466500715
 20
160.3904473097
 30
0.0
 10
85.6200997596
 20
160.3165984879
 30
0.0
  0
SPLINE
  5
415
100
AcDbEntity
  8
0
100
AcDbSpline
 62
7
  6
BYLAYER
 70
0
 71
3
 72
26
 73
22
 74
0
 42
0.0000001
 43
0.0000001
 44
0.0000000001
 40
0.0
 40
0.0
 40
0.0
 40
0.0
 40
0.0411783119
 40
0.0950774111
 40
0.2351559632
 40
0.3167880975
 40
0.403009334
 40
0.4914483683
 40
0.5796080485
 40
0.6649277376
 40
0.7448472052
 40
0.8168169403
 40
0.8787444707
 40
0.9292157055
 40
0.9497360877
 40
0.9668944173
 40
0.9805360643
 40
0.9905274263
 40
0.9941346707
 40
0.9968479342
 40
1.0
 40
1.0
 40
1.0
 40
1.0
 10
101.9514421956
 20
122.6260643861
 30
0.0
 10
101.7285502973
 20
122.5935733481
 30
0.0
 10
101.2117393405
 20
122.5338643917
 30
0.0
 10
99.930614017
 20
122.4182535231
 30
0.0
 10
98.4262272313
 20
122.3174171435
 30
0.0
 10
96.7449721291
 20
122.2148936419
 30
0.0
 10
95.345344285
 20
122.1343834244
 30
0.0
 10
93.9099713602
 20
122.0537299545
 30
0.0
 10
92.4795309553
 20
121.973149302
 30
0.0
 10
91.0957623678
 20
121.8926725873
 30
0.0
 10
89.8006944169
 20
121.8124579531
 30
0.0
 10
88.6338239817
 20
121.7325387556
 30
0.0
 10
87.6284587431
 20
121.6527008033
 30
0.0
 10
86.9046417663
 20
121.5833530027
 30
0.0
 10
86.4258594038
 20
121.5255893892
 30
0.0
 10
86.1480295566
 20
121.4857992721
 30
0.0
 10
85.9281389929
 20
121.4459895077
 30
0.0
 10
85.7835605357
 20
121.4119271567
 30
0.0
 10
85.6984513585
 20
121.3813792543
 30
0.0
 10
85.6536142379
 20
121.3600783982
 30
0.0
 10
85.6236969519
 20
121.3348380086
 30
0.0
 10
85.6235504072
 20
121.317596663
 30
0.0
  0
SPLINE
  5
416
100
AcDbEntity
  8
0
100
AcDbSpline
 62
7
  6
BYLAYER
 70
0
 71
3
 72
25
 73
21
 74
0
 42
0.0000001
 43
0.0000001
 44
0.0000000001
 40
0.0
 40
0.0
 40
0.0
 40
0.0
 40
0.0427507686
 40
0.0977654522
 40
0.2391127656
 40
0.4073267252
 40
0.4955274224
 40
0.5832319638
 40
0.6679765349
 40
0.747296174
 40
0.8187282541
 40
0.8800767361
 40
0.9299560469
 40
0.9502154265
 40
0.9671572319
 40
0.9806425914
 40
0.9905531324
 40
0.9941499554
 40
0.9968575952
 40
1.0
 40
1.0
 40
1.0
 40
1.0
 10
101.8804865714
 20
215.6159210624
 30
0.0
 10
101.6498335122
 20
215.5840450109
 30
0.0
 10
101.1204848458
 20
215.5250461734
 30
0.0
 10
99.8231756701
 20
215.4103916412
 30
0.0
 10
97.8416872887
 20
215.2786302564
 30
0.0
 10
95.6789249304
 20
215.1530893418
 30
0.0
 10
93.8075932699
 20
215.0480560212
 30
0.0
 10
92.3902025428
 20
214.9680386095
 30
0.0
 10
91.0212519496
 20
214.888151586
 30
0.0
 10
89.7410752864
 20
214.8084965013
 30
0.0
 10
88.5885598913
 20
214.7292774186
 30
0.0
 10
87.5968213359
 20
214.650072484
 30
0.0
 10
86.8839292662
 20
214.5811866028
 30
0.0
 10
86.4130494954
 20
214.5238290488
 30
0.0
 10
86.1398853316
 20
214.4843148601
 30
0.0
 10
85.9234270681
 20
214.444792497
 30
0.0
 10
85.7808484876
 20
214.4109262754
 30
0.0
 10
85.6966029131
 20
214.3807047111
 30
0.0
 10
85.652066308
 20
214.3595931853
 30
0.0
 10
85.6223338676
 20
214.3345336909
 30
0.0
 10
85.622193314
 20
214.3174189251
 30
0.0
  0
SPLINE
  5
417
100
AcDbEntity
  8
0
100
AcDbSpline
 62
7
  6
BYLAYER
 70
0
 71
3
 72
26
 73
22
 74
0
 42
0.0000001
 43
0.0000001
 44
0.0000000001
 40
0.0
 40
0.0
 40
0.0
 40
0.0
 40
0.043084074
 40
0.0985495949
 40
0.2397501495
 40
0.3218605987
 40
0.4085296336
 40
0.4971420071
 40
0.5850818721
 40
0.6697611176
 40
0.7488820608
 40
0.8203221545
 40
0.8819653927
 40
0.9317176636
 40
0.9516282998
 40
0.968129551
 40
0.981174502
 40
0.9907370919
 40
0.9942233091
 40
0.9968728049
 40
1.0
 40
1.0
 40
1.0
 40
1.0
 10
101.8928985037
 20
203.6167264274
 30
0.0
 10
101.6602754645
 20
203.5845470027
 30
0.0
 10
101.1262010742
 20
203.5256419669
 30
0.0
 10
99.8244077194
 20
203.4112372325
 30
0.0
 10
98.3081560812
 20
203.3094144741
 30
0.0
 10
96.6216487841
 20
203.2074462665
 30
0.0
 10
95.2209639043
 20
203.1273734346
 30
0.0
 10
93.7884718812
 20
203.0471315525
 30
0.0
 10
92.3668374076
 20
202.9669425177
 30
0.0
 10
90.997023043
 20
202.8867293176
 30
0.0
 10
89.7172981544
 20
202.8066530316
 30
0.0
 10
88.5633652464
 20
202.7270355635
 30
0.0
 10
87.5699004743
 20
202.6480369757
 30
0.0
 10
86.8574311612
 20
202.5792385392
 30
0.0
 10
86.3912846215
 20
202.5213582615
 30
0.0
 10
86.1246962697
 20
202.4816709956
 30
0.0
 10
85.9149332397
 20
202.4419728623
 30
0.0
 10
85.777281666
 20
202.4078363214
 30
0.0
 10
85.6960728149
 20
202.3775270754
 30
0.0
 10
85.6525930567
 20
202.3561810127
 30
0.0
 10
85.623632089
 20
202.3311560676
 30
0.0
 10
85.6234976666
 20
202.3141112052
 30
0.0
  0
SPLINE
  5
418
100
AcDbEntity
  8
0
100
AcDbSpline
 62
7
  6
BYLAYER
 70
0
 71
3
 72
27
 73
23
 74
0
 42
0.0000001
 43
0.0000001
 44
0.0000000001
 40
0.0
 40
0.0
 40
0.0
 40
0.0
 40
0.0423186018
 40
0.0969830463
 40
0.1625574212
 40
0.2375080684
 40
0.3196025447
 40
0.4062604135
 40
0.4948970309
 40
0.5829292281
 40
0.6678817027
 40
0.7474378077
 40
0.8192954875
 40
0.8811571228
 40
0.930951556
 40
0.9509815342
 40
0.9676487772
 40
0.9808742038
 40
0.9905991857
 40
0.9941493171
 40
0.9968454599
 40
1.0
 40
1.0
 40
1.0
 40
1.0
 10
101.9254345574
 20
125.6217981405
 30
0.0
 10
101.6965431292
 20
125.5894901173
 30
0.0
 10
101.1699530025
 20
125.5302478061
 30
0.0
 10
100.2855322922
 20
125.4511171601
 30
0.0
 10
99.2222881119
 20
125.3712948108
 30
0.0
 10
98.0088860157
 20
125.291279294
 30
0.0
 10
96.6801026779
 20
125.211041591
 30
0.0
 10
95.2764498374
 20
125.1305819533
 30
0.0
 10
93.8403152143
 20
125.0500512876
 30
0.0
 10
92.4135123201
 20
124.969492732
 30
0.0
 10
91.0363885326
 20
124.8889723535
 30
0.0
 10
89.7477603316
 20
124.8086820451
 30
0.0
 10
88.5854937703
 20
124.7288496237
 30
0.0
 10
87.5861787494
 20
124.649671836
 30
0.0
 10
86.8701488357
 20
124.5802464495
 30
0.0
 10
86.4011971583
 20
124.5222533267
 30
0.0
 10
86.1314845074
 20
124.4824249373
 30
0.0
 10
85.9184309851
 20
124.4425854737
 30
0.0
 10
85.7782605796
 20
124.4083688432
 30
0.0
 10
85.695224049
 20
124.3779595506
 30
0.0
 10
85.6509459705
 20
124.3566456308
 30
0.0
 10
85.6209910341
 20
124.33154341
 30
0.0
 10
85.6209286582
 20
124.3143122233
 30
0.0
  0
SPLINE
  5
419
100
AcDbEntity
  8
0
100
AcDbSpline
 62
7
  6
BYLAYER
 70
0
 71
3
 72
14
 73
10
 74
0
 42
0.0000001
 43
0.0000001
 44
0.0000000001
 40
0.0
 40
0.0
 40
0.0
 40
0.0
 40
0.1477973248
 40
0.2927959297
 40
0.4991317577
 40
0.6856336808
 40
0.8492243261
 40
0.9248537843
 40
1.0
 40
1.0
 40
1.0
 40
1.0
 10
90.5401941115
 20
223.813690487
 30
0.0
 10
90.6167127826
 20
223.5354996192
 30
0.0
 10
90.7933776907
 20
222.9908772947
 30
0.0
 10
91.1782635106
 20
222.094477599
 30
0.0
 10
91.7110623787
 20
221.1840504735
 30
0.0
 10
92.4235322562
 20
220.354745609
 30
0.0
 10
93.1099132648
 20
219.8648714749
 30
0.0
 10
93.6829122933
 20
219.6376151648
 30
0.0
 10
93.9737433501
 20
219.5805180119
 30
0.0
 10
94.1196799035
 20
219.5656035497
 30
0.0
  0
SPLINE
  5
41A
100
AcDbEntity
  8
0
100
AcDbSpline
 62
7
  6
BYLAYER
 70
0
 71
3
 72
27
 73
23
 74
0
 42
0.0000001
 43
0.0000001
 44
0.0000000001
 40
0.0
 40
0.0
 40
0.0
 40
0.0
 40
0.0426858234
 40
0.0980507179
 40
0.164180661
 40
0.2391420045
 40
0.3209901874
 40
0.4075179126
 40
0.4961242526
 40
0.5841751262
 40
0.6690366185
 40
0.7481719056
 40
0.8195351521
 40
0.8812396397
 40
0.9314076935
 40
0.9515856814
 40
0.9682258575
 40
0.9812937209
 40
0.9908134176
 40
0.9942695789
 40
0.9968920772
 40
1.0
 40
1.0
 40
1.0
 40
1.0
 10
101.9025394507
 20
128.6181033154
 30
0.0
 10
101.6720566351
 20
128.5857044166
 30
0.0
 10
101.1405186195
 20
128.5267761744
 30
0.0
 10
100.248764819
 20
128.4482077257
 30
0.0
 10
99.1804758851
 20
128.3688393577
 30
0.0
 10
97.9675070171
 20
128.2888510424
 30
0.0
 10
96.6431027023
 20
128.2087084613
 30
0.0
 10
95.2441739143
 20
128.1285658223
 30
0.0
 10
93.8113755281
 20
128.0483343165
 30
0.0
 10
92.3876756438
 20
127.9681239484
 30
0.0
 10
91.015693225
 20
127.888035542
 30
0.0
 10
89.7348678207
 20
127.8079062735
 30
0.0
 10
88.580546157
 20
127.7281504073
 30
0.0
 10
87.5845610589
 20
127.6489198083
 30
0.0
 10
86.8677674869
 20
127.5801539193
 30
0.0
 10
86.3969028461
 20
127.5225928334
 30
0.0
 10
86.1278422671
 20
127.4829289795
 30
0.0
 10
85.9173597806
 20
127.4432063101
 30
0.0
 10
85.7799085312
 20
127.4090213019
 30
0.0
 10
85.6993163078
 20
127.378646876
 30
0.0
 10
85.65620191
 20
127.3572434926
 30
0.0
 10
85.627872462
 20
127.3321437516
 30
0.0
 10
85.6277359291
 20
127.3151980342
 30
0.0
  0
SPLINE
  5
41B
100
AcDbEntity
  8
0
100
AcDbSpline
 62
7
  6
BYLAYER
 70
0
 71
3
 72
10
 73
6
 74
0
 42
0.0000001
 43
0.0000001
 44
0.0000000001
 40
0.0
 40
0.0
 40
0.0
 40
0.0
 40
0.0723383726
 40
0.2683230246
 40
1.0
 40
1.0
 40
1.0
 40
1.0
 10
83.9523168695
 20
219.8398923333
 30
0.0
 10
83.9523047174
 20
219.8407458816
 30
0.0
 10
83.9480808349
 20
219.8416549557
 30
0.0
 10
83.9390517696
 20
219.846788468
 30
0.0
 10
83.9266986764
 20
219.8469682283
 30
0.0
 10
83.9180918465
 20
219.8476553365
 30
0.0
  0
SPLINE
  5
41C
100
AcDbEntity
  8
0
100
AcDbSpline
 62
7
  6
BYLAYER
 70
0
 71
3
 72
24
 73
20
 74
0
 42
0.0000001
 43
0.0000001
 44
0.0000000001
 40
0.0
 40
0.0
 40
0.0
 40
0.0
 40
0.0623846309
 40
0.1247643562
 40
0.1871438852
 40
0.2495263719
 40
0.3742972088
 40
0.4990610453
 40
0.5614431268
 40
0.6238248538
 40
0.6862056914
 40
0.7485857705
 40
0.8112375872
 40
0.8433157234
 40
0.8755348084
 40
0.9073920951
 40
0.9385716043
 40
0.9691788959
 40
1.0
 40
1.0
 40
1.0
 40
1.0
 10
101.8529749246
 20
200.6121349325
 30
0.0
 10
101.5163585142
 20
200.5669034514
 30
0.0
 10
100.8404494702
 20
200.497115876
 30
0.0
 10
99.824945529
 20
200.4147507132
 30
0.0
 10
98.8087526663
 20
200.3407614598
 30
0.0
 10
97.453023285
 20
200.2533545073
 30
0.0
 10
95.7575369346
 20
200.1575742418
 30
0.0
 10
94.0620339392
 20
200.0624876086
 30
0.0
 10
92.7056255618
 20
199.9868799656
 30
0.0
 10
91.6884205853
 20
199.9288743396
 30
0.0
 10
90.6713574309
 20
199.8671313376
 30
0.0
 10
89.6531874245
 20
199.8048887309
 30
0.0
 10
88.7996093985
 20
199.7365273659
 30
0.0
 10
88.1082087982
 20
199.7475449512
 30
0.0
 10
87.5848340109
 20
199.755590504
 30
0.0
 10
87.0660627656
 20
199.7430134223
 30
0.0
 10
86.5583903901
 20
199.6852040916
 30
0.0
 10
86.068456805
 20
199.5569124781
 30
0.0
 10
85.7652845915
 20
199.4082434634
 30
0.0
 10
85.6241898881
 20
199.31741902
 30
0.0
  0
SPLINE
  5
41D
100
AcDbEntity
  8
0
100
AcDbSpline
 62
7
  6
BYLAYER
 70
0
 71
3
 72
29
 73
25
 74
0
 42
0.0000001
 43
0.0000001
 44
0.0000000001
 40
0.0
 40
0.0
 40
0.0
 40
0.0
 40
0.1235490531
 40
0.2470940292
 40
0.3706432996
 40
0.4941933398
 40
0.555968754
 40
0.6177463941
 40
0.6795234151
 40
0.7412980022
 40
0.772184349
 40
0.803070301
 40
0.818513264
 40
0.8339563054
 40
0.8497095937
 40
0.8673893051
 40
0.8865585958
 40
0.9063020194
 40
0.9256746203
 40
0.9437863177
 40
0.9599257937
 40
0.973836297
 40
0.9863396524
 40
1.0
 40
1.0
 40
1.0
 40
1.0
 10
101.8541077296
 20
140.6122819187
 30
0.0
 10
101.1804147131
 20
140.5264858313
 30
0.0
 10
99.8263653887
 20
140.4107718893
 30
0.0
 10
97.7937402814
 20
140.2745109142
 30
0.0
 10
95.7597210126
 20
140.1561400218
 30
0.0
 10
94.0644737942
 20
140.0625115167
 30
0.0
 10
92.7083036543
 20
139.986512354
 30
0.0
 10
91.6911639245
 20
139.929493113
 30
0.0
 10
90.6741897069
 20
139.8696153178
 30
0.0
 10
89.8269717988
 20
139.8157350254
 30
0.0
 10
89.1494435988
 20
139.7691295411
 30
0.0
 10
88.726129273
 20
139.7383745327
 30
0.0
 10
88.3875305905
 20
139.7125406898
 30
0.0
 10
88.1320205977
 20
139.6926946876
 30
0.0
 10
87.8639330702
 20
139.6701579976
 30
0.0
 10
87.5745495542
 20
139.6852210952
 30
0.0
 10
87.2649611579
 20
139.7145006575
 30
0.0
 10
86.9463997565
 20
139.7490174804
 30
0.0
 10
86.63291083
 20
139.7756299776
 30
0.0
 10
86.3378198596
 20
139.7824813597
 30
0.0
 10
86.0734610793
 20
139.7569216598
 30
0.0
 10
85.8473046102
 20
139.684756429
 30
0.0
 10
85.6741454041
 20
139.5348049722
 30
0.0
 10
85.6289816123
 20
139.3906173114
 30
0.0
 10
85.619810667
 20
139.31609018
 30
0.0
  0
SPLINE
  5
41E
100
AcDbEntity
  8
0
100
AcDbSpline
 62
7
  6
BYLAYER
 70
0
 71
3
 72
26
 73
22
 74
0
 42
0.0000001
 43
0.0000001
 44
0.0000000001
 40
0.0
 40
0.0
 40
0.0
 40
0.0
 40
0.0429521363
 40
0.0984682707
 40
0.2397443986
 40
0.3217281453
 40
0.4083384852
 40
0.4969563386
 40
0.5849531838
 40
0.6697022394
 40
0.7487745439
 40
0.8201301119
 40
0.8817781462
 40
0.9317372472
 40
0.9517400805
 40
0.968261749
 40
0.9812801075
 40
0.9907943529
 40
0.9942563615
 40
0.9968860975
 40
1.0
 40
1.0
 40
1.0
 40
1.0
 10
101.893847547
 20
212.6168310494
 30
0.0
 10
101.6619841277
 20
212.5845201312
 30
0.0
 10
101.1283793046
 20
212.5256438071
 30
0.0
 10
99.8266896501
 20
212.4114342902
 30
0.0
 10
98.3105314936
 20
212.3097249792
 30
0.0
 10
96.6247444903
 20
212.207580527
 30
0.0
 10
95.2251304451
 20
212.1275462953
 30
0.0
 10
93.7927099785
 20
212.0473224723
 30
0.0
 10
92.3704445602
 20
211.9671570862
 30
0.0
 10
91.0002866305
 20
211.8870429068
 30
0.0
 10
89.7209928323
 20
211.8069351537
 30
0.0
 10
88.5678384279
 20
211.7272810017
 30
0.0
 10
87.5737556385
 20
211.6481455318
 30
0.0
 10
86.8596567558
 20
211.5795026729
 30
0.0
 10
86.3917723038
 20
211.5217451894
 30
0.0
 10
86.1247221775
 20
211.4820590427
 30
0.0
 10
85.9152844114
 20
211.4423620932
 30
0.0
 10
85.7781753007
 20
211.4082085886
 30
0.0
 10
85.6975479495
 20
211.3778782378
 30
0.0
 10
85.6543636429
 20
211.3564980019
 30
0.0
 10
85.6258438821
 20
211.3314380021
 30
0.0
 10
85.6257105689
 20
211.3144666862
 30
0.0
  0
SPLINE
  5
41F
100
AcDbEntity
  8
0
100
AcDbSpline
 62
7
  6
BYLAYER
 70
0
 71
3
 72
13
 73
9
 74
0
 42
0.0000001
 43
0.0000001
 44
0.0000000001
 40
0.0
 40
0.0
 40
0.0
 40
0.0
 40
0.3420773089
 40
0.4995678214
 40
0.6409528119
 40
0.7619981365
 40
0.8613718195
 40
1.0
 40
1.0
 40
1.0
 40
1.0
 10
91.2150827586
 20
130.8990678291
 30
0.0
 10
91.215246751
 20
131.0879697571
 30
0.0
 10
91.2331819977
 20
131.3643647555
 30
0.0
 10
91.2942153903
 20
131.7134164509
 30
0.0
 10
91.3531839402
 20
131.9376789455
 30
0.0
 10
91.4279505432
 20
132.1250062039
 30
0.0
 10
91.525546584
 20
132.2934941695
 30
0.0
 10
91.639305411
 20
132.3931206364
 30
0.0
 10
91.7156598275
 20
132.3986349779
 30
0.0
  0
SPLINE
  5
420
100
AcDbEntity
  8
0
100
AcDbSpline
 62
7
  6
BYLAYER
 70
0
 71
3
 72
9
 73
5
 74
0
 42
0.0000001
 43
0.0000001
 44
0.0000000001
 40
0.0
 40
0.0
 40
0.0
 40
0.0
 40
0.4263399442
 40
1.0
 40
1.0
 40
1.0
 40
1.0
 10
101.870000238
 20
197.6132233157
 30
0.0
 10
101.5461518158
 20
197.5689868661
 30
0.0
 10
100.7831030493
 20
197.4916541146
 30
0.0
 10
100.0188912918
 20
197.431016581
 30
0.0
 10
99.580263313
 20
197.3989377442
 30
0.0
  0
SPLINE
  5
421
100
AcDbEntity
  8
0
100
AcDbSpline
 62
7
  6
BYLAYER
 70
0
 71
3
 72
9
 73
5
 74
0
 42
0.0000001
 43
0.0000001
 44
0.0000000001
 40
0.0
 40
0.0
 40
0.0
 40
0.0
 40
0.5198126014
 40
1.0
 40
1.0
 40
1.0
 40
1.0
 10
82.8286365713
 20
105.2857956703
 30
0.0
 10
83.2510900216
 20
105.2857956703
 30
0.0
 10
84.063757821
 20
105.2948719191
 30
0.0
 10
84.8763986905
 20
105.3082220135
 30
0.0
 10
85.2664515079
 20
105.3206234446
 30
0.0
  0
SPLINE
  5
422
100
AcDbEntity
  8
0
100
AcDbSpline
 62
7
  6
BYLAYER
 70
0
 71
3
 72
14
 73
10
 74
0
 42
0.0000001
 43
0.0000001
 44
0.0000000001
 40
0.0
 40
0.0
 40
0.0
 40
0.0
 40
0.4288608852
 40
0.6008062447
 40
0.7430119648
 40
0.8544367015
 40
0.9344465363
 40
0.9828805358
 40
1.0
 40
1.0
 40
1.0
 40
1.0
 10
85.2664515079
 20
105.3206234446
 30
0.0
 10
85.3084397051
 20
105.3219584273
 30
0.0
 10
85.3673209702
 20
105.3239427948
 30
0.0
 10
85.439901009
 20
105.3270492928
 30
0.0
 10
85.4818313805
 20
105.3289535085
 30
0.0
 10
85.5136972252
 20
105.3312100961
 30
0.0
 10
85.5388610432
 20
105.3322491786
 30
0.0
 10
85.5499524203
 20
105.3351489395
 30
0.0
 10
85.5595705398
 20
105.3349611583
 30
0.0
 10
85.5596041603
 20
105.3366377721
 30
0.0
  0
SPLINE
  5
423
100
AcDbEntity
  8
0
100
AcDbSpline
 62
7
  6
BYLAYER
 70
0
 71
3
 72
16
 73
12
 74
0
 42
0.0000001
 43
0.0000001
 44
0.0000000001
 40
0.0
 40
0.0
 40
0.0
 40
0.0
 40
0.0046406191
 40
0.0170895308
 40
0.0376287081
 40
0.0662925735
 40
0.1476917869
 40
0.2604767513
 40
0.4037676176
 40
0.5762658256
 40
1.0
 40
1.0
 40
1.0
 40
1.0
 10
80.9527218692
 20
219.7958342262
 30
0.0
 10
80.9527308034
 20
219.795154076
 30
0.0
 10
80.9562455629
 20
219.7946557054
 30
0.0
 10
80.9607257365
 20
219.7937331078
 30
0.0
 10
80.9702774517
 20
219.793041783
 30
0.0
 10
80.9890578978
 20
219.7918492428
 30
0.0
 10
81.0219491793
 20
219.7907427214
 30
0.0
 10
81.0712867161
 20
219.7896148103
 30
0.0
 10
81.1341449459
 20
219.7887489057
 30
0.0
 10
81.2425177374
 20
219.7878387818
 30
0.0
 10
81.3299218188
 20
219.7876570499
 30
0.0
 10
81.3920315808
 20
219.7876570499
 30
0.0
  0
SPLINE
  5
424
100
AcDbEntity
  8
0
100
AcDbSpline
 62
7
  6
BYLAYER
 70
0
 71
3
 72
17
 73
13
 74
0
 42
0.0000001
 43
0.0000001
 44
0.0000000001
 40
0.0
 40
0.0
 40
0.0
 40
0.0
 40
0.0380818251
 40
0.0858991341
 40
0.2073687813
 40
0.3537666124
 40
0.5119145338
 40
0.6685291428
 40
0.8101955246
 40
0.9238529118
 40
0.9670799656
 40
1.0
 40
1.0
 40
1.0
 40
1.0
 10
101.8714047264
 20
209.6146582531
 30
0.0
 10
101.6729834015
 20
209.5874130315
 30
0.0
 10
101.224038723
 20
209.5361490092
 30
0.0
 10
100.13800986
 20
209.4359958102
 30
0.0
 10
98.4816873573
 20
209.3194154055
 30
0.0
 10
96.2452247013
 20
209.1847275102
 30
0.0
 10
93.8236416607
 20
209.0490897113
 30
0.0
 10
91.4269557561
 20
208.913690545
 30
0.0
 10
89.2646476217
 20
208.7796119811
 30
0.0
 10
87.6986045869
 20
208.6628632255
 30
0.0
 10
86.7054577491
 20
208.5621101518
 30
0.0
 10
86.3081349288
 20
208.5105445257
 30
0.0
 10
86.137322361
 20
208.4822767269
 30
0.0
  0
SPLINE
  5
425
100
AcDbEntity
  8
0
100
AcDbSpline
 62
7
  6
BYLAYER
 70
0
 71
3
 72
14
 73
10
 74
0
 42
0.0000001
 43
0.0000001
 44
0.0000000001
 40
0.0
 40
0.0
 40
0.0
 40
0.0
 40
0.0385603058
 40
0.0673075843
 40
0.1033137095
 40
0.1972275677
 40
0.3192693805
 40
0.6334504995
 40
1.0
 40
1.0
 40
1.0
 40
1.0
 10
95.337719906
 20
162.6490460634
 30
0.0
 10
95.3576513577
 20
162.6504237986
 30
0.0
 10
95.3875732642
 20
162.6769780981
 30
0.0
 10
95.4150631825
 20
162.7216275959
 30
0.0
 10
95.4496589734
 20
162.7969446668
 30
0.0
 10
95.4869107521
 20
162.9222071775
 30
0.0
 10
95.5413887507
 20
163.1917509927
 30
0.0
 10
95.5829115904
 20
163.6063401244
 30
0.0
 10
95.5951140007
 20
163.9590256472
 30
0.0
 10
95.5951140007
 20
164.148943666
 30
0.0
  0
SPLINE
  5
426
100
AcDbEntity
  8
0
100
AcDbSpline
 62
7
  6
BYLAYER
 70
0
 71
3
 72
10
 73
6
 74
0
 42
0.0000001
 43
0.0000001
 44
0.0000000001
 40
0.0
 40
0.0
 40
0.0
 40
0.0
 40
0.2266929184
 40
0.5986615642
 40
1.0
 40
1.0
 40
1.0
 40
1.0
 10
83.6961298468
 20
219.790544699
 30
0.0
 10
83.6821513698
 20
219.7902004641
 30
0.0
 10
83.644969978
 20
219.7903590215
 30
0.0
 10
83.5852759883
 20
219.8076180654
 30
0.0
 10
83.5378532757
 20
219.8137178748
 30
0.0
 10
83.5131681631
 20
219.8155777437
 30
0.0
  0
SPLINE
  5
427
100
AcDbEntity
  8
0
100
AcDbSpline
 62
7
  6
BYLAYER
 70
0
 71
3
 72
9
 73
5
 74
0
 42
0.0000001
 43
0.0000001
 44
0.0000000001
 40
0.0
 40
0.0
 40
0.0
 40
0.0
 40
0.2347304675
 40
1.0
 40
1.0
 40
1.0
 40
1.0
 10
83.8226129879
 20
219.8137967461
 30
0.0
 10
83.8166053895
 20
219.8112855409
 30
0.0
 10
83.7905843745
 20
219.801621891
 30
0.0
 10
83.7631953116
 20
219.7958061618
 30
0.0
 10
83.7421199345
 20
219.7932629836
 30
0.0
  0
SPLINE
  5
428
100
AcDbEntity
  8
0
100
AcDbSpline
 62
7
  6
BYLAYER
 70
0
 71
3
 72
8
 73
4
 74
0
 42
0.0000001
 43
0.0000001
 44
0.0000000001
 40
0.0
 40
0.0
 40
0.0
 40
0.0
 40
1.0
 40
1.0
 40
1.0
 40
1.0
 10
83.7421199345
 20
219.7932629836
 30
0.0
 10
83.7268737525
 20
219.7914232178
 30
0.0
 10
83.7114865751
 20
219.7905859426
 30
0.0
 10
83.6961298468
 20
219.790544699
 30
0.0
  0
SPLINE
  5
429
100
AcDbEntity
  8
0
100
AcDbSpline
 62
7
  6
BYLAYER
 70
0
 71
3
 72
9
 73
5
 74
0
 42
0.0000001
 43
0.0000001
 44
0.0000000001
 40
0.0
 40
0.0
 40
0.0
 40
0.0
 40
0.1980282117
 40
1.0
 40
1.0
 40
1.0
 40
1.0
 10
83.9180918465
 20
219.8476553365
 30
0.0
 10
83.9141403896
 20
219.8478474471
 30
0.0
 10
83.8940394022
 20
219.8467728128
 30
0.0
 10
83.875366348
 20
219.8381676796
 30
0.0
 10
83.8607314381
 20
219.8316479855
 30
0.0
  0
SPLINE
  5
42A
100
AcDbEntity
  8
0
100
AcDbSpline
 62
7
  6
BYLAYER
 70
0
 71
3
 72
9
 73
5
 74
0
 42
0.0000001
 43
0.0000001
 44
0.0000000001
 40
0.0
 40
0.0
 40
0.0
 40
0.0
 40
0.2333323687
 40
1.0
 40
1.0
 40
1.0
 40
1.0
 10
83.8607314381
 20
219.8316479855
 30
0.0
 10
83.8577408894
 20
219.8303157284
 30
0.0
 10
83.8449405658
 20
219.8245699278
 30
0.0
 10
83.8322437293
 20
219.8185888081
 30
0.0
 10
83.8226129879
 20
219.8137967461
 30
0.0
  0
SPLINE
  5
42B
100
AcDbEntity
  8
0
100
AcDbSpline
 62
7
  6
BYLAYER
 70
0
 71
3
 72
15
 73
11
 74
0
 42
0.0000001
 43
0.0000001
 44
0.0000000001
 40
0.0
 40
0.0
 40
0.0
 40
0.0
 40
0.0121651014
 40
0.0334394455
 40
0.108597844
 40
0.2238833786
 40
0.3700927822
 40
0.5349287999
 40
0.7043239872
 40
1.0
 40
1.0
 40
1.0
 40
1.0
 10
88.4780222794
 20
118.0011564809
 30
0.0
 10
88.4767529057
 20
117.9906794611
 30
0.0
 10
88.495027997
 20
117.9629010118
 30
0.0
 10
88.5752072272
 20
117.9159743884
 30
0.0
 10
88.7506612783
 20
117.8535391683
 30
0.0
 10
89.0330573915
 20
117.7825456115
 30
0.0
 10
89.3965314445
 20
117.7113327358
 30
0.0
 10
89.8084622161
 20
117.6477890456
 30
0.0
 10
90.351188607
 20
117.5841661966
 30
0.0
 10
90.7544760225
 20
117.5551054772
 30
0.0
 10
91.0109849663
 20
117.5551054772
 30
0.0
  0
SPLINE
  5
42C
100
AcDbEntity
  8
0
100
AcDbSpline
 62
7
  6
BYLAYER
 70
0
 71
3
 72
9
 73
5
 74
0
 42
0.0000001
 43
0.0000001
 44
0.0000000001
 40
0.0
 40
0.0
 40
0.0
 40
0.0
 40
0.4999822396
 40
1.0
 40
1.0
 40
1.0
 40
1.0
 10
81.3920315808
 20
219.7876570499
 30
0.0
 10
81.7455776636
 20
219.7876570499
 30
0.0
 10
82.4526782649
 20
219.7947080245
 30
0.0
 10
83.1597194447
 20
219.8062719889
 30
0.0
 10
83.5131681631
 20
219.8155777437
 30
0.0
  0
SPLINE
  5
42D
100
AcDbEntity
  8
0
100
AcDbSpline
 62
7
  6
BYLAYER
 70
0
 71
3
 72
12
 73
8
 74
0
 42
0.0000001
 43
0.0000001
 44
0.0000000001
 40
0.0
 40
0.0
 40
0.0
 40
0.0
 40
0.0735013129
 40
0.1694177183
 40
0.4167490385
 40
0.70715921
 40
1.0
 40
1.0
 40
1.0
 40
1.0
 10
101.8814322278
 20
131.6159731266
 30
0.0
 10
101.6219258951
 20
131.5802428395
 30
0.0
 10
101.0214723143
 20
131.5151194015
 30
0.0
 10
99.5415848008
 20
131.3886988595
 30
0.0
 10
97.2876667812
 20
131.2446274674
 30
0.0
 10
94.3323104476
 20
131.0773091232
 30
0.0
 10
92.2568562171
 20
130.9612974591
 30
0.0
 10
91.2150450052
 20
130.8990671394
 30
0.0
  0
SPLINE
  5
42E
100
AcDbEntity
  8
0
100
AcDbSpline
 62
7
  6
BYLAYER
 70
0
 71
3
 72
26
 73
22
 74
0
 42
0.0000001
 43
0.0000001
 44
0.0000000001
 40
0.0
 40
0.0
 40
0.0
 40
0.0
 40
0.0432196783
 40
0.0988258382
 40
0.2401504352
 40
0.3222294816
 40
0.4088810718
 40
0.4974848823
 40
0.5854196342
 40
0.670072293
 40
0.7490868093
 40
0.8204120729
 40
0.8820185978
 40
0.9318864475
 40
0.9518311293
 40
0.9683118606
 40
0.9813036926
 40
0.9908027847
 40
0.9942605293
 40
0.9968877019
 40
1.0
 40
1.0
 40
1.0
 40
1.0
 10
101.8860224887
 20
134.6157491704
 30
0.0
 10
101.6527832253
 20
134.5836029263
 30
0.0
 10
101.117493164
 20
134.5247737941
 30
0.0
 10
99.8142360378
 20
134.4105664478
 30
0.0
 10
98.2975713423
 20
134.3087920946
 30
0.0
 10
96.6116101974
 20
134.2068308147
 30
0.0
 10
95.2120287998
 20
134.1268397279
 30
0.0
 10
93.7805151382
 20
134.0466723642
 30
0.0
 10
92.3599024725
 20
133.9665643323
 30
0.0
 10
90.9916123687
 20
133.8864667343
 30
0.0
 10
89.7139649524
 20
133.8064230865
 30
0.0
 10
88.5620930345
 20
133.7268472105
 30
0.0
 10
87.5693956335
 20
133.6478018736
 30
0.0
 10
86.8566953826
 20
133.5792141499
 30
0.0
 10
86.3900955032
 20
133.5214418676
 30
0.0
 10
86.1238692389
 20
133.4817855005
 30
0.0
 10
85.9149937404
 20
133.4421178969
 30
0.0
 10
85.7782073892
 20
133.4079899999
 30
0.0
 10
85.697746909
 20
133.377686355
 30
0.0
 10
85.6546303572
 20
133.3563176505
 30
0.0
 10
85.626161491
 20
133.3312766019
 30
0.0
 10
85.6260304421
 20
133.3143225099
 30
0.0
  0
SPLINE
  5
42F
100
AcDbEntity
  8
0
100
AcDbSpline
 62
7
  6
BYLAYER
 70
0
 71
3
 72
11
 73
7
 74
0
 42
0.0000001
 43
0.0000001
 44
0.0000000001
 40
0.0
 40
0.0
 40
0.0
 40
0.0
 40
0.3261814458
 40
0.5975078187
 40
0.8164483004
 40
1.0
 40
1.0
 40
1.0
 40
1.0
 10
99.3249355843
 20
236.8155777437
 30
0.0
 10
99.381591843
 20
236.8155777437
 30
0.0
 10
99.4855977145
 20
236.8097767838
 30
0.0
 10
99.6248567174
 20
236.7787155624
 30
0.0
 10
99.7310212408
 20
236.7252591645
 30
0.0
 10
99.7780749238
 20
236.6696845199
 30
0.0
 10
99.7915080863
 20
236.6407705258
 30
0.0
  0
SPLINE
  5
430
100
AcDbEntity
  8
0
100
AcDbSpline
 62
7
  6
BYLAYER
 70
0
 71
3
 72
25
 73
21
 74
0
 42
0.0000001
 43
0.0000001
 44
0.0000000001
 40
0.0
 40
0.0
 40
0.0
 40
0.0
 40
0.0624372354
 40
0.1248731064
 40
0.1873135394
 40
0.2497609061
 40
0.3746552447
 40
0.4995345375
 40
0.5619743488
 40
0.6244137151
 40
0.6868525403
 40
0.7180718726
 40
0.7492912886
 40
0.7649445248
 40
0.7806892314
 40
0.8123715553
 40
0.8441411499
 40
0.8757882306
 40
0.938155887
 40
1.0
 40
1.0
 40
1.0
 40
1.0
 10
101.864890481
 20
137.6135229566
 30
0.0
 10
101.528405163
 20
137.5663662352
 30
0.0
 10
100.8518103979
 20
137.4997472707
 30
0.0
 10
99.8363475509
 20
137.4121040287
 30
0.0
 10
98.8195254035
 20
137.3390118811
 30
0.0
 10
97.4629256382
 20
137.2538167755
 30
0.0
 10
95.7665135454
 20
137.1588039769
 30
0.0
 10
94.0701984774
 20
137.0630948596
 30
0.0
 10
92.7131714941
 20
136.9872171265
 30
0.0
 10
91.6954936196
 20
136.9287363071
 30
0.0
 10
90.8475803429
 20
136.8775449491
 30
0.0
 10
90.169315006
 20
136.8354758843
 30
0.0
 10
89.7453398064
 20
136.8065651134
 30
0.0
 10
89.4051430989
 20
136.7867120404
 30
0.0
 10
89.062002684
 20
136.7760392273
 30
0.0
 10
88.6310406533
 20
136.7716161263
 30
0.0
 10
88.1135083875
 20
136.7688268727
 30
0.0
 10
87.4292807936
 20
136.7505507948
 30
0.0
 10
86.5825971352
 20
136.6699930119
 30
0.0
 10
85.928644414
 20
136.4653049758
 30
0.0
 10
85.6264798173
 20
136.3171167866
 30
0.0
  0
SPLINE
  5
431
100
AcDbEntity
  8
0
100
AcDbSpline
 62
7
  6
BYLAYER
 70
0
 71
3
 72
12
 73
8
 74
0
 42
0.0000001
 43
0.0000001
 44
0.0000000001
 40
0.0
 40
0.0
 40
0.0
 40
0.0
 40
0.2874685074
 40
0.554299519
 40
0.7890338357
 40
0.8964881653
 40
1.0
 40
1.0
 40
1.0
 40
1.0
 10
85.2809351161
 20
225.3155777437
 30
0.0
 10
85.2809351161
 20
225.1223301624
 30
0.0
 10
85.3317142202
 20
224.7473433005
 30
0.0
 10
85.5526070604
 20
224.2564485073
 30
0.0
 10
85.8519736878
 20
223.9568642814
 30
0.0
 10
86.1294976359
 20
223.8359371855
 30
0.0
 10
86.2720105814
 20
223.8155777437
 30
0.0
 10
86.3415952879
 20
223.8155777437
 30
0.0
  0
SPLINE
  5
432
100
AcDbEntity
  8
0
100
AcDbSpline
 62
7
  6
BYLAYER
 70
0
 71
3
 72
26
 73
22
 74
0
 42
0.0000001
 43
0.0000001
 44
0.0000000001
 40
0.0
 40
0.0
 40
0.0
 40
0.0
 40
0.043690119
 40
0.099499502
 40
0.2412473669
 40
0.3235236256
 40
0.4101637949
 40
0.4986041124
 40
0.5862805433
 40
0.6707204673
 40
0.7496754199
 40
0.8209324974
 40
0.8822831843
 40
0.9316637402
 40
0.9514998601
 40
0.967992384
 40
0.9810705067
 40
0.9906839692
 40
0.9941944272
 40
0.9968630021
 40
1.0
 40
1.0
 40
1.0
 40
1.0
 10
101.8593335177
 20
194.6123678893
 30
0.0
 10
101.6237974671
 20
194.5805445017
 30
0.0
 10
101.0855731401
 20
194.5218546122
 30
0.0
 10
99.7781377486
 20
194.4077163523
 30
0.0
 10
98.2590829282
 20
194.3062423256
 30
0.0
 10
96.5721317139
 20
194.2046388944
 30
0.0
 10
95.1743713052
 20
194.1248075937
 30
0.0
 10
93.7472026519
 20
194.0448353986
 30
0.0
 10
92.3320193127
 20
193.9648768094
 30
0.0
 10
90.9685208861
 20
193.8849183235
 30
0.0
 10
89.6944920518
 20
193.8051827725
 30
0.0
 10
88.5463021033
 20
193.7258924823
 30
0.0
 10
87.5593803482
 20
193.6472789058
 30
0.0
 10
86.8523628204
 20
193.5784192285
 30
0.0
 10
86.3896010125
 20
193.5208134617
 30
0.0
 10
86.1238050428
 20
193.4812692721
 30
0.0
 10
85.9140113719
 20
193.4417188281
 30
0.0
 10
85.7760343906
 20
193.4077279085
 30
0.0
 10
85.6943764621
 20
193.377548988
 30
0.0
 10
85.6507026041
 20
193.3563248279
 30
0.0
 10
85.6213392517
 20
193.331428655
 30
0.0
 10
85.621208423
 20
193.3143637504
 30
0.0
  0
SPLINE
  5
433
100
AcDbEntity
  8
0
100
AcDbSpline
 62
7
  6
BYLAYER
 70
0
 71
3
 72
11
 73
7
 74
0
 42
0.0000001
 43
0.0000001
 44
0.0000000001
 40
0.0
 40
0.0
 40
0.0
 40
0.0
 40
0.0679921081
 40
0.255938623
 40
0.5669131415
 40
1.0
 40
1.0
 40
1.0
 40
1.0
 10
82.3600186582
 20
105.2945177152
 30
0.0
 10
82.3600011298
 20
105.2936435947
 30
0.0
 10
82.364786148
 20
105.2931916777
 30
0.0
 10
82.3705691325
 20
105.2919859247
 30
0.0
 10
82.38335653
 20
105.2912598648
 30
0.0
 10
82.3926380967
 20
105.290703111
 30
0.0
 10
82.3982011958
 20
105.2904473943
 30
0.0
  0
SPLINE
  5
434
100
AcDbEntity
  8
0
100
AcDbSpline
 62
7
  6
BYLAYER
 70
0
 71
3
 72
9
 73
5
 74
0
 42
0.0000001
 43
0.0000001
 44
0.0000000001
 40
0.0
 40
0.0
 40
0.0
 40
0.0
 40
0.3706543266
 40
1.0
 40
1.0
 40
1.0
 40
1.0
 10
82.3982011958
 20
105.2904473943
 30
0.0
 10
82.4513309771
 20
105.2880051993
 30
0.0
 10
82.5948577666
 20
105.2864636601
 30
0.0
 10
82.7383305855
 20
105.2857956703
 30
0.0
 10
82.8286365713
 20
105.2857956703
 30
0.0
  0
SPLINE
  5
435
100
AcDbEntity
  8
0
100
AcDbSpline
 62
7
  6
BYLAYER
 70
0
 71
3
 72
25
 73
21
 74
0
 42
0.0000001
 43
0.0000001
 44
0.0000000001
 40
0.0
 40
0.0
 40
0.0
 40
0.0
 40
0.0437553494
 40
0.1000574101
 40
0.2425755578
 40
0.4107865442
 40
0.4989594129
 40
0.5865218287
 40
0.6709316667
 40
0.7496479726
 40
0.8203450883
 40
0.8813401177
 40
0.9310777422
 40
0.9512451904
 40
0.9680279255
 40
0.9812492004
 40
0.9908287476
 40
0.9942891123
 40
0.9969066219
 40
1.0
 40
1.0
 40
1.0
 40
1.0
 10
101.8248642204
 20
167.6079996955
 30
0.0
 10
101.5895424216
 20
167.5763380492
 30
0.0
 10
101.0496222818
 20
167.5176065405
 30
0.0
 10
99.7380840377
 20
167.4048633904
 30
0.0
 10
97.7505793819
 20
167.2730589902
 30
0.0
 10
95.589554904
 20
167.147831291
 30
0.0
 10
93.7260170717
 20
167.0434504638
 30
0.0
 10
92.3165590507
 20
166.9639299314
 30
0.0
 10
90.9584912342
 20
166.8845531871
 30
0.0
 10
89.6920973765
 20
166.805361744
 30
0.0
 10
88.5530263937
 20
166.726243612
 30
0.0
 10
87.5716095996
 20
166.6475605975
 30
0.0
 10
86.8644994532
 20
166.5792524952
 30
0.0
 10
86.3974793819
 20
166.5222693611
 30
0.0
 10
86.128101174
 20
166.4830769743
 30
0.0
 10
85.9165931922
 20
166.4438967859
 30
0.0
 10
85.7785425597
 20
166.4100211831
 30
0.0
 10
85.6979664364
 20
166.379852657
 30
0.0
 10
85.6550821899
 20
166.3586660764
 30
0.0
 10
85.6270118389
 20
166.3337417657
 30
0.0
 10
85.6268814625
 20
166.3169557858
 30
0.0
  0
SPLINE
  5
436
100
AcDbEntity
  8
0
100
AcDbSpline
 62
7
  6
BYLAYER
 70
0
 71
3
 72
25
 73
21
 74
0
 42
0.0000001
 43
0.0000001
 44
0.0000000001
 40
0.0
 40
0.0
 40
0.0
 40
0.0
 40
0.0433366771
 40
0.0991998407
 40
0.2414092085
 40
0.409613291
 40
0.4978268168
 40
0.5854844151
 40
0.6700467643
 40
0.7489755428
 40
0.8198732183
 40
0.8810070391
 40
0.9308493688
 40
0.9510650086
 40
0.967897699
 40
0.9811733658
 40
0.9907963905
 40
0.9942715235
 40
0.9968992494
 40
1.0
 40
1.0
 40
1.0
 40
1.0
 10
101.8445695609
 20
191.6108219503
 30
0.0
 10
101.6112512624
 20
191.579088694
 30
0.0
 10
101.0753509944
 20
191.5201511442
 30
0.0
 10
99.768557457
 20
191.4068217827
 30
0.0
 10
97.7826365927
 20
191.2750700013
 30
0.0
 10
95.6203951662
 20
191.1496064034
 30
0.0
 10
93.7538135385
 20
191.0450039854
 30
0.0
 10
92.3410158532
 20
190.9653061622
 30
0.0
 10
90.9787384329
 20
190.8857427799
 30
0.0
 10
89.7076738099
 20
190.8064087479
 30
0.0
 10
88.5641658317
 20
190.7271489455
 30
0.0
 10
87.5790994529
 20
190.6482763214
 30
0.0
 10
86.8695152304
 20
190.5797995247
 30
0.0
 10
86.4008026849
 20
190.522690569
 30
0.0
 10
86.1302570813
 20
190.4833970813
 30
0.0
 10
85.9176674389
 20
190.4441435157
 30
0.0
 10
85.7788258285
 20
190.4102102819
 30
0.0
 10
85.6977510407
 20
190.3799717294
 30
0.0
 10
85.6546437691
 20
190.3587532741
 30
0.0
 10
85.626365061
 20
190.3337813332
 30
0.0
 10
85.6262281737
 20
190.3169342064
 30
0.0
  0
SPLINE
  5
437
100
AcDbEntity
  8
0
100
AcDbSpline
 62
7
  6
BYLAYER
 70
0
 71
3
 72
15
 73
11
 74
0
 42
0.0000001
 43
0.0000001
 44
0.0000000001
 40
0.0
 40
0.0
 40
0.0
 40
0.0
 40
0.2956398475
 40
0.4650370696
 40
0.6298842649
 40
0.776099685
 40
0.891392426
 40
0.9665576573
 40
0.9878327205
 40
1.0
 40
1.0
 40
1.0
 40
1.0
 10
90.2897665592
 20
111.7706427209
 30
0.0
 10
90.0332877998
 20
111.7706427209
 30
0.0
 10
89.6300279229
 20
111.7996959296
 30
0.0
 10
89.0873183782
 20
111.8633144072
 30
0.0
 10
88.6753688603
 20
111.9268569328
 30
0.0
 10
88.3118708752
 20
111.9980706186
 30
0.0
 10
88.0294588224
 20
112.0690708288
 30
0.0
 10
87.8539851074
 20
112.1314976527
 30
0.0
 10
87.7738029849
 20
112.1784368011
 30
0.0
 10
87.7555257239
 20
112.2062158465
 30
0.0
 10
87.7567937342
 20
112.2166949841
 30
0.0
  0
SPLINE
  5
438
100
AcDbEntity
  8
0
100
AcDbSpline
 62
7
  6
BYLAYER
 70
0
 71
3
 72
26
 73
22
 74
0
 42
0.0000001
 43
0.0000001
 44
0.0000000001
 40
0.0
 40
0.0
 40
0.0
 40
0.0
 40
0.0437823942
 40
0.0996814559
 40
0.241513501
 40
0.3238028614
 40
0.4104527667
 40
0.4988960215
 40
0.5865649508
 40
0.6709740061
 40
0.7498818197
 40
0.8210940028
 40
0.8824205326
 40
0.9317857574
 40
0.9516001691
 40
0.9680660607
 40
0.9811166377
 40
0.9907057226
 40
0.9942065163
 40
0.9968678686
 40
1.0
 40
1.0
 40
1.0
 40
1.0
 10
101.8553731981
 20
188.6117896901
 30
0.0
 10
101.6193908575
 20
188.5799840032
 30
0.0
 10
101.0803098722
 20
188.5213293649
 30
0.0
 10
99.7717569515
 20
188.4072856209
 30
0.0
 10
98.2520830645
 20
188.3057955589
 30
0.0
 10
96.5649885557
 20
188.2042108731
 30
0.0
 10
95.1674515036
 20
188.1244100071
 30
0.0
 10
93.7406260641
 20
188.0444676609
 30
0.0
 10
92.3260036173
 20
187.9645460135
 30
0.0
 10
90.9633259566
 20
187.8846144039
 30
0.0
 10
89.6902988859
 20
187.8048997083
 30
0.0
 10
88.5430414553
 20
187.725628728
 30
0.0
 10
87.5568376586
 20
187.6470392918
 30
0.0
 10
86.8503331902
 20
187.5782453583
 30
0.0
 10
86.3880427345
 20
187.5206423933
 30
0.0
 10
86.1227311923
 20
187.4811121973
 30
0.0
 10
85.9134296294
 20
187.4415748485
 30
0.0
 10
85.7758251524
 20
187.4075918294
 30
0.0
 10
85.6944381727
 20
187.377420021
 30
0.0
 10
85.6508890581
 20
187.3561926568
 30
0.0
 10
85.6216798574
 20
187.331291591
 30
0.0
 10
85.6215559101
 20
187.3142575496
 30
0.0
  0
SPLINE
  5
439
100
AcDbEntity
  8
0
100
AcDbSpline
 62
7
  6
BYLAYER
 70
0
 71
3
 72
12
 73
8
 74
0
 42
0.0000001
 43
0.0000001
 44
0.0000000001
 40
0.0
 40
0.0
 40
0.0
 40
0.0
 40
0.401291284
 40
0.7050012815
 40
0.8166784372
 40
0.9015365295
 40
1.0
 40
1.0
 40
1.0
 40
1.0
 10
91.0109849663
 20
117.5551054772
 30
0.0
 10
91.0726527884
 20
117.5551054772
 30
0.0
 10
91.1812026515
 20
117.5575749921
 30
0.0
 10
91.3058594594
 20
117.5679723881
 30
0.0
 10
91.3822436913
 20
117.5836681979
 30
0.0
 10
91.4235643329
 20
117.5965496413
 30
0.0
 10
91.4530349744
 20
117.6149776332
 30
0.0
 10
91.4548549323
 20
117.6299990064
 30
0.0
  0
SPLINE
  5
43A
100
AcDbEntity
  8
0
100
AcDbSpline
 62
7
  6
BYLAYER
 70
0
 71
3
 72
11
 73
7
 74
0
 42
0.0000001
 43
0.0000001
 44
0.0000000001
 40
0.0
 40
0.0
 40
0.0
 40
0.0
 40
0.1735592181
 40
0.4069645044
 40
0.6873330234
 40
1.0
 40
1.0
 40
1.0
 40
1.0
 10
101.8318420573
 20
164.6084638001
 30
0.0
 10
101.4731566754
 20
164.5607735231
 30
0.0
 10
100.628404329
 20
164.4782112788
 30
0.0
 10
99.1997057378
 20
164.368399262
 30
0.0
 10
97.4802063961
 20
164.2577389974
 30
0.0
 10
96.2459161375
 20
164.1860355568
 30
0.0
 10
95.5951140007
 20
164.148943666
 30
0.0
  0
SPLINE
  5
43B
100
AcDbEntity
  8
0
100
AcDbSpline
 62
7
  6
BYLAYER
 70
0
 71
3
 72
25
 73
21
 74
0
 42
0.0000001
 43
0.0000001
 44
0.0000000001
 40
0.0
 40
0.0
 40
0.0
 40
0.0
 40
0.0435727645
 40
0.0991990095
 40
0.241241268
 40
0.4098093678
 40
0.4979582775
 40
0.5854456145
 40
0.6698850281
 40
0.748898834
 40
0.8201114865
 40
0.8812069847
 40
0.9306237891
 40
0.9506377373
 40
0.9673613293
 40
0.9806830857
 40
0.9905114253
 40
0.9941050948
 40
0.9968332504
 40
1.0
 40
1.0
 40
1.0
 40
1.0
 10
101.8431018146
 20
170.6108332234
 30
0.0
 10
101.6084173167
 20
170.5792229632
 30
0.0
 10
101.0723787073
 20
170.5205400711
 30
0.0
 10
99.7662738208
 20
170.4063356362
 30
0.0
 10
97.7800886522
 20
170.2747350042
 30
0.0
 10
95.6166102989
 20
170.1496315985
 30
0.0
 10
93.7489045704
 20
170.0448305642
 30
0.0
 10
92.3377334653
 20
169.9650333756
 30
0.0
 10
90.9762800977
 20
169.8853663036
 30
0.0
 10
89.7034206838
 20
169.8059117488
 30
0.0
 10
88.5576551186
 20
169.7269948176
 30
0.0
 10
87.5731563118
 20
169.6482447665
 30
0.0
 10
86.8670721762
 20
169.5794528301
 30
0.0
 10
86.402291272
 20
169.5221952235
 30
0.0
 10
86.1331746258
 20
169.4827704099
 30
0.0
 10
85.9197337695
 20
169.4433395347
 30
0.0
 10
85.778909887
 20
169.4095026841
 30
0.0
 10
85.6951489864
 20
169.3794231626
 30
0.0
 10
85.6505868052
 20
169.3584044571
 30
0.0
 10
85.6200948685
 20
169.3336245647
 30
0.0
 10
85.6199597917
 20
169.3164148436
 30
0.0
  0
SPLINE
  5
43C
100
AcDbEntity
  8
0
100
AcDbSpline
 62
7
  6
BYLAYER
 70
0
 71
3
 72
15
 73
11
 74
0
 42
0.0000001
 43
0.0000001
 44
0.0000000001
 40
0.0
 40
0.0
 40
0.0
 40
0.0
 40
0.1278192807
 40
0.2774936659
 40
0.43756702
 40
0.5954001201
 40
0.7385231469
 40
0.8012619435
 40
0.8567293244
 40
1.0
 40
1.0
 40
1.0
 40
1.0
 10
103.1412717168
 20
227.4675015323
 30
0.0
 10
103.0210994786
 20
227.4675015323
 30
0.0
 10
102.7603206929
 20
227.438100937
 30
0.0
 10
102.3604753724
 20
227.3382638065
 30
0.0
 10
101.9473800457
 20
227.1855830791
 30
0.0
 10
101.5577192516
 20
226.9931454205
 30
0.0
 10
101.2701003161
 20
226.8083379649
 30
0.0
 10
101.0794118598
 20
226.6493584595
 30
0.0
 10
100.9113082
 20
226.4817619006
 30
0.0
 10
100.7831992048
 20
226.2753141796
 30
0.0
 10
100.8339892121
 20
226.1505573933
 30
0.0
  0
SPLINE
  5
43D
100
AcDbEntity
  8
0
100
AcDbSpline
 62
7
  6
BYLAYER
 70
0
 71
3
 72
26
 73
22
 74
0
 42
0.0000001
 43
0.0000001
 44
0.0000000001
 40
0.0
 40
0.0
 40
0.0
 40
0.0
 40
0.0441680343
 40
0.1004546589
 40
0.2426273928
 40
0.3249240565
 40
0.4115908425
 40
0.5000433638
 40
0.5876966909
 40
0.6719889797
 40
0.7506540921
 40
0.8216327929
 40
0.8828741725
 40
0.9323389525
 40
0.9521104848
 40
0.9684686534
 40
0.9813799924
 40
0.9908321021
 40
0.9942761973
 40
0.9968947833
 40
1.0
 40
1.0
 40
1.0
 40
1.0
 10
101.8378557142
 20
173.6092791742
 30
0.0
 10
101.6000568626
 20
173.5775481178
 30
0.0
 10
101.0574324649
 20
173.5190621587
 30
0.0
 10
99.7444524344
 20
173.4054789926
 30
0.0
 10
98.2227316343
 20
173.3039683862
 30
0.0
 10
96.5358099249
 20
173.2024445403
 30
0.0
 10
95.1398731932
 20
173.1228042302
 30
0.0
 10
93.7148103984
 20
173.0430123996
 30
0.0
 10
92.3026601909
 20
172.9632772129
 30
0.0
 10
90.9437593857
 20
172.8835227283
 30
0.0
 10
89.6755877694
 20
172.8038822708
 30
0.0
 10
88.5328509966
 20
172.7247074068
 30
0.0
 10
87.5491149379
 20
172.6461021062
 30
0.0
 10
86.8436273359
 20
172.5777844577
 30
0.0
 10
86.3822111804
 20
172.5202334416
 30
0.0
 10
86.1188177828
 20
172.480770175
 30
0.0
 10
85.91192352
 20
172.4412969645
 30
0.0
 10
85.7763070607
 20
172.40733691
 30
0.0
 10
85.6964639742
 20
172.3771937252
 30
0.0
 10
85.6536243202
 20
172.3559191518
 30
0.0
 10
85.6253385592
 20
172.3310073649
 30
0.0
 10
85.6252073889
 20
172.314141337
 30
0.0
  0
SPLINE
  5
43E
100
AcDbEntity
  8
0
100
AcDbSpline
 62
7
  6
BYLAYER
 70
0
 71
3
 72
18
 73
14
 74
0
 42
0.0000001
 43
0.0000001
 44
0.0000000001
 40
0.0
 40
0.0
 40
0.0
 40
0.0
 40
0.2090500781
 40
0.4011151862
 40
0.5715269383
 40
0.7171434715
 40
0.8351335207
 40
0.9227273228
 40
0.9543194408
 40
0.9774235943
 40
0.9858056281
 40
0.9921907703
 40
1.0
 40
1.0
 40
1.0
 40
1.0
 10
91.2150450052
 20
130.8990671394
 30
0.0
 10
90.8221867165
 20
130.8756006067
 30
0.0
 10
90.0684582341
 20
130.8294047759
 30
0.0
 10
88.9948618556
 20
130.7579978942
 30
0.0
 10
88.0409854603
 20
130.6865455914
 30
0.0
 10
87.2269243254
 20
130.6158214371
 30
0.0
 10
86.5694708448
 20
130.5454902526
 30
0.0
 10
86.1269452424
 20
130.4847785974
 30
0.0
 10
85.8640847938
 20
130.4317737318
 30
0.0
 10
85.7494740254
 20
130.4013114314
 30
0.0
 10
85.6826967814
 20
130.3742009772
 30
0.0
 10
85.646426931
 20
130.3547610064
 30
0.0
 10
85.6239089937
 20
130.3322652637
 30
0.0
 10
85.6237856961
 20
130.3175640933
 30
0.0
  0
SPLINE
  5
43F
100
AcDbEntity
  8
0
100
AcDbSpline
 62
7
  6
BYLAYER
 70
0
 71
3
 72
11
 73
7
 74
0
 42
0.0000001
 43
0.0000001
 44
0.0000000001
 40
0.0
 40
0.0
 40
0.0
 40
0.0
 40
0.2017433394
 40
0.4368634285
 40
0.7081075764
 40
1.0
 40
1.0
 40
1.0
 40
1.0
 10
98.7391592695
 20
195.9116083736
 30
0.0
 10
98.8593003412
 20
195.9364508726
 30
0.0
 10
99.1042317917
 20
196.06832516
 30
0.0
 10
99.3717713122
 20
196.4165105373
 30
0.0
 10
99.539296839
 20
196.877969957
 30
0.0
 10
99.580113541
 20
197.2214344178
 30
0.0
 10
99.5802204777
 20
197.3989377882
 30
0.0
  0
SPLINE
  5
440
100
AcDbEntity
  8
0
100
AcDbSpline
 62
7
  6
BYLAYER
 70
0
 71
3
 72
11
 73
7
 74
0
 42
0.0000001
 43
0.0000001
 44
0.0000000001
 40
0.0
 40
0.0
 40
0.0
 40
0.0
 40
0.183155052
 40
0.4008616551
 40
0.6721110473
 40
1.0
 40
1.0
 40
1.0
 40
1.0
 10
103.6114369143
 20
227.2844456713
 30
0.0
 10
103.5992384653
 20
227.3144090318
 30
0.0
 10
103.5537393509
 20
227.3727865596
 30
0.0
 10
103.4467886547
 20
227.4289723448
 30
0.0
 10
103.305259982
 20
227.4614651658
 30
0.0
 10
103.199187817
 20
227.4675015323
 30
0.0
 10
103.1412717168
 20
227.4675015323
 30
0.0
  0
SPLINE
  5
441
100
AcDbEntity
  8
0
100
AcDbSpline
 62
7
  6
BYLAYER
 70
0
 71
3
 72
15
 73
11
 74
0
 42
0.0000001
 43
0.0000001
 44
0.0000000001
 40
0.0
 40
0.0
 40
0.0
 40
0.0
 40
0.3703047337
 40
0.5384405739
 40
0.6862036905
 40
0.8077744316
 40
0.9003565802
 40
0.9353991869
 40
0.9630562583
 40
1.0
 40
1.0
 40
1.0
 40
1.0
 10
95.5951140007
 20
164.148943666
 30
0.0
 10
95.5951140007
 20
164.3414875063
 30
0.0
 10
95.5856710542
 20
164.6216306975
 30
0.0
 10
95.5531506671
 20
164.977013862
 30
0.0
 10
95.5219896665
 20
165.2024594231
 30
0.0
 10
95.4834206955
 20
165.3868568373
 30
0.0
 10
95.4454835469
 20
165.5109694545
 30
0.0
 10
95.4098645877
 20
165.5842064083
 30
0.0
 10
95.3822259935
 20
165.6267325229
 30
0.0
 10
95.3503155966
 20
165.6499749678
 30
0.0
 10
95.3311523428
 20
165.6486459048
 30
0.0
  0
SPLINE
  5
442
100
AcDbEntity
  8
0
100
AcDbSpline
 62
7
  6
BYLAYER
 70
0
 71
3
 72
21
 73
17
 74
0
 42
0.0000001
 43
0.0000001
 44
0.0000000001
 40
0.0
 40
0.0
 40
0.0
 40
0.0
 40
0.1846589855
 40
0.3673639388
 40
0.5393152516
 40
0.6928666197
 40
0.7606028186
 40
0.8211777187
 40
0.8737445995
 40
0.9174750717
 40
0.9518803125
 40
0.9768831759
 40
0.985874366
 40
0.9925721645
 40
0.9971127691
 40
1.0
 40
1.0
 40
1.0
 40
1.0
 10
95.5951140007
 20
164.148943666
 30
0.0
 10
94.9784605942
 20
164.1137980518
 30
0.0
 10
93.7516058729
 20
164.0451776702
 30
0.0
 10
91.9505529903
 20
163.9434572927
 30
0.0
 10
90.2537228812
 20
163.841764919
 30
0.0
 10
88.9412901934
 20
163.7542867762
 30
0.0
 10
88.001237237
 20
163.6824862709
 30
0.0
 10
87.3984031034
 20
163.6310870063
 30
0.0
 10
86.8761766305
 20
163.5799826547
 30
0.0
 10
86.4418833596
 20
163.52925275
 30
0.0
 10
86.1005987864
 20
163.4788278155
 30
0.0
 10
85.8758789415
 20
163.4343623684
 30
0.0
 10
85.744999601
 20
163.3966648541
 30
0.0
 10
85.6820866693
 20
163.3710839332
 30
0.0
 10
85.6411585922
 20
163.347446822
 30
0.0
 10
85.6263095755
 20
163.324233625
 30
0.0
 10
85.6262309347
 20
163.3145766295
 30
0.0
  0
SPLINE
  5
443
100
AcDbEntity
  8
0
100
AcDbSpline
 62
7
  6
BYLAYER
 70
0
 71
3
 72
28
 73
24
 74
0
 42
0.0000001
 43
0.0000001
 44
0.0000000001
 40
0.0
 40
0.0
 40
0.0
 40
0.0
 40
0.1244202275
 40
0.2488422035
 40
0.3732717169
 40
0.4976987566
 40
0.5599127494
 40
0.6221269263
 40
0.6843400173
 40
0.7154459968
 40
0.7465516416
 40
0.7776571067
 40
0.7932098563
 40
0.808762671
 40
0.8244499782
 40
0.8406954099
 40
0.8573850222
 40
0.8743122915
 40
0.9079776039
 40
0.9400847605
 40
0.9700711872
 40
0.9847975033
 40
1.0
 40
1.0
 40
1.0
 40
1.0
 10
101.8397107337
 20
176.6103997161
 30
0.0
 10
101.1666827723
 20
176.5226651146
 30
0.0
 10
99.8129427046
 20
176.4111137117
 30
0.0
 10
97.7817371565
 20
176.2721207224
 30
0.0
 10
95.7486593406
 20
176.1563922875
 30
0.0
 10
94.0544063585
 20
176.0618315401
 30
0.0
 10
92.6989699786
 20
175.9864935718
 30
0.0
 10
91.6824637936
 20
175.9287884792
 30
0.0
 10
90.8355182878
 20
175.878300415
 30
0.0
 10
90.1581119578
 20
175.8356646267
 30
0.0
 10
89.6501461054
 20
175.8023845641
 30
0.0
 10
89.2269401707
 20
175.7733210161
 30
0.0
 10
88.8884095959
 20
175.7493432586
 30
0.0
 10
88.6338858206
 20
175.7304785515
 30
0.0
 10
88.3753440719
 20
175.7122885639
 30
0.0
 10
88.1099026843
 20
175.7157582571
 30
0.0
 10
87.8382230194
 20
175.7289211098
 30
0.0
 10
87.4720117742
 20
175.7532728052
 30
0.0
 10
87.0214865429
 20
175.7799561884
 30
0.0
 10
86.4981354398
 20
175.7613842345
 30
0.0
 10
86.0856140248
 20
175.6553200854
 30
0.0
 10
85.8014430616
 20
175.4897359351
 30
0.0
 10
85.6794297386
 20
175.3790912294
 30
0.0
 10
85.6240423819
 20
175.3173679363
 30
0.0
  0
SPLINE
  5
444
100
AcDbEntity
  8
0
100
AcDbSpline
 62
7
  6
BYLAYER
 70
0
 71
3
 72
26
 73
22
 74
0
 42
0.0000001
 43
0.0000001
 44
0.0000000001
 40
0.0
 40
0.0
 40
0.0
 40
0.0
 40
0.0436026053
 40
0.099466984
 40
0.2411353533
 40
0.3233296853
 40
0.4099962316
 40
0.498533493
 40
0.5863393968
 40
0.6708351006
 40
0.7497332904
 40
0.8209476149
 40
0.8823997839
 40
0.9320255829
 40
0.9518709377
 40
0.9683018149
 40
0.9812792232
 40
0.9907851352
 40
0.9942496862
 40
0.996883389
 40
1.0
 40
1.0
 40
1.0
 40
1.0
 10
101.8669141626
 20
179.6131680968
 30
0.0
 10
101.631806506
 20
179.5812012483
 30
0.0
 10
101.0935924256
 20
179.5224975702
 30
0.0
 10
99.7863676663
 20
179.4084976287
 30
0.0
 10
98.2674516165
 20
179.3068203334
 30
0.0
 10
96.580740347
 20
179.2050574901
 30
0.0
 10
95.1823373685
 20
179.1251930797
 30
0.0
 10
93.7533664203
 20
179.0451670664
 30
0.0
 10
92.3362217807
 20
178.9651967512
 30
0.0
 10
90.9716159048
 20
178.8852066734
 30
0.0
 10
89.6974524553
 20
178.8053356691
 30
0.0
 10
88.5489138356
 20
178.7259281809
 30
0.0
 10
87.5600575491
 20
178.6471085295
 30
0.0
 10
86.8508474126
 20
178.5785572963
 30
0.0
 10
86.3869037026
 20
178.5208330952
 30
0.0
 10
86.1218655248
 20
178.4812525271
 30
0.0
 10
85.9135266454
 20
178.4416620386
 30
0.0
 10
85.7768968057
 20
178.407607132
 30
0.0
 10
85.6963805619
 20
178.3773780008
 30
0.0
 10
85.6532189573
 20
178.3560596831
 30
0.0
 10
85.6246019957
 20
178.331094731
 30
0.0
 10
85.6244568636
 20
178.3141357881
 30
0.0
  0
SPLINE
  5
445
100
AcDbEntity
  8
0
100
AcDbSpline
 62
7
  6
BYLAYER
 70
0
 71
3
 72
26
 73
22
 74
0
 42
0.0000001
 43
0.0000001
 44
0.0000000001
 40
0.0
 40
0.0
 40
0.0
 40
0.0
 40
0.0624296962
 40
0.1248570602
 40
0.1872866239
 40
0.2497215434
 40
0.3745950557
 40
0.4994557517
 40
0.561886336
 40
0.6243164692
 40
0.6867459498
 40
0.7179605455
 40
0.7491751761
 40
0.7647854861
 40
0.7804785871
 40
0.8121503214
 40
0.8440041474
 40
0.8757712835
 40
0.9072293963
 40
0.9382921443
 40
1.0
 40
1.0
 40
1.0
 40
1.0
 10
101.8733594093
 20
182.6148116453
 30
0.0
 10
101.5366209309
 20
182.5679254405
 30
0.0
 10
100.8597400497
 20
182.5001015235
 30
0.0
 10
99.8434968846
 20
182.4141877976
 30
0.0
 10
98.8261445425
 20
182.3404201601
 30
0.0
 10
97.4688362102
 20
182.2540423677
 30
0.0
 10
95.7714301323
 20
182.1590643827
 30
0.0
 10
94.0741134472
 20
182.0632406564
 30
0.0
 10
92.7162626615
 20
181.987476473
 30
0.0
 10
91.6979779389
 20
181.9289162869
 30
0.0
 10
90.8495282706
 20
181.8781154018
 30
0.0
 10
90.1709146518
 20
181.8351761914
 30
0.0
 10
89.7467710053
 20
181.8082730832
 30
0.0
 10
89.407150193
 20
181.7841372269
 30
0.0
 10
89.0645215698
 20
181.768163251
 30
0.0
 10
88.6330615343
 20
181.7629005655
 30
0.0
 10
88.1141148934
 20
181.763163404
 30
0.0
 10
87.5963627757
 20
181.7552405751
 30
0.0
 10
87.0833502798
 20
181.7235076669
 30
0.0
 10
86.4133291636
 20
181.6299353758
 30
0.0
 10
85.9236788373
 20
181.4728092164
 30
0.0
 10
85.6258157162
 20
181.3172100535
 30
0.0
  0
SPLINE
  5
446
100
AcDbEntity
  8
0
100
AcDbSpline
 62
7
  6
BYLAYER
 70
0
 71
3
 72
11
 73
7
 74
0
 42
0.0000001
 43
0.0000001
 44
0.0000000001
 40
0.0
 40
0.0
 40
0.0
 40
0.0
 40
0.0679921081
 40
0.255938623
 40
0.5669131415
 40
1.0
 40
1.0
 40
1.0
 40
1.0
 10
82.8405127608
 20
68.7945177152
 30
0.0
 10
82.8404952324
 20
68.7936435947
 30
0.0
 10
82.8452802506
 20
68.7931916777
 30
0.0
 10
82.8510632352
 20
68.7919859247
 30
0.0
 10
82.8638506326
 20
68.7912598648
 30
0.0
 10
82.8731321993
 20
68.790703111
 30
0.0
 10
82.8786952985
 20
68.7904473943
 30
0.0
  0
SPLINE
  5
447
100
AcDbEntity
  8
0
100
AcDbSpline
 62
7
  6
BYLAYER
 70
0
 71
3
 72
9
 73
5
 74
0
 42
0.0000001
 43
0.0000001
 44
0.0000000001
 40
0.0
 40
0.0
 40
0.0
 40
0.0
 40
0.3706543266
 40
1.0
 40
1.0
 40
1.0
 40
1.0
 10
82.8786952985
 20
68.7904473943
 30
0.0
 10
82.9318250798
 20
68.7880051993
 30
0.0
 10
83.0753518692
 20
68.7864636601
 30
0.0
 10
83.2188246881
 20
68.7857956703
 30
0.0
 10
83.3091306739
 20
68.7857956703
 30
0.0
  0
SPLINE
  5
448
100
AcDbEntity
  8
0
100
AcDbSpline
 62
7
  6
BYLAYER
 70
0
 71
3
 72
12
 73
8
 74
0
 42
0.0000001
 43
0.0000001
 44
0.0000000001
 40
0.0
 40
0.0
 40
0.0
 40
0.0
 40
0.2422933341
 40
0.3656405553
 40
0.4901696675
 40
0.742860482
 40
1.0
 40
1.0
 40
1.0
 40
1.0
 10
87.6263940162
 20
206.9848405641
 30
0.0
 10
87.436909234
 20
206.9727662309
 30
0.0
 10
87.1426740643
 20
207.0222233134
 30
0.0
 10
86.7999793272
 20
207.1993929447
 30
0.0
 10
86.4927039693
 20
207.4479470535
 30
0.0
 10
86.2171525459
 20
207.8781699169
 30
0.0
 10
86.1372895417
 20
208.2807736726
 30
0.0
 10
86.1372902504
 20
208.4822767269
 30
0.0
  0
SPLINE
  5
449
100
AcDbEntity
  8
0
100
AcDbSpline
 62
7
  6
BYLAYER
 70
0
 71
3
 72
10
 73
6
 74
0
 42
0.0000001
 43
0.0000001
 44
0.0000000001
 40
0.0
 40
0.0
 40
0.0
 40
0.0
 40
0.1801899676
 40
0.411307102
 40
1.0
 40
1.0
 40
1.0
 40
1.0
 10
101.8401111678
 20
185.6100141061
 30
0.0
 10
101.5903628849
 20
185.5766334555
 30
0.0
 10
101.0183554453
 20
185.5152151953
 30
0.0
 10
99.625105809
 20
185.3957485174
 30
0.0
 10
98.4810197165
 20
185.3213712324
 30
0.0
 10
97.6593823525
 20
185.2706650593
 30
0.0
  0
SPLINE
  5
44A
100
AcDbEntity
  8
0
100
AcDbSpline
 62
7
  6
BYLAYER
 70
0
 71
3
 72
21
 73
17
 74
0
 42
0.0000001
 43
0.0000001
 44
0.0000000001
 40
0.0
 40
0.0
 40
0.0
 40
0.0
 40
0.1676505398
 40
0.34283221
 40
0.5146876846
 40
0.5961657888
 40
0.6730438111
 40
0.7440986412
 40
0.8081090247
 40
0.8638727189
 40
0.9105687511
 40
0.947772632
 40
0.9751061232
 40
0.9922919869
 40
0.9971527521
 40
1.0
 40
1.0
 40
1.0
 40
1.0
 10
97.6593823525
 20
185.2706650593
 30
0.0
 10
96.9840975985
 20
185.2289908278
 30
0.0
 10
95.6028946478
 20
185.1486429704
 30
0.0
 10
93.5290604718
 20
185.0327812232
 30
0.0
 10
91.8025360486
 20
184.9345533378
 30
0.0
 10
90.4723620368
 20
184.8541397704
 30
0.0
 10
89.5484428407
 20
184.7949967238
 30
0.0
 10
88.6951525225
 20
184.7359863341
 30
0.0
 10
87.9273002683
 20
184.6772261146
 30
0.0
 10
87.2579751493
 20
184.6186011511
 30
0.0
 10
86.6975181069
 20
184.560287462
 30
0.0
 10
86.2518069158
 20
184.5025052987
 30
0.0
 10
85.9277175332
 20
184.4468979757
 30
0.0
 10
85.7324353448
 20
184.3961827407
 30
0.0
 10
85.6426557978
 20
184.3537116519
 30
0.0
 10
85.6205469413
 20
184.3261681591
 30
0.0
 10
85.6204591755
 20
184.3146781585
 30
0.0
  0
SPLINE
  5
44B
100
AcDbEntity
  8
0
100
AcDbSpline
 62
7
  6
BYLAYER
 70
0
 71
3
 72
15
 73
11
 74
0
 42
0.0000001
 43
0.0000001
 44
0.0000000001
 40
0.0
 40
0.0
 40
0.0
 40
0.0
 40
0.1432706756
 40
0.1987380565
 40
0.2614768531
 40
0.4045998799
 40
0.56243298
 40
0.7225063341
 40
0.8721807193
 40
1.0
 40
1.0
 40
1.0
 40
1.0
 10
97.0176530797
 20
235.4986336047
 30
0.0
 10
96.9668630724
 20
235.623390391
 30
0.0
 10
97.0949720676
 20
235.829838112
 30
0.0
 10
97.2630757274
 20
235.9974346709
 30
0.0
 10
97.4537641837
 20
236.1564141763
 30
0.0
 10
97.7413831191
 20
236.3412216319
 30
0.0
 10
98.1310439133
 20
236.5336592904
 30
0.0
 10
98.54413924
 20
236.6863400179
 30
0.0
 10
98.9439845605
 20
236.7861771484
 30
0.0
 10
99.2047633462
 20
236.8155777437
 30
0.0
 10
99.3249355843
 20
236.8155777437
 30
0.0
  0
SPLINE
  5
44C
100
AcDbEntity
  8
0
100
AcDbSpline
 62
7
  6
BYLAYER
 70
0
 71
3
 72
11
 73
7
 74
0
 42
0.0000001
 43
0.0000001
 44
0.0000000001
 40
0.0
 40
0.0
 40
0.0
 40
0.0
 40
0.0679921081
 40
0.255938623
 40
0.5669131415
 40
1.0
 40
1.0
 40
1.0
 40
1.0
 10
83.0840508676
 20
50.2945177152
 30
0.0
 10
83.0840333392
 20
50.2936435947
 30
0.0
 10
83.0888183574
 20
50.2931916777
 30
0.0
 10
83.094601342
 20
50.2919859247
 30
0.0
 10
83.1073887394
 20
50.2912598648
 30
0.0
 10
83.1166703061
 20
50.290703111
 30
0.0
 10
83.1222334053
 20
50.2904473943
 30
0.0
  0
SPLINE
  5
44D
100
AcDbEntity
  8
0
100
AcDbSpline
 62
7
  6
BYLAYER
 70
0
 71
3
 72
9
 73
5
 74
0
 42
0.0000001
 43
0.0000001
 44
0.0000000001
 40
0.0
 40
0.0
 40
0.0
 40
0.0
 40
0.3706543266
 40
1.0
 40
1.0
 40
1.0
 40
1.0
 10
83.1222334053
 20
50.2904473943
 30
0.0
 10
83.1753631866
 20
50.2880051993
 30
0.0
 10
83.3188899761
 20
50.2864636601
 30
0.0
 10
83.462362795
 20
50.2857956703
 30
0.0
 10
83.5526687807
 20
50.2857956703
 30
0.0
  0
SPLINE
  5
44E
100
AcDbEntity
  8
0
100
AcDbSpline
 62
7
  6
BYLAYER
 70
0
 71
3
 72
21
 73
17
 74
0
 42
0.0000001
 43
0.0000001
 44
0.0000000001
 40
0.0
 40
0.0
 40
0.0
 40
0.0
 40
0.1456537964
 40
0.310335298
 40
0.4816464597
 40
0.5655168303
 40
0.6458850268
 40
0.7210187625
 40
0.7893727276
 40
0.8498279489
 40
0.9013289444
 40
0.9428301462
 40
0.9733126429
 40
0.9920392242
 40
0.9971539572
 40
1.0
 40
1.0
 40
1.0
 40
1.0
 10
99.580263313
 20
197.3989377442
 30
0.0
 10
98.901106961
 20
197.3492679857
 30
0.0
 10
97.4531788107
 20
197.2558177104
 30
0.0
 10
95.2051148264
 20
197.1257855447
 30
0.0
 10
93.2451705048
 20
197.0167840283
 30
0.0
 10
91.678959822
 20
196.9269363378
 30
0.0
 10
90.5618275117
 20
196.8601278309
 30
0.0
 10
89.5173567384
 20
196.7934099555
 30
0.0
 10
88.5662268794
 20
196.7267066801
 30
0.0
 10
87.725744964
 20
196.6602322946
 30
0.0
 10
87.0115541122
 20
196.5944924914
 30
0.0
 10
86.4371196111
 20
196.5292088014
 30
0.0
 10
86.0191995958
 20
196.4673471037
 30
0.0
 10
85.7681571439
 20
196.409450027
 30
0.0
 10
85.6552085592
 20
196.3619693993
 30
0.0
 10
85.6266035505
 20
196.3301225105
 30
0.0
 10
85.6264960703
 20
196.3168169382
 30
0.0
  0
SPLINE
  5
44F
100
AcDbEntity
  8
0
100
AcDbSpline
 62
7
  6
BYLAYER
 70
0
 71
3
 72
17
 73
13
 74
0
 42
0.0000001
 43
0.0000001
 44
0.0000000001
 40
0.0
 40
0.0
 40
0.0
 40
0.0
 40
0.1833538103
 40
0.3605950888
 40
0.5253984066
 40
0.6720533497
 40
0.7964122532
 40
0.8946291704
 40
0.9327822883
 40
0.9630698268
 40
0.9853183323
 40
1.0
 40
1.0
 40
1.0
 40
1.0
 10
94.1166139145
 20
120.5657591127
 30
0.0
 10
94.4538495494
 20
120.5364824587
 30
0.0
 10
95.1170809179
 20
120.4789423769
 30
0.0
 10
96.0831925993
 20
120.3923388627
 30
0.0
 10
96.9812765495
 20
120.3059567918
 30
0.0
 10
97.7812969422
 20
120.2197358209
 30
0.0
 10
98.4575429958
 20
120.1341425578
 30
0.0
 10
98.9334057279
 20
120.0596813542
 30
0.0
 10
99.2345518954
 20
119.9968574819
 30
0.0
 10
99.396855141
 20
119.9542741169
 30
0.0
 10
99.5132692739
 20
119.9122522274
 30
0.0
 10
99.5742146402
 20
119.8784727366
 30
0.0
 10
99.5935704457
 20
119.8594981868
 30
0.0
  0
SPLINE
  5
450
100
AcDbEntity
  8
0
100
AcDbSpline
 62
7
  6
BYLAYER
 70
0
 71
3
 72
17
 73
13
 74
0
 42
0.0000001
 43
0.0000001
 44
0.0000000001
 40
0.0
 40
0.0
 40
0.0
 40
0.0
 40
0.2244024206
 40
0.4240726339
 40
0.5966959866
 40
0.7400788681
 40
0.852921303
 40
0.9343258604
 40
0.9629612709
 40
0.9834384256
 40
0.9957590362
 40
1.0
 40
1.0
 40
1.0
 40
1.0
 10
83.7960108709
 20
31.8006857753
 30
0.0
 10
83.7609542807
 20
31.8006655409
 30
0.0
 10
83.6947067064
 20
31.8006725345
 30
0.0
 10
83.6014821992
 20
31.8008299086
 30
0.0
 10
83.5209448938
 20
31.8011477527
 30
0.0
 10
83.4538879693
 20
31.8015501764
 30
0.0
 10
83.4013088284
 20
31.8022060618
 30
0.0
 10
83.3661520116
 20
31.8026128845
 30
0.0
 10
83.3462333745
 20
31.8034636688
 30
0.0
 10
83.3358811923
 20
31.803457349
 30
0.0
 10
83.3314636514
 20
31.8045991095
 30
0.0
 10
83.3274675824
 20
31.8041685101
 30
0.0
 10
83.3274589159
 20
31.8048309852
 30
0.0
  0
SPLINE
  5
451
100
AcDbEntity
  8
0
100
AcDbSpline
 62
7
  6
BYLAYER
 70
0
 71
3
 72
25
 73
21
 74
0
 42
0.0000001
 43
0.0000001
 44
0.0000000001
 40
0.0
 40
0.0
 40
0.0
 40
0.0
 40
0.0434811961
 40
0.0995682234
 40
0.2416470802
 40
0.4099280054
 40
0.4982700672
 40
0.5860059833
 40
0.6705537171
 40
0.7493488684
 40
0.8202352179
 40
0.8814804693
 40
0.9313803284
 40
0.9515496277
 40
0.9682571106
 40
0.9813535408
 40
0.9908596653
 40
0.9943015987
 40
0.9969094287
 40
1.0
 40
1.0
 40
1.0
 40
1.0
 10
101.8494148585
 20
143.6110337571
 30
0.0
 10
101.6152875495
 20
143.579100406
 30
0.0
 10
101.0772442297
 20
143.5203605644
 30
0.0
 10
99.7689043494
 20
143.4072338189
 30
0.0
 10
97.7817334133
 20
143.2748216355
 30
0.0
 10
95.6186794344
 20
143.1494462921
 30
0.0
 10
93.7502097195
 20
143.0448497291
 30
0.0
 10
92.3361077832
 20
142.9651100858
 30
0.0
 10
90.9739605311
 20
142.8855332985
 30
0.0
 10
89.7035430578
 20
142.8059982201
 30
0.0
 10
88.5600119956
 20
142.7266650263
 30
0.0
 10
87.5739030994
 20
142.6478310334
 30
0.0
 10
86.8635090503
 20
142.5794104329
 30
0.0
 10
86.3953413358
 20
142.5222443766
 30
0.0
 10
86.126660016
 20
142.4829787795
 30
0.0
 10
85.9164004597
 20
142.4435292143
 30
0.0
 10
85.7793695568
 20
142.4095452128
 30
0.0
 10
85.699284349
 20
142.3793226522
 30
0.0
 10
85.6565288996
 20
142.3580570624
 30
0.0
 10
85.6285792792
 20
142.3330647691
 30
0.0
 10
85.6284767983
 20
142.3162696239
 30
0.0
  0
ENDSEC
  0
SECTION
  2
OBJECTS
  0
DICTIONARY
  5
C
100
AcDbDictionary
280
0
281
1
  3
ACAD_GROUP
350
D
  3
ACAD_MLINESTYLE
350
17
  3
ACAD_LAYOUT
350
1A
  3
ACAD_PLOTSETTINGS
350
19
  3
ACAD_PLOTSTYLENAME
350
E
  0
DICTIONARY
  5
D
102
{ACAD_REACTORS
330
C
102
}
100
AcDbDictionary
280
0
281
1
  0
ACDBDICTIONARYWDFLT
  5
E
102
{ACAD_REACTORS
330
C
102
}
100
AcDbDictionary
281
1
  3
Normal
350
F
100
AcDbDictionaryWithDefault
340
F
  0
DICTIONARY
  5
17
102
{ACAD_REACTORS
330
C
102
}
100
AcDbDictionary
280
0
281
1
  3
Standard
350
18
  0
DICTIONARY
  5
19
102
{ACAD_REACTORS
330
C
102
}
100
AcDbDictionary
281
1
  0
DICTIONARY
  5
1A
102
{ACAD_REACTORS
330
C
102
}
100
AcDbDictionary
281
1
  3
Model
350
452
  3
Layout1
350
453
  0
ACDBPLACEHOLDER
  5
F
102
{ACAD_REACTORS
330
E
102
}
  0
MLINESTYLE
  5
18
102
{ACAD_REACTORS
330
17
102
}
100
AcDbMlineStyle
  2
STANDARD
 70
0
  3

 62
256
 51
90.0
 52
90.0
 71
2
 49
0.5
 62
256
  6
BYLAYER
 49
-0.5
 62
256
  6
BYLAYER
  0
LAYOUT
  5
452
102
{ACAD_REACTORS
330
1A
102
}
100
AcDbPlotSettings
  1

  2
none_device
  4

  6

 40
0.0
 41
0.0
 42
0.0
 43
0.0
 44
210.0
 45
297.0
 46
0.0
 47
0.0
 48
0.0
 49
0.0
140
0.0
141
0.0
142
1.0
143
1.0
 70
1024
 72
1
 73
0
 74
0
  7

 75
0
147
1.0
148
0.0
149
0.0
100
AcDbLayout
  1
Model
 70
0
 71
0
 10
0.0
 20
0.0
 11
210.0
 21
297.0
 12
0.0
 22
0.0
 32
0.0
 14
0.0
 24
0.0
 34
0.0
 15
0.0
 25
0.0
 35
0.0
146
0.0
 13
0.0
 23
0.0
 33
0.0
 16
1.0
 26
0.0
 36
0.0
 17
0.0
 27
1.0
 37
0.0
 76
0
330
210
345
0
346
0
  0
LAYOUT
  5
453
102
{ACAD_REACTORS
330
1A
102
}
100
AcDbPlotSettings
  1

  2
none_device
  4

  6

 40
0.0
 41
0.0
 42
0.0
 43
0.0
 44
210.0
 45
297.0
 46
0.0
 47
0.0
 48
0.0
 49
0.0
140
0.0
141
0.0
142
1.0
143
1.0
 70
0
 72
1
 73
0
 74
0
  7

 75
0
147
1.0
148
0.0
149
0.0
100
AcDbLayout
  1
Layout1
 70
0
 71
1
 10
0.0
 20
0.0
 11
210.0
 21
297.0
 12
0.0
 22
0.0
 32
0.0
 14
0.0
 24
0.0
 34
0.0
 15
0.0
 25
0.0
 35
0.0
146
0.0
 13
0.0
 23
0.0
 33
0.0
 16
1.0
 26
0.0
 36
0.0
 17
0.0
 27
1.0
 37
0.0
 76
0
330
211
345
0
346
0
  0
ENDSEC
  0
EOF
