999
DXF file: C:\Users\sesa63760\Dev\_Creo\CAD\MCADID0002065_3D-CAD\drw0001_2.dxf
999
Pro/ENGINEER 2019471 by Parametric Technology Corporation
  0
SECTION
  2
HEADER
  9
$ACADVER
  1
AC1024
  9
$DWGCODEPAGE
  3
ANSI_1252
  9
$EXTMAX
 10
129.6370688661
 20
183.3438545392
 30
0.0
  9
$EXTMIN
 10
0.0
 20
0.0
 30
0.0
  9
$LIMMIN
 10
0.0
 20
0.0
  9
$LIMMAX
 10
129.6370688661
 20
183.3438545392
  9
$VIEWCTR
 10
64.8185344331
 20
91.6719272696
  9
$VIEWSIZE
 40
183.3438545392
  9
$CLAYER
  8
0
  9
$LTSCALE
 40
11.9513031107
  9
$CELTYPE
  6
BYLAYER
  9
$DIMSCALE
 40
1.0
  9
$DIMASZ
 40
1.5432984389
  9
$DIMEXO
 40
1.0
  9
$DIMDLI
 40
8.2572639674
  9
$DIMEXE
 40
1.0
  9
$DIMCEN
 40
1.9556677818
  9
$DIMLFAC
 40
1.0
  9
$DIMBLK
  1
_FILLED
  9
$DIMALT
 70
0
  9
$DIMALTF
 40
0.0393700787
  9
$DIMTXT
 40
2.1606178144
  9
$DIMTOL
 70
1
  9
$DIMLIM
 70
0
  9
$DIMTFAC
 40
1.0
  9
$DIMTP
 40
0.01
  9
$DIMTM
 40
0.01
  9
$DIMGAP
 40
0.625
  9
$DIMDSEP
 70
46
  9
$AUNITS
 70
0
  9
$PDMODE
 70
3
  9
$PDSIZE
 40
0.3125
  9
$HANDSEED
  5
487
  9
$TILEMODE
 70
1
  9
$MEASUREMENT
 70
1
  9
$INSUNITS
 70
4
  0
ENDSEC
  0
SECTION
  2
CLASSES
  0
CLASS
  1
ACDBDICTIONARYWDFLT
  2
AcDbDictionaryWithDefault
  3
AutoCAD 2000
 90
0
 91
1
280
0
281
0
  0
CLASS
  1
ACDBPLACEHOLDER
  2
AcDbPlaceHolder
  3
AutoCAD 2000
 90
0
 91
1
280
0
281
0
  0
CLASS
  1
LAYOUT
  2
AcDbLayout
  3
AutoCAD 2000
 90
0
 91
0
280
0
281
0
  0
ENDSEC
  0
SECTION
  2
TABLES
  0
TABLE
  2
VPORT
  5
8
100
AcDbSymbolTable
 70
2
  0
VPORT
  5
1F4
100
AcDbSymbolTableRecord
100
AcDbViewportTableRecord
  2
*ACTIVE
 70
0
 10
0.0
 20
0.0
 11
1.0
 21
1.0
 12
64.8185344331
 22
91.6719272696
 13
0.0
 23
0.0
 14
1.0
 24
1.0
 15
0.0
 25
0.0
 16
0.0
 26
0.0
 36
1.0
 17
0.0
 27
0.0
 37
0.0
 40
183.3438545392
 41
0.7070707071
 42
50.0
 43
0.0
 44
0.0
 50
0.0
 51
0.0
 71
0
 72
100
 73
1
 74
1
 75
0
 76
0
 77
0
 78
0
  0
ENDTAB
  0
TABLE
  2
LTYPE
  5
5
100
AcDbSymbolTable
 70
6
  0
LTYPE
  5
14
100
AcDbSymbolTableRecord
100
AcDbLinetypeTableRecord
  2
BYBLOCK
 70
0
  3

 72
65
 73
0
 40
0.0
  0
LTYPE
  5
15
100
AcDbSymbolTableRecord
100
AcDbLinetypeTableRecord
  2
BYLAYER
 70
0
  3

 72
65
 73
0
 40
0.0
  0
LTYPE
  5
16
100
AcDbSymbolTableRecord
100
AcDbLinetypeTableRecord
  2
CONTINUOUS
 70
64
  3
Solid line
 72
65
 73
0
 40
0.0
  0
LTYPE
  5
1F5
100
AcDbSymbolTableRecord
100
AcDbLinetypeTableRecord
  2
CENTER
 70
64
  3
____ _ ____ _ ____ _ ____ _ ____ _ ____ _ ____
 72
65
 73
4
 40
0.6
 49
0.375
 74
0
 49
-0.075
 74
0
 49
0.075
 74
0
 49
-0.075
 74
0
  0
LTYPE
  5
1F6
100
AcDbSymbolTableRecord
100
AcDbLinetypeTableRecord
  2
HIDDEN
 70
64
  3
- - - - - - - - - - - - - - - - - - - -
 72
65
 73
2
 40
0.2
 49
0.1
 74
0
 49
-0.1
 74
0
  0
LTYPE
  5
1F7
100
AcDbSymbolTableRecord
100
AcDbLinetypeTableRecord
  2
PHANTOM
 70
64
  3
_____ _ _ _____ _ _ _____ _ _ _____
 72
65
 73
6
 40
0.8
 49
0.45
 74
0
 49
-0.05
 74
0
 49
0.1
 74
0
 49
-0.05
 74
0
 49
0.1
 74
0
 49
-0.05
 74
0
  0
LTYPE
  5
1F8
100
AcDbSymbolTableRecord
100
AcDbLinetypeTableRecord
  2
DOT
 70
64
  3
. . . . . . . . . . . . . . . . . . . .
 72
65
 73
2
 40
0.2
 49
0.1
 74
0
 49
-0.1
 74
0
  0
LTYPE
  5
1F9
100
AcDbSymbolTableRecord
100
AcDbLinetypeTableRecord
  2
DASHED
 70
64
  3
- - - - - - - - - - - - - - - - - - - -
 72
65
 73
2
 40
0.2
 49
0.1
 74
0
 49
-0.1
 74
0
  0
ENDTAB
  0
TABLE
  2
LAYER
  5
2
100
AcDbSymbolTable
 70
36
  0
LAYER
  5
10
100
AcDbSymbolTableRecord
100
AcDbLayerTableRecord
  2
0
 70
0
 62
7
  6
CONTINUOUS
370
-3
390
F
  0
LAYER
  5
1FA
100
AcDbSymbolTableRecord
100
AcDbLayerTableRecord
  2
DEFAULT_1
 70
0
 62
7
  6
CENTER
370
-3
390
F
  0
LAYER
  5
1FB
100
AcDbSymbolTableRecord
100
AcDbLayerTableRecord
  2
DEFAULT_2
 70
0
 62
8
  6
HIDDEN
370
-3
390
F
  0
LAYER
  5
1FC
100
AcDbSymbolTableRecord
100
AcDbLayerTableRecord
  2
DEFAULT_3
 70
0
 62
7
  6
PHANTOM
370
-3
390
F
  0
LAYER
  5
1FD
100
AcDbSymbolTableRecord
100
AcDbLayerTableRecord
  2
00_COMPONENTS
 70
0
 62
7
  6
CONTINUOUS
370
-3
390
F
  0
LAYER
  5
1FE
100
AcDbSymbolTableRecord
100
AcDbLayerTableRecord
  2
01_1_DEFAULT_DATUMS
 70
0
 62
7
  6
CONTINUOUS
370
-3
390
F
  0
LAYER
  5
1FF
100
AcDbSymbolTableRecord
100
AcDbLayerTableRecord
  2
01_PLANES
 70
0
 62
7
  6
CONTINUOUS
370
-3
390
F
  0
LAYER
  5
200
100
AcDbSymbolTableRecord
100
AcDbLayerTableRecord
  2
02_COORD_SYS
 70
0
 62
7
  6
CONTINUOUS
370
-3
390
F
  0
LAYER
  5
201
100
AcDbSymbolTableRecord
100
AcDbLayerTableRecord
  2
03_AXES
 70
0
 62
7
  6
CONTINUOUS
370
-3
390
F
  0
LAYER
  5
202
100
AcDbSymbolTableRecord
100
AcDbLayerTableRecord
  2
04_POINTS
 70
0
 62
7
  6
CONTINUOUS
370
-3
390
F
  0
LAYER
  5
203
100
AcDbSymbolTableRecord
100
AcDbLayerTableRecord
  2
05_CURVES
 70
0
 62
7
  6
CONTINUOUS
370
-3
390
F
  0
LAYER
  5
204
100
AcDbSymbolTableRecord
100
AcDbLayerTableRecord
  2
06_SURFS
 70
0
 62
7
  6
CONTINUOUS
370
-3
390
F
  0
LAYER
  5
205
100
AcDbSymbolTableRecord
100
AcDbLayerTableRecord
  2
07_COSMETICS
 70
0
 62
7
  6
CONTINUOUS
370
-3
390
F
  0
LAYER
  5
206
100
AcDbSymbolTableRecord
100
AcDbLayerTableRecord
  2
10_NOTES
 70
0
 62
7
  6
CONTINUOUS
370
-3
390
F
  0
LAYER
  5
207
100
AcDbSymbolTableRecord
100
AcDbLayerTableRecord
  2
11_NOTES_PUB
 70
0
 62
7
  6
CONTINUOUS
370
-3
390
F
  0
LAYER
  5
208
100
AcDbSymbolTableRecord
100
AcDbLayerTableRecord
  2
13_REF_GTOL
 70
0
 62
7
  6
CONTINUOUS
370
-3
390
F
  0
LAYER
  5
209
100
AcDbSymbolTableRecord
100
AcDbLayerTableRecord
  2
16_MISC
 70
0
 62
7
  6
CONTINUOUS
370
-3
390
F
  0
LAYER
  5
20A
100
AcDbSymbolTableRecord
100
AcDbLayerTableRecord
  2
17_NO_PRINT
 70
0
 62
7
  6
CONTINUOUS
370
-3
390
F
  0
LAYER
  5
20B
100
AcDbSymbolTableRecord
100
AcDbLayerTableRecord
  2
18_DATUM_CAMS_JOINTS
 70
0
 62
7
  6
CONTINUOUS
370
-3
390
F
  0
LAYER
  5
20C
100
AcDbSymbolTableRecord
100
AcDbLayerTableRecord
  2
19_DATUM_FUNCTIONAL
 70
0
 62
7
  6
CONTINUOUS
370
-3
390
F
  0
LAYER
  5
20D
100
AcDbSymbolTableRecord
100
AcDbLayerTableRecord
  2
20_DATUM_KINEMATIC_SCHEME
 70
0
 62
7
  6
CONTINUOUS
370
-3
390
F
  0
ENDTAB
  0
TABLE
  2
STYLE
  5
3
100
AcDbSymbolTable
 70
1
  0
STYLE
  5
11
100
AcDbSymbolTableRecord
100
AcDbTextStyleTableRecord
  2
STANDARD
 70
0
 40
0.0
 41
0.8
 50
0.0
 71
0
 42
0.2
  3
txt
  4

  0
STYLE
  5
20E
100
AcDbSymbolTableRecord
100
AcDbTextStyleTableRecord
  2
TEXTSTYLE_1
 70
0
 40
0.0
 41
0.8
 50
0.0
 71
0
 42
0.2
  3
gdt
  4

  0
ENDTAB
  0
TABLE
  2
VIEW
  5
6
100
AcDbSymbolTable
 70
0
  0
ENDTAB
  0
TABLE
  2
UCS
  5
7
100
AcDbSymbolTable
 70
0
  0
ENDTAB
  0
TABLE
  2
APPID
  5
9
100
AcDbSymbolTable
 70
1
  0
APPID
  5
20F
100
AcDbSymbolTableRecord
100
AcDbRegAppTableRecord
  2
ACAD
 70
0
  0
ENDTAB
  0
TABLE
  2
BLOCK_RECORD
  5
1
100
AcDbSymbolTable
 70
0
  0
BLOCK_RECORD
  5
210
100
AcDbSymbolTableRecord
100
AcDbBlockTableRecord
  2
*Model_Space
  0
BLOCK_RECORD
  5
211
100
AcDbSymbolTableRecord
100
AcDbBlockTableRecord
  2
*Paper_Space
  0
BLOCK_RECORD
  5
212
100
AcDbSymbolTableRecord
100
AcDbBlockTableRecord
  2
_FILLED
  0
ENDTAB
  0
TABLE
  2
DIMSTYLE
  5
A
100
AcDbSymbolTable
 70
1
100
AcDbDimStyleTable
 71
0
  0
DIMSTYLE
105
213
100
AcDbSymbolTableRecord
100
AcDbDimStyleTableRecord
  2
STANDARD
 70
0
  3

  4

 40
1.0
 41
1.5432984389
 42
1.0
 43
0.38
 44
1.0
 45
0.0
 46
0.0
 47
0.01
 48
0.01
140
2.1606178144
141
0.09
142
0.0
143
25.4
144
1.0
145
0.0
146
1.0
147
0.625
 71
1
 72
0
 73
0
 74
0
 75
0
 76
0
 77
1
 78
8
 79
2
170
0
171
1
172
0
173
0
174
0
175
0
176
0
177
0
178
0
270
2
179
2
271
2
272
2
273
2
274
2
275
0
280
0
281
0
282
0
283
1
284
8
285
0
286
0
287
3
288
0
340
11
278
46
341
212
342
212
343
212
344
212
  0
ENDTAB
  0
ENDSEC
  0
SECTION
  2
BLOCKS
  0
BLOCK
  5
20
100
AcDbEntity
  8
0
100
AcDbBlockBegin
  2
*Model_Space
 70
0
 10
0.0
 20
0.0
 30
0.0
  3
*Model_Space
  1

  0
ENDBLK
  5
21
100
AcDbEntity
  8
0
100
AcDbBlockEnd
  0
BLOCK
  5
1C
100
AcDbEntity
  8
0
100
AcDbBlockBegin
  2
*Paper_Space
 70
0
 10
0.0
 20
0.0
 30
0.0
  3
*Paper_Space
  1

  0
ENDBLK
  5
1D
100
AcDbEntity
  8
0
100
AcDbBlockEnd
  0
BLOCK
  5
214
100
AcDbEntity
  8
0
100
AcDbBlockBegin
  2
_FILLED
 70
64
 10
0.0
 20
0.0
  3
_FILLED
  1

  0
SOLID
  5
215
100
AcDbEntity
  8
0
  6
BYBLOCK
 62
0
100
AcDbTrace
 10
0.0
 20
0.0
 11
-1.0
 21
0.25
 12
-1.0
 22
-0.25
 13
-1.0
 23
-0.25
  0
ENDBLK
  5
216
100
AcDbEntity
  8
0
  6
BYBLOCK
 62
0
100
AcDbBlockEnd
  0
ENDSEC
  0
SECTION
  2
ENTITIES
  0
LINE
  5
217
100
AcDbEntity
  8
0
100
AcDbLine
 62
7
  6
CONTINUOUS
 10
14.2138352916
 20
65.2696629703
 11
21.024550121
 21
55.9729049955
  0
LINE
  5
218
100
AcDbEntity
  8
0
100
AcDbLine
 62
7
  6
CONTINUOUS
 10
17.15521875
 20
62.4391030776
 11
15.6716990266
 21
64.464136303
  0
LINE
  5
219
100
AcDbEntity
  8
0
100
AcDbLine
 62
7
  6
CONTINUOUS
 10
16.1810399211
 20
64.4549844713
 11
17.3034806723
 21
62.9216669061
  0
LINE
  5
21A
100
AcDbEntity
  8
0
100
AcDbLine
 62
7
  6
CONTINUOUS
 10
16.7326047132
 20
65.2156111643
 11
16.796052404
 21
65.1290038345
  0
LINE
  5
21B
100
AcDbEntity
  8
0
100
AcDbLine
 62
7
  6
CONTINUOUS
 10
18.152502804
 20
63.2774227025
 11
18.2161244365
 21
63.1905779389
  0
LINE
  5
21C
100
AcDbEntity
  8
0
100
AcDbLine
 62
7
  6
CONTINUOUS
 10
17.2166191554
 20
65.5701954558
 11
18.7001388787
 21
63.5451622303
  0
LINE
  5
21D
100
AcDbEntity
  8
0
100
AcDbLine
 62
7
  6
CONTINUOUS
 10
17.6300470237
 20
63.1527424406
 11
16.5076062726
 21
64.6860600058
  0
LINE
  5
21E
100
AcDbEntity
  8
0
100
AcDbLine
 62
7
  6
CONTINUOUS
 10
18.0567702741
 20
63.0777020738
 11
17.9931234453
 21
63.1646472425
  0
LINE
  5
21F
100
AcDbEntity
  8
0
100
AcDbLine
 62
7
  6
CONTINUOUS
 10
18.4013313847
 20
63.4534916607
 11
17.0425873175
 21
65.3096129239
  0
LINE
  5
220
100
AcDbEntity
  8
0
100
AcDbLine
 62
7
  6
CONTINUOUS
 10
21.024550121
 20
55.9729049955
 11
31.9730054925
 21
52.0117806092
  0
LINE
  5
221
100
AcDbEntity
  8
0
100
AcDbLine
 62
7
  6
CONTINUOUS
 10
49.9716165302
 20
52.0117806092
 11
31.9730054925
 21
52.0117806092
  0
LINE
  5
222
100
AcDbEntity
  8
0
100
AcDbLine
 62
7
  6
CONTINUOUS
 10
86.5999283671
 20
52.0117806092
 11
114.5858300925
 21
52.0117806092
  0
LINE
  5
223
100
AcDbEntity
  8
0
100
AcDbLine
 62
7
  6
CONTINUOUS
 10
31.0458300974
 20
54.3617806092
 11
30.8858300974
 21
55.1617806092
  0
LINE
  5
224
100
AcDbEntity
  8
0
100
AcDbLine
 62
7
  6
CONTINUOUS
 10
28.9858300974
 20
55.5617806092
 11
28.9732671807
 21
55.6560024842
  0
LINE
  5
225
100
AcDbEntity
  8
0
100
AcDbLine
 62
7
  6
CONTINUOUS
 10
28.6858300925
 20
54.0617806092
 11
28.6858300925
 21
55.9617806092
  0
LINE
  5
226
100
AcDbEntity
  8
0
100
AcDbLine
 62
7
  6
CONTINUOUS
 10
28.7858300974
 20
54.3617806092
 11
28.7858300974
 21
55.5617806092
  0
LINE
  5
227
100
AcDbEntity
  8
0
100
AcDbLine
 62
7
  6
CONTINUOUS
 10
28.9858300974
 20
55.5617806092
 11
28.9858300974
 21
55.1617806092
  0
LINE
  5
228
100
AcDbEntity
  8
0
100
AcDbLine
 62
7
  6
CONTINUOUS
 10
30.8858300974
 20
55.1617806092
 11
30.8858300974
 21
55.5617806092
  0
LINE
  5
229
100
AcDbEntity
  8
0
100
AcDbLine
 62
7
  6
CONTINUOUS
 10
31.0858300974
 20
55.5617806092
 11
31.0858300974
 21
54.3617806092
  0
LINE
  5
22A
100
AcDbEntity
  8
0
100
AcDbLine
 62
7
  6
CONTINUOUS
 10
31.1858300925
 20
55.9617806092
 11
31.1858300925
 21
54.0617806092
  0
LINE
  5
22B
100
AcDbEntity
  8
0
100
AcDbLine
 62
7
  6
CONTINUOUS
 10
50.2858300925
 20
53.5117806092
 11
47.7858300925
 21
53.5117806092
  0
LINE
  5
22C
100
AcDbEntity
  8
0
100
AcDbLine
 62
7
  6
CONTINUOUS
 10
87.6128821054
 20
53.5117806092
 11
111.0953200552
 21
53.5117806092
  0
LINE
  5
22D
100
AcDbEntity
  8
0
100
AcDbLine
 62
7
  6
CONTINUOUS
 10
48.0858300974
 20
53.9117806092
 11
49.9858300974
 21
53.9117806092
  0
LINE
  5
22E
100
AcDbEntity
  8
0
100
AcDbLine
 62
7
  6
CONTINUOUS
 10
28.6858300925
 20
54.0617806092
 11
31.1858300925
 21
54.0617806092
  0
LINE
  5
22F
100
AcDbEntity
  8
0
100
AcDbLine
 62
7
  6
CONTINUOUS
 10
49.9858300974
 20
54.3117806092
 11
48.0858300974
 21
54.3117806092
  0
LINE
  5
230
100
AcDbEntity
  8
0
100
AcDbLine
 62
7
  6
CONTINUOUS
 10
31.0858300974
 20
54.3617806092
 11
28.7858300974
 21
54.3617806092
  0
LINE
  5
231
100
AcDbEntity
  8
0
100
AcDbLine
 62
7
  6
CONTINUOUS
 10
50.2858300925
 20
54.6117806092
 11
50.1858300974
 21
54.6117806092
  0
LINE
  5
232
100
AcDbEntity
  8
0
100
AcDbLine
 62
7
  6
CONTINUOUS
 10
47.8858300974
 20
54.6117806092
 11
47.7858300925
 21
54.6117806092
  0
LINE
  5
233
100
AcDbEntity
  8
0
100
AcDbLine
 62
7
  6
CONTINUOUS
 10
31.1858300925
 20
54.6617806092
 11
31.0858300974
 21
54.6617806092
  0
LINE
  5
234
100
AcDbEntity
  8
0
100
AcDbLine
 62
7
  6
CONTINUOUS
 10
28.7858300974
 20
54.6617806092
 11
28.6858300925
 21
54.6617806092
  0
LINE
  5
235
100
AcDbEntity
  8
0
100
AcDbLine
 62
7
  6
CONTINUOUS
 10
113.7858300925
 20
54.8117806092
 11
112.4710748952
 21
54.8117806092
  0
LINE
  5
236
100
AcDbEntity
  8
0
100
AcDbLine
 62
7
  6
CONTINUOUS
 10
47.7858300925
 20
54.8117806092
 11
47.8858300974
 21
54.8117806092
  0
LINE
  5
237
100
AcDbEntity
  8
0
100
AcDbLine
 62
7
  6
CONTINUOUS
 10
50.1858300974
 20
54.8117806092
 11
50.2858300925
 21
54.8117806092
  0
LINE
  5
238
100
AcDbEntity
  8
0
100
AcDbLine
 62
7
  6
CONTINUOUS
 10
28.6858300925
 20
54.8617806092
 11
28.7858300974
 21
54.8617806092
  0
LINE
  5
239
100
AcDbEntity
  8
0
100
AcDbLine
 62
7
  6
CONTINUOUS
 10
31.0858300974
 20
54.8617806092
 11
31.1858300925
 21
54.8617806092
  0
LINE
  5
23A
100
AcDbEntity
  8
0
100
AcDbLine
 62
7
  6
CONTINUOUS
 10
47.8858300974
 20
55.1117806092
 11
50.1858300974
 21
55.1117806092
  0
LINE
  5
23B
100
AcDbEntity
  8
0
100
AcDbLine
 62
7
  6
CONTINUOUS
 10
28.9858300974
 20
55.1617806092
 11
30.8858300974
 21
55.1617806092
  0
LINE
  5
23C
100
AcDbEntity
  8
0
100
AcDbLine
 62
7
  6
CONTINUOUS
 10
50.2858300925
 20
55.4117806092
 11
47.7858300925
 21
55.4117806092
  0
LINE
  5
23D
100
AcDbEntity
  8
0
100
AcDbLine
 62
7
  6
CONTINUOUS
 10
30.8858300974
 20
55.5617806092
 11
28.9858300974
 21
55.5617806092
  0
LINE
  5
23E
100
AcDbEntity
  8
0
100
AcDbLine
 62
7
  6
CONTINUOUS
 10
28.6858300925
 20
55.9617806092
 11
31.1858300925
 21
55.9617806092
  0
LINE
  5
23F
100
AcDbEntity
  8
0
100
AcDbLine
 62
7
  6
CONTINUOUS
 10
84.0858300925
 20
56.8117806092
 11
84.8858300925
 21
56.8117806092
  0
LINE
  5
240
100
AcDbEntity
  8
0
100
AcDbLine
 62
7
  6
CONTINUOUS
 10
115.5858300925
 20
57.0117806092
 11
114.5858300925
 21
57.0117806092
  0
LINE
  5
241
100
AcDbEntity
  8
0
100
AcDbLine
 62
7
  6
CONTINUOUS
 10
51.9858300925
 20
56.5617806092
 11
50.1858300925
 21
56.9617806092
  0
LINE
  5
242
100
AcDbEntity
  8
0
100
AcDbLine
 62
7
  6
CONTINUOUS
 10
52.3858300925
 20
56.1617806092
 11
51.9858300925
 21
56.5617806092
  0
LINE
  5
243
100
AcDbEntity
  8
0
100
AcDbLine
 62
7
  6
CONTINUOUS
 10
35.7302804178
 20
73.7117806106
 11
36.7318244488
 21
72.6023239543
  0
LINE
  5
244
100
AcDbEntity
  8
0
100
AcDbLine
 62
7
  6
CONTINUOUS
 10
23.7531379492
 20
84.8782383922
 11
30.5531379492
 21
75.5961063678
  0
LINE
  5
245
100
AcDbEntity
  8
0
100
AcDbLine
 62
7
  6
CONTINUOUS
 10
26.6886246208
 20
82.055727728
 11
25.2110016843
 21
84.0727117249
  0
LINE
  5
246
100
AcDbEntity
  8
0
100
AcDbLine
 62
7
  6
CONTINUOUS
 10
27.183129605
 20
82.7709569365
 11
26.0603666073
 21
84.3040395957
  0
LINE
  5
247
100
AcDbEntity
  8
0
100
AcDbLine
 62
7
  6
CONTINUOUS
 10
27.6039521658
 20
82.704084739
 11
27.5462084368
 21
82.7829312184
  0
LINE
  5
248
100
AcDbEntity
  8
0
100
AcDbLine
 62
7
  6
CONTINUOUS
 10
26.2719687772
 20
84.8242300824
 11
26.3355462748
 21
84.7374455638
  0
LINE
  5
249
100
AcDbEntity
  8
0
100
AcDbLine
 62
7
  6
CONTINUOUS
 10
27.6918687361
 20
82.8860390707
 11
27.7495917138
 21
82.8072460855
  0
LINE
  5
24A
100
AcDbEntity
  8
0
100
AcDbLine
 62
7
  6
CONTINUOUS
 10
27.9543638587
 20
83.0718502249
 11
26.5952297037
 21
84.9276871282
  0
LINE
  5
24B
100
AcDbEntity
  8
0
100
AcDbLine
 62
7
  6
CONTINUOUS
 10
26.7559832194
 20
85.1788143739
 11
28.233606156
 21
83.1618303769
  0
LINE
  5
24C
100
AcDbEntity
  8
0
100
AcDbLine
 62
7
  6
CONTINUOUS
 10
25.7476416662
 20
84.0826725025
 11
26.8578978836
 21
82.5407367293
  0
LINE
  5
24D
100
AcDbEntity
  8
0
100
AcDbLine
 62
7
  6
CONTINUOUS
 10
34.9458300974
 20
66.6117806092
 11
34.7858300974
 21
67.4117806092
  0
LINE
  5
24E
100
AcDbEntity
  8
0
100
AcDbLine
 62
7
  6
CONTINUOUS
 10
32.8858300974
 20
67.8117806092
 11
32.8732671807
 21
67.9060024842
  0
LINE
  5
24F
100
AcDbEntity
  8
0
100
AcDbLine
 62
7
  6
CONTINUOUS
 10
32.5858300925
 20
66.3117806092
 11
32.5858300925
 21
68.2117806092
  0
LINE
  5
250
100
AcDbEntity
  8
0
100
AcDbLine
 62
7
  6
CONTINUOUS
 10
32.6858300974
 20
66.6117806092
 11
32.6858300974
 21
67.8117806092
  0
LINE
  5
251
100
AcDbEntity
  8
0
100
AcDbLine
 62
7
  6
CONTINUOUS
 10
32.8858300974
 20
67.8117806092
 11
32.8858300974
 21
67.4117806092
  0
LINE
  5
252
100
AcDbEntity
  8
0
100
AcDbLine
 62
7
  6
CONTINUOUS
 10
34.7858300974
 20
67.4117806092
 11
34.7858300974
 21
67.8117806092
  0
LINE
  5
253
100
AcDbEntity
  8
0
100
AcDbLine
 62
7
  6
CONTINUOUS
 10
34.9858300974
 20
67.8117806092
 11
34.9858300974
 21
66.6117806092
  0
LINE
  5
254
100
AcDbEntity
  8
0
100
AcDbLine
 62
7
  6
CONTINUOUS
 10
35.0858300925
 20
68.2117806092
 11
35.0858300925
 21
66.3117806092
  0
LINE
  5
255
100
AcDbEntity
  8
0
100
AcDbLine
 62
7
  6
CONTINUOUS
 10
30.898393014
 20
55.6560024842
 11
30.8858300974
 21
55.5617806092
  0
LINE
  5
256
100
AcDbEntity
  8
0
100
AcDbLine
 62
7
  6
CONTINUOUS
 10
36.2836410638
 20
104.4642982836
 11
35.7253573184
 21
103.8726232641
  0
LINE
  5
257
100
AcDbEntity
  8
0
100
AcDbLine
 62
7
  6
CONTINUOUS
 10
52.4858300974
 20
122.5117806092
 11
53.0858300974
 21
122.7117806092
  0
LINE
  5
258
100
AcDbEntity
  8
0
100
AcDbLine
 62
7
  6
CONTINUOUS
 10
50.1858300925
 20
58.2117806092
 11
83.2496033952
 21
58.2117806092
  0
LINE
  5
259
100
AcDbEntity
  8
0
100
AcDbLine
 62
7
  6
CONTINUOUS
 10
78.8858300925
 20
59.7117806092
 11
81.7358300925
 21
59.7117806092
  0
LINE
  5
25A
100
AcDbEntity
  8
0
100
AcDbLine
 62
7
  6
CONTINUOUS
 10
79.4358300974
 20
60.1117806092
 11
81.3358300974
 21
60.1117806092
  0
LINE
  5
25B
100
AcDbEntity
  8
0
100
AcDbLine
 62
7
  6
CONTINUOUS
 10
81.3358300974
 20
60.5117806092
 11
79.4358300974
 21
60.5117806092
  0
LINE
  5
25C
100
AcDbEntity
  8
0
100
AcDbLine
 62
7
  6
CONTINUOUS
 10
81.7358300925
 20
60.8117806092
 11
81.5358300974
 21
60.8117806092
  0
LINE
  5
25D
100
AcDbEntity
  8
0
100
AcDbLine
 62
7
  6
CONTINUOUS
 10
79.2358300974
 20
60.8117806092
 11
78.8858300941
 21
60.8117806092
  0
LINE
  5
25E
100
AcDbEntity
  8
0
100
AcDbLine
 62
7
  6
CONTINUOUS
 10
78.8858300925
 20
61.0117806092
 11
79.2358300974
 21
61.0117806092
  0
LINE
  5
25F
100
AcDbEntity
  8
0
100
AcDbLine
 62
7
  6
CONTINUOUS
 10
81.5358300974
 20
61.0117806092
 11
81.7358300925
 21
61.0117806092
  0
LINE
  5
260
100
AcDbEntity
  8
0
100
AcDbLine
 62
7
  6
CONTINUOUS
 10
79.2358300974
 20
61.3117806092
 11
81.5358300974
 21
61.3117806092
  0
LINE
  5
261
100
AcDbEntity
  8
0
100
AcDbLine
 62
7
  6
CONTINUOUS
 10
81.7358300925
 20
61.6117806092
 11
78.8858300925
 21
61.6117806092
  0
LINE
  5
262
100
AcDbEntity
  8
0
100
AcDbLine
 62
7
  6
CONTINUOUS
 10
37.3457351601
 20
68.4414209707
 11
35.4636616429
 21
69.1180296285
  0
LINE
  5
263
100
AcDbEntity
  8
0
100
AcDbLine
 62
7
  6
CONTINUOUS
 10
34.0193788964
 20
68.9071911986
 11
24.3273559981
 21
72.433406804
  0
LINE
  5
264
100
AcDbEntity
  8
0
100
AcDbLine
 62
7
  6
CONTINUOUS
 10
37.5218244537
 20
75.712323952
 11
37.6818244537
 21
74.912323952
  0
LINE
  5
265
100
AcDbEntity
  8
0
100
AcDbLine
 62
7
  6
CONTINUOUS
 10
37.385830088
 20
74.1116354376
 11
37.385830088
 21
76.0116354376
  0
LINE
  5
266
100
AcDbEntity
  8
0
100
AcDbLine
 62
7
  6
CONTINUOUS
 10
37.4818244537
 20
74.512323952
 11
37.4818244537
 21
75.712323952
  0
LINE
  5
267
100
AcDbEntity
  8
0
100
AcDbLine
 62
7
  6
CONTINUOUS
 10
37.6818244537
 20
74.912323952
 11
37.6818244537
 21
74.512323952
  0
LINE
  5
268
100
AcDbEntity
  8
0
100
AcDbLine
 62
7
  6
CONTINUOUS
 10
39.5818244537
 20
74.512323952
 11
39.5818244537
 21
74.912323952
  0
LINE
  5
269
100
AcDbEntity
  8
0
100
AcDbLine
 62
7
  6
CONTINUOUS
 10
39.7818244537
 20
75.712323952
 11
39.7818244537
 21
74.5123239519
  0
LINE
  5
26A
100
AcDbEntity
  8
0
100
AcDbLine
 62
7
  6
CONTINUOUS
 10
39.885830088
 20
76.0116354376
 11
39.885830088
 21
74.1116354376
  0
LINE
  5
26B
100
AcDbEntity
  8
0
100
AcDbLine
 62
7
  6
CONTINUOUS
 10
34.798393014
 20
67.9060024842
 11
34.7858300974
 21
67.8117806092
  0
LINE
  5
26C
100
AcDbEntity
  8
0
100
AcDbLine
 62
7
  6
CONTINUOUS
 10
37.6692614699
 20
74.4181015733
 11
37.6818244537
 21
74.512323952
  0
LINE
  5
26D
100
AcDbEntity
  8
0
100
AcDbLine
 62
7
  6
CONTINUOUS
 10
28.9858300974
 20
55.1617806092
 11
28.8258300974
 21
54.3617806092
  0
LINE
  5
26E
100
AcDbEntity
  8
0
100
AcDbLine
 62
7
  6
CONTINUOUS
 10
32.8858300974
 20
67.4117806092
 11
32.7258300974
 21
66.6117806092
  0
LINE
  5
26F
100
AcDbEntity
  8
0
100
AcDbLine
 62
7
  6
CONTINUOUS
 10
48.1457517772
 20
125.3831651258
 11
48.1742722431
 21
125.4929703303
  0
LINE
  5
270
100
AcDbEntity
  8
0
100
AcDbLine
 62
7
  6
CONTINUOUS
 10
54.3358300974
 20
130.1588406836
 11
53.271992187
 21
128.3086877959
  0
LINE
  5
271
100
AcDbEntity
  8
0
100
AcDbLine
 62
7
  6
CONTINUOUS
 10
36.5069835062
 20
102.0978399026
 11
36.4411996112
 21
102.0366465997
  0
LINE
  5
272
100
AcDbEntity
  8
0
100
AcDbLine
 62
7
  6
CONTINUOUS
 10
35.9446609252
 20
104.3977722994
 11
36.4286753676
 21
104.7523565909
  0
LINE
  5
273
100
AcDbEntity
  8
0
100
AcDbLine
 62
7
  6
CONTINUOUS
 10
37.9062983042
 20
102.7353725939
 11
37.4222838621
 21
102.3807883026
  0
LINE
  5
274
100
AcDbEntity
  8
0
100
AcDbLine
 62
7
  6
CONTINUOUS
 10
35.2660945009
 20
103.7923227956
 11
36.2600050827
 21
104.4965741483
  0
LINE
  5
275
100
AcDbEntity
  8
0
100
AcDbLine
 62
7
  6
CONTINUOUS
 10
35.7253573185
 20
103.8726232641
 11
35.3842744061
 21
103.6309434724
  0
LINE
  5
276
100
AcDbEntity
  8
0
100
AcDbLine
 62
7
  6
CONTINUOUS
 10
36.5069835062
 20
102.0978399026
 11
36.8480664185
 21
102.3395196942
  0
LINE
  5
277
100
AcDbEntity
  8
0
100
AcDbLine
 62
7
  6
CONTINUOUS
 10
36.6251634115
 20
101.9364605794
 11
37.6190739934
 21
102.6407119321
  0
LINE
  5
278
100
AcDbEntity
  8
0
100
AcDbLine
 62
7
  6
CONTINUOUS
 10
43.0258300974
 20
111.2517806092
 11
33.4258300974
 21
104.4517806092
  0
LINE
  5
279
100
AcDbEntity
  8
0
100
AcDbLine
 62
7
  6
CONTINUOUS
 10
34.8836938324
 20
103.646253942
 11
35.9446609252
 21
104.3977722994
  0
LINE
  5
27A
100
AcDbEntity
  8
0
100
AcDbLine
 62
7
  6
CONTINUOUS
 10
37.4222838621
 20
102.3807883026
 11
36.361316769
 21
101.629269945
  0
LINE
  5
27B
100
AcDbEntity
  8
0
100
AcDbLine
 62
7
  6
CONTINUOUS
 10
112.1157807775
 20
62.0117806092
 11
82.6358300925
 21
62.0117806092
  0
LINE
  5
27C
100
AcDbEntity
  8
0
100
AcDbLine
 62
7
  6
CONTINUOUS
 10
111.1858300925
 20
63.0117806092
 11
108.6858300925
 21
63.0117806092
  0
LINE
  5
27D
100
AcDbEntity
  8
0
100
AcDbLine
 62
7
  6
CONTINUOUS
 10
108.9858300974
 20
63.4117806092
 11
110.8858300974
 21
63.4117806092
  0
LINE
  5
27E
100
AcDbEntity
  8
0
100
AcDbLine
 62
7
  6
CONTINUOUS
 10
110.8858300974
 20
63.8117806092
 11
108.9858300974
 21
63.8117806092
  0
LINE
  5
27F
100
AcDbEntity
  8
0
100
AcDbLine
 62
7
  6
CONTINUOUS
 10
111.1858300925
 20
64.1117806092
 11
111.0858300974
 21
64.1117806092
  0
LINE
  5
280
100
AcDbEntity
  8
0
100
AcDbLine
 62
7
  6
CONTINUOUS
 10
108.7858300974
 20
64.1117806092
 11
108.6858300925
 21
64.1117806092
  0
LINE
  5
281
100
AcDbEntity
  8
0
100
AcDbLine
 62
7
  6
CONTINUOUS
 10
108.6858300925
 20
64.3117806092
 11
108.7858300974
 21
64.3117806092
  0
LINE
  5
282
100
AcDbEntity
  8
0
100
AcDbLine
 62
7
  6
CONTINUOUS
 10
111.0858300974
 20
64.3117806092
 11
111.1858300925
 21
64.3117806092
  0
LINE
  5
283
100
AcDbEntity
  8
0
100
AcDbLine
 62
7
  6
CONTINUOUS
 10
108.7858300974
 20
64.6117806092
 11
111.0858300974
 21
64.6117806092
  0
LINE
  5
284
100
AcDbEntity
  8
0
100
AcDbLine
 62
7
  6
CONTINUOUS
 10
111.1858300925
 20
64.9117806092
 11
108.6858300925
 21
64.9117806092
  0
LINE
  5
285
100
AcDbEntity
  8
0
100
AcDbLine
 62
7
  6
CONTINUOUS
 10
36.7318244488
 20
72.6023239543
 11
38.6112096904
 21
71.9182836677
  0
LINE
  5
286
100
AcDbEntity
  8
0
100
AcDbLine
 62
7
  6
CONTINUOUS
 10
30.5531379492
 20
75.5961063678
 11
35.7302804178
 21
73.7117806106
  0
LINE
  5
287
100
AcDbEntity
  8
0
100
AcDbLine
 62
7
  6
CONTINUOUS
 10
39.5818244537
 20
74.512323952
 11
39.5943874375
 21
74.4181015733
  0
LINE
  5
288
100
AcDbEntity
  8
0
100
AcDbLine
 62
7
  6
CONTINUOUS
 10
42.1858300925
 20
85.884621004
 11
42.1858300925
 21
87.784621004
  0
LINE
  5
289
100
AcDbEntity
  8
0
100
AcDbLine
 62
7
  6
CONTINUOUS
 10
42.2858300974
 20
86.2117806092
 11
42.2858300974
 21
87.4117806092
  0
LINE
  5
28A
100
AcDbEntity
  8
0
100
AcDbLine
 62
7
  6
CONTINUOUS
 10
42.4858300974
 20
87.4117806092
 11
42.4858300974
 21
87.0117806092
  0
LINE
  5
28B
100
AcDbEntity
  8
0
100
AcDbLine
 62
7
  6
CONTINUOUS
 10
44.3858300974
 20
87.0117806092
 11
44.3858300974
 21
87.4117806092
  0
LINE
  5
28C
100
AcDbEntity
  8
0
100
AcDbLine
 62
7
  6
CONTINUOUS
 10
44.5858300974
 20
87.4117806092
 11
44.5858300974
 21
86.2117806092
  0
LINE
  5
28D
100
AcDbEntity
  8
0
100
AcDbLine
 62
7
  6
CONTINUOUS
 10
44.6858300925
 20
87.784621004
 11
44.6858300925
 21
85.884621004
  0
LINE
  5
28E
100
AcDbEntity
  8
0
100
AcDbLine
 62
7
  6
CONTINUOUS
 10
44.6858300974
 20
108.8517806092
 11
44.6858300974
 21
110.7517806092
  0
LINE
  5
28F
100
AcDbEntity
  8
0
100
AcDbLine
 62
7
  6
CONTINUOUS
 10
46.8978706261
 20
110.4420847429
 11
46.885830075
 21
110.3517806092
  0
LINE
  5
290
100
AcDbEntity
  8
0
100
AcDbLine
 62
7
  6
CONTINUOUS
 10
44.985830075
 20
109.9517806092
 11
44.825830075
 21
109.1517806092
  0
LINE
  5
291
100
AcDbEntity
  8
0
100
AcDbLine
 62
7
  6
CONTINUOUS
 10
39.5818244537
 20
74.912323952
 11
39.7418244537
 21
75.712323952
  0
LINE
  5
292
100
AcDbEntity
  8
0
100
AcDbLine
 62
7
  6
CONTINUOUS
 10
42.4858300974
 20
87.0117806092
 11
42.3258300974
 21
86.2117806092
  0
LINE
  5
293
100
AcDbEntity
  8
0
100
AcDbLine
 62
7
  6
CONTINUOUS
 10
26.6188668194
 20
84.8954117038
 11
26.0603666073
 21
84.3040395957
  0
LINE
  5
294
100
AcDbEntity
  8
0
100
AcDbLine
 62
7
  6
CONTINUOUS
 10
35.3054190614
 20
103.5894697655
 11
35.3842744061
 21
103.6309434724
  0
LINE
  5
295
100
AcDbEntity
  8
0
100
AcDbLine
 62
7
  6
CONTINUOUS
 10
36.8480664185
 20
102.3395196942
 11
37.5954380123
 21
102.6729877967
  0
LINE
  5
296
100
AcDbEntity
  8
0
100
AcDbLine
 62
7
  6
CONTINUOUS
 10
32.5858300925
 20
66.3117806092
 11
35.0858300925
 21
66.3117806092
  0
LINE
  5
297
100
AcDbEntity
  8
0
100
AcDbLine
 62
7
  6
CONTINUOUS
 10
34.9858300974
 20
66.6117806092
 11
32.6858300974
 21
66.6117806092
  0
LINE
  5
298
100
AcDbEntity
  8
0
100
AcDbLine
 62
7
  6
CONTINUOUS
 10
35.0858300925
 20
66.9117806092
 11
34.9858300974
 21
66.9117806092
  0
LINE
  5
299
100
AcDbEntity
  8
0
100
AcDbLine
 62
7
  6
CONTINUOUS
 10
32.6858300974
 20
66.9117806092
 11
32.5858300925
 21
66.9117806092
  0
LINE
  5
29A
100
AcDbEntity
  8
0
100
AcDbLine
 62
7
  6
CONTINUOUS
 10
32.5858300925
 20
67.1117806092
 11
32.6858300974
 21
67.1117806092
  0
LINE
  5
29B
100
AcDbEntity
  8
0
100
AcDbLine
 62
7
  6
CONTINUOUS
 10
34.9858300974
 20
67.1117806092
 11
35.0858300925
 21
67.1117806092
  0
LINE
  5
29C
100
AcDbEntity
  8
0
100
AcDbLine
 62
7
  6
CONTINUOUS
 10
32.8858300974
 20
67.4117806092
 11
34.7858300974
 21
67.4117806092
  0
LINE
  5
29D
100
AcDbEntity
  8
0
100
AcDbLine
 62
7
  6
CONTINUOUS
 10
34.7858300974
 20
67.8117806092
 11
32.8858300974
 21
67.8117806092
  0
LINE
  5
29E
100
AcDbEntity
  8
0
100
AcDbLine
 62
7
  6
CONTINUOUS
 10
32.5858300925
 20
68.2117806092
 11
35.0858300925
 21
68.2117806092
  0
LINE
  5
29F
100
AcDbEntity
  8
0
100
AcDbLine
 62
7
  6
CONTINUOUS
 10
111.682512123
 20
68.2117806092
 11
114.182512123
 21
68.2117806092
  0
LINE
  5
2A0
100
AcDbEntity
  8
0
100
AcDbLine
 62
7
  6
CONTINUOUS
 10
114.0825121278
 20
68.5117806092
 11
111.7825121278
 21
68.5117806092
  0
LINE
  5
2A1
100
AcDbEntity
  8
0
100
AcDbLine
 62
7
  6
CONTINUOUS
 10
114.182512123
 20
68.8117806092
 11
114.0825121278
 21
68.8117806092
  0
LINE
  5
2A2
100
AcDbEntity
  8
0
100
AcDbLine
 62
7
  6
CONTINUOUS
 10
111.7825121278
 20
68.8117806092
 11
111.682512123
 21
68.8117806092
  0
LINE
  5
2A3
100
AcDbEntity
  8
0
100
AcDbLine
 62
7
  6
CONTINUOUS
 10
111.682512123
 20
69.0117806092
 11
111.7825121278
 21
69.0117806092
  0
LINE
  5
2A4
100
AcDbEntity
  8
0
100
AcDbLine
 62
7
  6
CONTINUOUS
 10
114.0825121278
 20
69.0117806092
 11
114.182512123
 21
69.0117806092
  0
LINE
  5
2A5
100
AcDbEntity
  8
0
100
AcDbLine
 62
7
  6
CONTINUOUS
 10
111.9825121278
 20
69.3117806092
 11
113.8825121278
 21
69.3117806092
  0
LINE
  5
2A6
100
AcDbEntity
  8
0
100
AcDbLine
 62
7
  6
CONTINUOUS
 10
113.8825121278
 20
69.7117806092
 11
111.9825121278
 21
69.7117806092
  0
LINE
  5
2A7
100
AcDbEntity
  8
0
100
AcDbLine
 62
7
  6
CONTINUOUS
 10
111.682512123
 20
70.1117806092
 11
114.182512123
 21
70.1117806092
  0
LINE
  5
2A8
100
AcDbEntity
  8
0
100
AcDbLine
 62
7
  6
CONTINUOUS
 10
47.9258300974
 20
55.1117806092
 11
48.0858300974
 21
54.3117806092
  0
LINE
  5
2A9
100
AcDbEntity
  8
0
100
AcDbLine
 62
7
  6
CONTINUOUS
 10
44.5458300974
 20
86.2117806092
 11
44.3858300974
 21
87.0117806092
  0
LINE
  5
2AA
100
AcDbEntity
  8
0
100
AcDbLine
 62
7
  6
CONTINUOUS
 10
42.4858300974
 20
87.4117806092
 11
42.4732668188
 21
87.5060051983
  0
LINE
  5
2AB
100
AcDbEntity
  8
0
100
AcDbLine
 62
7
  6
CONTINUOUS
 10
44.785830075
 20
109.1517806092
 11
44.785830075
 21
110.3517806092
  0
LINE
  5
2AC
100
AcDbEntity
  8
0
100
AcDbLine
 62
7
  6
CONTINUOUS
 10
44.985830075
 20
110.3517806092
 11
44.985830075
 21
109.9517806092
  0
LINE
  5
2AD
100
AcDbEntity
  8
0
100
AcDbLine
 62
7
  6
CONTINUOUS
 10
46.0358300974
 20
125.1588406836
 11
46.0358300974
 21
129.9588406836
  0
LINE
  5
2AE
100
AcDbEntity
  8
0
100
AcDbLine
 62
7
  6
CONTINUOUS
 10
46.885830075
 20
109.9517806092
 11
46.885830075
 21
110.3517806092
  0
LINE
  5
2AF
100
AcDbEntity
  8
0
100
AcDbLine
 62
7
  6
CONTINUOUS
 10
46.9858300925
 20
93.6844758324
 11
46.9858300925
 21
95.5844758324
  0
LINE
  5
2B0
100
AcDbEntity
  8
0
100
AcDbLine
 62
7
  6
CONTINUOUS
 10
47.085830075
 20
110.3517806092
 11
47.085830075
 21
109.1517806092
  0
LINE
  5
2B1
100
AcDbEntity
  8
0
100
AcDbLine
 62
7
  6
CONTINUOUS
 10
47.0864448558
 20
94.0851643467
 11
47.0864448558
 21
95.2851643467
  0
LINE
  5
2B2
100
AcDbEntity
  8
0
100
AcDbLine
 62
7
  6
CONTINUOUS
 10
47.1858300974
 20
110.7517806092
 11
47.1858300974
 21
108.8517806092
  0
LINE
  5
2B3
100
AcDbEntity
  8
0
100
AcDbLine
 62
7
  6
CONTINUOUS
 10
47.1858300974
 20
111.2517806092
 11
47.1858300974
 21
124.8117806092
  0
LINE
  5
2B4
100
AcDbEntity
  8
0
100
AcDbLine
 62
7
  6
CONTINUOUS
 10
47.2864448558
 20
94.4851643467
 11
47.2864448558
 21
94.0851643467
  0
LINE
  5
2B5
100
AcDbEntity
  8
0
100
AcDbLine
 62
7
  6
CONTINUOUS
 10
47.5358300974
 20
128.1588406836
 11
47.5358300974
 21
126.7753397304
  0
LINE
  5
2B6
100
AcDbEntity
  8
0
100
AcDbLine
 62
7
  6
CONTINUOUS
 10
47.5858300974
 20
112.291700176
 11
47.5858300974
 21
114.791700176
  0
LINE
  5
2B7
100
AcDbEntity
  8
0
100
AcDbLine
 62
7
  6
CONTINUOUS
 10
47.7858300925
 20
53.5117806092
 11
47.7858300925
 21
55.4117806092
  0
LINE
  5
2B8
100
AcDbEntity
  8
0
100
AcDbLine
 62
7
  6
CONTINUOUS
 10
47.8858300974
 20
53.9117806092
 11
47.8858300974
 21
55.1117806092
  0
LINE
  5
2B9
100
AcDbEntity
  8
0
100
AcDbLine
 62
7
  6
CONTINUOUS
 10
47.9858300974
 20
125.300653159
 11
47.9858300974
 21
124.751700176
  0
LINE
  5
2BA
100
AcDbEntity
  8
0
100
AcDbLine
 62
7
  6
CONTINUOUS
 10
47.9858300974
 20
114.5117806092
 11
47.9858300974
 21
112.6117806092
  0
LINE
  5
2BB
100
AcDbEntity
  8
0
100
AcDbLine
 62
7
  6
CONTINUOUS
 10
48.0858300974
 20
54.3117806092
 11
48.0858300974
 21
53.9117806092
  0
LINE
  5
2BC
100
AcDbEntity
  8
0
100
AcDbLine
 62
7
  6
CONTINUOUS
 10
48.3858300974
 20
112.6117806092
 11
48.3858300974
 21
114.5117806092
  0
LINE
  5
2BD
100
AcDbEntity
  8
0
100
AcDbLine
 62
7
  6
CONTINUOUS
 10
48.6858300974
 20
112.291700176
 11
48.6858300974
 21
112.4117806092
  0
LINE
  5
2BE
100
AcDbEntity
  8
0
100
AcDbLine
 62
7
  6
CONTINUOUS
 10
48.6858300974
 20
114.7117806092
 11
48.6858300974
 21
114.791700176
  0
LINE
  5
2BF
100
AcDbEntity
  8
0
100
AcDbLine
 62
7
  6
CONTINUOUS
 10
48.8858300974
 20
114.791700176
 11
48.8858300974
 21
114.7117806092
  0
LINE
  5
2C0
100
AcDbEntity
  8
0
100
AcDbLine
 62
7
  6
CONTINUOUS
 10
48.8858300974
 20
112.4117806092
 11
48.8858300974
 21
112.291700176
  0
LINE
  5
2C1
100
AcDbEntity
  8
0
100
AcDbLine
 62
7
  6
CONTINUOUS
 10
44.3983933759
 20
87.5060051983
 11
44.3858300974
 21
87.4117806092
  0
LINE
  5
2C2
100
AcDbEntity
  8
0
100
AcDbLine
 62
7
  6
CONTINUOUS
 10
47.2738819391
 20
93.9909424717
 11
47.2864448558
 21
94.0851643467
  0
LINE
  5
2C3
100
AcDbEntity
  8
0
100
AcDbLine
 62
7
  6
CONTINUOUS
 10
49.1864448558
 20
94.4851643467
 11
49.3464448558
 21
95.2851643467
  0
LINE
  5
2C4
100
AcDbEntity
  8
0
100
AcDbLine
 62
7
  6
CONTINUOUS
 10
55.894813461
 20
126.2089270392
 11
55.6358300974
 21
125.4535189127
  0
LINE
  5
2C5
100
AcDbEntity
  8
0
100
AcDbLine
 62
7
  6
CONTINUOUS
 10
56.0142105823
 20
125.3237953271
 11
56.2799626681
 21
126.0989466051
  0
LINE
  5
2C6
100
AcDbEntity
  8
0
100
AcDbLine
 62
7
  6
CONTINUOUS
 10
38.6112096904
 20
71.9182836677
 11
37.3457351601
 21
68.4414209707
  0
LINE
  5
2C7
100
AcDbEntity
  8
0
100
AcDbLine
 62
7
  6
CONTINUOUS
 10
17.0662176491
 20
65.2773325541
 11
16.5076062726
 21
64.6860600058
  0
LINE
  5
2C8
100
AcDbEntity
  8
0
100
AcDbLine
 62
7
  6
CONTINUOUS
 10
26.8578978836
 20
82.5407367293
 11
26.791597657
 21
82.4791357567
  0
LINE
  5
2C9
100
AcDbEntity
  8
0
100
AcDbLine
 62
7
  6
CONTINUOUS
 10
26.2719687774
 20
84.8242300826
 11
26.7559832194
 21
85.1788143739
  0
LINE
  5
2CA
100
AcDbEntity
  8
0
100
AcDbLine
 62
7
  6
CONTINUOUS
 10
33.8805622172
 20
92.051830582
 11
23.7531379492
 21
84.8782383922
  0
LINE
  5
2CB
100
AcDbEntity
  8
0
100
AcDbLine
 62
7
  6
CONTINUOUS
 10
25.2110016843
 20
84.0727117249
 11
26.2719687774
 21
84.8242300826
  0
LINE
  5
2CC
100
AcDbEntity
  8
0
100
AcDbLine
 62
7
  6
CONTINUOUS
 10
25.6307725907
 20
84.2449815313
 11
26.5952297037
 21
84.9276871282
  0
LINE
  5
2CD
100
AcDbEntity
  8
0
100
AcDbLine
 62
7
  6
CONTINUOUS
 10
26.0603666073
 20
84.3040395957
 11
25.7476416662
 21
84.0826725025
  0
LINE
  5
2CE
100
AcDbEntity
  8
0
100
AcDbLine
 62
7
  6
CONTINUOUS
 10
35.4636616429
 20
69.1180296285
 11
34.0193788964
 21
68.9071911986
  0
LINE
  5
2CF
100
AcDbEntity
  8
0
100
AcDbLine
 62
7
  6
CONTINUOUS
 10
111.910349957
 20
70.7117806092
 11
114.2549315216
 21
70.7117806092
  0
LINE
  5
2D0
100
AcDbEntity
  8
0
100
AcDbLine
 62
7
  6
CONTINUOUS
 10
103.5858300971
 20
74.1116354376
 11
101.0858300971
 21
74.1116354376
  0
LINE
  5
2D1
100
AcDbEntity
  8
0
100
AcDbLine
 62
7
  6
CONTINUOUS
 10
39.885830088
 20
74.1116354376
 11
37.385830088
 21
74.1116354376
  0
LINE
  5
2D2
100
AcDbEntity
  8
0
100
AcDbLine
 62
7
  6
CONTINUOUS
 10
37.6818244537
 20
74.512323952
 11
39.5818244537
 21
74.512323952
  0
LINE
  5
2D3
100
AcDbEntity
  8
0
100
AcDbLine
 62
7
  6
CONTINUOUS
 10
101.389835741
 20
74.512323952
 11
103.289835741
 21
74.512323952
  0
LINE
  5
2D4
100
AcDbEntity
  8
0
100
AcDbLine
 62
7
  6
CONTINUOUS
 10
33.4258300974
 20
104.4517806092
 11
40.2258300974
 21
95.1696485848
  0
LINE
  5
2D5
100
AcDbEntity
  8
0
100
AcDbLine
 62
7
  6
CONTINUOUS
 10
36.361316769
 20
101.629269945
 11
34.8836938324
 21
103.646253942
  0
LINE
  5
2D6
100
AcDbEntity
  8
0
100
AcDbLine
 62
7
  6
CONTINUOUS
 10
35.3842744061
 20
103.6309434724
 11
36.5069835062
 21
102.0978399026
  0
LINE
  5
2D7
100
AcDbEntity
  8
0
100
AcDbLine
 62
7
  6
CONTINUOUS
 10
36.8480664185
 20
102.3395196942
 11
35.7253573185
 21
103.8726232641
  0
LINE
  5
2D8
100
AcDbEntity
  8
0
100
AcDbLine
 62
7
  6
CONTINUOUS
 10
47.1264448558
 20
95.2851643467
 11
47.2864448558
 21
94.4851643467
  0
LINE
  5
2D9
100
AcDbEntity
  8
0
100
AcDbLine
 62
7
  6
CONTINUOUS
 10
49.9858300974
 20
53.9117806092
 11
49.998393014
 21
53.8175587342
  0
LINE
  5
2DA
100
AcDbEntity
  8
0
100
AcDbLine
 62
7
  6
CONTINUOUS
 10
44.985830075
 20
110.3517806092
 11
44.9737895238
 21
110.4420847429
  0
LINE
  5
2DB
100
AcDbEntity
  8
0
100
AcDbLine
 62
7
  6
CONTINUOUS
 10
49.1858300974
 20
114.7117806092
 11
49.1858300974
 21
112.4117806092
  0
LINE
  5
2DC
100
AcDbEntity
  8
0
100
AcDbLine
 62
7
  6
CONTINUOUS
 10
49.1864448558
 20
94.0851643467
 11
49.1864448558
 21
94.4851643467
  0
LINE
  5
2DD
100
AcDbEntity
  8
0
100
AcDbLine
 62
7
  6
CONTINUOUS
 10
49.3864448558
 20
95.2851643467
 11
49.3864448558
 21
94.0851643467
  0
LINE
  5
2DE
100
AcDbEntity
  8
0
100
AcDbLine
 62
7
  6
CONTINUOUS
 10
49.4858300925
 20
95.5844758324
 11
49.4858300925
 21
93.6844758324
  0
LINE
  5
2DF
100
AcDbEntity
  8
0
100
AcDbLine
 62
7
  6
CONTINUOUS
 10
49.4858300974
 20
112.291700176
 11
49.4858300974
 21
114.791700176
  0
LINE
  5
2E0
100
AcDbEntity
  8
0
100
AcDbLine
 62
7
  6
CONTINUOUS
 10
49.8358300974
 20
114.4657158159
 11
49.8358300974
 21
114.738821054
  0
LINE
  5
2E1
100
AcDbEntity
  8
0
100
AcDbLine
 62
7
  6
CONTINUOUS
 10
49.9858300974
 20
53.9117806092
 11
49.9858300974
 21
54.3117806092
  0
LINE
  5
2E2
100
AcDbEntity
  8
0
100
AcDbLine
 62
7
  6
CONTINUOUS
 10
50.1858300925
 20
58.2117806092
 11
50.1858300925
 21
56.9617806092
  0
LINE
  5
2E3
100
AcDbEntity
  8
0
100
AcDbLine
 62
7
  6
CONTINUOUS
 10
50.1858300974
 20
55.1117806092
 11
50.1858300974
 21
53.9117806092
  0
LINE
  5
2E4
100
AcDbEntity
  8
0
100
AcDbLine
 62
7
  6
CONTINUOUS
 10
50.2858300925
 20
55.4117806092
 11
50.2858300925
 21
53.5117806092
  0
LINE
  5
2E5
100
AcDbEntity
  8
0
100
AcDbLine
 62
7
  6
CONTINUOUS
 10
52.2358300925
 20
124.391700176
 11
52.2358300925
 21
122.391700176
  0
LINE
  5
2E6
100
AcDbEntity
  8
0
100
AcDbLine
 62
7
  6
CONTINUOUS
 10
52.3858300925
 20
56.1617806092
 11
52.3858300925
 21
54.0117806092
  0
LINE
  5
2E7
100
AcDbEntity
  8
0
100
AcDbLine
 62
7
  6
CONTINUOUS
 10
52.4858300974
 20
122.5117806092
 11
52.4858300974
 21
124.3117806092
  0
LINE
  5
2E8
100
AcDbEntity
  8
0
100
AcDbLine
 62
7
  6
CONTINUOUS
 10
52.7858300925
 20
122.391700176
 11
52.7858300949
 21
122.5117806092
  0
LINE
  5
2E9
100
AcDbEntity
  8
0
100
AcDbLine
 62
7
  6
CONTINUOUS
 10
52.7858300949
 20
124.3117806092
 11
52.7858300925
 21
124.391700176
  0
LINE
  5
2EA
100
AcDbEntity
  8
0
100
AcDbLine
 62
7
  6
CONTINUOUS
 10
53.0858300974
 20
124.1117806092
 11
53.0858300974
 21
122.7117806092
  0
LINE
  5
2EB
100
AcDbEntity
  8
0
100
AcDbLine
 62
7
  6
CONTINUOUS
 10
48.0732671807
 20
53.8175587342
 11
48.0858300974
 21
53.9117806092
  0
LINE
  5
2EC
100
AcDbEntity
  8
0
100
AcDbLine
 62
7
  6
CONTINUOUS
 10
48.2858300925
 20
91.4911240576
 11
47.0203555622
 21
88.0142613607
  0
LINE
  5
2ED
100
AcDbEntity
  8
0
100
AcDbLine
 62
7
  6
CONTINUOUS
 10
28.233606156
 20
83.1618303769
 11
27.7495917138
 21
82.8072460855
  0
LINE
  5
2EE
100
AcDbEntity
  8
0
100
AcDbLine
 62
7
  6
CONTINUOUS
 10
27.7495917138
 20
82.8072460855
 11
26.6886246208
 21
82.055727728
  0
LINE
  5
2EF
100
AcDbEntity
  8
0
100
AcDbLine
 62
7
  6
CONTINUOUS
 10
26.8578978836
 20
82.5407367293
 11
27.183129605
 21
82.7709569365
  0
LINE
  5
2F0
100
AcDbEntity
  8
0
100
AcDbLine
 62
7
  6
CONTINUOUS
 10
26.9747669591
 20
82.3784277005
 11
27.9543638587
 21
83.0718502249
  0
LINE
  5
2F1
100
AcDbEntity
  8
0
100
AcDbLine
 62
7
  6
CONTINUOUS
 10
103.289835741
 20
74.912323952
 11
101.389835741
 21
74.912323952
  0
LINE
  5
2F2
100
AcDbEntity
  8
0
100
AcDbLine
 62
7
  6
CONTINUOUS
 10
39.5818244537
 20
74.912323952
 11
37.6818244537
 21
74.912323952
  0
LINE
  5
2F3
100
AcDbEntity
  8
0
100
AcDbLine
 62
7
  6
CONTINUOUS
 10
103.5858300971
 20
75.212323952
 11
103.489835741
 21
75.212323952
  0
LINE
  5
2F4
100
AcDbEntity
  8
0
100
AcDbLine
 62
7
  6
CONTINUOUS
 10
101.189835741
 20
75.212323952
 11
101.0858300971
 21
75.212323952
  0
LINE
  5
2F5
100
AcDbEntity
  8
0
100
AcDbLine
 62
7
  6
CONTINUOUS
 10
39.885830088
 20
75.212323952
 11
39.7818244537
 21
75.212323952
  0
LINE
  5
2F6
100
AcDbEntity
  8
0
100
AcDbLine
 62
7
  6
CONTINUOUS
 10
37.4818244537
 20
75.212323952
 11
37.385830088
 21
75.212323952
  0
LINE
  5
2F7
100
AcDbEntity
  8
0
100
AcDbLine
 62
7
  6
CONTINUOUS
 10
37.385830088
 20
75.4116354376
 11
37.4818244537
 21
75.4116354376
  0
LINE
  5
2F8
100
AcDbEntity
  8
0
100
AcDbLine
 62
7
  6
CONTINUOUS
 10
39.7818244537
 20
75.4116354376
 11
39.885830088
 21
75.4116354376
  0
LINE
  5
2F9
100
AcDbEntity
  8
0
100
AcDbLine
 62
7
  6
CONTINUOUS
 10
101.0858300971
 20
75.4116354376
 11
101.189835741
 21
75.4116354376
  0
LINE
  5
2FA
100
AcDbEntity
  8
0
100
AcDbLine
 62
7
  6
CONTINUOUS
 10
103.489835741
 20
75.4116354376
 11
103.5858300971
 21
75.4116354376
  0
LINE
  5
2FB
100
AcDbEntity
  8
0
100
AcDbLine
 62
7
  6
CONTINUOUS
 10
37.4818244537
 20
75.712323952
 11
39.7818244537
 21
75.712323952
  0
LINE
  5
2FC
100
AcDbEntity
  8
0
100
AcDbLine
 62
7
  6
CONTINUOUS
 10
101.189835741
 20
75.712323952
 11
103.489835741
 21
75.712323952
  0
LINE
  5
2FD
100
AcDbEntity
  8
0
100
AcDbLine
 62
7
  6
CONTINUOUS
 10
103.5858300971
 20
76.0116354376
 11
101.0858300971
 21
76.0116354376
  0
LINE
  5
2FE
100
AcDbEntity
  8
0
100
AcDbLine
 62
7
  6
CONTINUOUS
 10
39.885830088
 20
76.0116354376
 11
37.385830088
 21
76.0116354376
  0
LINE
  5
2FF
100
AcDbEntity
  8
0
100
AcDbLine
 62
7
  6
CONTINUOUS
 10
106.9522812887
 20
68.9071911986
 11
105.5079985422
 21
69.1180296285
  0
LINE
  5
300
100
AcDbEntity
  8
0
100
AcDbLine
 62
7
  6
CONTINUOUS
 10
45.3302804153
 20
93.3117806068
 11
46.406444851
 21
92.1751643443
  0
LINE
  5
301
100
AcDbEntity
  8
0
100
AcDbLine
 62
7
  6
CONTINUOUS
 10
35.9446609254
 20
104.3977722995
 11
36.0076927774
 21
104.3117325977
  0
LINE
  5
302
100
AcDbEntity
  8
0
100
AcDbLine
 62
7
  6
CONTINUOUS
 10
37.3641792838
 20
102.4601021798
 11
37.422283862
 21
102.3807883025
  0
LINE
  5
303
100
AcDbEntity
  8
0
100
AcDbLine
 62
7
  6
CONTINUOUS
 10
36.4286753676
 20
104.7523565909
 11
37.9062983042
 21
102.7353725939
  0
LINE
  5
304
100
AcDbEntity
  8
0
100
AcDbLine
 62
7
  6
CONTINUOUS
 10
37.2691295212
 20
102.2723039778
 11
37.2110566999
 21
102.3516047065
  0
LINE
  5
305
100
AcDbEntity
  8
0
100
AcDbLine
 62
7
  6
CONTINUOUS
 10
37.6190739934
 20
102.6407119321
 11
36.2600050827
 21
104.4965741482
  0
LINE
  5
306
100
AcDbEntity
  8
0
100
AcDbLine
 62
7
  6
CONTINUOUS
 10
47.045830075
 20
109.1517806092
 11
46.885830075
 21
109.9517806092
  0
LINE
  5
307
100
AcDbEntity
  8
0
100
AcDbLine
 62
7
  6
CONTINUOUS
 10
49.1864448558
 20
94.0851643467
 11
49.1990077724
 21
93.9909424717
  0
LINE
  5
308
100
AcDbEntity
  8
0
100
AcDbLine
 62
7
  6
CONTINUOUS
 10
53.4858300974
 20
122.7117806092
 11
53.4858300974
 21
124.1117806092
  0
LINE
  5
309
100
AcDbEntity
  8
0
100
AcDbLine
 62
7
  6
CONTINUOUS
 10
53.8358300974
 20
126.8269813589
 11
53.8358300974
 21
128.1588406836
  0
LINE
  5
30A
100
AcDbEntity
  8
0
100
AcDbLine
 62
7
  6
CONTINUOUS
 10
53.8858300925
 20
124.391700176
 11
53.8858300925
 21
122.391700176
  0
LINE
  5
30B
100
AcDbEntity
  8
0
100
AcDbLine
 62
7
  6
CONTINUOUS
 10
55.3358300974
 20
128.8588406836
 11
55.3358300974
 21
125.7104625465
  0
LINE
  5
30C
100
AcDbEntity
  8
0
100
AcDbLine
 62
7
  6
CONTINUOUS
 10
55.6858300974
 20
109.7117806092
 11
55.6858300974
 21
125.3117806092
  0
LINE
  5
30D
100
AcDbEntity
  8
0
100
AcDbLine
 62
7
  6
CONTINUOUS
 10
55.9358300974
 20
130.1588406836
 11
55.9358300974
 21
130.6588406836
  0
LINE
  5
30E
100
AcDbEntity
  8
0
100
AcDbLine
 62
7
  6
CONTINUOUS
 10
56.7358300974
 20
130.1588406836
 11
56.7358300974
 21
129.8588406836
  0
LINE
  5
30F
100
AcDbEntity
  8
0
100
AcDbLine
 62
7
  6
CONTINUOUS
 10
49.9858300974
 20
54.3117806092
 11
50.1458300974
 21
55.1117806092
  0
LINE
  5
310
100
AcDbEntity
  8
0
100
AcDbLine
 62
7
  6
CONTINUOUS
 10
17.3034806723
 20
62.9216669061
 11
17.2370130116
 21
62.8599170997
  0
LINE
  5
311
100
AcDbEntity
  8
0
100
AcDbLine
 62
7
  6
CONTINUOUS
 10
24.3273559981
 20
72.433406804
 11
14.2138352916
 21
65.2696629703
  0
LINE
  5
312
100
AcDbEntity
  8
0
100
AcDbLine
 62
7
  6
CONTINUOUS
 10
25.6678676578
 20
84.0407777597
 11
25.7476416662
 21
84.0826725025
  0
LINE
  5
313
100
AcDbEntity
  8
0
100
AcDbLine
 62
7
  6
CONTINUOUS
 10
43.5859776844
 20
88.5193482408
 11
33.8805622172
 21
92.051830582
  0
LINE
  5
314
100
AcDbEntity
  8
0
100
AcDbLine
 62
7
  6
CONTINUOUS
 10
47.0203555622
 20
88.0142613607
 11
45.1409703206
 21
88.6983016474
  0
LINE
  5
315
100
AcDbEntity
  8
0
100
AcDbLine
 62
7
  6
CONTINUOUS
 10
16.7326047128
 20
65.215611164
 11
17.2166191554
 21
65.5701954558
  0
LINE
  5
316
100
AcDbEntity
  8
0
100
AcDbLine
 62
7
  6
CONTINUOUS
 10
18.7001388787
 20
63.5451622303
 11
18.2161244366
 21
63.1905779389
  0
LINE
  5
317
100
AcDbEntity
  8
0
100
AcDbLine
 62
7
  6
CONTINUOUS
 10
15.6716990266
 20
64.464136303
 11
16.7326047128
 21
65.215611164
  0
LINE
  5
318
100
AcDbEntity
  8
0
100
AcDbLine
 62
7
  6
CONTINUOUS
 10
18.2161244366
 20
63.1905779389
 11
17.15521875
 21
62.4391030776
  0
LINE
  5
319
100
AcDbEntity
  8
0
100
AcDbLine
 62
7
  6
CONTINUOUS
 10
16.0628882631
 20
64.6163863203
 11
17.0425873175
 21
65.3096129239
  0
LINE
  5
31A
100
AcDbEntity
  8
0
100
AcDbLine
 62
7
  6
CONTINUOUS
 10
16.5076062726
 20
64.6860600058
 11
16.1810399211
 21
64.4549844713
  0
LINE
  5
31B
100
AcDbEntity
  8
0
100
AcDbLine
 62
7
  6
CONTINUOUS
 10
17.3034806723
 20
62.9216669061
 11
17.6300470237
 21
63.1527424406
  0
LINE
  5
31C
100
AcDbEntity
  8
0
100
AcDbLine
 62
7
  6
CONTINUOUS
 10
17.4216323303
 20
62.7602650571
 11
18.4013313847
 21
63.4534916607
  0
LINE
  5
31D
100
AcDbEntity
  8
0
100
AcDbLine
 62
7
  6
CONTINUOUS
 10
27.1831296049
 20
82.7709569365
 11
27.930726743
 21
83.1041256493
  0
LINE
  5
31E
100
AcDbEntity
  8
0
100
AcDbLine
 62
7
  6
CONTINUOUS
 10
42.1858300925
 20
85.884621004
 11
44.6858300925
 21
85.884621004
  0
LINE
  5
31F
100
AcDbEntity
  8
0
100
AcDbLine
 62
7
  6
CONTINUOUS
 10
96.2858300925
 20
85.884621004
 11
98.7858300925
 21
85.884621004
  0
LINE
  5
320
100
AcDbEntity
  8
0
100
AcDbLine
 62
7
  6
CONTINUOUS
 10
98.6858300974
 20
86.2117806092
 11
96.3858300974
 21
86.2117806092
  0
LINE
  5
321
100
AcDbEntity
  8
0
100
AcDbLine
 62
7
  6
CONTINUOUS
 10
44.5858300974
 20
86.2117806092
 11
42.2858300974
 21
86.2117806092
  0
LINE
  5
322
100
AcDbEntity
  8
0
100
AcDbLine
 62
7
  6
CONTINUOUS
 10
98.7858300925
 20
86.484621004
 11
98.6858300974
 21
86.484621004
  0
LINE
  5
323
100
AcDbEntity
  8
0
100
AcDbLine
 62
7
  6
CONTINUOUS
 10
96.3858300974
 20
86.484621004
 11
96.2858300925
 21
86.484621004
  0
LINE
  5
324
100
AcDbEntity
  8
0
100
AcDbLine
 62
7
  6
CONTINUOUS
 10
44.6858300925
 20
86.484621004
 11
44.5858300974
 21
86.484621004
  0
LINE
  5
325
100
AcDbEntity
  8
0
100
AcDbLine
 62
7
  6
CONTINUOUS
 10
42.2858300974
 20
86.484621004
 11
42.1858300925
 21
86.484621004
  0
LINE
  5
326
100
AcDbEntity
  8
0
100
AcDbLine
 62
7
  6
CONTINUOUS
 10
42.1858300925
 20
86.7117806092
 11
42.2858300974
 21
86.7117806092
  0
LINE
  5
327
100
AcDbEntity
  8
0
100
AcDbLine
 62
7
  6
CONTINUOUS
 10
44.5858300974
 20
86.7117806092
 11
44.6858300925
 21
86.7117806092
  0
LINE
  5
328
100
AcDbEntity
  8
0
100
AcDbLine
 62
7
  6
CONTINUOUS
 10
96.2858300925
 20
86.7117806092
 11
96.3858300974
 21
86.7117806092
  0
LINE
  5
329
100
AcDbEntity
  8
0
100
AcDbLine
 62
7
  6
CONTINUOUS
 10
98.6858300974
 20
86.7117806092
 11
98.7858300925
 21
86.7117806092
  0
LINE
  5
32A
100
AcDbEntity
  8
0
100
AcDbLine
 62
7
  6
CONTINUOUS
 10
42.4858300974
 20
87.0117806092
 11
44.3858300974
 21
87.0117806092
  0
LINE
  5
32B
100
AcDbEntity
  8
0
100
AcDbLine
 62
7
  6
CONTINUOUS
 10
96.5858300974
 20
87.0117806092
 11
98.4858300974
 21
87.0117806092
  0
LINE
  5
32C
100
AcDbEntity
  8
0
100
AcDbLine
 62
7
  6
CONTINUOUS
 10
98.4858300974
 20
87.4117806092
 11
96.5858300974
 21
87.4117806092
  0
LINE
  5
32D
100
AcDbEntity
  8
0
100
AcDbLine
 62
7
  6
CONTINUOUS
 10
44.3858300974
 20
87.4117806092
 11
42.4858300974
 21
87.4117806092
  0
LINE
  5
32E
100
AcDbEntity
  8
0
100
AcDbLine
 62
7
  6
CONTINUOUS
 10
46.406444851
 20
92.1751643443
 11
48.2858300925
 21
91.4911240576
  0
LINE
  5
32F
100
AcDbEntity
  8
0
100
AcDbLine
 62
7
  6
CONTINUOUS
 10
40.2258300974
 20
95.1696485848
 11
45.3302804153
 21
93.3117806068
  0
LINE
  5
330
100
AcDbEntity
  8
0
100
AcDbLine
 62
7
  6
CONTINUOUS
 10
45.1409703206
 20
88.6983016474
 11
43.5859776844
 21
88.5193482408
  0
LINE
  5
331
100
AcDbEntity
  8
0
100
AcDbLine
 62
7
  6
CONTINUOUS
 10
42.1858300925
 20
87.784621004
 11
44.6858300925
 21
87.784621004
  0
LINE
  5
332
100
AcDbEntity
  8
0
100
AcDbLine
 62
7
  6
CONTINUOUS
 10
96.2858300925
 20
87.784621004
 11
98.7858300925
 21
87.784621004
  0
LINE
  5
333
100
AcDbEntity
  8
0
100
AcDbLine
 62
7
  6
CONTINUOUS
 10
73.2858300974
 20
108.2117806092
 11
73.1258300974
 21
107.4117806092
  0
LINE
  5
334
100
AcDbEntity
  8
0
100
AcDbLine
 62
7
  6
CONTINUOUS
 10
16.1014152192
 20
64.4131711682
 11
16.1810399211
 21
64.4549844713
  0
LINE
  5
335
100
AcDbEntity
  8
0
100
AcDbLine
 62
7
  6
CONTINUOUS
 10
93.9858300925
 20
93.6844758324
 11
91.4858300925
 21
93.6844758324
  0
LINE
  5
336
100
AcDbEntity
  8
0
100
AcDbLine
 62
7
  6
CONTINUOUS
 10
49.4858300925
 20
93.6844758324
 11
46.9858300925
 21
93.6844758324
  0
LINE
  5
337
100
AcDbEntity
  8
0
100
AcDbLine
 62
7
  6
CONTINUOUS
 10
47.2864448558
 20
94.0851643467
 11
49.1864448558
 21
94.0851643467
  0
LINE
  5
338
100
AcDbEntity
  8
0
100
AcDbLine
 62
7
  6
CONTINUOUS
 10
91.7852153389
 20
94.0851643467
 11
93.6852153389
 21
94.0851643467
  0
LINE
  5
339
100
AcDbEntity
  8
0
100
AcDbLine
 62
7
  6
CONTINUOUS
 10
93.6852153389
 20
94.4851643467
 11
91.7852153389
 21
94.4851643467
  0
LINE
  5
33A
100
AcDbEntity
  8
0
100
AcDbLine
 62
7
  6
CONTINUOUS
 10
49.1864448558
 20
94.4851643467
 11
47.2864448558
 21
94.4851643467
  0
LINE
  5
33B
100
AcDbEntity
  8
0
100
AcDbLine
 62
7
  6
CONTINUOUS
 10
93.9858300925
 20
94.7851643467
 11
93.8852153389
 21
94.7851643467
  0
LINE
  5
33C
100
AcDbEntity
  8
0
100
AcDbLine
 62
7
  6
CONTINUOUS
 10
91.5852133396
 20
94.7851643467
 11
91.4858300925
 21
94.7851643467
  0
LINE
  5
33D
100
AcDbEntity
  8
0
100
AcDbLine
 62
7
  6
CONTINUOUS
 10
49.4858300925
 20
94.7851643467
 11
49.3864448558
 21
94.7851643467
  0
LINE
  5
33E
100
AcDbEntity
  8
0
100
AcDbLine
 62
7
  6
CONTINUOUS
 10
47.0864448558
 20
94.7851643467
 11
46.9858300925
 21
94.7851643467
  0
LINE
  5
33F
100
AcDbEntity
  8
0
100
AcDbLine
 62
7
  6
CONTINUOUS
 10
46.9858300925
 20
94.9844758324
 11
47.0864448558
 21
94.9844758324
  0
LINE
  5
340
100
AcDbEntity
  8
0
100
AcDbLine
 62
7
  6
CONTINUOUS
 10
49.3864448558
 20
94.9844758324
 11
49.4858300925
 21
94.9844758324
  0
LINE
  5
341
100
AcDbEntity
  8
0
100
AcDbLine
 62
7
  6
CONTINUOUS
 10
91.4858300925
 20
94.9844758324
 11
91.5852153389
 21
94.9844758324
  0
LINE
  5
342
100
AcDbEntity
  8
0
100
AcDbLine
 62
7
  6
CONTINUOUS
 10
93.8852153389
 20
94.9844758324
 11
93.9858300925
 21
94.9844758324
  0
LINE
  5
343
100
AcDbEntity
  8
0
100
AcDbLine
 62
7
  6
CONTINUOUS
 10
47.0864448558
 20
95.2851643467
 11
49.3864448558
 21
95.2851643467
  0
LINE
  5
344
100
AcDbEntity
  8
0
100
AcDbLine
 62
7
  6
CONTINUOUS
 10
91.5852153215
 20
95.2851643467
 11
93.8852153389
 21
95.2851643467
  0
LINE
  5
345
100
AcDbEntity
  8
0
100
AcDbLine
 62
7
  6
CONTINUOUS
 10
93.9858300925
 20
95.5844758324
 11
91.4858300925
 21
95.5844758324
  0
LINE
  5
346
100
AcDbEntity
  8
0
100
AcDbLine
 62
7
  6
CONTINUOUS
 10
49.4858300925
 20
95.5844758324
 11
46.9858300925
 21
95.5844758324
  0
LINE
  5
347
100
AcDbEntity
  8
0
100
AcDbLine
 62
7
  6
CONTINUOUS
 10
97.3856825007
 20
88.5193482408
 11
95.8306898644
 21
88.6983016474
  0
LINE
  5
348
100
AcDbEntity
  8
0
100
AcDbLine
 62
7
  6
CONTINUOUS
 10
48.0996680077
 20
128.3086877959
 11
47.0358300974
 21
130.1588406836
  0
LINE
  5
349
100
AcDbEntity
  8
0
100
AcDbLine
 62
7
  6
CONTINUOUS
 10
84.0858300925
 20
55.8606374312
 11
85.7024303115
 21
52.5707621967
  0
LINE
  5
34A
100
AcDbEntity
  8
0
100
AcDbLine
 62
7
  6
CONTINUOUS
 10
72.9858300974
 20
107.1117806092
 11
72.9858300974
 21
109.0117806092
  0
LINE
  5
34B
100
AcDbEntity
  8
0
100
AcDbLine
 62
7
  6
CONTINUOUS
 10
73.0858300974
 20
107.4117806092
 11
73.0858300974
 21
108.6117806092
  0
LINE
  5
34C
100
AcDbEntity
  8
0
100
AcDbLine
 62
7
  6
CONTINUOUS
 10
73.2858300974
 20
108.6117806092
 11
73.2858300974
 21
108.2117806092
  0
LINE
  5
34D
100
AcDbEntity
  8
0
100
AcDbLine
 62
7
  6
CONTINUOUS
 10
75.1983930379
 20
108.7060026633
 11
75.1858300974
 21
108.6117806092
  0
LINE
  5
34E
100
AcDbEntity
  8
0
100
AcDbLine
 62
7
  6
CONTINUOUS
 10
17.6300470237
 20
63.1527424406
 11
18.3777010531
 21
63.4857720305
  0
LINE
  5
34F
100
AcDbEntity
  8
0
100
AcDbLine
 62
7
  6
CONTINUOUS
 10
95.6413797697
 20
93.3117806068
 11
100.7458300877
 21
95.1696485848
  0
LINE
  5
350
100
AcDbEntity
  8
0
100
AcDbLine
 62
7
  6
CONTINUOUS
 10
92.6858300925
 20
91.4911240576
 11
94.5652153341
 21
92.1751643443
  0
LINE
  5
351
100
AcDbEntity
  8
0
100
AcDbLine
 62
7
  6
CONTINUOUS
 10
79.2758300974
 20
61.3117806092
 11
79.4358300974
 21
60.5117806092
  0
LINE
  5
352
100
AcDbEntity
  8
0
100
AcDbLine
 62
7
  6
CONTINUOUS
 10
75.1858300974
 20
108.2117806092
 11
75.1858300974
 21
108.6117806092
  0
LINE
  5
353
100
AcDbEntity
  8
0
100
AcDbLine
 62
7
  6
CONTINUOUS
 10
75.3858300974
 20
108.6117806092
 11
75.3858300974
 21
107.4117806092
  0
LINE
  5
354
100
AcDbEntity
  8
0
100
AcDbLine
 62
7
  6
CONTINUOUS
 10
75.4858300971
 20
109.0117806092
 11
75.4858300967
 21
107.1117806092
  0
LINE
  5
355
100
AcDbEntity
  8
0
100
AcDbLine
 62
7
  6
CONTINUOUS
 10
78.8858300925
 20
61.6117806092
 11
78.8858300925
 21
59.7117806092
  0
LINE
  5
356
100
AcDbEntity
  8
0
100
AcDbLine
 62
7
  6
CONTINUOUS
 10
79.2358300974
 20
60.1117806092
 11
79.2358300974
 21
61.3117806092
  0
LINE
  5
357
100
AcDbEntity
  8
0
100
AcDbLine
 62
7
  6
CONTINUOUS
 10
95.8306898644
 20
88.6983016474
 11
93.9513046228
 21
88.0142613607
  0
LINE
  5
358
100
AcDbEntity
  8
0
100
AcDbLine
 62
7
  6
CONTINUOUS
 10
107.0910979679
 20
92.051830582
 11
97.3856825007
 21
88.5193482408
  0
LINE
  5
359
100
AcDbEntity
  8
0
100
AcDbLine
 62
7
  6
CONTINUOUS
 10
113.0409334517
 20
83.1041256493
 11
113.7885305898
 21
82.7709569365
  0
LINE
  5
35A
100
AcDbEntity
  8
0
100
AcDbLine
 62
7
  6
CONTINUOUS
 10
75.3458300974
 20
107.4117806092
 11
75.1858300974
 21
108.2117806092
  0
LINE
  5
35B
100
AcDbEntity
  8
0
100
AcDbLine
 62
7
  6
CONTINUOUS
 10
84.0398137675
 20
59.1365506677
 11
83.5858300925
 21
62.0117806092
  0
LINE
  5
35C
100
AcDbEntity
  8
0
100
AcDbLine
 62
7
  6
CONTINUOUS
 10
73.2858300974
 20
108.6117806092
 11
73.2732671568
 21
108.7060026633
  0
LINE
  5
35D
100
AcDbEntity
  8
0
100
AcDbLine
 62
7
  6
CONTINUOUS
 10
81.3358300974
 20
60.1117806092
 11
81.348393014
 21
60.0175587342
  0
LINE
  5
35E
100
AcDbEntity
  8
0
100
AcDbLine
 62
7
  6
CONTINUOUS
 10
79.4358300974
 20
60.5117806092
 11
79.4358300974
 21
60.1117806092
  0
LINE
  5
35F
100
AcDbEntity
  8
0
100
AcDbLine
 62
7
  6
CONTINUOUS
 10
81.3358300974
 20
60.1117806092
 11
81.3358300974
 21
60.5117806092
  0
LINE
  5
360
100
AcDbEntity
  8
0
100
AcDbLine
 62
7
  6
CONTINUOUS
 10
81.5358300974
 20
61.3117806092
 11
81.5358300974
 21
60.1117806092
  0
LINE
  5
361
100
AcDbEntity
  8
0
100
AcDbLine
 62
7
  6
CONTINUOUS
 10
81.7358300925
 20
59.7117806092
 11
81.7358300925
 21
61.6117806092
  0
LINE
  5
362
100
AcDbEntity
  8
0
100
AcDbLine
 62
7
  6
CONTINUOUS
 10
82.3858300974
 20
125.9117806092
 11
82.3858300974
 21
109.7117806092
  0
LINE
  5
363
100
AcDbEntity
  8
0
100
AcDbLine
 62
7
  6
CONTINUOUS
 10
82.6358300925
 20
62.0117806092
 11
82.6358300925
 21
58.2117806092
  0
LINE
  5
364
100
AcDbEntity
  8
0
100
AcDbLine
 62
7
  6
CONTINUOUS
 10
79.4232671807
 20
60.0175587342
 11
79.4358300974
 21
60.1117806092
  0
LINE
  5
365
100
AcDbEntity
  8
0
100
AcDbLine
 62
7
  6
CONTINUOUS
 10
50.6787233113
 20
52.304673828
 11
52.3858300925
 21
54.0117806092
  0
LINE
  5
366
100
AcDbEntity
  8
0
100
AcDbLine
 62
7
  6
CONTINUOUS
 10
72.9858300974
 20
107.1117806092
 11
75.4858300967
 21
107.1117806092
  0
LINE
  5
367
100
AcDbEntity
  8
0
100
AcDbLine
 62
7
  6
CONTINUOUS
 10
75.3858300974
 20
107.4117806092
 11
73.0858300974
 21
107.4117806092
  0
LINE
  5
368
100
AcDbEntity
  8
0
100
AcDbLine
 62
7
  6
CONTINUOUS
 10
75.4858300967
 20
107.7117806092
 11
75.3858300974
 21
107.7117806092
  0
LINE
  5
369
100
AcDbEntity
  8
0
100
AcDbLine
 62
7
  6
CONTINUOUS
 10
73.0858300974
 20
107.7117806092
 11
72.9858300974
 21
107.7117806092
  0
LINE
  5
36A
100
AcDbEntity
  8
0
100
AcDbLine
 62
7
  6
CONTINUOUS
 10
72.9858300974
 20
107.9117806092
 11
73.0858300974
 21
107.9117806092
  0
LINE
  5
36B
100
AcDbEntity
  8
0
100
AcDbLine
 62
7
  6
CONTINUOUS
 10
75.3858300974
 20
107.9117806092
 11
75.4858300974
 21
107.9117806092
  0
LINE
  5
36C
100
AcDbEntity
  8
0
100
AcDbLine
 62
7
  6
CONTINUOUS
 10
73.2858300974
 20
108.2117806092
 11
75.1858300974
 21
108.2117806092
  0
LINE
  5
36D
100
AcDbEntity
  8
0
100
AcDbLine
 62
7
  6
CONTINUOUS
 10
75.1858300974
 20
108.6117806092
 11
73.2858300974
 21
108.6117806092
  0
LINE
  5
36E
100
AcDbEntity
  8
0
100
AcDbLine
 62
7
  6
CONTINUOUS
 10
44.6858300974
 20
108.8517806092
 11
47.1858300974
 21
108.8517806092
  0
LINE
  5
36F
100
AcDbEntity
  8
0
100
AcDbLine
 62
7
  6
CONTINUOUS
 10
92.6858300974
 20
108.8517806092
 11
95.1858300974
 21
108.8517806092
  0
LINE
  5
370
100
AcDbEntity
  8
0
100
AcDbLine
 62
7
  6
CONTINUOUS
 10
72.9858300974
 20
109.0117806092
 11
75.4858300971
 21
109.0117806092
  0
LINE
  5
371
100
AcDbEntity
  8
0
100
AcDbLine
 62
7
  6
CONTINUOUS
 10
95.0858300974
 20
109.1517806092
 11
92.7858300974
 21
109.1517806092
  0
LINE
  5
372
100
AcDbEntity
  8
0
100
AcDbLine
 62
7
  6
CONTINUOUS
 10
47.085830075
 20
109.1517806092
 11
44.785830075
 21
109.1517806092
  0
LINE
  5
373
100
AcDbEntity
  8
0
100
AcDbLine
 62
7
  6
CONTINUOUS
 10
48.3858300974
 20
112.6117806092
 11
49.1858300974
 21
112.4517806092
  0
LINE
  5
374
100
AcDbEntity
  8
0
100
AcDbLine
 62
7
  6
CONTINUOUS
 10
115.2378179249
 20
84.0729043905
 11
115.3032692945
 21
84.0385186489
  0
LINE
  5
375
100
AcDbEntity
  8
0
100
AcDbLine
 62
7
  6
CONTINUOUS
 10
87.1215115792
 20
53.9192873337
 11
85.7097468733
 21
61.4192873337
  0
LINE
  5
376
100
AcDbEntity
  8
0
100
AcDbLine
 62
7
  6
CONTINUOUS
 10
84.5982187273
 20
62.0117806092
 11
84.8858300925
 21
60.1902419631
  0
LINE
  5
377
100
AcDbEntity
  8
0
100
AcDbLine
 62
7
  6
CONTINUOUS
 10
83.6858300877
 20
124.9117806092
 11
83.6858300877
 21
122.4117806092
  0
LINE
  5
378
100
AcDbEntity
  8
0
100
AcDbLine
 62
7
  6
CONTINUOUS
 10
83.9858300974
 20
122.5117806092
 11
83.9858300974
 21
124.8117806092
  0
LINE
  5
379
100
AcDbEntity
  8
0
100
AcDbLine
 62
7
  6
CONTINUOUS
 10
84.0858300925
 20
55.8606374312
 11
84.0858300925
 21
56.8117806092
  0
LINE
  5
37A
100
AcDbEntity
  8
0
100
AcDbLine
 62
7
  6
CONTINUOUS
 10
84.2858300877
 20
122.4117806092
 11
84.2858300877
 21
122.5117806092
  0
LINE
  5
37B
100
AcDbEntity
  8
0
100
AcDbLine
 62
7
  6
CONTINUOUS
 10
84.2858300877
 20
124.8117806092
 11
84.2858300877
 21
124.9117806092
  0
LINE
  5
37C
100
AcDbEntity
  8
0
100
AcDbLine
 62
7
  6
CONTINUOUS
 10
84.4858300974
 20
124.9117806092
 11
84.4858300974
 21
124.8117806092
  0
LINE
  5
37D
100
AcDbEntity
  8
0
100
AcDbLine
 62
7
  6
CONTINUOUS
 10
84.4858300974
 20
122.5117806092
 11
84.4858300974
 21
122.4117806092
  0
LINE
  5
37E
100
AcDbEntity
  8
0
100
AcDbLine
 62
7
  6
CONTINUOUS
 10
84.7858300974
 20
124.6117806092
 11
84.7858300974
 21
122.7117806092
  0
LINE
  5
37F
100
AcDbEntity
  8
0
100
AcDbLine
 62
7
  6
CONTINUOUS
 10
84.8858300925
 20
56.8117806092
 11
84.8858300925
 21
60.1902419631
  0
LINE
  5
380
100
AcDbEntity
  8
0
100
AcDbLine
 62
7
  6
CONTINUOUS
 10
85.1858300974
 20
122.7117806092
 11
85.1858300974
 21
124.6117806092
  0
LINE
  5
381
100
AcDbEntity
  8
0
100
AcDbLine
 62
7
  6
CONTINUOUS
 10
85.5858300877
 20
124.9117806092
 11
85.5858300877
 21
122.4117806092
  0
LINE
  5
382
100
AcDbEntity
  8
0
100
AcDbLine
 62
7
  6
CONTINUOUS
 10
86.5608300925
 20
125.9117806092
 11
86.5608300925
 21
127.7117806092
  0
LINE
  5
383
100
AcDbEntity
  8
0
100
AcDbLine
 62
7
  6
CONTINUOUS
 10
81.3358300974
 20
60.5117806092
 11
81.4958300974
 21
61.3117806092
  0
LINE
  5
384
100
AcDbEntity
  8
0
100
AcDbLine
 62
7
  6
CONTINUOUS
 10
94.5652153341
 20
92.1751643443
 11
95.6413797697
 21
93.3117806068
  0
LINE
  5
385
100
AcDbEntity
  8
0
100
AcDbLine
 62
7
  6
CONTINUOUS
 10
95.1858300974
 20
109.4517806092
 11
95.0858300974
 21
109.4517806092
  0
LINE
  5
386
100
AcDbEntity
  8
0
100
AcDbLine
 62
7
  6
CONTINUOUS
 10
92.7858300974
 20
109.4517806092
 11
92.6858300974
 21
109.4517806092
  0
LINE
  5
387
100
AcDbEntity
  8
0
100
AcDbLine
 62
7
  6
CONTINUOUS
 10
47.1858300974
 20
109.4517806092
 11
47.085830075
 21
109.4517806092
  0
LINE
  5
388
100
AcDbEntity
  8
0
100
AcDbLine
 62
7
  6
CONTINUOUS
 10
44.785830075
 20
109.4517806092
 11
44.6858300974
 21
109.4517806092
  0
LINE
  5
389
100
AcDbEntity
  8
0
100
AcDbLine
 62
7
  6
CONTINUOUS
 10
44.6858300974
 20
109.6517806092
 11
44.785830075
 21
109.6517806092
  0
LINE
  5
38A
100
AcDbEntity
  8
0
100
AcDbLine
 62
7
  6
CONTINUOUS
 10
47.085830075
 20
109.6517806092
 11
47.1858300974
 21
109.6517806092
  0
LINE
  5
38B
100
AcDbEntity
  8
0
100
AcDbLine
 62
7
  6
CONTINUOUS
 10
92.6858300974
 20
109.6517806092
 11
92.7858300974
 21
109.6517806092
  0
LINE
  5
38C
100
AcDbEntity
  8
0
100
AcDbLine
 62
7
  6
CONTINUOUS
 10
95.0858300974
 20
109.6517806092
 11
95.1858300974
 21
109.6517806092
  0
LINE
  5
38D
100
AcDbEntity
  8
0
100
AcDbLine
 62
7
  6
CONTINUOUS
 10
55.6858300974
 20
109.7117806092
 11
82.3858300974
 21
109.7117806092
  0
LINE
  5
38E
100
AcDbEntity
  8
0
100
AcDbLine
 62
7
  6
CONTINUOUS
 10
44.985830075
 20
109.9517806092
 11
46.885830075
 21
109.9517806092
  0
LINE
  5
38F
100
AcDbEntity
  8
0
100
AcDbLine
 62
7
  6
CONTINUOUS
 10
92.9858300974
 20
109.9517806092
 11
94.8858300974
 21
109.9517806092
  0
LINE
  5
390
100
AcDbEntity
  8
0
100
AcDbLine
 62
7
  6
CONTINUOUS
 10
94.8858300974
 20
110.3517806092
 11
92.9858300974
 21
110.3517806092
  0
LINE
  5
391
100
AcDbEntity
  8
0
100
AcDbLine
 62
7
  6
CONTINUOUS
 10
46.885830075
 20
110.3517806092
 11
44.985830075
 21
110.3517806092
  0
LINE
  5
392
100
AcDbEntity
  8
0
100
AcDbLine
 62
7
  6
CONTINUOUS
 10
44.6858300974
 20
110.7517806092
 11
47.1858300974
 21
110.7517806092
  0
LINE
  5
393
100
AcDbEntity
  8
0
100
AcDbLine
 62
7
  6
CONTINUOUS
 10
92.6858300974
 20
110.7517806092
 11
95.1858300974
 21
110.7517806092
  0
LINE
  5
394
100
AcDbEntity
  8
0
100
AcDbLine
 62
7
  6
CONTINUOUS
 10
43.0258300974
 20
111.2517806092
 11
47.1858300974
 21
111.2517806092
  0
LINE
  5
395
100
AcDbEntity
  8
0
100
AcDbLine
 62
7
  6
CONTINUOUS
 10
92.6858300974
 20
111.2517806092
 11
97.9458300877
 21
111.2517806092
  0
LINE
  5
396
100
AcDbEntity
  8
0
100
AcDbLine
 62
7
  6
CONTINUOUS
 10
49.4858300974
 20
112.291700176
 11
47.5858300974
 21
112.291700176
  0
LINE
  5
397
100
AcDbEntity
  8
0
100
AcDbLine
 62
7
  6
CONTINUOUS
 10
49.1858300974
 20
112.4117806092
 11
47.9858300974
 21
112.4117806092
  0
LINE
  5
398
100
AcDbEntity
  8
0
100
AcDbLine
 62
7
  6
CONTINUOUS
 10
47.9858300974
 20
112.6117806092
 11
48.3858300974
 21
112.6117806092
  0
LINE
  5
399
100
AcDbEntity
  8
0
100
AcDbLine
 62
7
  6
CONTINUOUS
 10
47.8916082224
 20
114.5243435259
 11
47.9858300974
 21
114.5117806092
  0
LINE
  5
39A
100
AcDbEntity
  8
0
100
AcDbLine
 62
7
  6
CONTINUOUS
 10
113.017296336
 20
83.0718502249
 11
113.9968932356
 21
82.3784277005
  0
LINE
  5
39B
100
AcDbEntity
  8
0
100
AcDbLine
 62
7
  6
CONTINUOUS
 10
113.7885305898
 20
82.7709569365
 11
114.1150549273
 21
82.5398217313
  0
LINE
  5
39C
100
AcDbEntity
  8
0
100
AcDbLine
 62
7
  6
CONTINUOUS
 10
114.2830355642
 20
82.0557277279
 11
113.2220684713
 21
82.8072460854
  0
LINE
  5
39D
100
AcDbEntity
  8
0
100
AcDbLine
 62
7
  6
CONTINUOUS
 10
113.2220684713
 20
82.8072460854
 11
112.7380540291
 21
83.1618303769
  0
LINE
  5
39E
100
AcDbEntity
  8
0
100
AcDbLine
 62
7
  6
CONTINUOUS
 10
89.5108300925
 20
125.9117806092
 11
89.5108300925
 21
127.7117806092
  0
LINE
  5
39F
100
AcDbEntity
  8
0
100
AcDbLine
 62
7
  6
CONTINUOUS
 10
90.4858300974
 20
122.4117806092
 11
90.4858300974
 21
124.9117806092
  0
LINE
  5
3A0
100
AcDbEntity
  8
0
100
AcDbLine
 62
7
  6
CONTINUOUS
 10
90.8858300974
 20
124.6117806092
 11
90.8858300974
 21
122.7117806092
  0
LINE
  5
3A1
100
AcDbEntity
  8
0
100
AcDbLine
 62
7
  6
CONTINUOUS
 10
91.2858300974
 20
122.7117806092
 11
91.2858300974
 21
124.6117806092
  0
LINE
  5
3A2
100
AcDbEntity
  8
0
100
AcDbLine
 62
7
  6
CONTINUOUS
 10
91.4858300925
 20
93.6844758324
 11
91.4858300925
 21
95.5844758324
  0
LINE
  5
3A3
100
AcDbEntity
  8
0
100
AcDbLine
 62
7
  6
CONTINUOUS
 10
91.5852153389
 20
94.0851912045
 11
91.5852153389
 21
95.2851643467
  0
LINE
  5
3A4
100
AcDbEntity
  8
0
100
AcDbLine
 62
7
  6
CONTINUOUS
 10
91.5858300974
 20
122.4117806092
 11
91.5858300974
 21
122.5117806092
  0
LINE
  5
3A5
100
AcDbEntity
  8
0
100
AcDbLine
 62
7
  6
CONTINUOUS
 10
91.5858300974
 20
124.8117806092
 11
91.5858300974
 21
124.9117806092
  0
LINE
  5
3A6
100
AcDbEntity
  8
0
100
AcDbLine
 62
7
  6
CONTINUOUS
 10
91.7852153389
 20
94.4851643467
 11
91.7852153389
 21
94.0851643467
  0
LINE
  5
3A7
100
AcDbEntity
  8
0
100
AcDbLine
 62
7
  6
CONTINUOUS
 10
91.7858300974
 20
124.9117806092
 11
91.7858300974
 21
124.8117806092
  0
LINE
  5
3A8
100
AcDbEntity
  8
0
100
AcDbLine
 62
7
  6
CONTINUOUS
 10
91.7858300974
 20
122.5117806092
 11
91.7858300974
 21
122.4117806092
  0
LINE
  5
3A9
100
AcDbEntity
  8
0
100
AcDbLine
 62
7
  6
CONTINUOUS
 10
92.0858300974
 20
124.8117806092
 11
92.0858300974
 21
122.5117806092
  0
LINE
  5
3AA
100
AcDbEntity
  8
0
100
AcDbLine
 62
7
  6
CONTINUOUS
 10
91.7735470942
 20
93.9976526284
 11
91.7852153389
 21
94.0851643467
  0
LINE
  5
3AB
100
AcDbEntity
  8
0
100
AcDbLine
 62
7
  6
CONTINUOUS
 10
94.8977158767
 20
110.4409239539
 11
94.8858300974
 21
110.3517806092
  0
LINE
  5
3AC
100
AcDbEntity
  8
0
100
AcDbLine
 62
7
  6
CONTINUOUS
 10
92.9858300974
 20
109.9517806092
 11
92.8258300974
 21
109.1517806092
  0
LINE
  5
3AD
100
AcDbEntity
  8
0
100
AcDbLine
 62
7
  6
CONTINUOUS
 10
103.3525862014
 20
102.6407119321
 11
104.711655112
 21
104.4965741483
  0
LINE
  5
3AE
100
AcDbEntity
  8
0
100
AcDbLine
 62
7
  6
CONTINUOUS
 10
103.7606034948
 20
102.3516047065
 11
103.7025306702
 21
102.2723039733
  0
LINE
  5
3AF
100
AcDbEntity
  8
0
100
AcDbLine
 62
7
  6
CONTINUOUS
 10
105.2463028763
 20
103.8726232641
 11
104.1235937762
 21
102.3395196942
  0
LINE
  5
3B0
100
AcDbEntity
  8
0
100
AcDbLine
 62
7
  6
CONTINUOUS
 10
104.4646766885
 20
102.0978399026
 11
105.5873857886
 21
103.6309434724
  0
LINE
  5
3B1
100
AcDbEntity
  8
0
100
AcDbLine
 62
7
  6
CONTINUOUS
 10
103.0653618809
 20
102.7353725939
 11
104.5429848175
 21
104.7523565909
  0
LINE
  5
3B2
100
AcDbEntity
  8
0
100
AcDbLine
 62
7
  6
CONTINUOUS
 10
103.5493763231
 20
102.3807883025
 11
103.6074809045
 21
102.4601021843
  0
LINE
  5
3B3
100
AcDbEntity
  8
0
100
AcDbLine
 62
7
  6
CONTINUOUS
 10
104.963967411
 20
104.3117326023
 11
105.0269992597
 21
104.3977722995
  0
LINE
  5
3B4
100
AcDbEntity
  8
0
100
AcDbLine
 62
7
  6
CONTINUOUS
 10
106.0879663526
 20
103.646253942
 11
104.610343416
 21
101.629269945
  0
LINE
  5
3B5
100
AcDbEntity
  8
0
100
AcDbLine
 62
7
  6
CONTINUOUS
 10
100.7458300877
 20
95.1696485848
 11
107.5458300877
 21
104.4517806092
  0
LINE
  5
3B6
100
AcDbEntity
  8
0
100
AcDbLine
 62
7
  6
CONTINUOUS
 10
49.1858300974
 20
114.6717806092
 11
48.3858300974
 21
114.5117806092
  0
LINE
  5
3B7
100
AcDbEntity
  8
0
100
AcDbLine
 62
7
  6
CONTINUOUS
 10
47.9858300974
 20
112.6117806092
 11
47.8916082224
 21
112.5992176925
  0
LINE
  5
3B8
100
AcDbEntity
  8
0
100
AcDbLine
 62
7
  6
CONTINUOUS
 10
48.3858300974
 20
114.5117806092
 11
47.9858300974
 21
114.5117806092
  0
LINE
  5
3B9
100
AcDbEntity
  8
0
100
AcDbLine
 62
7
  6
CONTINUOUS
 10
47.9858300974
 20
114.7117806092
 11
49.1858300974
 21
114.7117806092
  0
LINE
  5
3BA
100
AcDbEntity
  8
0
100
AcDbLine
 62
7
  6
CONTINUOUS
 10
47.5858300974
 20
114.791700176
 11
49.4858300974
 21
114.791700176
  0
LINE
  5
3BB
100
AcDbEntity
  8
0
100
AcDbLine
 62
7
  6
CONTINUOUS
 10
103.3762221824
 20
102.6729877967
 11
104.1235937762
 21
102.3395196942
  0
LINE
  5
3BC
100
AcDbEntity
  8
0
100
AcDbLine
 62
7
  6
CONTINUOUS
 10
115.2378179249
 20
84.0729043905
 11
114.9112935874
 21
84.3040395957
  0
LINE
  5
3BD
100
AcDbEntity
  8
0
100
AcDbLine
 62
7
  6
CONTINUOUS
 10
115.3408738338
 20
84.2449928952
 11
114.3764304966
 21
84.9276871358
  0
LINE
  5
3BE
100
AcDbEntity
  8
0
100
AcDbLine
 62
7
  6
CONTINUOUS
 10
114.6996914078
 20
84.8242300824
 11
115.7606585008
 21
84.0727117249
  0
LINE
  5
3BF
100
AcDbEntity
  8
0
100
AcDbLine
 62
7
  6
CONTINUOUS
 10
117.2185222359
 20
84.8782383922
 11
107.0910979679
 21
92.051830582
  0
LINE
  5
3C0
100
AcDbEntity
  8
0
100
AcDbLine
 62
7
  6
CONTINUOUS
 10
114.2156769656
 20
85.1788143739
 11
114.6996914078
 21
84.8242300824
  0
LINE
  5
3C1
100
AcDbEntity
  8
0
100
AcDbLine
 62
7
  6
CONTINUOUS
 10
93.9513046228
 20
88.0142613607
 11
92.6858300925
 21
91.4911240576
  0
LINE
  5
3C2
100
AcDbEntity
  8
0
100
AcDbLine
 62
7
  6
CONTINUOUS
 10
91.6252153389
 20
95.2851643467
 11
91.7852153389
 21
94.4851643467
  0
LINE
  5
3C3
100
AcDbEntity
  8
0
100
AcDbLine
 62
7
  6
CONTINUOUS
 10
92.3858300974
 20
122.4117806092
 11
92.3858300974
 21
124.9117806092
  0
LINE
  5
3C4
100
AcDbEntity
  8
0
100
AcDbLine
 62
7
  6
CONTINUOUS
 10
92.6858300974
 20
121.4117806092
 11
92.6858300974
 21
111.2517806092
  0
LINE
  5
3C5
100
AcDbEntity
  8
0
100
AcDbLine
 62
7
  6
CONTINUOUS
 10
92.6858300974
 20
108.8517806092
 11
92.6858300974
 21
110.7517806092
  0
LINE
  5
3C6
100
AcDbEntity
  8
0
100
AcDbLine
 62
7
  6
CONTINUOUS
 10
92.7858300974
 20
109.1517806092
 11
92.7858300974
 21
110.3517806092
  0
LINE
  5
3C7
100
AcDbEntity
  8
0
100
AcDbLine
 62
7
  6
CONTINUOUS
 10
92.9858300974
 20
110.3517806092
 11
92.9858300974
 21
109.9517806092
  0
LINE
  5
3C8
100
AcDbEntity
  8
0
100
AcDbLine
 62
7
  6
CONTINUOUS
 10
93.6852153389
 20
94.0851643467
 11
93.6852153389
 21
94.4851643467
  0
LINE
  5
3C9
100
AcDbEntity
  8
0
100
AcDbLine
 62
7
  6
CONTINUOUS
 10
93.8852153389
 20
95.2851643467
 11
93.8852153389
 21
94.0851643467
  0
LINE
  5
3CA
100
AcDbEntity
  8
0
100
AcDbLine
 62
7
  6
CONTINUOUS
 10
93.9858300925
 20
95.5844758324
 11
93.9858300925
 21
93.6844758324
  0
LINE
  5
3CB
100
AcDbEntity
  8
0
100
AcDbLine
 62
7
  6
CONTINUOUS
 10
94.8858300974
 20
109.9517806092
 11
94.8858300974
 21
110.3517806092
  0
LINE
  5
3CC
100
AcDbEntity
  8
0
100
AcDbLine
 62
7
  6
CONTINUOUS
 10
95.0858300974
 20
110.3517806092
 11
95.0858300974
 21
109.1517806092
  0
LINE
  5
3CD
100
AcDbEntity
  8
0
100
AcDbLine
 62
7
  6
CONTINUOUS
 10
95.1858300974
 20
110.7517806092
 11
95.1858300974
 21
108.8517806092
  0
LINE
  5
3CE
100
AcDbEntity
  8
0
100
AcDbLine
 62
7
  6
CONTINUOUS
 10
96.2858300925
 20
85.884621004
 11
96.2858300925
 21
87.784621004
  0
LINE
  5
3CF
100
AcDbEntity
  8
0
100
AcDbLine
 62
7
  6
CONTINUOUS
 10
96.3858300974
 20
86.2117806092
 11
96.3858300974
 21
87.4117806092
  0
LINE
  5
3D0
100
AcDbEntity
  8
0
100
AcDbLine
 62
7
  6
CONTINUOUS
 10
93.6852153389
 20
94.4851643467
 11
93.8452153389
 21
95.2851643467
  0
LINE
  5
3D1
100
AcDbEntity
  8
0
100
AcDbLine
 62
7
  6
CONTINUOUS
 10
105.2413797673
 20
73.7117806106
 11
110.4185222359
 21
75.5961063678
  0
LINE
  5
3D2
100
AcDbEntity
  8
0
100
AcDbLine
 62
7
  6
CONTINUOUS
 10
102.3604504947
 20
71.9182836676
 11
104.2398357362
 21
72.6023239543
  0
LINE
  5
3D3
100
AcDbEntity
  8
0
100
AcDbLine
 62
7
  6
CONTINUOUS
 10
83.9858300974
 20
122.5517806092
 11
84.7858300974
 21
122.7117806092
  0
LINE
  5
3D4
100
AcDbEntity
  8
0
100
AcDbLine
 62
7
  6
CONTINUOUS
 10
92.0858300974
 20
124.7717806092
 11
91.2858300974
 21
124.6117806092
  0
LINE
  5
3D5
100
AcDbEntity
  8
0
100
AcDbLine
 62
7
  6
CONTINUOUS
 10
90.8858300974
 20
122.7117806092
 11
90.7916082224
 21
122.6992176925
  0
LINE
  5
3D6
100
AcDbEntity
  8
0
100
AcDbLine
 62
7
  6
CONTINUOUS
 10
85.1858300974
 20
124.6117806092
 11
85.2800519723
 21
124.6243435259
  0
LINE
  5
3D7
100
AcDbEntity
  8
0
100
AcDbLine
 62
7
  6
CONTINUOUS
 10
53.6040429657
 20
122.6960188934
 11
53.4858300974
 21
122.7117806092
  0
LINE
  5
3D8
100
AcDbEntity
  8
0
100
AcDbLine
 62
7
  6
CONTINUOUS
 10
53.0858300974
 20
124.1117806092
 11
52.4858300974
 21
124.3117806092
  0
LINE
  5
3D9
100
AcDbEntity
  8
0
100
AcDbLine
 62
7
  6
CONTINUOUS
 10
54.528026064
 20
125.4104625465
 11
54.815863616
 21
125.3117806092
  0
LINE
  5
3DA
100
AcDbEntity
  8
0
100
AcDbLine
 62
7
  6
CONTINUOUS
 10
55.6358300974
 20
125.4535189127
 11
55.3001674108
 21
125.5685971712
  0
LINE
  5
3DB
100
AcDbEntity
  8
0
100
AcDbLine
 62
7
  6
CONTINUOUS
 10
105.5873857886
 20
103.6309434724
 11
105.6662411333
 21
103.5894697655
  0
LINE
  5
3DC
100
AcDbEntity
  8
0
100
AcDbLine
 62
7
  6
CONTINUOUS
 10
114.1802386093
 20
82.4792425584
 11
114.1150549273
 21
82.5398217313
  0
LINE
  5
3DD
100
AcDbEntity
  8
0
100
AcDbLine
 62
7
  6
CONTINUOUS
 10
103.625925025
 20
68.4414209707
 11
102.3604504947
 21
71.9182836676
  0
LINE
  5
3DE
100
AcDbEntity
  8
0
100
AcDbLine
 62
7
  6
CONTINUOUS
 10
93.6852153389
 20
94.0851643467
 11
93.6968833542
 21
93.9976542326
  0
LINE
  5
3DF
100
AcDbEntity
  8
0
100
AcDbLine
 62
7
  6
CONTINUOUS
 10
92.9858300974
 20
110.3517806092
 11
92.9739443181
 21
110.4409239539
  0
LINE
  5
3E0
100
AcDbEntity
  8
0
100
AcDbLine
 62
7
  6
CONTINUOUS
 10
96.5858300974
 20
87.4117806092
 11
96.5732670571
 21
87.5060034114
  0
LINE
  5
3E1
100
AcDbEntity
  8
0
100
AcDbLine
 62
7
  6
CONTINUOUS
 10
96.5858300974
 20
87.4117806092
 11
96.5858300974
 21
87.0117806092
  0
LINE
  5
3E2
100
AcDbEntity
  8
0
100
AcDbLine
 62
7
  6
CONTINUOUS
 10
98.4858300974
 20
87.0117806092
 11
98.4858300974
 21
87.4117806092
  0
LINE
  5
3E3
100
AcDbEntity
  8
0
100
AcDbLine
 62
7
  6
CONTINUOUS
 10
98.6858300974
 20
87.4117806092
 11
98.6858300974
 21
86.2117806092
  0
LINE
  5
3E4
100
AcDbEntity
  8
0
100
AcDbLine
 62
7
  6
CONTINUOUS
 10
98.7858300925
 20
87.784621004
 11
98.7858300925
 21
85.884621004
  0
LINE
  5
3E5
100
AcDbEntity
  8
0
100
AcDbLine
 62
7
  6
CONTINUOUS
 10
98.4983931377
 20
87.5060034114
 11
98.4858300974
 21
87.4117806092
  0
LINE
  5
3E6
100
AcDbEntity
  8
0
100
AcDbLine
 62
7
  6
CONTINUOUS
 10
96.5858300974
 20
87.0117806092
 11
96.4258300974
 21
86.2117806092
  0
LINE
  5
3E7
100
AcDbEntity
  8
0
100
AcDbLine
 62
7
  6
CONTINUOUS
 10
105.5079985422
 20
69.1180296285
 11
103.625925025
 21
68.4414209707
  0
LINE
  5
3E8
100
AcDbEntity
  8
0
100
AcDbLine
 62
7
  6
CONTINUOUS
 10
53.4858300974
 20
124.1117806092
 11
53.6040429657
 21
124.127542325
  0
LINE
  5
3E9
100
AcDbEntity
  8
0
100
AcDbLine
 62
7
  6
CONTINUOUS
 10
53.8858300925
 20
122.391700176
 11
52.2358300931
 21
122.391700176
  0
LINE
  5
3EA
100
AcDbEntity
  8
0
100
AcDbLine
 62
7
  6
CONTINUOUS
 10
92.3858300974
 20
122.4117806092
 11
90.4858300974
 21
122.4117806092
  0
LINE
  5
3EB
100
AcDbEntity
  8
0
100
AcDbLine
 62
7
  6
CONTINUOUS
 10
85.5858300877
 20
122.4117806092
 11
83.6858300877
 21
122.4117806092
  0
LINE
  5
3EC
100
AcDbEntity
  8
0
100
AcDbLine
 62
7
  6
CONTINUOUS
 10
92.0858300974
 20
122.5117806092
 11
90.8858300974
 21
122.5117806092
  0
LINE
  5
3ED
100
AcDbEntity
  8
0
100
AcDbLine
 62
7
  6
CONTINUOUS
 10
85.1858300974
 20
122.5117806092
 11
83.9858300974
 21
122.5117806092
  0
LINE
  5
3EE
100
AcDbEntity
  8
0
100
AcDbLine
 62
7
  6
CONTINUOUS
 10
53.4858300974
 20
122.5117806092
 11
52.4858300974
 21
122.5117806092
  0
LINE
  5
3EF
100
AcDbEntity
  8
0
100
AcDbLine
 62
7
  6
CONTINUOUS
 10
53.0858300974
 20
122.7117806092
 11
53.4858300974
 21
122.7117806092
  0
LINE
  5
3F0
100
AcDbEntity
  8
0
100
AcDbLine
 62
7
  6
CONTINUOUS
 10
84.7858300974
 20
122.7117806092
 11
85.1858300974
 21
122.7117806092
  0
LINE
  5
3F1
100
AcDbEntity
  8
0
100
AcDbLine
 62
7
  6
CONTINUOUS
 10
90.8858300974
 20
122.7117806092
 11
91.2858300974
 21
122.7117806092
  0
LINE
  5
3F2
100
AcDbEntity
  8
0
100
AcDbLine
 62
7
  6
CONTINUOUS
 10
53.4858300974
 20
124.1117806092
 11
53.0858300974
 21
124.1117806092
  0
LINE
  5
3F3
100
AcDbEntity
  8
0
100
AcDbLine
 62
7
  6
CONTINUOUS
 10
52.4858300974
 20
124.3117806092
 11
53.4858300974
 21
124.3117806092
  0
LINE
  5
3F4
100
AcDbEntity
  8
0
100
AcDbLine
 62
7
  6
CONTINUOUS
 10
52.2358300931
 20
124.391700176
 11
53.8858300925
 21
124.391700176
  0
LINE
  5
3F5
100
AcDbEntity
  8
0
100
AcDbLine
 62
7
  6
CONTINUOUS
 10
91.2858300974
 20
124.6117806092
 11
90.8858300974
 21
124.6117806092
  0
LINE
  5
3F6
100
AcDbEntity
  8
0
100
AcDbLine
 62
7
  6
CONTINUOUS
 10
85.1858300974
 20
124.6117806092
 11
84.7858300974
 21
124.6117806092
  0
LINE
  5
3F7
100
AcDbEntity
  8
0
100
AcDbLine
 62
7
  6
CONTINUOUS
 10
55.6858300974
 20
124.7117806092
 11
82.3858300974
 21
124.7117806092
  0
LINE
  5
3F8
100
AcDbEntity
  8
0
100
AcDbLine
 62
7
  6
CONTINUOUS
 10
47.9858300974
 20
124.751700176
 11
47.1858300974
 21
124.751700176
  0
LINE
  5
3F9
100
AcDbEntity
  8
0
100
AcDbLine
 62
7
  6
CONTINUOUS
 10
47.1858300824
 20
124.8117806092
 11
47.9858300974
 21
124.8117806092
  0
LINE
  5
3FA
100
AcDbEntity
  8
0
100
AcDbLine
 62
7
  6
CONTINUOUS
 10
83.9858300974
 20
124.8117806092
 11
85.1858300974
 21
124.8117806092
  0
LINE
  5
3FB
100
AcDbEntity
  8
0
100
AcDbLine
 62
7
  6
CONTINUOUS
 10
90.8858300974
 20
124.8117806092
 11
92.0858300974
 21
124.8117806092
  0
LINE
  5
3FC
100
AcDbEntity
  8
0
100
AcDbLine
 62
7
  6
CONTINUOUS
 10
83.6858300877
 20
124.9117806092
 11
85.5858300877
 21
124.9117806092
  0
LINE
  5
3FD
100
AcDbEntity
  8
0
100
AcDbLine
 62
7
  6
CONTINUOUS
 10
90.4858300974
 20
124.9117806092
 11
92.3858300974
 21
124.9117806092
  0
LINE
  5
3FE
100
AcDbEntity
  8
0
100
AcDbLine
 62
7
  6
CONTINUOUS
 10
47.444222119
 20
124.9588406836
 11
46.2358300974
 21
124.9588406836
  0
LINE
  5
3FF
100
AcDbEntity
  8
0
100
AcDbLine
 62
7
  6
CONTINUOUS
 10
55.6858300974
 20
125.3117806092
 11
53.7020223262
 21
125.3117806092
  0
LINE
  5
400
100
AcDbEntity
  8
0
100
AcDbLine
 62
7
  6
CONTINUOUS
 10
55.0358300974
 20
125.4104625465
 11
53.7202220307
 21
125.4104625465
  0
LINE
  5
401
100
AcDbEntity
  8
0
100
AcDbLine
 62
7
  6
CONTINUOUS
 10
82.3858300974
 20
125.9117806092
 11
91.8821564081
 21
125.9117806092
  0
LINE
  5
402
100
AcDbEntity
  8
0
100
AcDbLine
 62
7
  6
CONTINUOUS
 10
85.2800519723
 20
122.6992176925
 11
85.1858300974
 21
122.7117806092
  0
LINE
  5
403
100
AcDbEntity
  8
0
100
AcDbLine
 62
7
  6
CONTINUOUS
 10
104.610343416
 20
101.629269945
 11
103.5493763232
 21
102.3807883024
  0
LINE
  5
404
100
AcDbEntity
  8
0
100
AcDbLine
 62
7
  6
CONTINUOUS
 10
105.0269992596
 20
104.3977722996
 11
106.0879663526
 21
103.646253942
  0
LINE
  5
405
100
AcDbEntity
  8
0
100
AcDbLine
 62
7
  6
CONTINUOUS
 10
107.5458300877
 20
104.4517806092
 11
97.9458300877
 21
111.2517806092
  0
LINE
  5
406
100
AcDbEntity
  8
0
100
AcDbLine
 62
7
  6
CONTINUOUS
 10
103.3525862014
 20
102.6407119321
 11
104.3464967832
 21
101.9364605794
  0
LINE
  5
407
100
AcDbEntity
  8
0
100
AcDbLine
 62
7
  6
CONTINUOUS
 10
104.1235937762
 20
102.3395196942
 11
104.4646766885
 21
102.0978399026
  0
LINE
  5
408
100
AcDbEntity
  8
0
100
AcDbLine
 62
7
  6
CONTINUOUS
 10
105.5873857886
 20
103.6309434724
 11
105.2463028763
 21
103.8726232641
  0
LINE
  5
409
100
AcDbEntity
  8
0
100
AcDbLine
 62
7
  6
CONTINUOUS
 10
105.7055656939
 20
103.7923227956
 11
104.711655112
 21
104.4965741482
  0
LINE
  5
40A
100
AcDbEntity
  8
0
100
AcDbLine
 62
7
  6
CONTINUOUS
 10
103.5493763232
 20
102.3807883024
 11
103.0653618809
 21
102.7353725939
  0
LINE
  5
40B
100
AcDbEntity
  8
0
100
AcDbLine
 62
7
  6
CONTINUOUS
 10
104.5429848175
 20
104.7523565909
 11
105.0269992596
 21
104.3977722996
  0
LINE
  5
40C
100
AcDbEntity
  8
0
100
AcDbLine
 62
7
  6
CONTINUOUS
 10
104.5304605836
 20
102.0366465997
 11
104.4646766885
 21
102.0978399026
  0
LINE
  5
40D
100
AcDbEntity
  8
0
100
AcDbLine
 62
7
  6
CONTINUOUS
 10
114.9112935874
 20
84.3040395957
 11
114.3527933753
 21
84.8954117038
  0
LINE
  5
40E
100
AcDbEntity
  8
0
100
AcDbLine
 62
7
  6
CONTINUOUS
 10
98.6458300974
 20
86.2117806092
 11
98.4858300974
 21
87.0117806092
  0
LINE
  5
40F
100
AcDbEntity
  8
0
100
AcDbLine
 62
7
  6
CONTINUOUS
 10
101.229835741
 20
75.712323952
 11
101.389835741
 21
74.912323952
  0
LINE
  5
410
100
AcDbEntity
  8
0
100
AcDbLine
 62
7
  6
CONTINUOUS
 10
95.0458300974
 20
109.1517806092
 11
94.8858300974
 21
109.9517806092
  0
LINE
  5
411
100
AcDbEntity
  8
0
100
AcDbLine
 62
7
  6
CONTINUOUS
 10
103.289835741
 20
74.512323952
 11
103.3021826556
 21
74.4197220928
  0
LINE
  5
412
100
AcDbEntity
  8
0
100
AcDbLine
 62
7
  6
CONTINUOUS
 10
101.0858300971
 20
74.1116354376
 11
101.0858300971
 21
76.0116354376
  0
LINE
  5
413
100
AcDbEntity
  8
0
100
AcDbLine
 62
7
  6
CONTINUOUS
 10
101.189835741
 20
74.512323952
 11
101.189835741
 21
75.712323952
  0
LINE
  5
414
100
AcDbEntity
  8
0
100
AcDbLine
 62
7
  6
CONTINUOUS
 10
101.389835741
 20
74.912323952
 11
101.389835741
 21
74.512323952
  0
LINE
  5
415
100
AcDbEntity
  8
0
100
AcDbLine
 62
7
  6
CONTINUOUS
 10
103.289835741
 20
74.512323952
 11
103.289835741
 21
74.912323952
  0
LINE
  5
416
100
AcDbEntity
  8
0
100
AcDbLine
 62
7
  6
CONTINUOUS
 10
103.489835741
 20
75.712323952
 11
103.489835741
 21
74.512323952
  0
LINE
  5
417
100
AcDbEntity
  8
0
100
AcDbLine
 62
7
  6
CONTINUOUS
 10
103.5858300971
 20
76.0116354376
 11
103.5858300971
 21
74.1116354376
  0
LINE
  5
418
100
AcDbEntity
  8
0
100
AcDbLine
 62
7
  6
CONTINUOUS
 10
101.3774888265
 20
74.4197220928
 11
101.389835741
 21
74.512323952
  0
LINE
  5
419
100
AcDbEntity
  8
0
100
AcDbLine
 62
7
  6
CONTINUOUS
 10
111.910349957
 20
70.7117806092
 11
106.9522812887
 21
68.9071911986
  0
LINE
  5
41A
100
AcDbEntity
  8
0
100
AcDbLine
 62
7
  6
CONTINUOUS
 10
86.5608300925
 20
127.7117806092
 11
89.5108300925
 21
127.7117806092
  0
LINE
  5
41B
100
AcDbEntity
  8
0
100
AcDbLine
 62
7
  6
CONTINUOUS
 10
53.8358300974
 20
128.1588406836
 11
53.3586828173
 21
128.1588406836
  0
LINE
  5
41C
100
AcDbEntity
  8
0
100
AcDbLine
 62
7
  6
CONTINUOUS
 10
48.0129773774
 20
128.1588406836
 11
47.5358300974
 21
128.1588406836
  0
LINE
  5
41D
100
AcDbEntity
  8
0
100
AcDbLine
 62
7
  6
CONTINUOUS
 10
56.2358300974
 20
129.3588406836
 11
55.8358300974
 21
129.3588406836
  0
LINE
  5
41E
100
AcDbEntity
  8
0
100
AcDbLine
 62
7
  6
CONTINUOUS
 10
46.2358300974
 20
130.1588406836
 11
47.0358300974
 21
130.1588406836
  0
LINE
  5
41F
100
AcDbEntity
  8
0
100
AcDbLine
 62
7
  6
CONTINUOUS
 10
54.3358300974
 20
130.1588406836
 11
55.9358300974
 21
130.1588406836
  0
LINE
  5
420
100
AcDbEntity
  8
0
100
AcDbLine
 62
7
  6
CONTINUOUS
 10
55.9358300974
 20
130.6588406836
 11
56.2358300974
 21
130.6588406836
  0
LINE
  5
421
100
AcDbEntity
  8
0
100
AcDbLine
 62
7
  6
CONTINUOUS
 10
90.7916082224
 20
124.6243435259
 11
90.8858300974
 21
124.6117806092
  0
LINE
  5
422
100
AcDbEntity
  8
0
100
AcDbLine
 62
7
  6
CONTINUOUS
 10
91.2858300974
 20
122.7117806092
 11
92.0858300974
 21
122.5517806092
  0
LINE
  5
423
100
AcDbEntity
  8
0
100
AcDbLine
 62
7
  6
CONTINUOUS
 10
84.7858300974
 20
124.6117806092
 11
83.9858300974
 21
124.7717806092
  0
LINE
  5
424
100
AcDbEntity
  8
0
100
AcDbLine
 62
7
  6
CONTINUOUS
 10
105.2463028763
 20
103.8726232641
 11
104.6880191309
 21
104.4642982836
  0
LINE
  5
425
100
AcDbEntity
  8
0
100
AcDbLine
 62
7
  6
CONTINUOUS
 10
108.8258300974
 20
64.6117806092
 11
108.9858300974
 21
63.8117806092
  0
LINE
  5
426
100
AcDbEntity
  8
0
100
AcDbLine
 62
7
  6
CONTINUOUS
 10
110.1749258755
 20
61.6042738848
 11
111.5866905815
 21
54.1042738841
  0
LINE
  5
427
100
AcDbEntity
  8
0
100
AcDbLine
 62
7
  6
CONTINUOUS
 10
112.4710748952
 20
54.8117806092
 11
111.2273089235
 21
61.4192873338
  0
LINE
  5
428
100
AcDbEntity
  8
0
100
AcDbLine
 62
7
  6
CONTINUOUS
 10
108.6858300925
 20
63.0117806092
 11
108.6858300925
 21
64.9117806092
  0
LINE
  5
429
100
AcDbEntity
  8
0
100
AcDbLine
 62
7
  6
CONTINUOUS
 10
108.7858300974
 20
63.4117806092
 11
108.7858300974
 21
64.6117806092
  0
LINE
  5
42A
100
AcDbEntity
  8
0
100
AcDbLine
 62
7
  6
CONTINUOUS
 10
108.9858300974
 20
63.8117806092
 11
108.9858300974
 21
63.4117806092
  0
LINE
  5
42B
100
AcDbEntity
  8
0
100
AcDbLine
 62
7
  6
CONTINUOUS
 10
103.289835741
 20
74.912323952
 11
103.449835741
 21
75.712323952
  0
LINE
  5
42C
100
AcDbEntity
  8
0
100
AcDbLine
 62
7
  6
CONTINUOUS
 10
113.017296336
 20
83.0718502249
 11
114.3764304966
 21
84.9276871358
  0
LINE
  5
42D
100
AcDbEntity
  8
0
100
AcDbLine
 62
7
  6
CONTINUOUS
 10
113.4254517579
 20
82.7829312184
 11
113.3677080256
 21
82.7040847345
  0
LINE
  5
42E
100
AcDbEntity
  8
0
100
AcDbLine
 62
7
  6
CONTINUOUS
 10
112.7380540291
 20
83.1618303769
 11
114.2156769656
 21
85.1788143739
  0
LINE
  5
42F
100
AcDbEntity
  8
0
100
AcDbLine
 62
7
  6
CONTINUOUS
 10
113.2220684713
 20
82.8072460855
 11
113.2797914522
 21
82.8860390752
  0
LINE
  5
430
100
AcDbEntity
  8
0
100
AcDbLine
 62
7
  6
CONTINUOUS
 10
114.6361139192
 20
84.7374455761
 11
114.6996914078
 21
84.8242300824
  0
LINE
  5
431
100
AcDbEntity
  8
0
100
AcDbLine
 62
7
  6
CONTINUOUS
 10
104.2398357362
 20
72.6023239543
 11
105.2413797673
 21
73.7117806106
  0
LINE
  5
432
100
AcDbEntity
  8
0
100
AcDbLine
 62
7
  6
CONTINUOUS
 10
114.0425121278
 20
68.5117806092
 11
113.8825121278
 21
69.3117806092
  0
LINE
  5
433
100
AcDbEntity
  8
0
100
AcDbLine
 62
7
  6
CONTINUOUS
 10
110.8858300974
 20
63.4117806092
 11
110.898393014
 21
63.3175587342
  0
LINE
  5
434
100
AcDbEntity
  8
0
100
AcDbLine
 62
7
  6
CONTINUOUS
 10
111.9825121278
 20
69.7117806092
 11
111.9699492112
 21
69.8060024842
  0
LINE
  5
435
100
AcDbEntity
  8
0
100
AcDbLine
 62
7
  6
CONTINUOUS
 10
110.8858300974
 20
63.4117806092
 11
110.8858300974
 21
63.8117806092
  0
LINE
  5
436
100
AcDbEntity
  8
0
100
AcDbLine
 62
7
  6
CONTINUOUS
 10
111.0858300974
 20
64.6117806092
 11
111.0858300974
 21
63.4117806092
  0
LINE
  5
437
100
AcDbEntity
  8
0
100
AcDbLine
 62
7
  6
CONTINUOUS
 10
111.1858300925
 20
64.9117806092
 11
111.1858300925
 21
63.0117806092
  0
LINE
  5
438
100
AcDbEntity
  8
0
100
AcDbLine
 62
7
  6
CONTINUOUS
 10
111.682512123
 20
68.2117806092
 11
111.682512123
 21
70.1117806092
  0
LINE
  5
439
100
AcDbEntity
  8
0
100
AcDbLine
 62
7
  6
CONTINUOUS
 10
111.7825121278
 20
68.5117806092
 11
111.7825121278
 21
69.7117806092
  0
LINE
  5
43A
100
AcDbEntity
  8
0
100
AcDbLine
 62
7
  6
CONTINUOUS
 10
111.9825121278
 20
69.7117806092
 11
111.9825121278
 21
69.3117806092
  0
LINE
  5
43B
100
AcDbEntity
  8
0
100
AcDbLine
 62
7
  6
CONTINUOUS
 10
108.9732671807
 20
63.3175587342
 11
108.9858300974
 21
63.4117806092
  0
LINE
  5
43C
100
AcDbEntity
  8
0
100
AcDbLine
 62
7
  6
CONTINUOUS
 10
114.9112935874
 20
84.3040395957
 11
113.7885305898
 21
82.7709569365
  0
LINE
  5
43D
100
AcDbEntity
  8
0
100
AcDbLine
 62
7
  6
CONTINUOUS
 10
114.1150549273
 20
82.5398217313
 11
115.2378179249
 21
84.0729043905
  0
LINE
  5
43E
100
AcDbEntity
  8
0
100
AcDbLine
 62
7
  6
CONTINUOUS
 10
115.7606585008
 20
84.0727117249
 11
114.2830355642
 21
82.0557277279
  0
LINE
  5
43F
100
AcDbEntity
  8
0
100
AcDbLine
 62
7
  6
CONTINUOUS
 10
110.4185222359
 20
75.5961063678
 11
117.2185222359
 21
84.8782383922
  0
LINE
  5
440
100
AcDbEntity
  8
0
100
AcDbLine
 62
7
  6
CONTINUOUS
 10
113.8825121278
 20
69.3117806092
 11
113.8825121278
 21
69.7117806092
  0
LINE
  5
441
100
AcDbEntity
  8
0
100
AcDbLine
 62
7
  6
CONTINUOUS
 10
114.0825121278
 20
69.7117806092
 11
114.0825121278
 21
68.5117806092
  0
LINE
  5
442
100
AcDbEntity
  8
0
100
AcDbLine
 62
7
  6
CONTINUOUS
 10
114.182512123
 20
70.1117806092
 11
114.182512123
 21
68.2117806092
  0
LINE
  5
443
100
AcDbEntity
  8
0
100
AcDbLine
 62
7
  6
CONTINUOUS
 10
115.5858300925
 20
53.0117806092
 11
115.5858300925
 21
57.0117806092
  0
LINE
  5
444
100
AcDbEntity
  8
0
100
AcDbLine
 62
7
  6
CONTINUOUS
 10
113.8950750445
 20
69.8060024842
 11
113.8825121278
 21
69.7117806092
  0
LINE
  5
445
100
AcDbEntity
  8
0
100
AcDbLine
 62
7
  6
CONTINUOUS
 10
111.9825121278
 20
69.3117806092
 11
111.8225121278
 21
68.5117806092
  0
LINE
  5
446
100
AcDbEntity
  8
0
100
AcDbLine
 62
7
  6
CONTINUOUS
 10
110.8858300974
 20
63.8117806092
 11
111.0458300974
 21
64.6117806092
  0
LINE
  5
447
100
AcDbEntity
  8
0
100
AcDbLine
 62
7
  6
CONTINUOUS
 10
112.1157807775
 20
62.0117806092
 11
115.4249576086
 21
68.8451776125
  0
LINE
  5
448
100
AcDbEntity
  8
0
100
AcDbLine
 62
7
  6
CONTINUOUS
 10
114.5858300925
 20
57.0117806092
 11
113.7858300925
 21
54.8117806092
  0
ARC
  5
449
100
AcDbEntity
  8
0
100
AcDbCircle
 62
7
  6
CONTINUOUS
 10
18.496534785
 20
64.9725144432
 40
2.4595655376
100
AcDbArc
 50
188.3252983527
 51
244.0855016862
  0
ARC
  5
44A
100
AcDbEntity
  8
0
100
AcDbCircle
 62
7
  6
CONTINUOUS
 10
28.0670864492
 20
84.5820840902
 40
2.4595250258
100
AcDbArc
 50
187.8777580108
 51
243.6330735167
  0
ARC
  5
44B
100
AcDbEntity
  8
0
100
AcDbCircle
 62
7
  6
CONTINUOUS
 10
33.8358300974
 20
65.7576139425
 40
2.3541666667
100
AcDbArc
 50
60.7582520228
 51
119.2417479772
  0
ARC
  5
44C
100
AcDbEntity
  8
0
100
AcDbCircle
 62
7
  6
CONTINUOUS
 10
29.9358300974
 20
53.5076139425
 40
2.3541666667
100
AcDbArc
 50
60.7582520228
 51
119.2417479772
  0
ARC
  5
44D
100
AcDbEntity
  8
0
100
AcDbCircle
 62
7
  6
CONTINUOUS
 10
49.0358300974
 20
55.9659472759
 40
2.3541666667
100
AcDbArc
 50
240.7582520228
 51
299.2417479772
  0
ARC
  5
44E
100
AcDbEntity
  8
0
100
AcDbCircle
 62
7
  6
CONTINUOUS
 10
38.6318244537
 20
76.5664784494
 40
2.3541560483
100
AcDbArc
 50
240.7581073424
 51
299.2418926575
  0
ARC
  5
44F
100
AcDbEntity
  8
0
100
AcDbCircle
 62
7
  6
CONTINUOUS
 10
43.4358300974
 20
85.3576795225
 40
2.3541094441
100
AcDbArc
 50
60.7574723227
 51
119.2425276772
  0
ARC
  5
450
100
AcDbEntity
  8
0
100
AcDbCircle
 62
7
  6
CONTINUOUS
 10
49.9716165302
 20
53.0117806092
 40
1.0
100
AcDbArc
 50
270.0
 51
314.9999999975
  0
ARC
  5
451
100
AcDbEntity
  8
0
100
AcDbCircle
 62
7
  6
CONTINUOUS
 10
37.7181588884
 20
104.1624354232
 40
2.4798393331
100
AcDbArc
 50
188.5833861963
 51
243.8480941966
  0
ARC
  5
452
100
AcDbEntity
  8
0
100
AcDbCircle
 62
7
  6
CONTINUOUS
 10
45.935830075
 20
108.1989271053
 40
2.4407536151
100
AcDbArc
 50
61.8899923666
 51
118.1100076334
  0
ARC
  5
453
100
AcDbEntity
  8
0
100
AcDbCircle
 62
7
  6
CONTINUOUS
 10
46.2358300974
 20
129.9588406836
 40
0.2
100
AcDbArc
 50
90.0000000001
 51
180.0
  0
ARC
  5
454
100
AcDbEntity
  8
0
100
AcDbCircle
 62
7
  6
CONTINUOUS
 10
46.2358300974
 20
125.1588406836
 40
0.2
100
AcDbArc
 50
180.0
 51
270.0
  0
ARC
  5
455
100
AcDbEntity
  8
0
100
AcDbCircle
 62
7
  6
CONTINUOUS
 10
48.2364448558
 20
96.1393310134
 40
2.3541666667
100
AcDbArc
 50
240.7582520227
 51
299.2417479773
  0
ARC
  5
456
100
AcDbEntity
  8
0
100
AcDbCircle
 62
7
  6
CONTINUOUS
 10
50.7858300974
 20
114.601700176
 40
12.6
100
AcDbArc
 50
75.9916386034
 51
104.9476569811
  0
ARC
  5
457
100
AcDbEntity
  8
0
100
AcDbCircle
 62
7
  6
CONTINUOUS
 10
50.7858300974
 20
114.601700176
 40
11.2
100
AcDbArc
 50
74.8112745363
 51
104.2134949784
  0
ARC
  5
458
100
AcDbEntity
  8
0
100
AcDbCircle
 62
7
  6
CONTINUOUS
 10
50.7858300974
 20
114.601700176
 40
11.1
100
AcDbArc
 50
74.7684800421
 51
104.5035593121
  0
ARC
  5
459
100
AcDbEntity
  8
0
100
AcDbCircle
 62
7
  6
CONTINUOUS
 10
50.7858300974
 20
114.6617806092
 40
11.1
100
AcDbArc
 50
73.629549263
 51
82.8923827282
  0
ARC
  5
45A
100
AcDbEntity
  8
0
100
AcDbCircle
 62
7
  6
CONTINUOUS
 10
50.7858300974
 20
114.6617806092
 40
11.1
100
AcDbArc
 50
95.4912834306
 51
103.5662609472
  0
ARC
  5
45B
100
AcDbEntity
  8
0
100
AcDbCircle
 62
7
  6
CONTINUOUS
 10
50.039996764
 20
113.5617806092
 40
2.3541666667
100
AcDbArc
 50
150.7582520227
 51
209.2417479773
  0
CIRCLE
  5
45C
100
AcDbEntity
  8
0
100
AcDbCircle
 62
7
  6
CONTINUOUS
 10
50.7858300974
 20
114.601700176
 40
1.0
  0
CIRCLE
  5
45D
100
AcDbEntity
  8
0
100
AcDbCircle
 62
7
  6
CONTINUOUS
 10
50.7858300974
 20
114.601700176
 40
0.95
  0
CIRCLE
  5
45E
100
AcDbEntity
  8
0
100
AcDbCircle
 62
7
  6
CONTINUOUS
 10
50.7858300974
 20
114.601700176
 40
0.75
  0
ARC
  5
45F
100
AcDbEntity
  8
0
100
AcDbCircle
 62
7
  6
CONTINUOUS
 10
47.444222119
 20
125.5588406836
 40
0.6
100
AcDbArc
 50
270.0
 51
350.405931773
  0
ARC
  5
460
100
AcDbEntity
  8
0
100
AcDbCircle
 62
7
  6
CONTINUOUS
 10
47.6358300974
 20
125.4088406836
 40
0.5
100
AcDbArc
 50
246.62328195
 51
314.4270040022
  0
ARC
  5
461
100
AcDbEntity
  8
0
100
AcDbCircle
 62
7
  6
CONTINUOUS
 10
49.5858300974
 20
125.4857481362
 40
0.25
100
AcDbArc
 50
42.6400472746
 51
74.1551109967
  0
ARC
  5
462
100
AcDbEntity
  8
0
100
AcDbCircle
 62
7
  6
CONTINUOUS
 10
48.0129773774
 20
128.2588406836
 40
0.1
100
AcDbArc
 50
270.0
 51
29.8989018115
  0
ARC
  5
463
100
AcDbEntity
  8
0
100
AcDbCircle
 62
7
  6
CONTINUOUS
 10
52.2858300974
 20
123.4117806092
 40
1.5
100
AcDbArc
 50
323.1301023542
 51
36.8698976458
  0
ARC
  5
464
100
AcDbEntity
  8
0
100
AcDbCircle
 62
7
  6
CONTINUOUS
 10
55.8358300974
 20
128.8588406836
 40
0.5
100
AcDbArc
 50
90.0
 51
180.0
  0
ARC
  5
465
100
AcDbEntity
  8
0
100
AcDbCircle
 62
7
  6
CONTINUOUS
 10
56.2358300974
 20
129.8588406836
 40
0.5
100
AcDbArc
 50
270.0
 51
360.0
  0
ARC
  5
466
100
AcDbEntity
  8
0
100
AcDbCircle
 62
7
  6
CONTINUOUS
 10
56.2358300974
 20
130.1588406836
 40
0.5
100
AcDbArc
 50
0.0
 51
90.0
  0
ARC
  5
467
100
AcDbEntity
  8
0
100
AcDbCircle
 62
7
  6
CONTINUOUS
 10
55.6358300974
 20
125.4535189127
 40
0.4
100
AcDbArc
 50
277.6631927951
 51
341.0762859595
  0
ARC
  5
468
100
AcDbEntity
  8
0
100
AcDbCircle
 62
7
  6
CONTINUOUS
 10
55.0358300974
 20
125.7104625465
 40
0.3
100
AcDbArc
 50
270.0000000003
 51
360.0
  0
ARC
  5
469
100
AcDbEntity
  8
0
100
AcDbCircle
 62
7
  6
CONTINUOUS
 10
52.2858300974
 20
125.4484738899
 40
0.25
100
AcDbArc
 50
107.3880876787
 51
135.7780850653
  0
ARC
  5
46A
100
AcDbEntity
  8
0
100
AcDbCircle
 62
7
  6
CONTINUOUS
 10
56.1313012641
 20
126.1278497982
 40
0.25
100
AcDbArc
 50
71.0762859641
 51
161.0762859596
  0
ARC
  5
46B
100
AcDbEntity
  8
0
100
AcDbCircle
 62
7
  6
CONTINUOUS
 10
56.043474865
 20
126.180023846
 40
0.25
100
AcDbArc
 50
341.0762859791
 51
47.4981074865
  0
ARC
  5
46C
100
AcDbEntity
  8
0
100
AcDbCircle
 62
7
  6
CONTINUOUS
 10
53.3586828173
 20
128.2588406836
 40
0.1
100
AcDbArc
 50
150.101098198
 51
270.0
  0
ARC
  5
46D
100
AcDbEntity
  8
0
100
AcDbCircle
 62
7
  6
CONTINUOUS
 10
112.9045737455
 20
84.5820840902
 40
2.4595250258
100
AcDbArc
 50
296.3669264835
 51
352.1224838486
  0
ARC
  5
46E
100
AcDbEntity
  8
0
100
AcDbCircle
 62
7
  6
CONTINUOUS
 10
102.339835741
 20
76.6063062712
 40
2.3889876419
100
AcDbArc
 50
241.2247266206
 51
298.7752733793
  0
ARC
  5
46F
100
AcDbEntity
  8
0
100
AcDbCircle
 62
7
  6
CONTINUOUS
 10
112.9325121278
 20
67.6576139425
 40
2.3541666667
100
AcDbArc
 50
60.7582520228
 51
119.2417479772
  0
ARC
  5
470
100
AcDbEntity
  8
0
100
AcDbCircle
 62
7
  6
CONTINUOUS
 10
109.9358300974
 20
65.4659472759
 40
2.3541666667
100
AcDbArc
 50
240.7582520228
 51
299.2417479772
  0
ARC
  5
471
100
AcDbEntity
  8
0
100
AcDbCircle
 62
7
  6
CONTINUOUS
 10
80.3858300974
 20
62.1659472759
 40
2.3541666667
100
AcDbArc
 50
240.7582520228
 51
299.2417479772
  0
ARC
  5
472
100
AcDbEntity
  8
0
100
AcDbCircle
 62
7
  6
CONTINUOUS
 10
97.5358300974
 20
85.357636347
 40
2.3541471173
100
AcDbArc
 50
60.7579856535
 51
119.2420143465
  0
ARC
  5
473
100
AcDbEntity
  8
0
100
AcDbCircle
 62
7
  6
CONTINUOUS
 10
114.2549315216
 20
69.4117806092
 40
1.3
100
AcDbArc
 50
334.1607050652
 51
90.0
  0
ARC
  5
474
100
AcDbEntity
  8
0
100
AcDbCircle
 62
7
  6
CONTINUOUS
 10
86.5999283671
 20
53.0117806092
 40
1.0
100
AcDbArc
 50
206.1688779264
 51
270.0
  0
ARC
  5
475
100
AcDbEntity
  8
0
100
AcDbCircle
 62
7
  6
CONTINUOUS
 10
114.5858300925
 20
53.0117806092
 40
1.0
100
AcDbArc
 50
270.0
 51
360.0
  0
ARC
  5
476
100
AcDbEntity
  8
0
100
AcDbCircle
 62
7
  6
CONTINUOUS
 10
83.2496033952
 20
59.0117806092
 40
0.8
100
AcDbArc
 50
270.0
 51
8.9726265949
  0
ARC
  5
477
100
AcDbEntity
  8
0
100
AcDbCircle
 62
7
  6
CONTINUOUS
 10
111.7186794497
 20
61.5117806092
 40
0.5
100
AcDbArc
 50
90.0
 51
190.6603482811
  0
ARC
  5
478
100
AcDbEntity
  8
0
100
AcDbCircle
 62
7
  6
CONTINUOUS
 10
109.6835553493
 20
61.5117806092
 40
0.5
100
AcDbArc
 50
10.6603483101
 51
90.0
  0
ARC
  5
479
100
AcDbEntity
  8
0
100
AcDbCircle
 62
7
  6
CONTINUOUS
 10
111.0953200552
 20
54.0117806092
 40
0.5
100
AcDbArc
 50
270.0
 51
10.6603482215
  0
ARC
  5
47A
100
AcDbEntity
  8
0
100
AcDbCircle
 62
7
  6
CONTINUOUS
 10
87.6128821054
 20
54.0117806092
 40
0.5
100
AcDbArc
 50
190.6603482969
 51
270.0
  0
ARC
  5
47B
100
AcDbEntity
  8
0
100
AcDbCircle
 62
7
  6
CONTINUOUS
 10
86.2011173995
 20
61.5117806092
 40
0.5
100
AcDbArc
 50
90.0
 51
190.6603482964
  0
ARC
  5
47C
100
AcDbEntity
  8
0
100
AcDbCircle
 62
7
  6
CONTINUOUS
 10
84.3983300974
 20
123.6617806092
 40
8.5875
100
AcDbArc
 50
344.8107132628
 51
9.4824007493
  0
ARC
  5
47D
100
AcDbEntity
  8
0
100
AcDbCircle
 62
7
  6
CONTINUOUS
 10
92.7352153389
 20
96.313687371
 40
2.5077509585
100
AcDbArc
 50
242.7042036468
 51
297.2954013812
  0
ARC
  5
47E
100
AcDbEntity
  8
0
100
AcDbCircle
 62
7
  6
CONTINUOUS
 10
103.2535013063
 20
104.1624354232
 40
2.4798393331
100
AcDbArc
 50
296.1519058034
 51
351.4166138037
  0
ARC
  5
47F
100
AcDbEntity
  8
0
100
AcDbCircle
 62
7
  6
CONTINUOUS
 10
93.9358300974
 20
108.1680549881
 40
2.4680270639
100
AcDbArc
 50
62.2276803
 51
117.7723197
  0
ARC
  5
480
100
AcDbEntity
  8
0
100
AcDbCircle
 62
7
  6
CONTINUOUS
 10
92.9399967638
 20
123.6617806092
 40
2.3541666665
100
AcDbArc
 50
150.75825202
 51
209.24174798
  0
ARC
  5
481
100
AcDbEntity
  8
0
100
AcDbCircle
 62
7
  6
CONTINUOUS
 10
83.1316634307
 20
123.6617806092
 40
2.3541666667
100
AcDbArc
 50
330.7582520228
 51
29.2417479772
  0
ARC
  5
482
100
AcDbEntity
  8
0
100
AcDbCircle
 62
7
  6
CONTINUOUS
 10
74.2358300974
 20
106.5576182715
 40
2.3541628894
100
AcDbArc
 50
60.7582005556
 51
119.2417994445
  0
ARC
  5
483
100
AcDbEntity
  8
0
100
AcDbCircle
 62
7
  6
CONTINUOUS
 10
88.0358300925
 20
127.7117806092
 40
1.475
100
AcDbArc
 50
0.0
 51
180.0
  0
ARC
  5
484
100
AcDbEntity
  8
0
100
AcDbCircle
 62
7
  6
CONTINUOUS
 10
91.8821564081
 20
124.9117806092
 40
1.0
100
AcDbArc
 50
9.4824007456
 51
90.0
  0
ENDSEC
  0
SECTION
  2
OBJECTS
  0
DICTIONARY
  5
C
100
AcDbDictionary
280
0
281
1
  3
ACAD_GROUP
350
D
  3
ACAD_MLINESTYLE
350
17
  3
ACAD_LAYOUT
350
1A
  3
ACAD_PLOTSETTINGS
350
19
  3
ACAD_PLOTSTYLENAME
350
E
  0
DICTIONARY
  5
D
102
{ACAD_REACTORS
330
C
102
}
100
AcDbDictionary
280
0
281
1
  0
ACDBDICTIONARYWDFLT
  5
E
102
{ACAD_REACTORS
330
C
102
}
100
AcDbDictionary
281
1
  3
Normal
350
F
100
AcDbDictionaryWithDefault
340
F
  0
DICTIONARY
  5
17
102
{ACAD_REACTORS
330
C
102
}
100
AcDbDictionary
280
0
281
1
  3
Standard
350
18
  0
DICTIONARY
  5
19
102
{ACAD_REACTORS
330
C
102
}
100
AcDbDictionary
281
1
  0
DICTIONARY
  5
1A
102
{ACAD_REACTORS
330
C
102
}
100
AcDbDictionary
281
1
  3
Model
350
485
  3
Layout1
350
486
  0
ACDBPLACEHOLDER
  5
F
102
{ACAD_REACTORS
330
E
102
}
  0
MLINESTYLE
  5
18
102
{ACAD_REACTORS
330
17
102
}
100
AcDbMlineStyle
  2
STANDARD
 70
0
  3

 62
256
 51
90.0
 52
90.0
 71
2
 49
0.5
 62
256
  6
BYLAYER
 49
-0.5
 62
256
  6
BYLAYER
  0
LAYOUT
  5
485
102
{ACAD_REACTORS
330
1A
102
}
100
AcDbPlotSettings
  1

  2
none_device
  4

  6

 40
0.0
 41
0.0
 42
0.0
 43
0.0
 44
210.0
 45
297.0
 46
0.0
 47
0.0
 48
0.0
 49
0.0
140
0.0
141
0.0
142
1.0
143
1.0
 70
1024
 72
1
 73
0
 74
0
  7

 75
0
147
1.0
148
0.0
149
0.0
100
AcDbLayout
  1
Model
 70
0
 71
0
 10
0.0
 20
0.0
 11
210.0
 21
297.0
 12
0.0
 22
0.0
 32
0.0
 14
0.0
 24
0.0
 34
0.0
 15
0.0
 25
0.0
 35
0.0
146
0.0
 13
0.0
 23
0.0
 33
0.0
 16
1.0
 26
0.0
 36
0.0
 17
0.0
 27
1.0
 37
0.0
 76
0
330
210
345
0
346
0
  0
LAYOUT
  5
486
102
{ACAD_REACTORS
330
1A
102
}
100
AcDbPlotSettings
  1

  2
none_device
  4

  6

 40
0.0
 41
0.0
 42
0.0
 43
0.0
 44
210.0
 45
297.0
 46
0.0
 47
0.0
 48
0.0
 49
0.0
140
0.0
141
0.0
142
1.0
143
1.0
 70
0
 72
1
 73
0
 74
0
  7

 75
0
147
1.0
148
0.0
149
0.0
100
AcDbLayout
  1
Layout1
 70
0
 71
1
 10
0.0
 20
0.0
 11
210.0
 21
297.0
 12
0.0
 22
0.0
 32
0.0
 14
0.0
 24
0.0
 34
0.0
 15
0.0
 25
0.0
 35
0.0
146
0.0
 13
0.0
 23
0.0
 33
0.0
 16
1.0
 26
0.0
 36
0.0
 17
0.0
 27
1.0
 37
0.0
 76
0
330
211
345
0
346
0
  0
ENDSEC
  0
EOF
