999
DXF file: C:\Users\sesa63760\Dev\_Creo\CAD\MCADID0001801_3D-CAD\drw0001_1.dxf
999
Pro/ENGINEER 2019471 by Parametric Technology Corporation
  0
SECTION
  2
HEADER
  9
$ACADVER
  1
AC1024
  9
$DWGCODEPAGE
  3
ANSI_1252
  9
$EXTMAX
 10
45.3926973979
 20
64.1982434628
 30
0.0
  9
$EXTMIN
 10
0.0
 20
0.0
 30
0.0
  9
$LIMMIN
 10
0.0
 20
0.0
  9
$LIMMAX
 10
45.3926973979
 20
64.1982434628
  9
$VIEWCTR
 10
22.696348699
 20
32.0991217314
  9
$VIEWSIZE
 40
64.1982434628
  9
$CLAYER
  8
0
  9
$LTSCALE
 40
4.1847743887
  9
$CELTYPE
  6
BYLAYER
  9
$DIMSCALE
 40
1.0
  9
$DIMASZ
 40
0.5403892547
  9
$DIMEXO
 40
1.0
  9
$DIMDLI
 40
2.8912986685
  9
$DIMEXE
 40
1.0
  9
$DIMCEN
 40
0.6847812636
  9
$DIMLFAC
 40
1.0
  9
$DIMBLK
  1
_FILLED
  9
$DIMALT
 70
0
  9
$DIMALTF
 40
0.0393700787
  9
$DIMTXT
 40
0.7565449566
  9
$DIMTOL
 70
1
  9
$DIMLIM
 70
0
  9
$DIMTFAC
 40
1.0
  9
$DIMTP
 40
0.01
  9
$DIMTM
 40
0.01
  9
$DIMGAP
 40
0.625
  9
$DIMDSEP
 70
46
  9
$AUNITS
 70
0
  9
$PDMODE
 70
3
  9
$PDSIZE
 40
0.3125
  9
$HANDSEED
  5
30E
  9
$TILEMODE
 70
1
  9
$MEASUREMENT
 70
1
  9
$INSUNITS
 70
4
  0
ENDSEC
  0
SECTION
  2
CLASSES
  0
CLASS
  1
ACDBDICTIONARYWDFLT
  2
AcDbDictionaryWithDefault
  3
AutoCAD 2000
 90
0
 91
1
280
0
281
0
  0
CLASS
  1
ACDBPLACEHOLDER
  2
AcDbPlaceHolder
  3
AutoCAD 2000
 90
0
 91
1
280
0
281
0
  0
CLASS
  1
LAYOUT
  2
AcDbLayout
  3
AutoCAD 2000
 90
0
 91
0
280
0
281
0
  0
ENDSEC
  0
SECTION
  2
TABLES
  0
TABLE
  2
VPORT
  5
8
100
AcDbSymbolTable
 70
2
  0
VPORT
  5
1F4
100
AcDbSymbolTableRecord
100
AcDbViewportTableRecord
  2
*ACTIVE
 70
0
 10
0.0
 20
0.0
 11
1.0
 21
1.0
 12
22.696348699
 22
32.0991217314
 13
0.0
 23
0.0
 14
1.0
 24
1.0
 15
0.0
 25
0.0
 16
0.0
 26
0.0
 36
1.0
 17
0.0
 27
0.0
 37
0.0
 40
64.1982434628
 41
0.7070707071
 42
50.0
 43
0.0
 44
0.0
 50
0.0
 51
0.0
 71
0
 72
100
 73
1
 74
1
 75
0
 76
0
 77
0
 78
0
  0
ENDTAB
  0
TABLE
  2
LTYPE
  5
5
100
AcDbSymbolTable
 70
6
  0
LTYPE
  5
14
100
AcDbSymbolTableRecord
100
AcDbLinetypeTableRecord
  2
BYBLOCK
 70
0
  3

 72
65
 73
0
 40
0.0
  0
LTYPE
  5
15
100
AcDbSymbolTableRecord
100
AcDbLinetypeTableRecord
  2
BYLAYER
 70
0
  3

 72
65
 73
0
 40
0.0
  0
LTYPE
  5
16
100
AcDbSymbolTableRecord
100
AcDbLinetypeTableRecord
  2
CONTINUOUS
 70
64
  3
Solid line
 72
65
 73
0
 40
0.0
  0
LTYPE
  5
1F5
100
AcDbSymbolTableRecord
100
AcDbLinetypeTableRecord
  2
CENTER
 70
64
  3
____ _ ____ _ ____ _ ____ _ ____ _ ____ _ ____
 72
65
 73
4
 40
0.6
 49
0.375
 74
0
 49
-0.075
 74
0
 49
0.075
 74
0
 49
-0.075
 74
0
  0
LTYPE
  5
1F6
100
AcDbSymbolTableRecord
100
AcDbLinetypeTableRecord
  2
HIDDEN
 70
64
  3
- - - - - - - - - - - - - - - - - - - -
 72
65
 73
2
 40
0.2
 49
0.1
 74
0
 49
-0.1
 74
0
  0
LTYPE
  5
1F7
100
AcDbSymbolTableRecord
100
AcDbLinetypeTableRecord
  2
PHANTOM
 70
64
  3
_____ _ _ _____ _ _ _____ _ _ _____
 72
65
 73
6
 40
0.8
 49
0.45
 74
0
 49
-0.05
 74
0
 49
0.1
 74
0
 49
-0.05
 74
0
 49
0.1
 74
0
 49
-0.05
 74
0
  0
LTYPE
  5
1F8
100
AcDbSymbolTableRecord
100
AcDbLinetypeTableRecord
  2
DOT
 70
64
  3
. . . . . . . . . . . . . . . . . . . .
 72
65
 73
2
 40
0.2
 49
0.1
 74
0
 49
-0.1
 74
0
  0
LTYPE
  5
1F9
100
AcDbSymbolTableRecord
100
AcDbLinetypeTableRecord
  2
DASHED
 70
64
  3
- - - - - - - - - - - - - - - - - - - -
 72
65
 73
2
 40
0.2
 49
0.1
 74
0
 49
-0.1
 74
0
  0
ENDTAB
  0
TABLE
  2
LAYER
  5
2
100
AcDbSymbolTable
 70
36
  0
LAYER
  5
10
100
AcDbSymbolTableRecord
100
AcDbLayerTableRecord
  2
0
 70
0
 62
7
  6
CONTINUOUS
370
-3
390
F
  0
LAYER
  5
1FA
100
AcDbSymbolTableRecord
100
AcDbLayerTableRecord
  2
DEFAULT_1
 70
0
 62
7
  6
CENTER
370
-3
390
F
  0
LAYER
  5
1FB
100
AcDbSymbolTableRecord
100
AcDbLayerTableRecord
  2
DEFAULT_2
 70
0
 62
8
  6
HIDDEN
370
-3
390
F
  0
LAYER
  5
1FC
100
AcDbSymbolTableRecord
100
AcDbLayerTableRecord
  2
DEFAULT_3
 70
0
 62
7
  6
PHANTOM
370
-3
390
F
  0
LAYER
  5
1FD
100
AcDbSymbolTableRecord
100
AcDbLayerTableRecord
  2
00_COMPONENTS
 70
0
 62
7
  6
CONTINUOUS
370
-3
390
F
  0
LAYER
  5
1FE
100
AcDbSymbolTableRecord
100
AcDbLayerTableRecord
  2
01_1_DEFAULT_DATUMS
 70
0
 62
7
  6
CONTINUOUS
370
-3
390
F
  0
LAYER
  5
1FF
100
AcDbSymbolTableRecord
100
AcDbLayerTableRecord
  2
01_PLANES
 70
0
 62
7
  6
CONTINUOUS
370
-3
390
F
  0
LAYER
  5
200
100
AcDbSymbolTableRecord
100
AcDbLayerTableRecord
  2
02_COORD_SYS
 70
0
 62
7
  6
CONTINUOUS
370
-3
390
F
  0
LAYER
  5
201
100
AcDbSymbolTableRecord
100
AcDbLayerTableRecord
  2
03_AXES
 70
0
 62
7
  6
CONTINUOUS
370
-3
390
F
  0
LAYER
  5
202
100
AcDbSymbolTableRecord
100
AcDbLayerTableRecord
  2
04_POINTS
 70
0
 62
7
  6
CONTINUOUS
370
-3
390
F
  0
LAYER
  5
203
100
AcDbSymbolTableRecord
100
AcDbLayerTableRecord
  2
05_CURVES
 70
0
 62
7
  6
CONTINUOUS
370
-3
390
F
  0
LAYER
  5
204
100
AcDbSymbolTableRecord
100
AcDbLayerTableRecord
  2
06_SURFS
 70
0
 62
7
  6
CONTINUOUS
370
-3
390
F
  0
LAYER
  5
205
100
AcDbSymbolTableRecord
100
AcDbLayerTableRecord
  2
07_COSMETICS
 70
0
 62
7
  6
CONTINUOUS
370
-3
390
F
  0
LAYER
  5
206
100
AcDbSymbolTableRecord
100
AcDbLayerTableRecord
  2
10_NOTES
 70
0
 62
7
  6
CONTINUOUS
370
-3
390
F
  0
LAYER
  5
207
100
AcDbSymbolTableRecord
100
AcDbLayerTableRecord
  2
11_NOTES_PUB
 70
0
 62
7
  6
CONTINUOUS
370
-3
390
F
  0
LAYER
  5
208
100
AcDbSymbolTableRecord
100
AcDbLayerTableRecord
  2
13_REF_GTOL
 70
0
 62
7
  6
CONTINUOUS
370
-3
390
F
  0
LAYER
  5
209
100
AcDbSymbolTableRecord
100
AcDbLayerTableRecord
  2
16_MISC
 70
0
 62
7
  6
CONTINUOUS
370
-3
390
F
  0
LAYER
  5
20A
100
AcDbSymbolTableRecord
100
AcDbLayerTableRecord
  2
17_NO_PRINT
 70
0
 62
7
  6
CONTINUOUS
370
-3
390
F
  0
LAYER
  5
20B
100
AcDbSymbolTableRecord
100
AcDbLayerTableRecord
  2
18_DATUM_CAMS_JOINTS
 70
0
 62
7
  6
CONTINUOUS
370
-3
390
F
  0
LAYER
  5
20C
100
AcDbSymbolTableRecord
100
AcDbLayerTableRecord
  2
19_DATUM_FUNCTIONAL
 70
0
 62
7
  6
CONTINUOUS
370
-3
390
F
  0
LAYER
  5
20D
100
AcDbSymbolTableRecord
100
AcDbLayerTableRecord
  2
20_DATUM_KINEMATIC_SCHEME
 70
0
 62
7
  6
CONTINUOUS
370
-3
390
F
  0
ENDTAB
  0
TABLE
  2
STYLE
  5
3
100
AcDbSymbolTable
 70
1
  0
STYLE
  5
11
100
AcDbSymbolTableRecord
100
AcDbTextStyleTableRecord
  2
STANDARD
 70
0
 40
0.0
 41
0.8
 50
0.0
 71
0
 42
0.2
  3
txt
  4

  0
STYLE
  5
20E
100
AcDbSymbolTableRecord
100
AcDbTextStyleTableRecord
  2
TEXTSTYLE_1
 70
0
 40
0.0
 41
0.8
 50
0.0
 71
0
 42
0.2
  3
gdt
  4

  0
ENDTAB
  0
TABLE
  2
VIEW
  5
6
100
AcDbSymbolTable
 70
0
  0
ENDTAB
  0
TABLE
  2
UCS
  5
7
100
AcDbSymbolTable
 70
0
  0
ENDTAB
  0
TABLE
  2
APPID
  5
9
100
AcDbSymbolTable
 70
1
  0
APPID
  5
20F
100
AcDbSymbolTableRecord
100
AcDbRegAppTableRecord
  2
ACAD
 70
0
  0
ENDTAB
  0
TABLE
  2
BLOCK_RECORD
  5
1
100
AcDbSymbolTable
 70
0
  0
BLOCK_RECORD
  5
210
100
AcDbSymbolTableRecord
100
AcDbBlockTableRecord
  2
*Model_Space
  0
BLOCK_RECORD
  5
211
100
AcDbSymbolTableRecord
100
AcDbBlockTableRecord
  2
*Paper_Space
  0
BLOCK_RECORD
  5
212
100
AcDbSymbolTableRecord
100
AcDbBlockTableRecord
  2
_FILLED
  0
ENDTAB
  0
TABLE
  2
DIMSTYLE
  5
A
100
AcDbSymbolTable
 70
1
100
AcDbDimStyleTable
 71
0
  0
DIMSTYLE
105
213
100
AcDbSymbolTableRecord
100
AcDbDimStyleTableRecord
  2
STANDARD
 70
0
  3

  4

 40
1.0
 41
0.5403892547
 42
1.0
 43
0.38
 44
1.0
 45
0.0
 46
0.0
 47
0.01
 48
0.01
140
0.7565449566
141
0.09
142
0.0
143
25.4
144
1.0
145
0.0
146
1.0
147
0.625
 71
1
 72
0
 73
0
 74
0
 75
0
 76
0
 77
1
 78
8
 79
2
170
0
171
1
172
0
173
0
174
0
175
0
176
0
177
0
178
0
270
2
179
2
271
2
272
2
273
2
274
2
275
0
280
0
281
0
282
0
283
1
284
8
285
0
286
0
287
3
288
0
340
11
278
46
341
212
342
212
343
212
344
212
  0
ENDTAB
  0
ENDSEC
  0
SECTION
  2
BLOCKS
  0
BLOCK
  5
20
100
AcDbEntity
  8
0
100
AcDbBlockBegin
  2
*Model_Space
 70
0
 10
0.0
 20
0.0
 30
0.0
  3
*Model_Space
  1

  0
ENDBLK
  5
21
100
AcDbEntity
  8
0
100
AcDbBlockEnd
  0
BLOCK
  5
1C
100
AcDbEntity
  8
0
100
AcDbBlockBegin
  2
*Paper_Space
 70
0
 10
0.0
 20
0.0
 30
0.0
  3
*Paper_Space
  1

  0
ENDBLK
  5
1D
100
AcDbEntity
  8
0
100
AcDbBlockEnd
  0
BLOCK
  5
214
100
AcDbEntity
  8
0
100
AcDbBlockBegin
  2
_FILLED
 70
64
 10
0.0
 20
0.0
  3
_FILLED
  1

  0
SOLID
  5
215
100
AcDbEntity
  8
0
  6
BYBLOCK
 62
0
100
AcDbTrace
 10
0.0
 20
0.0
 11
-1.0
 21
0.25
 12
-1.0
 22
-0.25
 13
-1.0
 23
-0.25
  0
ENDBLK
  5
216
100
AcDbEntity
  8
0
  6
BYBLOCK
 62
0
100
AcDbBlockEnd
  0
ENDSEC
  0
SECTION
  2
ENTITIES
  0
LINE
  5
217
100
AcDbEntity
  8
0
100
AcDbLine
 62
7
  6
CONTINUOUS
 10
13.2772858132
 20
8.3670212303
 11
5.7169868666
 21
12.7318631164
  0
LINE
  5
218
100
AcDbEntity
  8
0
100
AcDbLine
 62
7
  6
CONTINUOUS
 10
20.6242740922
 20
4.9548979854
 11
13.799251025
 21
8.895237748
  0
LINE
  5
219
100
AcDbEntity
  8
0
100
AcDbLine
 62
7
  6
CONTINUOUS
 10
10.8626666323
 20
51.2392926147
 11
11.581087122
 21
51.6540775694
  0
LINE
  5
21A
100
AcDbEntity
  8
0
100
AcDbLine
 62
7
  6
CONTINUOUS
 10
14.9037680531
 20
53.5724168485
 11
14.1853475634
 21
53.1576318937
  0
LINE
  5
21B
100
AcDbEntity
  8
0
100
AcDbLine
 62
7
  6
CONTINUOUS
 10
19.070589545
 20
55.9781179984
 11
18.3521690553
 21
55.5633330436
  0
LINE
  5
21C
100
AcDbEntity
  8
0
100
AcDbLine
 62
7
  6
CONTINUOUS
 10
25.6620728615
 20
59.4000220935
 11
23.0218885541
 21
57.8757200718
  0
LINE
  5
21D
100
AcDbEntity
  8
0
100
AcDbLine
 62
7
  6
CONTINUOUS
 10
23.3811002945
 20
57.6683337685
 11
26.0212846019
 21
59.1926357902
  0
LINE
  5
21E
100
AcDbEntity
  8
0
100
AcDbLine
 62
7
  6
CONTINUOUS
 10
5.7169868666
 20
15.4279540977
 11
20.6242740922
 21
6.8214225109
  0
LINE
  5
21F
100
AcDbEntity
  8
0
100
AcDbLine
 62
7
  6
CONTINUOUS
 10
5.8516905215
 20
15.4538778174
 11
20.5793718769
 21
6.9510393822
  0
LINE
  5
220
100
AcDbEntity
  8
0
100
AcDbLine
 62
7
  6
CONTINUOUS
 10
20.6242740922
 20
7.0288141249
 11
5.7169868666
 21
15.6353457117
  0
LINE
  5
221
100
AcDbEntity
  8
0
100
AcDbLine
 62
7
  6
CONTINUOUS
 10
21.7107958368
 20
54.4538286692
 11
21.3515870874
 21
54.246440639
  0
LINE
  5
222
100
AcDbEntity
  8
0
100
AcDbLine
 62
7
  6
CONTINUOUS
 10
17.5439743448
 20
52.0481275193
 11
17.1847655955
 21
51.8407394891
  0
LINE
  5
223
100
AcDbEntity
  8
0
100
AcDbLine
 62
7
  6
CONTINUOUS
 10
14.2212934138
 20
50.1297882402
 11
13.8620846644
 21
49.92240021
  0
LINE
  5
224
100
AcDbEntity
  8
0
100
AcDbLine
 62
7
  6
CONTINUOUS
 10
25.2578670663
 20
55.9520367647
 11
23.7379501808
 21
55.0745175798
  0
LINE
  5
225
100
AcDbEntity
  8
0
100
AcDbLine
 62
7
  6
CONTINUOUS
 10
22.6626798048
 20
54.4537136444
 11
21.9711827727
 21
54.0544800299
  0
LINE
  5
226
100
AcDbEntity
  8
0
100
AcDbLine
 62
7
  6
CONTINUOUS
 10
18.3521690553
 20
51.9650539581
 11
17.7819950697
 21
51.6358658191
  0
LINE
  5
227
100
AcDbEntity
  8
0
100
AcDbLine
 62
7
  6
CONTINUOUS
 10
16.0770831006
 20
50.6515403104
 11
15.2928598706
 21
50.1987715201
  0
LINE
  5
228
100
AcDbEntity
  8
0
100
AcDbLine
 62
7
  6
CONTINUOUS
 10
9.2192721723
 20
46.6922049589
 11
5.7169868666
 21
44.6701716648
  0
LINE
  5
229
100
AcDbEntity
  8
0
100
AcDbLine
 62
7
  6
CONTINUOUS
 10
9.3988780425
 20
46.5885118073
 11
10.8626666323
 21
47.433625499
  0
LINE
  5
22A
100
AcDbEntity
  8
0
100
AcDbLine
 62
7
  6
CONTINUOUS
 10
12.0075075822
 20
48.0945957841
 11
12.8959825001
 21
48.6075539552
  0
LINE
  5
22B
100
AcDbEntity
  8
0
100
AcDbLine
 62
7
  6
CONTINUOUS
 10
19.4970100052
 20
52.4186362131
 11
20.3854849231
 21
52.9315943842
  0
LINE
  5
22C
100
AcDbEntity
  8
0
100
AcDbLine
 62
7
  6
CONTINUOUS
 10
22.038618992
 20
53.8860260867
 11
22.1507886428
 21
53.9507868782
  0
LINE
  5
22D
100
AcDbEntity
  8
0
100
AcDbLine
 62
7
  6
CONTINUOUS
 10
14.2212964048
 20
49.3002306788
 11
14.5805051541
 21
49.507618709
  0
LINE
  5
22E
100
AcDbEntity
  8
0
100
AcDbLine
 62
7
  6
CONTINUOUS
 10
17.5439773359
 20
51.2185699579
 11
17.9031860852
 21
51.4259579881
  0
LINE
  5
22F
100
AcDbEntity
  8
0
100
AcDbLine
 62
7
  6
CONTINUOUS
 10
21.7107988278
 20
53.6242711078
 11
22.0700075771
 21
53.831659138
  0
LINE
  5
230
100
AcDbEntity
  8
0
100
AcDbLine
 62
7
  6
CONTINUOUS
 10
5.7169868666
 20
12.7318631164
 11
5.7169868666
 21
15.4279540977
  0
LINE
  5
231
100
AcDbEntity
  8
0
100
AcDbLine
 62
7
  6
CONTINUOUS
 10
5.7169868666
 20
15.6353457117
 11
5.7169868666
 21
43.4258219811
  0
LINE
  5
232
100
AcDbEntity
  8
0
100
AcDbLine
 62
7
  6
CONTINUOUS
 10
5.7169868666
 20
43.6332135951
 11
5.7169868666
 21
44.6701716648
  0
LINE
  5
233
100
AcDbEntity
  8
0
100
AcDbLine
 62
7
  6
CONTINUOUS
 10
5.8516905215
 20
15.4538778174
 11
5.8516905215
 21
15.5575762797
  0
LINE
  5
234
100
AcDbEntity
  8
0
100
AcDbLine
 62
7
  6
CONTINUOUS
 10
5.896591989
 20
43.4258224128
 11
5.896591989
 21
43.5295208751
  0
LINE
  5
235
100
AcDbEntity
  8
0
100
AcDbLine
 62
7
  6
CONTINUOUS
 10
5.8965958405
 20
43.5295186515
 11
5.7169868666
 21
43.4258219811
  0
LINE
  5
236
100
AcDbEntity
  8
0
100
AcDbLine
 62
7
  6
CONTINUOUS
 10
28.1507871723
 20
9.3003063997
 11
28.8692230678
 21
8.8855266256
  0
LINE
  5
237
100
AcDbEntity
  8
0
100
AcDbLine
 62
7
  6
CONTINUOUS
 10
23.0218915452
 20
51.4465889338
 11
26.3804933512
 21
53.3856670158
  0
LINE
  5
238
100
AcDbEntity
  8
0
100
AcDbLine
 62
7
  6
CONTINUOUS
 10
22.6626798048
 20
57.2535488137
 11
23.0218885541
 21
57.8757200718
  0
LINE
  5
239
100
AcDbEntity
  8
0
100
AcDbLine
 62
7
  6
CONTINUOUS
 10
19.6633512804
 20
46.9878857453
 11
18.9449307907
 21
46.5731007905
  0
LINE
  5
23A
100
AcDbEntity
  8
0
100
AcDbLine
 62
7
  6
CONTINUOUS
 10
22.9860322115
 20
48.9062250243
 11
22.2676117218
 21
48.4914400695
  0
LINE
  5
23B
100
AcDbEntity
  8
0
100
AcDbLine
 62
7
  6
CONTINUOUS
 10
27.1528537034
 20
51.3119261743
 11
26.4344332138
 21
50.8971412195
  0
LINE
  5
23C
100
AcDbEntity
  8
0
100
AcDbLine
 62
7
  6
CONTINUOUS
 10
14.2212964048
 20
43.7006571022
 11
14.5805051541
 21
43.9080451323
  0
LINE
  5
23D
100
AcDbEntity
  8
0
100
AcDbLine
 62
7
  6
CONTINUOUS
 10
17.5439773359
 20
45.6189963812
 11
17.9031860852
 21
45.8263844114
  0
LINE
  5
23E
100
AcDbEntity
  8
0
100
AcDbLine
 62
7
  6
CONTINUOUS
 10
21.7107988278
 20
48.0246975311
 11
22.0700075771
 21
48.2320855613
  0
LINE
  5
23F
100
AcDbEntity
  8
0
100
AcDbLine
 62
7
  6
CONTINUOUS
 10
31.1310529893
 20
52.8101790471
 11
30.9514486146
 21
52.706485032
  0
LINE
  5
240
100
AcDbEntity
  8
0
100
AcDbLine
 62
7
  6
CONTINUOUS
 10
11.5541761522
 20
41.507531403
 11
11.3745717775
 21
41.4038373879
  0
LINE
  5
241
100
AcDbEntity
  8
0
100
AcDbLine
 62
7
  6
CONTINUOUS
 10
11.3745717775
 20
40.3668793181
 11
11.5541761522
 21
40.4705733332
  0
LINE
  5
242
100
AcDbEntity
  8
0
100
AcDbLine
 62
7
  6
CONTINUOUS
 10
10.8626666323
 20
45.639719038
 11
10.8626666323
 21
51.2392926147
  0
LINE
  5
243
100
AcDbEntity
  8
0
100
AcDbLine
 62
7
  6
CONTINUOUS
 10
11.3745717775
 20
41.4038373879
 11
11.3745717775
 21
40.3668793181
  0
LINE
  5
244
100
AcDbEntity
  8
0
100
AcDbLine
 62
7
  6
CONTINUOUS
 10
11.5541761522
 20
41.507531403
 11
11.5541761522
 21
40.4705733332
  0
LINE
  5
245
100
AcDbEntity
  8
0
100
AcDbLine
 62
7
  6
CONTINUOUS
 10
23.3811002945
 20
57.6683337685
 11
23.0218915452
 21
57.0461625104
  0
LINE
  5
246
100
AcDbEntity
  8
0
100
AcDbLine
 62
7
  6
CONTINUOUS
 10
35.3607898516
 20
53.8005919045
 11
32.7206055442
 21
52.2762898828
  0
LINE
  5
247
100
AcDbEntity
  8
0
100
AcDbLine
 62
7
  6
CONTINUOUS
 10
33.0798172846
 20
52.0689035795
 11
35.720001592
 21
53.5932056012
  0
LINE
  5
248
100
AcDbEntity
  8
0
100
AcDbLine
 62
7
  6
CONTINUOUS
 10
29.7930599952
 20
49.787636845
 11
29.4338512459
 21
49.5802488149
  0
LINE
  5
249
100
AcDbEntity
  8
0
100
AcDbLine
 62
7
  6
CONTINUOUS
 10
25.6262385033
 20
47.3819356951
 11
25.2670297539
 21
47.1745476649
  0
LINE
  5
24A
100
AcDbEntity
  8
0
100
AcDbLine
 62
7
  6
CONTINUOUS
 10
22.3035575722
 20
45.463596416
 11
21.9443488229
 21
45.2562083859
  0
LINE
  5
24B
100
AcDbEntity
  8
0
100
AcDbLine
 62
7
  6
CONTINUOUS
 10
22.3035605633
 20
44.6340388547
 11
22.6627693126
 21
44.8414268848
  0
LINE
  5
24C
100
AcDbEntity
  8
0
100
AcDbLine
 62
7
  6
CONTINUOUS
 10
25.6262414943
 20
46.5523781337
 11
25.9854502436
 21
46.7597661639
  0
LINE
  5
24D
100
AcDbEntity
  8
0
100
AcDbLine
 62
7
  6
CONTINUOUS
 10
29.7930629863
 20
48.9580792837
 11
30.1522717356
 21
49.1654673138
  0
LINE
  5
24E
100
AcDbEntity
  8
0
100
AcDbLine
 62
7
  6
CONTINUOUS
 10
28.3472622022
 20
9.413740634
 11
28.8692230678
 21
8.8855266256
  0
LINE
  5
24F
100
AcDbEntity
  8
0
100
AcDbLine
 62
7
  6
CONTINUOUS
 10
12.8113596654
 20
48.6826534532
 11
12.8113596654
 21
48.5586972304
  0
LINE
  5
250
100
AcDbEntity
  8
0
100
AcDbLine
 62
7
  6
CONTINUOUS
 10
14.1853475634
 20
50.1505411171
 11
14.1853475634
 21
53.1576318937
  0
LINE
  5
251
100
AcDbEntity
  8
0
100
AcDbLine
 62
7
  6
CONTINUOUS
 10
14.2212964048
 20
49.3002306788
 11
14.2212964048
 21
43.7006571022
  0
LINE
  5
252
100
AcDbEntity
  8
0
100
AcDbLine
 62
7
  6
CONTINUOUS
 10
14.5805051541
 20
43.9080451323
 11
14.5805051541
 21
49.507618709
  0
LINE
  5
253
100
AcDbEntity
  8
0
100
AcDbLine
 62
7
  6
CONTINUOUS
 10
14.9666891813
 20
39.3299743549
 11
15.1462935559
 21
39.43366837
  0
LINE
  5
254
100
AcDbEntity
  8
0
100
AcDbLine
 62
7
  6
CONTINUOUS
 10
34.5435660184
 20
50.632621999
 11
34.723170393
 21
50.7363160141
  0
LINE
  5
255
100
AcDbEntity
  8
0
100
AcDbLine
 62
7
  6
CONTINUOUS
 10
14.9666891813
 20
38.2930162852
 11
14.9666891813
 21
39.3299743549
  0
LINE
  5
256
100
AcDbEntity
  8
0
100
AcDbLine
 62
7
  6
CONTINUOUS
 10
32.7206085353
 20
45.8471587448
 11
36.0792103413
 21
47.7862368268
  0
LINE
  5
257
100
AcDbEntity
  8
0
100
AcDbLine
 62
7
  6
CONTINUOUS
 10
22.3035605633
 20
39.034465278
 11
22.6627693126
 21
39.2418533082
  0
LINE
  5
258
100
AcDbEntity
  8
0
100
AcDbLine
 62
7
  6
CONTINUOUS
 10
25.6262414943
 20
40.952804557
 11
25.9854502436
 21
41.1601925872
  0
LINE
  5
259
100
AcDbEntity
  8
0
100
AcDbLine
 62
7
  6
CONTINUOUS
 10
29.7930629863
 20
43.358505707
 11
30.1522717356
 21
43.5658937371
  0
LINE
  5
25A
100
AcDbEntity
  8
0
100
AcDbLine
 62
7
  6
CONTINUOUS
 10
17.5439773359
 20
51.2185699579
 11
17.5439773359
 21
45.6189963812
  0
LINE
  5
25B
100
AcDbEntity
  8
0
100
AcDbLine
 62
7
  6
CONTINUOUS
 10
17.9031860852
 20
45.8263844114
 11
17.9031860852
 21
51.4259579881
  0
LINE
  5
25C
100
AcDbEntity
  8
0
100
AcDbLine
 62
7
  6
CONTINUOUS
 10
18.3521690553
 20
49.963759467
 11
18.3521690553
 21
55.5633330436
  0
LINE
  5
25D
100
AcDbEntity
  8
0
100
AcDbLine
 62
7
  6
CONTINUOUS
 10
18.9449307907
 20
40.9735272138
 11
18.9449307907
 21
46.5731007905
  0
LINE
  5
25E
100
AcDbEntity
  8
0
100
AcDbLine
 62
7
  6
CONTINUOUS
 10
36.698864128
 20
45.5516415947
 11
33.106776635
 21
43.477761293
  0
LINE
  5
25F
100
AcDbEntity
  8
0
100
AcDbLine
 62
7
  6
CONTINUOUS
 10
27.5390410207
 20
40.2632468255
 11
23.9469535277
 21
38.1893665238
  0
LINE
  5
260
100
AcDbEntity
  8
0
100
AcDbLine
 62
7
  6
CONTINUOUS
 10
20.6242740922
 20
36.063640078
 11
24.1265593979
 21
38.0856733721
  0
LINE
  5
261
100
AcDbEntity
  8
0
100
AcDbLine
 62
7
  6
CONTINUOUS
 10
27.7186468909
 20
40.1595536738
 11
33.2863825052
 21
43.3740681414
  0
LINE
  5
262
100
AcDbEntity
  8
0
100
AcDbLine
 62
7
  6
CONTINUOUS
 10
36.8784699982
 20
45.4479484431
 11
40.3807553039
 21
47.4699817372
  0
LINE
  5
263
100
AcDbEntity
  8
0
100
AcDbLine
 62
7
  6
CONTINUOUS
 10
20.5793718769
 20
7.0547378445
 11
20.5793718769
 21
6.9510393822
  0
LINE
  5
264
100
AcDbEntity
  8
0
100
AcDbLine
 62
7
  6
CONTINUOUS
 10
20.6242740922
 20
4.9548979854
 11
20.6242740922
 21
6.8214225109
  0
LINE
  5
265
100
AcDbEntity
  8
0
100
AcDbLine
 62
7
  6
CONTINUOUS
 10
20.6242740922
 20
7.0288141249
 11
20.6242740922
 21
34.8192903943
  0
LINE
  5
266
100
AcDbEntity
  8
0
100
AcDbLine
 62
7
  6
CONTINUOUS
 10
20.6242733444
 20
34.9229839777
 11
20.6242740922
 21
36.063640078
  0
LINE
  5
267
100
AcDbEntity
  8
0
100
AcDbLine
 62
7
  6
CONTINUOUS
 10
36.698864128
 20
44.514683525
 11
33.2863825052
 21
42.5444981018
  0
LINE
  5
268
100
AcDbEntity
  8
0
100
AcDbLine
 62
7
  6
CONTINUOUS
 10
27.5390410207
 20
39.2262887557
 11
24.1265593979
 21
37.2561033326
  0
LINE
  5
269
100
AcDbEntity
  8
0
100
AcDbLine
 62
7
  6
CONTINUOUS
 10
36.7886670631
 20
44.4628369491
 11
33.2863825052
 21
42.4408040867
  0
LINE
  5
26A
100
AcDbEntity
  8
0
100
AcDbLine
 62
7
  6
CONTINUOUS
 10
27.6288439558
 20
39.1744421799
 11
24.1265593979
 21
37.1524093175
  0
LINE
  5
26B
100
AcDbEntity
  8
0
100
AcDbLine
 62
7
  6
CONTINUOUS
 10
40.3807553039
 20
46.4330236674
 11
36.8784699982
 21
44.4109903733
  0
LINE
  5
26C
100
AcDbEntity
  8
0
100
AcDbLine
 62
7
  6
CONTINUOUS
 10
33.2863825052
 20
42.3371100716
 11
27.7186468909
 21
39.1225956041
  0
LINE
  5
26D
100
AcDbEntity
  8
0
100
AcDbLine
 62
7
  6
CONTINUOUS
 10
24.1265593979
 20
37.0487153024
 11
20.6242740922
 21
35.0266820083
  0
LINE
  5
26E
100
AcDbEntity
  8
0
100
AcDbLine
 62
7
  6
CONTINUOUS
 10
20.6242733444
 20
34.9229839777
 11
40.2011501815
 21
46.2256316218
  0
LINE
  5
26F
100
AcDbEntity
  8
0
100
AcDbLine
 62
7
  6
CONTINUOUS
 10
20.6242740922
 20
34.8192903943
 11
40.3807553039
 21
46.2256320535
  0
LINE
  5
270
100
AcDbEntity
  8
0
100
AcDbLine
 62
7
  6
CONTINUOUS
 10
40.3807553039
 20
18.2277641701
 11
40.20114633
 21
18.3314591136
  0
LINE
  5
271
100
AcDbEntity
  8
0
100
AcDbLine
 62
7
  6
CONTINUOUS
 10
21.7107988278
 20
53.6242711078
 11
21.7107988278
 21
48.0246975311
  0
LINE
  5
272
100
AcDbEntity
  8
0
100
AcDbLine
 62
7
  6
CONTINUOUS
 10
21.9711827727
 20
54.0544800299
 11
21.9711827727
 21
54.0028277702
  0
LINE
  5
273
100
AcDbEntity
  8
0
100
AcDbLine
 62
7
  6
CONTINUOUS
 10
22.0700075771
 20
48.2320855613
 11
22.0700075771
 21
53.831659138
  0
LINE
  5
274
100
AcDbEntity
  8
0
100
AcDbLine
 62
7
  6
CONTINUOUS
 10
22.2676117218
 20
45.4843492929
 11
22.2676117218
 21
48.4914400695
  0
LINE
  5
275
100
AcDbEntity
  8
0
100
AcDbLine
 62
7
  6
CONTINUOUS
 10
22.3035605633
 20
44.6340388547
 11
22.3035605633
 21
39.034465278
  0
LINE
  5
276
100
AcDbEntity
  8
0
100
AcDbLine
 62
7
  6
CONTINUOUS
 10
22.6626798048
 20
57.2535488137
 11
22.6626798048
 21
51.6539752371
  0
LINE
  5
277
100
AcDbEntity
  8
0
100
AcDbLine
 62
7
  6
CONTINUOUS
 10
22.6627693126
 20
39.2418533082
 11
22.6627693126
 21
44.8414268848
  0
LINE
  5
278
100
AcDbEntity
  8
0
100
AcDbLine
 62
7
  6
CONTINUOUS
 10
23.0218915452
 20
51.4465889338
 11
23.0218915452
 21
57.0461625104
  0
LINE
  5
279
100
AcDbEntity
  8
0
100
AcDbLine
 62
7
  6
CONTINUOUS
 10
23.318339712
 20
34.3007844811
 11
23.318339712
 21
29.1159941323
  0
LINE
  5
27A
100
AcDbEntity
  8
0
100
AcDbLine
 62
7
  6
CONTINUOUS
 10
32.3613967949
 20
51.6541186247
 11
32.7206055442
 21
52.2762898828
  0
LINE
  5
27B
100
AcDbEntity
  8
0
100
AcDbLine
 62
7
  6
CONTINUOUS
 10
33.0798172846
 20
52.0689035795
 11
32.7206085353
 21
51.4467323214
  0
LINE
  5
27C
100
AcDbEntity
  8
0
100
AcDbLine
 62
7
  6
CONTINUOUS
 10
27.2696359543
 20
36.5820528129
 11
23.318339712
 21
34.3007844811
  0
LINE
  5
27D
100
AcDbEntity
  8
0
100
AcDbLine
 62
7
  6
CONTINUOUS
 10
24.1265593979
 20
38.0856733721
 11
24.1265593979
 21
37.0487153024
  0
LINE
  5
27E
100
AcDbEntity
  8
0
100
AcDbLine
 62
7
  6
CONTINUOUS
 10
5.7169868666
 20
43.4258219811
 11
20.6242740922
 21
34.8192903943
  0
LINE
  5
27F
100
AcDbEntity
  8
0
100
AcDbLine
 62
7
  6
CONTINUOUS
 10
5.896591989
 20
43.4258224128
 11
20.6242733444
 21
34.9229839777
  0
LINE
  5
280
100
AcDbEntity
  8
0
100
AcDbLine
 62
7
  6
CONTINUOUS
 10
20.6242740922
 20
35.0266820083
 11
14.9666891813
 21
38.2930162852
  0
LINE
  5
281
100
AcDbEntity
  8
0
100
AcDbLine
 62
7
  6
CONTINUOUS
 10
11.3745717775
 20
40.3668793181
 11
5.7169868666
 21
43.6332135951
  0
LINE
  5
282
100
AcDbEntity
  8
0
100
AcDbLine
 62
7
  6
CONTINUOUS
 10
14.9666891813
 20
38.3967094368
 11
11.4643739648
 21
40.4187263257
  0
LINE
  5
283
100
AcDbEntity
  8
0
100
AcDbLine
 62
7
  6
CONTINUOUS
 10
27.0900300841
 20
31.5009556158
 11
27.2696359543
 21
31.3972624641
  0
LINE
  5
284
100
AcDbEntity
  8
0
100
AcDbLine
 62
7
  6
CONTINUOUS
 10
14.9666891813
 20
38.5004025885
 11
11.5541761522
 21
40.4705733332
  0
LINE
  5
285
100
AcDbEntity
  8
0
100
AcDbLine
 62
7
  6
CONTINUOUS
 10
5.7169868666
 20
44.6701716648
 11
11.3745717775
 21
41.4038373879
  0
LINE
  5
286
100
AcDbEntity
  8
0
100
AcDbLine
 62
7
  6
CONTINUOUS
 10
14.9666891813
 20
39.3299743549
 11
20.6242740922
 21
36.063640078
  0
LINE
  5
287
100
AcDbEntity
  8
0
100
AcDbLine
 62
7
  6
CONTINUOUS
 10
15.1462935559
 20
39.43366837
 11
11.5541761522
 21
41.507531403
  0
LINE
  5
288
100
AcDbEntity
  8
0
100
AcDbLine
 62
7
  6
CONTINUOUS
 10
14.2212964048
 20
49.3002306788
 11
13.8620846644
 21
49.92240021
  0
LINE
  5
289
100
AcDbEntity
  8
0
100
AcDbLine
 62
7
  6
CONTINUOUS
 10
14.2212934138
 20
50.1297882402
 11
14.5805051541
 21
49.507618709
  0
LINE
  5
28A
100
AcDbEntity
  8
0
100
AcDbLine
 62
7
  6
CONTINUOUS
 10
25.6262414943
 20
46.5523781337
 11
25.6262414943
 21
40.952804557
  0
LINE
  5
28B
100
AcDbEntity
  8
0
100
AcDbLine
 62
7
  6
CONTINUOUS
 10
25.9854502436
 20
41.1601925872
 11
25.9854502436
 21
46.7597661639
  0
LINE
  5
28C
100
AcDbEntity
  8
0
100
AcDbLine
 62
7
  6
CONTINUOUS
 10
26.3804933512
 20
58.9852405925
 11
26.3804933512
 21
53.3856670158
  0
LINE
  5
28D
100
AcDbEntity
  8
0
100
AcDbLine
 62
7
  6
CONTINUOUS
 10
26.4344332138
 20
45.2975676428
 11
26.4344332138
 21
50.8971412195
  0
LINE
  5
28E
100
AcDbEntity
  8
0
100
AcDbLine
 62
7
  6
CONTINUOUS
 10
27.0900300841
 20
36.4783579344
 11
27.0900300841
 21
31.5009556158
  0
LINE
  5
28F
100
AcDbEntity
  8
0
100
AcDbLine
 62
7
  6
CONTINUOUS
 10
27.2696359543
 20
31.3972624641
 11
27.2696359543
 21
36.5820528129
  0
LINE
  5
290
100
AcDbEntity
  8
0
100
AcDbLine
 62
7
  6
CONTINUOUS
 10
27.5390410207
 20
40.2632468255
 11
27.5390410207
 21
39.2262887557
  0
LINE
  5
291
100
AcDbEntity
  8
0
100
AcDbLine
 62
7
  6
CONTINUOUS
 10
27.0900300841
 20
31.5009556158
 11
23.318339712
 21
29.3233821625
  0
LINE
  5
292
100
AcDbEntity
  8
0
100
AcDbLine
 62
7
  6
CONTINUOUS
 10
23.318339712
 20
29.1159941323
 11
27.2696359543
 21
31.3972624641
  0
LINE
  5
293
100
AcDbEntity
  8
0
100
AcDbLine
 62
7
  6
CONTINUOUS
 10
27.7186468909
 20
39.1225956041
 11
27.7186468909
 21
40.1595536738
  0
LINE
  5
294
100
AcDbEntity
  8
0
100
AcDbLine
 62
7
  6
CONTINUOUS
 10
5.8516905215
 20
15.5057248249
 11
5.7169868666
 21
15.4279540977
  0
LINE
  5
295
100
AcDbEntity
  8
0
100
AcDbLine
 62
7
  6
CONTINUOUS
 10
10.8626666323
 20
45.639719038
 11
14.2212964048
 21
43.7006571022
  0
LINE
  5
296
100
AcDbEntity
  8
0
100
AcDbLine
 62
7
  6
CONTINUOUS
 10
18.9449307907
 20
40.9735272138
 11
22.3035605633
 21
39.034465278
  0
LINE
  5
297
100
AcDbEntity
  8
0
100
AcDbLine
 62
7
  6
CONTINUOUS
 10
9.2192721723
 20
46.6922049589
 11
9.3988780425
 21
46.5885118073
  0
LINE
  5
298
100
AcDbEntity
  8
0
100
AcDbLine
 62
7
  6
CONTINUOUS
 10
23.9469535277
 20
38.1893665238
 11
24.1265593979
 21
38.0856733721
  0
LINE
  5
299
100
AcDbEntity
  8
0
100
AcDbLine
 62
7
  6
CONTINUOUS
 10
17.5439773359
 20
51.2185699579
 11
17.1847655955
 21
51.8407394891
  0
LINE
  5
29A
100
AcDbEntity
  8
0
100
AcDbLine
 62
7
  6
CONTINUOUS
 10
17.5439743448
 20
52.0481275193
 11
17.9031860852
 21
51.4259579881
  0
LINE
  5
29B
100
AcDbEntity
  8
0
100
AcDbLine
 62
7
  6
CONTINUOUS
 10
22.3035605633
 20
44.6340388547
 11
21.9443488229
 21
45.2562083859
  0
LINE
  5
29C
100
AcDbEntity
  8
0
100
AcDbLine
 62
7
  6
CONTINUOUS
 10
22.3035575722
 20
45.463596416
 11
22.6627693126
 21
44.8414268848
  0
LINE
  5
29D
100
AcDbEntity
  8
0
100
AcDbLine
 62
7
  6
CONTINUOUS
 10
29.7930629863
 20
48.9580792837
 11
29.7930629863
 21
43.358505707
  0
LINE
  5
29E
100
AcDbEntity
  8
0
100
AcDbLine
 62
7
  6
CONTINUOUS
 10
30.1522717356
 20
43.5658937371
 11
30.1522717356
 21
49.1654673138
  0
LINE
  5
29F
100
AcDbEntity
  8
0
100
AcDbLine
 62
7
  6
CONTINUOUS
 10
31.1310529893
 20
52.6027927438
 11
31.1310529893
 21
52.8101790471
  0
LINE
  5
2A0
100
AcDbEntity
  8
0
100
AcDbLine
 62
7
  6
CONTINUOUS
 10
27.5390410207
 20
39.2262887557
 11
27.7186468909
 21
39.1225956041
  0
LINE
  5
2A1
100
AcDbEntity
  8
0
100
AcDbLine
 62
7
  6
CONTINUOUS
 10
14.5805051541
 20
47.3299191368
 11
17.5439773359
 21
45.6189963812
  0
LINE
  5
2A2
100
AcDbEntity
  8
0
100
AcDbLine
 62
7
  6
CONTINUOUS
 10
22.6627693126
 20
42.6637273127
 11
25.6262414943
 21
40.952804557
  0
LINE
  5
2A3
100
AcDbEntity
  8
0
100
AcDbLine
 62
7
  6
CONTINUOUS
 10
32.3613967949
 20
51.6541186247
 11
32.3613967949
 21
46.0545450481
  0
LINE
  5
2A4
100
AcDbEntity
  8
0
100
AcDbLine
 62
7
  6
CONTINUOUS
 10
32.7206085353
 20
45.8471587448
 11
32.7206085353
 21
51.4467323214
  0
LINE
  5
2A5
100
AcDbEntity
  8
0
100
AcDbLine
 62
7
  6
CONTINUOUS
 10
33.2863825052
 20
43.3740681414
 11
33.2863825052
 21
42.3371100716
  0
LINE
  5
2A6
100
AcDbEntity
  8
0
100
AcDbLine
 62
7
  6
CONTINUOUS
 10
13.2772858132
 20
8.3670212303
 11
13.799251025
 21
8.895237748
  0
LINE
  5
2A7
100
AcDbEntity
  8
0
100
AcDbLine
 62
7
  6
CONTINUOUS
 10
27.7186468909
 20
40.1595536738
 11
27.5390410207
 21
40.2632468255
  0
LINE
  5
2A8
100
AcDbEntity
  8
0
100
AcDbLine
 62
7
  6
CONTINUOUS
 10
11.2218783727
 20
51.4466895393
 11
13.8620846644
 21
49.92240021
  0
LINE
  5
2A9
100
AcDbEntity
  8
0
100
AcDbLine
 62
7
  6
CONTINUOUS
 10
19.3041425311
 20
46.7804977151
 11
21.9443488229
 21
45.2562083859
  0
LINE
  5
2AA
100
AcDbEntity
  8
0
100
AcDbLine
 62
7
  6
CONTINUOUS
 10
25.6262414943
 20
46.5523781337
 11
25.2670297539
 21
47.1745476649
  0
LINE
  5
2AB
100
AcDbEntity
  8
0
100
AcDbLine
 62
7
  6
CONTINUOUS
 10
21.7107988278
 20
53.6242711078
 11
21.3515870874
 21
54.246440639
  0
LINE
  5
2AC
100
AcDbEntity
  8
0
100
AcDbLine
 62
7
  6
CONTINUOUS
 10
25.6262385033
 20
47.3819356951
 11
25.9854502436
 21
46.7597661639
  0
LINE
  5
2AD
100
AcDbEntity
  8
0
100
AcDbLine
 62
7
  6
CONTINUOUS
 10
21.7107958368
 20
54.4538286692
 11
22.0700075771
 21
53.831659138
  0
LINE
  5
2AE
100
AcDbEntity
  8
0
100
AcDbLine
 62
7
  6
CONTINUOUS
 10
36.0792103413
 20
53.3858104035
 11
36.0792103413
 21
47.7862368268
  0
LINE
  5
2AF
100
AcDbEntity
  8
0
100
AcDbLine
 62
7
  6
CONTINUOUS
 10
22.3035575722
 20
45.463596416
 11
19.6633512804
 21
46.9878857453
  0
LINE
  5
2B0
100
AcDbEntity
  8
0
100
AcDbLine
 62
7
  6
CONTINUOUS
 10
14.2212934138
 20
50.1297882402
 11
11.581087122
 21
51.6540775694
  0
LINE
  5
2B1
100
AcDbEntity
  8
0
100
AcDbLine
 62
7
  6
CONTINUOUS
 10
18.3521690553
 20
49.963759467
 11
21.7107988278
 21
48.0246975311
  0
LINE
  5
2B2
100
AcDbEntity
  8
0
100
AcDbLine
 62
7
  6
CONTINUOUS
 10
26.4344332138
 20
45.2975676428
 11
29.7930629863
 21
43.358505707
  0
LINE
  5
2B3
100
AcDbEntity
  8
0
100
AcDbLine
 62
7
  6
CONTINUOUS
 10
36.698864128
 20
45.5516415947
 11
36.698864128
 21
44.514683525
  0
LINE
  5
2B4
100
AcDbEntity
  8
0
100
AcDbLine
 62
7
  6
CONTINUOUS
 10
36.8784699982
 20
44.4109903733
 11
36.8784699982
 21
45.4479484431
  0
LINE
  5
2B5
100
AcDbEntity
  8
0
100
AcDbLine
 62
7
  6
CONTINUOUS
 10
14.5445593038
 20
53.3650288183
 11
17.1847655955
 21
51.8407394891
  0
LINE
  5
2B6
100
AcDbEntity
  8
0
100
AcDbLine
 62
7
  6
CONTINUOUS
 10
22.6268234622
 20
48.6988369941
 11
25.2670297539
 21
47.1745476649
  0
LINE
  5
2B7
100
AcDbEntity
  8
0
100
AcDbLine
 62
7
  6
CONTINUOUS
 10
25.6262385033
 20
47.3819356951
 11
22.9860322115
 21
48.9062250243
  0
LINE
  5
2B8
100
AcDbEntity
  8
0
100
AcDbLine
 62
7
  6
CONTINUOUS
 10
17.5439743448
 20
52.0481275193
 11
14.9037680531
 21
53.5724168485
  0
LINE
  5
2B9
100
AcDbEntity
  8
0
100
AcDbLine
 62
7
  6
CONTINUOUS
 10
33.106776635
 20
43.477761293
 11
33.2863825052
 21
43.3740681414
  0
LINE
  5
2BA
100
AcDbEntity
  8
0
100
AcDbLine
 62
7
  6
CONTINUOUS
 10
29.7930629863
 20
48.9580792837
 11
29.4338512459
 21
49.5802488149
  0
LINE
  5
2BB
100
AcDbEntity
  8
0
100
AcDbLine
 62
7
  6
CONTINUOUS
 10
29.7930599952
 20
49.787636845
 11
30.1522717356
 21
49.1654673138
  0
LINE
  5
2BC
100
AcDbEntity
  8
0
100
AcDbLine
 62
7
  6
CONTINUOUS
 10
40.156248714
 20
18.2536870263
 11
40.156248714
 21
18.3055376176
  0
LINE
  5
2BD
100
AcDbEntity
  8
0
100
AcDbLine
 62
7
  6
CONTINUOUS
 10
40.2011501815
 20
46.2256316218
 11
40.2011501815
 21
46.3293292206
  0
LINE
  5
2BE
100
AcDbEntity
  8
0
100
AcDbLine
 62
7
  6
CONTINUOUS
 10
40.3807553039
 20
15.5316731887
 11
40.3807553039
 21
18.2277641701
  0
LINE
  5
2BF
100
AcDbEntity
  8
0
100
AcDbLine
 62
7
  6
CONTINUOUS
 10
40.3807553039
 20
18.4351557841
 11
40.3807553039
 21
46.2256320535
  0
LINE
  5
2C0
100
AcDbEntity
  8
0
100
AcDbLine
 62
7
  6
CONTINUOUS
 10
40.3807553039
 20
46.4330236674
 11
40.3807553039
 21
47.4699817372
  0
LINE
  5
2C1
100
AcDbEntity
  8
0
100
AcDbLine
 62
7
  6
CONTINUOUS
 10
13.2772858132
 20
8.3670212303
 11
13.9957217087
 21
8.7818079121
  0
LINE
  5
2C2
100
AcDbEntity
  8
0
100
AcDbLine
 62
7
  6
CONTINUOUS
 10
22.6626798048
 20
51.6539752371
 11
23.0218915452
 21
51.4465889338
  0
LINE
  5
2C3
100
AcDbEntity
  8
0
100
AcDbLine
 62
7
  6
CONTINUOUS
 10
32.3613967949
 20
46.0545450481
 11
32.7206085353
 21
45.8471587448
  0
LINE
  5
2C4
100
AcDbEntity
  8
0
100
AcDbLine
 62
7
  6
CONTINUOUS
 10
36.698864128
 20
44.514683525
 11
36.8784699982
 21
44.4109903733
  0
LINE
  5
2C5
100
AcDbEntity
  8
0
100
AcDbLine
 62
7
  6
CONTINUOUS
 10
18.7113807957
 20
55.7707299683
 11
21.3515870874
 21
54.246440639
  0
LINE
  5
2C6
100
AcDbEntity
  8
0
100
AcDbLine
 62
7
  6
CONTINUOUS
 10
26.7936449541
 20
51.1045381441
 11
29.4338512459
 21
49.5802488149
  0
LINE
  5
2C7
100
AcDbEntity
  8
0
100
AcDbLine
 62
7
  6
CONTINUOUS
 10
36.8784699982
 20
45.4479484431
 11
36.698864128
 21
45.5516415947
  0
LINE
  5
2C8
100
AcDbEntity
  8
0
100
AcDbLine
 62
7
  6
CONTINUOUS
 10
22.1507886428
 20
53.9507868782
 11
21.9711827727
 21
54.0544800299
  0
LINE
  5
2C9
100
AcDbEntity
  8
0
100
AcDbLine
 62
7
  6
CONTINUOUS
 10
29.7930599952
 20
49.787636845
 11
27.1528537034
 21
51.3119261743
  0
LINE
  5
2CA
100
AcDbEntity
  8
0
100
AcDbLine
 62
7
  6
CONTINUOUS
 10
21.7107958368
 20
54.4538286692
 11
19.070589545
 21
55.9781179984
  0
LINE
  5
2CB
100
AcDbEntity
  8
0
100
AcDbLine
 62
7
  6
CONTINUOUS
 10
40.3807553039
 20
18.4351557841
 11
20.6242740922
 21
7.0288141249
  0
LINE
  5
2CC
100
AcDbEntity
  8
0
100
AcDbLine
 62
7
  6
CONTINUOUS
 10
20.5793718769
 20
6.9510393822
 11
40.156248714
 21
18.2536870263
  0
LINE
  5
2CD
100
AcDbEntity
  8
0
100
AcDbLine
 62
7
  6
CONTINUOUS
 10
20.6242740922
 20
6.8214225109
 11
40.3807553039
 21
18.2277641701
  0
LINE
  5
2CE
100
AcDbEntity
  8
0
100
AcDbLine
 62
7
  6
CONTINUOUS
 10
40.3807553039
 20
46.2256320535
 11
40.20114633
 21
46.329326997
  0
LINE
  5
2CF
100
AcDbEntity
  8
0
100
AcDbLine
 62
7
  6
CONTINUOUS
 10
22.6626798048
 20
57.2535488137
 11
23.0218915452
 21
57.0461625104
  0
LINE
  5
2D0
100
AcDbEntity
  8
0
100
AcDbLine
 62
7
  6
CONTINUOUS
 10
32.3613967949
 20
51.6541186247
 11
32.7206085353
 21
51.4467323214
  0
LINE
  5
2D1
100
AcDbEntity
  8
0
100
AcDbLine
 62
7
  6
CONTINUOUS
 10
30.9514486146
 20
52.706485032
 11
32.4646058994
 21
51.8328830298
  0
LINE
  5
2D2
100
AcDbEntity
  8
0
100
AcDbLine
 62
7
  6
CONTINUOUS
 10
34.1595028854
 20
50.8543559359
 11
34.5435660184
 21
50.632621999
  0
LINE
  5
2D3
100
AcDbEntity
  8
0
100
AcDbLine
 62
7
  6
CONTINUOUS
 10
28.3472622022
 20
9.413740634
 11
20.6242740922
 21
4.9548979854
  0
LINE
  5
2D4
100
AcDbEntity
  8
0
100
AcDbLine
 62
7
  6
CONTINUOUS
 10
40.3807553039
 20
15.5316731887
 11
28.8692230678
 21
8.8855266256
  0
LINE
  5
2D5
100
AcDbEntity
  8
0
100
AcDbLine
 62
7
  6
CONTINUOUS
 10
40.3807553039
 20
47.4699817372
 11
36.0792103413
 21
49.9534236963
  0
LINE
  5
2D6
100
AcDbEntity
  8
0
100
AcDbLine
 62
7
  6
CONTINUOUS
 10
35.0025315129
 20
50.5750304451
 11
34.723170393
 21
50.7363160141
  0
LINE
  5
2D7
100
AcDbEntity
  8
0
100
AcDbLine
 62
7
  6
CONTINUOUS
 10
31.1310529893
 20
52.8101790471
 11
26.3804933512
 21
55.5528538853
  0
LINE
  5
2D8
100
AcDbEntity
  8
0
100
AcDbLine
 62
7
  6
CONTINUOUS
 10
33.0798172846
 20
52.0689035795
 11
32.7206055442
 21
52.2762898828
  0
LINE
  5
2D9
100
AcDbEntity
  8
0
100
AcDbLine
 62
7
  6
CONTINUOUS
 10
23.3811002945
 20
57.6683337685
 11
23.0218885541
 21
57.8757200718
  0
LINE
  5
2DA
100
AcDbEntity
  8
0
100
AcDbLine
 62
7
  6
CONTINUOUS
 10
25.6620728615
 20
59.4000220935
 11
26.3804933512
 21
58.9852405925
  0
LINE
  5
2DB
100
AcDbEntity
  8
0
100
AcDbLine
 62
7
  6
CONTINUOUS
 10
36.0792103413
 20
53.3858104035
 11
35.3607898516
 21
53.8005919045
  0
SPLINE
  5
2DC
100
AcDbEntity
  8
0
100
AcDbSpline
 62
7
  6
CONTINUOUS
 70
0
 71
3
 72
11
 73
7
 74
0
 42
0.0000001
 43
0.0000001
 44
0.0000000001
 40
0.0
 40
0.0
 40
0.0
 40
0.0
 40
0.2232585598
 40
0.4631407566
 40
0.7220772037
 40
1.0
 40
1.0
 40
1.0
 40
1.0
 10
23.8459854392
 20
54.4615876504
 30
0.0
 10
23.8845783027
 20
54.4579892462
 30
0.0
 10
23.9655550851
 20
54.4588922941
 30
0.0
 10
24.0892306373
 20
54.4823625476
 30
0.0
 10
24.2167981267
 20
54.5274101222
 30
0.0
 10
24.3001944004
 20
54.5696094188
 30
0.0
 10
24.3419807078
 20
54.5937346106
 30
0.0
  0
SPLINE
  5
2DD
100
AcDbEntity
  8
0
100
AcDbSpline
 62
7
  6
CONTINUOUS
 70
0
 71
3
 72
21
 73
17
 74
0
 42
0.0000001
 43
0.0000001
 44
0.0000000001
 40
0.0
 40
0.0
 40
0.0
 40
0.0
 40
0.0428250587
 40
0.0874156679
 40
0.1352120619
 40
0.1871329232
 40
0.2435930065
 40
0.3045652993
 40
0.3696770815
 40
0.4383040314
 40
0.5825316393
 40
0.7295792549
 40
0.8015790864
 40
0.8712098991
 40
0.9376299359
 40
1.0
 40
1.0
 40
1.0
 40
1.0
 10
24.0027066787
 20
54.3171619788
 30
0.0
 10
23.9682643758
 20
54.3370433216
 30
0.0
 10
23.9029970282
 20
54.3870337706
 30
0.0
 10
23.8244085781
 20
54.4863599201
 30
0.0
 10
23.7657172101
 20
54.6078666406
 30
0.0
 10
23.7276931595
 20
54.74854246
 30
0.0
 10
23.7107586077
 20
54.9054409865
 30
0.0
 10
23.7150969052
 20
55.0753266678
 30
0.0
 10
23.7404556572
 20
55.2547177039
 30
0.0
 10
23.8027058999
 20
55.5056077748
 30
0.0
 10
23.9286543312
 20
55.8171910266
 30
0.0
 10
24.1061832285
 20
56.1060316804
 30
0.0
 10
24.2750839527
 20
56.3145951108
 30
0.0
 10
24.4100840561
 20
56.4532355785
 30
0.0
 10
24.5513407764
 20
56.5720210676
 30
0.0
 10
24.6510333643
 20
56.6386968731
 30
0.0
 10
24.7011924482
 20
56.6676560608
 30
0.0
  0
SPLINE
  5
2DE
100
AcDbEntity
  8
0
100
AcDbSpline
 62
7
  6
CONTINUOUS
 70
0
 71
3
 72
11
 73
7
 74
0
 42
0.0000001
 43
0.0000001
 44
0.0000000001
 40
0.0
 40
0.0
 40
0.0
 40
0.0
 40
0.2232585598
 40
0.4631407566
 40
0.7220772037
 40
1.0
 40
1.0
 40
1.0
 40
1.0
 10
33.5447024293
 20
48.8621574614
 30
0.0
 10
33.5832952928
 20
48.8585590572
 30
0.0
 10
33.6642720752
 20
48.8594621051
 30
0.0
 10
33.7879476274
 20
48.8829323586
 30
0.0
 10
33.9155151169
 20
48.9279799332
 30
0.0
 10
33.9989113905
 20
48.9701792298
 30
0.0
 10
34.0406976979
 20
48.9943044216
 30
0.0
  0
SPLINE
  5
2DF
100
AcDbEntity
  8
0
100
AcDbSpline
 62
7
  6
CONTINUOUS
 70
0
 71
3
 72
21
 73
17
 74
0
 42
0.0000001
 43
0.0000001
 44
0.0000000001
 40
0.0
 40
0.0
 40
0.0
 40
0.0
 40
0.0428250587
 40
0.0874156679
 40
0.1352120619
 40
0.1871329232
 40
0.2435930065
 40
0.3045652993
 40
0.3696770815
 40
0.4383040314
 40
0.5825316393
 40
0.7295792549
 40
0.8015790864
 40
0.8712098991
 40
0.9376299359
 40
1.0
 40
1.0
 40
1.0
 40
1.0
 10
33.7014236689
 20
48.7177317898
 30
0.0
 10
33.666981366
 20
48.7376131326
 30
0.0
 10
33.6017140183
 20
48.7876035816
 30
0.0
 10
33.5231255682
 20
48.8869297311
 30
0.0
 10
33.4644342002
 20
49.0084364516
 30
0.0
 10
33.4264101497
 20
49.149112271
 30
0.0
 10
33.4094755978
 20
49.3060107975
 30
0.0
 10
33.4138138953
 20
49.4758964788
 30
0.0
 10
33.4391726473
 20
49.6552875149
 30
0.0
 10
33.50142289
 20
49.9061775858
 30
0.0
 10
33.6273713213
 20
50.2177608376
 30
0.0
 10
33.8049002186
 20
50.5066014914
 30
0.0
 10
33.9738009428
 20
50.7151649218
 30
0.0
 10
34.1088010462
 20
50.8538053895
 30
0.0
 10
34.2500577665
 20
50.9725908786
 30
0.0
 10
34.3497503544
 20
51.0392666841
 30
0.0
 10
34.3999094383
 20
51.0682258718
 30
0.0
  0
SPLINE
  5
2E0
100
AcDbEntity
  8
0
100
AcDbSpline
 62
7
  6
CONTINUOUS
 70
0
 71
3
 72
20
 73
16
 74
0
 42
0.0000001
 43
0.0000001
 44
0.0000000001
 40
0.0
 40
0.0
 40
0.0
 40
0.0
 40
0.0450671393
 40
0.093452742
 40
0.1456284002
 40
0.2017210685
 40
0.2616114547
 40
0.3249463545
 40
0.3912273979
 40
0.4598134464
 40
0.6008724391
 40
0.7419473
 40
0.8767325616
 40
0.9401403398
 40
1.0
 40
1.0
 40
1.0
 40
1.0
 10
19.5356349531
 20
53.377323528
 30
0.0
 10
19.5133794716
 20
53.3457472474
 30
0.0
 10
19.4739702466
 20
53.2753547671
 30
0.0
 10
19.4327208372
 20
53.1569968967
 30
0.0
 10
19.4080349282
 20
53.0245492606
 30
0.0
 10
19.400051264
 20
52.8802821879
 30
0.0
 10
19.408954039
 20
52.7265416516
 30
0.0
 10
19.4344225225
 20
52.5658652546
 30
0.0
 10
19.4761403125
 20
52.4009426269
 30
0.0
 10
19.5530423687
 20
52.1770426499
 30
0.0
 10
19.6841908031
 20
51.905079138
 30
0.0
 10
19.8859580538
 20
51.6086292798
 30
0.0
 10
20.08574928
 20
51.3951880182
 30
0.0
 10
20.2577908491
 20
51.2557176803
 30
0.0
 10
20.3462556325
 20
51.197492029
 30
0.0
 10
20.3906926909
 20
51.1718368618
 30
0.0
  0
SPLINE
  5
2E1
100
AcDbEntity
  8
0
100
AcDbSpline
 62
7
  6
CONTINUOUS
 70
0
 71
3
 72
13
 73
9
 74
0
 42
0.0000001
 43
0.0000001
 44
0.0000000001
 40
0.0
 40
0.0
 40
0.0
 40
0.0
 40
0.1081029667
 40
0.2182394015
 40
0.3322429388
 40
0.4516715836
 40
0.7107062232
 40
1.0
 40
1.0
 40
1.0
 40
1.0
 10
19.3329902667
 20
53.3149364318
 30
0.0
 10
19.355897159
 20
53.3281574793
 30
0.0
 10
19.404539634
 20
53.3509043006
 30
0.0
 10
19.4832116545
 20
53.3726778544
 30
0.0
 10
19.5670816117
 20
53.3820552666
 30
0.0
 10
19.6878642156
 20
53.3778459878
 30
0.0
 10
19.8483127541
 20
53.3391568613
 30
0.0
 10
19.9701875093
 20
53.2811452961
 30
0.0
 10
20.0314839416
 20
53.2457565851
 30
0.0
  0
SPLINE
  5
2E2
100
AcDbEntity
  8
0
100
AcDbSpline
 62
7
  6
CONTINUOUS
 70
0
 71
3
 72
20
 73
16
 74
0
 42
0.0000001
 43
0.0000001
 44
0.0000000001
 40
0.0
 40
0.0
 40
0.0
 40
0.0
 40
0.0450671393
 40
0.093452742
 40
0.1456284002
 40
0.2017210685
 40
0.2616114547
 40
0.3249463545
 40
0.3912273979
 40
0.4598134464
 40
0.6008724391
 40
0.7419473
 40
0.8767325616
 40
0.9401403398
 40
1.0
 40
1.0
 40
1.0
 40
1.0
 10
27.6178991116
 20
48.7111317039
 30
0.0
 10
27.59564363
 20
48.6795554232
 30
0.0
 10
27.556234405
 20
48.6091629429
 30
0.0
 10
27.5149849956
 20
48.4908050725
 30
0.0
 10
27.4902990866
 20
48.3583574365
 30
0.0
 10
27.4823154224
 20
48.2140903637
 30
0.0
 10
27.4912181975
 20
48.0603498275
 30
0.0
 10
27.5166866809
 20
47.8996734305
 30
0.0
 10
27.5584044709
 20
47.7347508028
 30
0.0
 10
27.6353065271
 20
47.5108508258
 30
0.0
 10
27.7664549615
 20
47.2388873139
 30
0.0
 10
27.9682222122
 20
46.9424374556
 30
0.0
 10
28.1680134384
 20
46.728996194
 30
0.0
 10
28.3400550075
 20
46.5895258561
 30
0.0
 10
28.4285197909
 20
46.5313002048
 30
0.0
 10
28.4729568493
 20
46.5056450376
 30
0.0
  0
SPLINE
  5
2E3
100
AcDbEntity
  8
0
100
AcDbSpline
 62
7
  6
CONTINUOUS
 70
0
 71
3
 72
13
 73
9
 74
0
 42
0.0000001
 43
0.0000001
 44
0.0000000001
 40
0.0
 40
0.0
 40
0.0
 40
0.0
 40
0.1081029667
 40
0.2182394015
 40
0.3322429388
 40
0.4516715836
 40
0.7107062232
 40
1.0
 40
1.0
 40
1.0
 40
1.0
 10
27.4152544251
 20
48.6487446076
 30
0.0
 10
27.4381613174
 20
48.6619656551
 30
0.0
 10
27.4868037924
 20
48.6847124764
 30
0.0
 10
27.5654758129
 20
48.7064860303
 30
0.0
 10
27.6493457701
 20
48.7158634424
 30
0.0
 10
27.7701283741
 20
48.7116541636
 30
0.0
 10
27.9305769125
 20
48.6729650371
 30
0.0
 10
28.0524516678
 20
48.6149534719
 30
0.0
 10
28.1137481
 20
48.5795647609
 30
0.0
  0
SPLINE
  5
2E4
100
AcDbEntity
  8
0
100
AcDbSpline
 62
7
  6
CONTINUOUS
 70
0
 71
3
 72
20
 73
16
 74
0
 42
0.0000001
 43
0.0000001
 44
0.0000000001
 40
0.0
 40
0.0
 40
0.0
 40
0.0
 40
0.0450671393
 40
0.093452742
 40
0.1456284002
 40
0.2017210685
 40
0.2616114547
 40
0.3249463545
 40
0.3912273979
 40
0.4598134464
 40
0.6008724391
 40
0.7419473
 40
0.8767325616
 40
0.9401403398
 40
1.0
 40
1.0
 40
1.0
 40
1.0
 10
15.3688134612
 20
50.9716223781
 30
0.0
 10
15.3465579796
 20
50.9400460974
 30
0.0
 10
15.3071487546
 20
50.8696536171
 30
0.0
 10
15.2658993453
 20
50.7512957468
 30
0.0
 10
15.2412134363
 20
50.6188481107
 30
0.0
 10
15.2332297721
 20
50.4745810379
 30
0.0
 10
15.2421325471
 20
50.3208405017
 30
0.0
 10
15.2676010306
 20
50.1601641047
 30
0.0
 10
15.3093188205
 20
49.995241477
 30
0.0
 10
15.3862208768
 20
49.7713415
 30
0.0
 10
15.5173693111
 20
49.4993779881
 30
0.0
 10
15.7191365619
 20
49.2029281298
 30
0.0
 10
15.918927788
 20
48.9894868682
 30
0.0
 10
16.0909693572
 20
48.8500165303
 30
0.0
 10
16.1794341406
 20
48.791790879
 30
0.0
 10
16.2238711989
 20
48.7661357118
 30
0.0
  0
SPLINE
  5
2E5
100
AcDbEntity
  8
0
100
AcDbSpline
 62
7
  6
CONTINUOUS
 70
0
 71
3
 72
13
 73
9
 74
0
 42
0.0000001
 43
0.0000001
 44
0.0000000001
 40
0.0
 40
0.0
 40
0.0
 40
0.0
 40
0.1081029667
 40
0.2182394015
 40
0.3322429388
 40
0.4516715836
 40
0.7107062232
 40
1.0
 40
1.0
 40
1.0
 40
1.0
 10
15.1661687747
 20
50.9092352818
 30
0.0
 10
15.189075667
 20
50.9224563294
 30
0.0
 10
15.237718142
 20
50.9452031506
 30
0.0
 10
15.3163901626
 20
50.9669767045
 30
0.0
 10
15.4002601197
 20
50.9763541166
 30
0.0
 10
15.5210427237
 20
50.9721448378
 30
0.0
 10
15.6814912622
 20
50.9334557114
 30
0.0
 10
15.8033660174
 20
50.8754441462
 30
0.0
 10
15.8646624496
 20
50.8400554351
 30
0.0
  0
SPLINE
  5
2E6
100
AcDbEntity
  8
0
100
AcDbSpline
 62
7
  6
CONTINUOUS
 70
0
 71
3
 72
20
 73
16
 74
0
 42
0.0000001
 43
0.0000001
 44
0.0000000001
 40
0.0
 40
0.0
 40
0.0
 40
0.0
 40
0.0450671393
 40
0.093452742
 40
0.1456284002
 40
0.2017210685
 40
0.2616114547
 40
0.3249463545
 40
0.3912273979
 40
0.4598134464
 40
0.6008724391
 40
0.7419473
 40
0.8767325616
 40
0.9401403398
 40
1.0
 40
1.0
 40
1.0
 40
1.0
 10
23.4510776196
 20
46.3054305539
 30
0.0
 10
23.4288221381
 20
46.2738542733
 30
0.0
 10
23.3894129131
 20
46.203461793
 30
0.0
 10
23.3481635037
 20
46.0851039226
 30
0.0
 10
23.3234775947
 20
45.9526562865
 30
0.0
 10
23.3154939305
 20
45.8083892138
 30
0.0
 10
23.3243967055
 20
45.6546486775
 30
0.0
 10
23.349865189
 20
45.4939722805
 30
0.0
 10
23.391582979
 20
45.3290496528
 30
0.0
 10
23.4684850352
 20
45.1051496758
 30
0.0
 10
23.5996334696
 20
44.8331861639
 30
0.0
 10
23.8014007203
 20
44.5367363057
 30
0.0
 10
24.0011919465
 20
44.3232950441
 30
0.0
 10
24.1732335156
 20
44.1838247062
 30
0.0
 10
24.261698299
 20
44.1255990549
 30
0.0
 10
24.3061353574
 20
44.0999438877
 30
0.0
  0
SPLINE
  5
2E7
100
AcDbEntity
  8
0
100
AcDbSpline
 62
7
  6
CONTINUOUS
 70
0
 71
3
 72
13
 73
9
 74
0
 42
0.0000001
 43
0.0000001
 44
0.0000000001
 40
0.0
 40
0.0
 40
0.0
 40
0.0
 40
0.1081029667
 40
0.2182394015
 40
0.3322429388
 40
0.4516715836
 40
0.7107062232
 40
1.0
 40
1.0
 40
1.0
 40
1.0
 10
23.2484329332
 20
46.2430434577
 30
0.0
 10
23.2713398255
 20
46.2562645052
 30
0.0
 10
23.3199823005
 20
46.2790113265
 30
0.0
 10
23.398654321
 20
46.3007848803
 30
0.0
 10
23.4825242782
 20
46.3101622925
 30
0.0
 10
23.6033068821
 20
46.3059530137
 30
0.0
 10
23.7637554206
 20
46.2672638872
 30
0.0
 10
23.8856301758
 20
46.209252322
 30
0.0
 10
23.9469266081
 20
46.173863611
 30
0.0
  0
SPLINE
  5
2E8
100
AcDbEntity
  8
0
100
AcDbSpline
 62
7
  6
CONTINUOUS
 70
0
 71
3
 72
20
 73
16
 74
0
 42
0.0000001
 43
0.0000001
 44
0.0000000001
 40
0.0
 40
0.0
 40
0.0
 40
0.0
 40
0.0450671393
 40
0.093452742
 40
0.1456284002
 40
0.2017210685
 40
0.2616114547
 40
0.3249463545
 40
0.3912273979
 40
0.4598134464
 40
0.6008724391
 40
0.7419473
 40
0.8767325616
 40
0.9401403398
 40
1.0
 40
1.0
 40
1.0
 40
1.0
 10
12.0461325301
 20
49.0532830991
 30
0.0
 10
12.0238770486
 20
49.0217068184
 30
0.0
 10
11.9844678236
 20
48.9513143381
 30
0.0
 10
11.9432184142
 20
48.8329564677
 30
0.0
 10
11.9185325052
 20
48.7005088317
 30
0.0
 10
11.910548841
 20
48.5562417589
 30
0.0
 10
11.919451616
 20
48.4025012226
 30
0.0
 10
11.9449200995
 20
48.2418248257
 30
0.0
 10
11.9866378895
 20
48.076902198
 30
0.0
 10
12.0635399457
 20
47.8530022209
 30
0.0
 10
12.1946883801
 20
47.5810387091
 30
0.0
 10
12.3964556308
 20
47.2845888508
 30
0.0
 10
12.596246857
 20
47.0711475892
 30
0.0
 10
12.7682884261
 20
46.9316772513
 30
0.0
 10
12.8567532095
 20
46.8734516
 30
0.0
 10
12.9011902679
 20
46.8477964328
 30
0.0
  0
SPLINE
  5
2E9
100
AcDbEntity
  8
0
100
AcDbSpline
 62
7
  6
CONTINUOUS
 70
0
 71
3
 72
13
 73
9
 74
0
 42
0.0000001
 43
0.0000001
 44
0.0000000001
 40
0.0
 40
0.0
 40
0.0
 40
0.0
 40
0.1081029667
 40
0.2182394015
 40
0.3322429388
 40
0.4516715836
 40
0.7107062232
 40
1.0
 40
1.0
 40
1.0
 40
1.0
 10
11.8434878437
 20
48.9908960028
 30
0.0
 10
11.866394736
 20
49.0041170503
 30
0.0
 10
11.915037211
 20
49.0268638716
 30
0.0
 10
11.9937092315
 20
49.0486374255
 30
0.0
 10
12.0775791887
 20
49.0580148376
 30
0.0
 10
12.1983617926
 20
49.0538055588
 30
0.0
 10
12.3588103311
 20
49.0151164323
 30
0.0
 10
12.4806850863
 20
48.9571048671
 30
0.0
 10
12.5419815186
 20
48.9217161561
 30
0.0
  0
SPLINE
  5
2EA
100
AcDbEntity
  8
0
100
AcDbSpline
 62
7
  6
CONTINUOUS
 70
0
 71
3
 72
20
 73
16
 74
0
 42
0.0000001
 43
0.0000001
 44
0.0000000001
 40
0.0
 40
0.0
 40
0.0
 40
0.0
 40
0.0450671393
 40
0.093452742
 40
0.1456284002
 40
0.2017210685
 40
0.2616114547
 40
0.3249463545
 40
0.3912273979
 40
0.4598134464
 40
0.6008724391
 40
0.7419473
 40
0.8767325616
 40
0.9401403398
 40
1.0
 40
1.0
 40
1.0
 40
1.0
 10
20.1283966886
 20
44.3870912749
 30
0.0
 10
20.106141207
 20
44.3555149942
 30
0.0
 10
20.066731982
 20
44.2851225139
 30
0.0
 10
20.0254825726
 20
44.1667646435
 30
0.0
 10
20.0007966636
 20
44.0343170075
 30
0.0
 10
19.9928129994
 20
43.8900499347
 30
0.0
 10
20.0017157745
 20
43.7363093985
 30
0.0
 10
20.0271842579
 20
43.5756330015
 30
0.0
 10
20.0689020479
 20
43.4107103738
 30
0.0
 10
20.1458041041
 20
43.1868103968
 30
0.0
 10
20.2769525385
 20
42.9148468849
 30
0.0
 10
20.4787197892
 20
42.6183970266
 30
0.0
 10
20.6785110154
 20
42.404955765
 30
0.0
 10
20.8505525845
 20
42.2654854271
 30
0.0
 10
20.9390173679
 20
42.2072597758
 30
0.0
 10
20.9834544263
 20
42.1816046086
 30
0.0
  0
SPLINE
  5
2EB
100
AcDbEntity
  8
0
100
AcDbSpline
 62
7
  6
CONTINUOUS
 70
0
 71
3
 72
13
 73
9
 74
0
 42
0.0000001
 43
0.0000001
 44
0.0000000001
 40
0.0
 40
0.0
 40
0.0
 40
0.0
 40
0.1081029667
 40
0.2182394015
 40
0.3322429388
 40
0.4516715836
 40
0.7107062232
 40
1.0
 40
1.0
 40
1.0
 40
1.0
 10
19.9257520021
 20
44.3247041786
 30
0.0
 10
19.9486588944
 20
44.3379252261
 30
0.0
 10
19.9973013694
 20
44.3606720474
 30
0.0
 10
20.0759733899
 20
44.3824456013
 30
0.0
 10
20.1598433471
 20
44.3918230134
 30
0.0
 10
20.2806259511
 20
44.3876137346
 30
0.0
 10
20.4410744895
 20
44.3489246081
 30
0.0
 10
20.5629492448
 20
44.290913043
 30
0.0
 10
20.624245677
 20
44.2555243319
 30
0.0
  0
SPLINE
  5
2EC
100
AcDbEntity
  8
0
100
AcDbSpline
 62
7
  6
CONTINUOUS
 70
0
 71
3
 72
21
 73
17
 74
0
 42
0.0000001
 43
0.0000001
 44
0.0000000001
 40
0.0
 40
0.0
 40
0.0
 40
0.0
 40
0.0623706905
 40
0.1287892579
 40
0.1984166254
 40
0.2704133674
 40
0.4174546891
 40
0.5616816187
 40
0.6303100251
 40
0.6954240379
 40
0.7563975103
 40
0.8128593196
 40
0.8647809932
 40
0.9125791505
 40
0.9571719651
 40
1.0
 40
1.0
 40
1.0
 40
1.0
 10
20.624245677
 20
44.2555243319
 30
0.0
 10
20.6744054683
 20
44.2265652181
 30
0.0
 10
20.7740980856
 20
44.159890863
 30
0.0
 10
20.9153523741
 20
44.0411087465
 30
0.0
 10
21.0503494242
 20
43.9024757557
 30
0.0
 10
21.2192445488
 20
43.6939231397
 30
0.0
 10
21.3967742118
 20
43.4050944234
 30
0.0
 10
21.5227280137
 20
43.0935186002
 30
0.0
 10
21.5849825405
 20
42.8426269679
 30
0.0
 10
21.6103488912
 20
42.6632321806
 30
0.0
 10
21.6146858343
 20
42.4933420325
 30
0.0
 10
21.5977606852
 20
42.3364386727
 30
0.0
 10
21.5597321687
 20
42.1957602977
 30
0.0
 10
21.5010481215
 20
42.0742447422
 30
0.0
 10
21.4224526423
 20
41.9749162055
 30
0.0
 10
21.357185112
 20
41.9249176053
 30
0.0
 10
21.3227393519
 20
41.9050367317
 30
0.0
  0
SPLINE
  5
2ED
100
AcDbEntity
  8
0
100
AcDbSpline
 62
7
  6
CONTINUOUS
 70
0
 71
3
 72
11
 73
7
 74
0
 42
0.0000001
 43
0.0000001
 44
0.0000000001
 40
0.0
 40
0.0
 40
0.0
 40
0.0
 40
0.2777897346
 40
0.5366974566
 40
0.7766391467
 40
1.0
 40
1.0
 40
1.0
 40
1.0
 10
20.9834544263
 20
42.1816046086
 30
0.0
 10
21.0250414943
 20
42.1575948469
 30
0.0
 10
21.1080415297
 20
42.1155696975
 30
0.0
 10
21.2349954463
 20
42.0705992852
 30
0.0
 10
21.3581092203
 20
42.0469843797
 30
0.0
 10
21.4387547017
 20
42.0458246859
 30
0.0
 10
21.4772134273
 20
42.0492554718
 30
0.0
  0
SPLINE
  5
2EE
100
AcDbEntity
  8
0
100
AcDbSpline
 62
7
  6
CONTINUOUS
 70
0
 71
3
 72
21
 73
17
 74
0
 42
0.0000001
 43
0.0000001
 44
0.0000000001
 40
0.0
 40
0.0
 40
0.0
 40
0.0
 40
0.0623706905
 40
0.1287892579
 40
0.1984166254
 40
0.2704133674
 40
0.4174546891
 40
0.5616816187
 40
0.6303100251
 40
0.6954240379
 40
0.7563975103
 40
0.8128593196
 40
0.8647809932
 40
0.9125791505
 40
0.9571719651
 40
1.0
 40
1.0
 40
1.0
 40
1.0
 10
12.5419815186
 20
48.9217161561
 30
0.0
 10
12.5921413099
 20
48.8927570422
 30
0.0
 10
12.6918339272
 20
48.8260826871
 30
0.0
 10
12.8330882157
 20
48.7073005706
 30
0.0
 10
12.9680852658
 20
48.5686675798
 30
0.0
 10
13.1369803904
 20
48.3601149639
 30
0.0
 10
13.3145100534
 20
48.0712862475
 30
0.0
 10
13.4404638553
 20
47.7597104244
 30
0.0
 10
13.5027183821
 20
47.508818792
 30
0.0
 10
13.5280847328
 20
47.3294240047
 30
0.0
 10
13.5324216758
 20
47.1595338567
 30
0.0
 10
13.5154965268
 20
47.0026304969
 30
0.0
 10
13.4774680103
 20
46.8619521219
 30
0.0
 10
13.4187839631
 20
46.7404365664
 30
0.0
 10
13.3401884838
 20
46.6411080296
 30
0.0
 10
13.2749209535
 20
46.5911094295
 30
0.0
 10
13.2404751935
 20
46.5712285559
 30
0.0
  0
SPLINE
  5
2EF
100
AcDbEntity
  8
0
100
AcDbSpline
 62
7
  6
CONTINUOUS
 70
0
 71
3
 72
11
 73
7
 74
0
 42
0.0000001
 43
0.0000001
 44
0.0000000001
 40
0.0
 40
0.0
 40
0.0
 40
0.0
 40
0.2777897346
 40
0.5366974566
 40
0.7766391467
 40
1.0
 40
1.0
 40
1.0
 40
1.0
 10
12.9011902679
 20
46.8477964328
 30
0.0
 10
12.9427773358
 20
46.8237866711
 30
0.0
 10
13.0257773713
 20
46.7817615217
 30
0.0
 10
13.1527312878
 20
46.7367911093
 30
0.0
 10
13.2758450619
 20
46.7131762038
 30
0.0
 10
13.3564905433
 20
46.7120165101
 30
0.0
 10
13.3949492689
 20
46.7154472959
 30
0.0
  0
SPLINE
  5
2F0
100
AcDbEntity
  8
0
100
AcDbSpline
 62
7
  6
CONTINUOUS
 70
0
 71
3
 72
21
 73
17
 74
0
 42
0.0000001
 43
0.0000001
 44
0.0000000001
 40
0.0
 40
0.0
 40
0.0
 40
0.0
 40
0.0623706905
 40
0.1287892579
 40
0.1984166254
 40
0.2704133674
 40
0.4174546891
 40
0.5616816187
 40
0.6303100251
 40
0.6954240379
 40
0.7563975103
 40
0.8128593196
 40
0.8647809932
 40
0.9125791505
 40
0.9571719651
 40
1.0
 40
1.0
 40
1.0
 40
1.0
 10
23.9469266081
 20
46.173863611
 30
0.0
 10
23.9970863993
 20
46.1449044971
 30
0.0
 10
24.0967790167
 20
46.078230142
 30
0.0
 10
24.2380333052
 20
45.9594480255
 30
0.0
 10
24.3730303553
 20
45.8208150347
 30
0.0
 10
24.5419254799
 20
45.6122624188
 30
0.0
 10
24.7194551429
 20
45.3234337024
 30
0.0
 10
24.8454089448
 20
45.0118578793
 30
0.0
 10
24.9076634716
 20
44.7609662469
 30
0.0
 10
24.9330298223
 20
44.5815714596
 30
0.0
 10
24.9373667653
 20
44.4116813115
 30
0.0
 10
24.9204416163
 20
44.2547779517
 30
0.0
 10
24.8824130998
 20
44.1140995767
 30
0.0
 10
24.8237290526
 20
43.9925840213
 30
0.0
 10
24.7451335733
 20
43.8932554845
 30
0.0
 10
24.679866043
 20
43.8432568844
 30
0.0
 10
24.645420283
 20
43.8233760108
 30
0.0
  0
SPLINE
  5
2F1
100
AcDbEntity
  8
0
100
AcDbSpline
 62
7
  6
CONTINUOUS
 70
0
 71
3
 72
11
 73
7
 74
0
 42
0.0000001
 43
0.0000001
 44
0.0000000001
 40
0.0
 40
0.0
 40
0.0
 40
0.0
 40
0.2777897346
 40
0.5366974566
 40
0.7766391467
 40
1.0
 40
1.0
 40
1.0
 40
1.0
 10
24.3061353574
 20
44.0999438877
 30
0.0
 10
24.3477224253
 20
44.075934126
 30
0.0
 10
24.4307224608
 20
44.0339089766
 30
0.0
 10
24.5576763773
 20
43.9889385642
 30
0.0
 10
24.6807901514
 20
43.9653236587
 30
0.0
 10
24.7614356328
 20
43.9641639649
 30
0.0
 10
24.7998943584
 20
43.9675947508
 30
0.0
  0
SPLINE
  5
2F2
100
AcDbEntity
  8
0
100
AcDbSpline
 62
7
  6
CONTINUOUS
 70
0
 71
3
 72
21
 73
17
 74
0
 42
0.0000001
 43
0.0000001
 44
0.0000000001
 40
0.0
 40
0.0
 40
0.0
 40
0.0
 40
0.0623706905
 40
0.1287892579
 40
0.1984166254
 40
0.2704133674
 40
0.4174546891
 40
0.5616816187
 40
0.6303100251
 40
0.6954240379
 40
0.7563975103
 40
0.8128593196
 40
0.8647809932
 40
0.9125791505
 40
0.9571719651
 40
1.0
 40
1.0
 40
1.0
 40
1.0
 10
15.8646624496
 20
50.8400554351
 30
0.0
 10
15.9148222409
 20
50.8110963213
 30
0.0
 10
16.0145148582
 20
50.7444219662
 30
0.0
 10
16.1557691468
 20
50.6256398497
 30
0.0
 10
16.2907661968
 20
50.4870068589
 30
0.0
 10
16.4596613214
 20
50.2784542429
 30
0.0
 10
16.6371909845
 20
49.9896255266
 30
0.0
 10
16.7631447863
 20
49.6780497034
 30
0.0
 10
16.8253993132
 20
49.4271580711
 30
0.0
 10
16.8507656638
 20
49.2477632838
 30
0.0
 10
16.8551026069
 20
49.0778731357
 30
0.0
 10
16.8381774578
 20
48.9209697759
 30
0.0
 10
16.8001489414
 20
48.7802914009
 30
0.0
 10
16.7414648941
 20
48.6587758454
 30
0.0
 10
16.6628694149
 20
48.5594473087
 30
0.0
 10
16.5976018846
 20
48.5094487085
 30
0.0
 10
16.5631561245
 20
48.4895678349
 30
0.0
  0
SPLINE
  5
2F3
100
AcDbEntity
  8
0
100
AcDbSpline
 62
7
  6
CONTINUOUS
 70
0
 71
3
 72
11
 73
7
 74
0
 42
0.0000001
 43
0.0000001
 44
0.0000000001
 40
0.0
 40
0.0
 40
0.0
 40
0.0
 40
0.2777897346
 40
0.5366974566
 40
0.7766391467
 40
1.0
 40
1.0
 40
1.0
 40
1.0
 10
16.2238711989
 20
48.7661357118
 30
0.0
 10
16.2654582669
 20
48.7421259501
 30
0.0
 10
16.3484583024
 20
48.7001008007
 30
0.0
 10
16.4754122189
 20
48.6551303884
 30
0.0
 10
16.5985259929
 20
48.6315154829
 30
0.0
 10
16.6791714743
 20
48.6303557891
 30
0.0
 10
16.7176301999
 20
48.633786575
 30
0.0
  0
SPLINE
  5
2F4
100
AcDbEntity
  8
0
100
AcDbSpline
 62
7
  6
CONTINUOUS
 70
0
 71
3
 72
21
 73
17
 74
0
 42
0.0000001
 43
0.0000001
 44
0.0000000001
 40
0.0
 40
0.0
 40
0.0
 40
0.0
 40
0.0623706905
 40
0.1287892579
 40
0.1984166254
 40
0.2704133674
 40
0.4174546891
 40
0.5616816187
 40
0.6303100251
 40
0.6954240379
 40
0.7563975103
 40
0.8128593196
 40
0.8647809932
 40
0.9125791505
 40
0.9571719651
 40
1.0
 40
1.0
 40
1.0
 40
1.0
 10
28.1137481
 20
48.5795647609
 30
0.0
 10
28.1639078913
 20
48.550605647
 30
0.0
 10
28.2636005086
 20
48.4839312919
 30
0.0
 10
28.4048547971
 20
48.3651491754
 30
0.0
 10
28.5398518472
 20
48.2265161847
 30
0.0
 10
28.7087469718
 20
48.0179635687
 30
0.0
 10
28.8862766348
 20
47.7291348524
 30
0.0
 10
29.0122304367
 20
47.4175590292
 30
0.0
 10
29.0744849635
 20
47.1666673968
 30
0.0
 10
29.0998513142
 20
46.9872726095
 30
0.0
 10
29.1041882573
 20
46.8173824615
 30
0.0
 10
29.0872631082
 20
46.6604791017
 30
0.0
 10
29.0492345917
 20
46.5198007267
 30
0.0
 10
28.9905505445
 20
46.3982851712
 30
0.0
 10
28.9119550653
 20
46.2989566344
 30
0.0
 10
28.846687535
 20
46.2489580343
 30
0.0
 10
28.8122417749
 20
46.2290771607
 30
0.0
  0
SPLINE
  5
2F5
100
AcDbEntity
  8
0
100
AcDbSpline
 62
7
  6
CONTINUOUS
 70
0
 71
3
 72
11
 73
7
 74
0
 42
0.0000001
 43
0.0000001
 44
0.0000000001
 40
0.0
 40
0.0
 40
0.0
 40
0.0
 40
0.2777897346
 40
0.5366974566
 40
0.7766391467
 40
1.0
 40
1.0
 40
1.0
 40
1.0
 10
28.4729568493
 20
46.5056450376
 30
0.0
 10
28.5145439173
 20
46.4816352759
 30
0.0
 10
28.5975439527
 20
46.4396101265
 30
0.0
 10
28.7244978693
 20
46.3946397141
 30
0.0
 10
28.8476116433
 20
46.3710248086
 30
0.0
 10
28.9282571247
 20
46.3698651149
 30
0.0
 10
28.9667158503
 20
46.3732959007
 30
0.0
  0
SPLINE
  5
2F6
100
AcDbEntity
  8
0
100
AcDbSpline
 62
7
  6
CONTINUOUS
 70
0
 71
3
 72
20
 73
16
 74
0
 42
0.0000001
 43
0.0000001
 44
0.0000000001
 40
0.0
 40
0.0
 40
0.0
 40
0.0
 40
0.0598833153
 40
0.1233178132
 40
0.2581591875
 40
0.3992862096
 40
0.5403779365
 40
0.608970202
 40
0.6752473429
 40
0.738567863
 40
0.7984326219
 40
0.8544906349
 40
0.9066249328
 40
0.9549687752
 40
1.0
 40
1.0
 40
1.0
 40
1.0
 10
24.3419807078
 20
54.5937346106
 30
0.0
 10
24.3864704001
 20
54.6194205931
 30
0.0
 10
24.4750377126
 20
54.6777229891
 30
0.0
 10
24.6472627565
 20
54.8173920366
 30
0.0
 10
24.8472300733
 20
55.0311490856
 30
0.0
 10
25.0491014998
 20
55.3280215079
 30
0.0
 10
25.1802295325
 20
55.6003517342
 30
0.0
 10
25.2570300251
 20
55.8245176896
 30
0.0
 10
25.298626617
 20
55.9896002762
 30
0.0
 10
25.3239296947
 20
56.150396389
 30
0.0
 10
25.3326250306
 20
56.3042084099
 30
0.0
 10
25.3243950267
 20
56.4484910031
 30
0.0
 10
25.2994250768
 20
56.5808942857
 30
0.0
 10
25.2578592287
 20
56.6991415694
 30
0.0
 10
25.218219271
 20
56.7694059861
 30
0.0
 10
25.1958459427
 20
56.8008986678
 30
0.0
  0
SPLINE
  5
2F7
100
AcDbEntity
  8
0
100
AcDbSpline
 62
7
  6
CONTINUOUS
 70
0
 71
3
 72
21
 73
17
 74
0
 42
0.0000001
 43
0.0000001
 44
0.0000000001
 40
0.0
 40
0.0
 40
0.0
 40
0.0
 40
0.0623706905
 40
0.1287892579
 40
0.1984166254
 40
0.2704133674
 40
0.4174546891
 40
0.5616816187
 40
0.6303100251
 40
0.6954240379
 40
0.7563975103
 40
0.8128593196
 40
0.8647809932
 40
0.9125791505
 40
0.9571719651
 40
1.0
 40
1.0
 40
1.0
 40
1.0
 10
20.0314839416
 20
53.2457565851
 30
0.0
 10
20.0816437329
 20
53.2167974712
 30
0.0
 10
20.1813363502
 20
53.1501231161
 30
0.0
 10
20.3225906387
 20
53.0313409996
 30
0.0
 10
20.4575876888
 20
52.8927080088
 30
0.0
 10
20.6264828134
 20
52.6841553929
 30
0.0
 10
20.8040124764
 20
52.3953266765
 30
0.0
 10
20.9299662783
 20
52.0837508534
 30
0.0
 10
20.9922208051
 20
51.832859221
 30
0.0
 10
21.0175871558
 20
51.6534644337
 30
0.0
 10
21.0219240988
 20
51.4835742856
 30
0.0
 10
21.0049989498
 20
51.3266709258
 30
0.0
 10
20.9669704333
 20
51.1859925508
 30
0.0
 10
20.9082863861
 20
51.0644769954
 30
0.0
 10
20.8296909068
 20
50.9651484586
 30
0.0
 10
20.7644233765
 20
50.9151498585
 30
0.0
 10
20.7299776165
 20
50.8952689849
 30
0.0
  0
SPLINE
  5
2F8
100
AcDbEntity
  8
0
100
AcDbSpline
 62
7
  6
CONTINUOUS
 70
0
 71
3
 72
13
 73
9
 74
0
 42
0.0000001
 43
0.0000001
 44
0.0000000001
 40
0.0
 40
0.0
 40
0.0
 40
0.0
 40
0.2893036701
 40
0.5483354681
 40
0.6677615273
 40
0.7817635835
 40
0.8918989949
 40
1.0
 40
1.0
 40
1.0
 40
1.0
 10
24.7011924482
 20
56.6676560608
 30
0.0
 10
24.7624900795
 20
56.7030460535
 30
0.0
 10
24.8843647249
 20
56.761058827
 30
0.0
 10
25.0448124896
 20
56.7997480717
 30
0.0
 10
25.1655922501
 20
56.803957889
 30
0.0
 10
25.2494597739
 20
56.7945791735
 30
0.0
 10
25.3281308832
 20
56.7728103112
 30
0.0
 10
25.3767726905
 20
56.7500642879
 30
0.0
 10
25.3996782176
 20
56.7368423893
 30
0.0
  0
SPLINE
  5
2F9
100
AcDbEntity
  8
0
100
AcDbSpline
 62
7
  6
CONTINUOUS
 70
0
 71
3
 72
11
 73
7
 74
0
 42
0.0000001
 43
0.0000001
 44
0.0000000001
 40
0.0
 40
0.0
 40
0.0
 40
0.0
 40
0.2777897346
 40
0.5366974566
 40
0.7766391467
 40
1.0
 40
1.0
 40
1.0
 40
1.0
 10
20.3906926909
 20
51.1718368618
 30
0.0
 10
20.4322797588
 20
51.1478271001
 30
0.0
 10
20.5152797943
 20
51.1058019507
 30
0.0
 10
20.6422337108
 20
51.0608315383
 30
0.0
 10
20.7653474849
 20
51.0372166328
 30
0.0
 10
20.8459929663
 20
51.036056939
 30
0.0
 10
20.8844516919
 20
51.0394877249
 30
0.0
  0
SPLINE
  5
2FA
100
AcDbEntity
  8
0
100
AcDbSpline
 62
7
  6
CONTINUOUS
 70
0
 71
3
 72
13
 73
9
 74
0
 42
0.0000001
 43
0.0000001
 44
0.0000000001
 40
0.0
 40
0.0
 40
0.0
 40
0.0
 40
0.2893036701
 40
0.5483354681
 40
0.6677615273
 40
0.7817635835
 40
0.8918989949
 40
1.0
 40
1.0
 40
1.0
 40
1.0
 10
34.3999094383
 20
51.0682258718
 30
0.0
 10
34.4612070696
 20
51.1036158645
 30
0.0
 10
34.583081715
 20
51.161628638
 30
0.0
 10
34.7435294798
 20
51.2003178827
 30
0.0
 10
34.8643092402
 20
51.2045277
 30
0.0
 10
34.948176764
 20
51.1951489845
 30
0.0
 10
35.0268478733
 20
51.1733801222
 30
0.0
 10
35.0754896806
 20
51.1506340989
 30
0.0
 10
35.0983952077
 20
51.1374122003
 30
0.0
  0
SPLINE
  5
2FB
100
AcDbEntity
  8
0
100
AcDbSpline
 62
7
  6
CONTINUOUS
 70
0
 71
3
 72
20
 73
16
 74
0
 42
0.0000001
 43
0.0000001
 44
0.0000000001
 40
0.0
 40
0.0
 40
0.0
 40
0.0
 40
0.0598833153
 40
0.1233178132
 40
0.2581591875
 40
0.3992862096
 40
0.5403779365
 40
0.608970202
 40
0.6752473429
 40
0.738567863
 40
0.7984326219
 40
0.8544906349
 40
0.9066249328
 40
0.9549687752
 40
1.0
 40
1.0
 40
1.0
 40
1.0
 10
34.0406976979
 20
48.9943044216
 30
0.0
 10
34.0851873903
 20
49.0199904041
 30
0.0
 10
34.1737547027
 20
49.0782928001
 30
0.0
 10
34.3459797466
 20
49.2179618476
 30
0.0
 10
34.5459470635
 20
49.4317188966
 30
0.0
 10
34.7478184899
 20
49.7285913189
 30
0.0
 10
34.8789465226
 20
50.0009215452
 30
0.0
 10
34.9557470152
 20
50.2250875006
 30
0.0
 10
34.9973436072
 20
50.3901700872
 30
0.0
 10
35.0226466849
 20
50.5509662
 30
0.0
 10
35.0313420208
 20
50.7047782209
 30
0.0
 10
35.0231120168
 20
50.8490608141
 30
0.0
 10
34.9981420669
 20
50.9814640967
 30
0.0
 10
34.9565762188
 20
51.0997113804
 30
0.0
 10
34.9169362611
 20
51.1699757971
 30
0.0
 10
34.8945629328
 20
51.2014684788
 30
0.0
  0
SPLINE
  5
2FC
100
AcDbEntity
  8
0
100
AcDbSpline
 62
7
  6
CONTINUOUS
 70
0
 71
3
 72
21
 73
17
 74
0
 42
0.0000001
 43
0.0000001
 44
0.0000000001
 40
0.0
 40
0.0
 40
0.0
 40
0.0
 40
0.0623706905
 40
0.1287892579
 40
0.1984166254
 40
0.2704133674
 40
0.4174546891
 40
0.5616816187
 40
0.6303100251
 40
0.6954240379
 40
0.7563975103
 40
0.8128593196
 40
0.8647809932
 40
0.9125791505
 40
0.9571719651
 40
1.0
 40
1.0
 40
1.0
 40
1.0
 10
12.5419815186
 20
46.6404084026
 30
0.0
 10
12.4918217273
 20
46.6693675165
 30
0.0
 10
12.39212911
 20
46.7360418716
 30
0.0
 10
12.2508748214
 20
46.8548239881
 30
0.0
 10
12.1158777714
 20
46.9934569789
 30
0.0
 10
11.9469826468
 20
47.2020095948
 30
0.0
 10
11.7694529837
 20
47.4908383112
 30
0.0
 10
11.6434991819
 20
47.8024141343
 30
0.0
 10
11.581244655
 20
48.0533057667
 30
0.0
 10
11.5558783044
 20
48.232700554
 30
0.0
 10
11.5515413613
 20
48.402590702
 30
0.0
 10
11.5684665104
 20
48.5594940618
 30
0.0
 10
11.6064950268
 20
48.7001724368
 30
0.0
 10
11.6651790741
 20
48.8216879923
 30
0.0
 10
11.7437745533
 20
48.9210165291
 30
0.0
 10
11.8090420836
 20
48.9710151292
 30
0.0
 10
11.8434878437
 20
48.9908960028
 30
0.0
  0
SPLINE
  5
2FD
100
AcDbEntity
  8
0
100
AcDbSpline
 62
7
  6
CONTINUOUS
 70
0
 71
3
 72
13
 73
9
 74
0
 42
0.0000001
 43
0.0000001
 44
0.0000000001
 40
0.0
 40
0.0
 40
0.0
 40
0.0
 40
0.1081029667
 40
0.2182394015
 40
0.3322429388
 40
0.4516715836
 40
0.7107062232
 40
1.0
 40
1.0
 40
1.0
 40
1.0
 10
28.8122417749
 20
46.2290771607
 30
0.0
 10
28.7893348826
 20
46.2158561132
 30
0.0
 10
28.7406924076
 20
46.1931092919
 30
0.0
 10
28.6620203871
 20
46.1713357381
 30
0.0
 10
28.5781504299
 20
46.1619583259
 30
0.0
 10
28.4573678259
 20
46.1661676047
 30
0.0
 10
28.2969192875
 20
46.2048567312
 30
0.0
 10
28.1750445322
 20
46.2628682964
 30
0.0
 10
28.1137481
 20
46.2982570074
 30
0.0
  0
SPLINE
  5
2FE
100
AcDbEntity
  8
0
100
AcDbSpline
 62
7
  6
CONTINUOUS
 70
0
 71
3
 72
21
 73
17
 74
0
 42
0.0000001
 43
0.0000001
 44
0.0000000001
 40
0.0
 40
0.0
 40
0.0
 40
0.0
 40
0.0623706905
 40
0.1287892579
 40
0.1984166254
 40
0.2704133674
 40
0.4174546891
 40
0.5616816187
 40
0.6303100251
 40
0.6954240379
 40
0.7563975103
 40
0.8128593196
 40
0.8647809932
 40
0.9125791505
 40
0.9571719651
 40
1.0
 40
1.0
 40
1.0
 40
1.0
 10
23.9469266081
 20
43.8925558575
 30
0.0
 10
23.8967668168
 20
43.9215149713
 30
0.0
 10
23.7970741995
 20
43.9881893264
 30
0.0
 10
23.6558199109
 20
44.1069714429
 30
0.0
 10
23.5208228609
 20
44.2456044337
 30
0.0
 10
23.3519277363
 20
44.4541570497
 30
0.0
 10
23.1743980732
 20
44.742985766
 30
0.0
 10
23.0484442714
 20
45.0545615892
 30
0.0
 10
22.9861897445
 20
45.3054532215
 30
0.0
 10
22.9608233939
 20
45.4848480088
 30
0.0
 10
22.9564864508
 20
45.6547381569
 30
0.0
 10
22.9734115999
 20
45.8116415167
 30
0.0
 10
23.0114401163
 20
45.9523198917
 30
0.0
 10
23.0701241636
 20
46.0738354472
 30
0.0
 10
23.1487196428
 20
46.1731639839
 30
0.0
 10
23.2139871731
 20
46.2231625841
 30
0.0
 10
23.2484329332
 20
46.2430434577
 30
0.0
  0
SPLINE
  5
2FF
100
AcDbEntity
  8
0
100
AcDbSpline
 62
7
  6
CONTINUOUS
 70
0
 71
3
 72
21
 73
17
 74
0
 42
0.0000001
 43
0.0000001
 44
0.0000000001
 40
0.0
 40
0.0
 40
0.0
 40
0.0
 40
0.0428250587
 40
0.0874156679
 40
0.1352120619
 40
0.1871329232
 40
0.2435930065
 40
0.3045652993
 40
0.3696770815
 40
0.4383040314
 40
0.5825316393
 40
0.7295792549
 40
0.8015790864
 40
0.8712098991
 40
0.9376299359
 40
1.0
 40
1.0
 40
1.0
 40
1.0
 10
35.0983952077
 20
51.1374122003
 30
0.0
 10
35.1328375106
 20
51.1175308575
 30
0.0
 10
35.1981048582
 20
51.0675404085
 30
0.0
 10
35.2766933083
 20
50.968214259
 30
0.0
 10
35.3353846763
 20
50.8467075385
 30
0.0
 10
35.3734087269
 20
50.7060317191
 30
0.0
 10
35.3903432787
 20
50.5491331927
 30
0.0
 10
35.3860049813
 20
50.3792475113
 30
0.0
 10
35.3606462292
 20
50.1998564752
 30
0.0
 10
35.2983959865
 20
49.9489664043
 30
0.0
 10
35.1724475553
 20
49.6373831525
 30
0.0
 10
34.994918658
 20
49.3485424987
 30
0.0
 10
34.8260179338
 20
49.1399790683
 30
0.0
 10
34.6910178303
 20
49.0013386006
 30
0.0
 10
34.5497611101
 20
48.8825531115
 30
0.0
 10
34.4500685222
 20
48.815877306
 30
0.0
 10
34.3999094383
 20
48.7869181183
 30
0.0
  0
SPLINE
  5
300
100
AcDbEntity
  8
0
100
AcDbSpline
 62
7
  6
CONTINUOUS
 70
0
 71
3
 72
13
 73
9
 74
0
 42
0.0000001
 43
0.0000001
 44
0.0000000001
 40
0.0
 40
0.0
 40
0.0
 40
0.0
 40
0.1081029667
 40
0.2182394015
 40
0.3322429388
 40
0.4516715836
 40
0.7107062232
 40
1.0
 40
1.0
 40
1.0
 40
1.0
 10
20.7299776165
 20
50.8952689849
 30
0.0
 10
20.7070707242
 20
50.8820479374
 30
0.0
 10
20.6584282492
 20
50.8593011161
 30
0.0
 10
20.5797562287
 20
50.8375275622
 30
0.0
 10
20.4958862715
 20
50.8281501501
 30
0.0
 10
20.3751036675
 20
50.8323594289
 30
0.0
 10
20.214655129
 20
50.8710485554
 30
0.0
 10
20.0927803738
 20
50.9290601205
 30
0.0
 10
20.0314839416
 20
50.9644488316
 30
0.0
  0
SPLINE
  5
301
100
AcDbEntity
  8
0
100
AcDbSpline
 62
7
  6
CONTINUOUS
 70
0
 71
3
 72
21
 73
17
 74
0
 42
0.0000001
 43
0.0000001
 44
0.0000000001
 40
0.0
 40
0.0
 40
0.0
 40
0.0
 40
0.0623706905
 40
0.1287892579
 40
0.1984166254
 40
0.2704133674
 40
0.4174546891
 40
0.5616816187
 40
0.6303100251
 40
0.6954240379
 40
0.7563975103
 40
0.8128593196
 40
0.8647809932
 40
0.9125791505
 40
0.9571719651
 40
1.0
 40
1.0
 40
1.0
 40
1.0
 10
15.8646624496
 20
48.5587476817
 30
0.0
 10
15.8145026584
 20
48.5877067955
 30
0.0
 10
15.714810041
 20
48.6543811506
 30
0.0
 10
15.5735557525
 20
48.7731632671
 30
0.0
 10
15.4385587024
 20
48.9117962579
 30
0.0
 10
15.2696635778
 20
49.1203488739
 30
0.0
 10
15.0921339148
 20
49.4091775902
 30
0.0
 10
14.9661801129
 20
49.7207534134
 30
0.0
 10
14.9039255861
 20
49.9716450457
 30
0.0
 10
14.8785592354
 20
50.151039833
 30
0.0
 10
14.8742222924
 20
50.3209299811
 30
0.0
 10
14.8911474414
 20
50.4778333409
 30
0.0
 10
14.9291759579
 20
50.6185117159
 30
0.0
 10
14.9878600052
 20
50.7400272713
 30
0.0
 10
15.0664554844
 20
50.8393558081
 30
0.0
 10
15.1317230147
 20
50.8893544082
 30
0.0
 10
15.1661687747
 20
50.9092352818
 30
0.0
  0
SPLINE
  5
302
100
AcDbEntity
  8
0
100
AcDbSpline
 62
7
  6
CONTINUOUS
 70
0
 71
3
 72
13
 73
9
 74
0
 42
0.0000001
 43
0.0000001
 44
0.0000000001
 40
0.0
 40
0.0
 40
0.0
 40
0.0
 40
0.1081029667
 40
0.2182394015
 40
0.3322429388
 40
0.4516715836
 40
0.7107062232
 40
1.0
 40
1.0
 40
1.0
 40
1.0
 10
16.5631561245
 20
48.4895678349
 30
0.0
 10
16.5402492322
 20
48.4763467874
 30
0.0
 10
16.4916067572
 20
48.4535999661
 30
0.0
 10
16.4129347367
 20
48.4318264123
 30
0.0
 10
16.3290647795
 20
48.4224490001
 30
0.0
 10
16.2082821756
 20
48.426658279
 30
0.0
 10
16.0478336371
 20
48.4653474054
 30
0.0
 10
15.9259588819
 20
48.5233589706
 30
0.0
 10
15.8646624496
 20
48.5587476817
 30
0.0
  0
SPLINE
  5
303
100
AcDbEntity
  8
0
100
AcDbSpline
 62
7
  6
CONTINUOUS
 70
0
 71
3
 72
21
 73
17
 74
0
 42
0.0000001
 43
0.0000001
 44
0.0000000001
 40
0.0
 40
0.0
 40
0.0
 40
0.0
 40
0.0623706905
 40
0.1287892579
 40
0.1984166254
 40
0.2704133674
 40
0.4174546891
 40
0.5616816187
 40
0.6303100251
 40
0.6954240379
 40
0.7563975103
 40
0.8128593196
 40
0.8647809932
 40
0.9125791505
 40
0.9571719651
 40
1.0
 40
1.0
 40
1.0
 40
1.0
 10
28.1137481
 20
46.2982570074
 30
0.0
 10
28.0635883087
 20
46.3272161213
 30
0.0
 10
27.9638956914
 20
46.3938904764
 30
0.0
 10
27.8226414029
 20
46.5126725929
 30
0.0
 10
27.6876443528
 20
46.6513055837
 30
0.0
 10
27.5187492282
 20
46.8598581996
 30
0.0
 10
27.3412195652
 20
47.148686916
 30
0.0
 10
27.2152657633
 20
47.4602627391
 30
0.0
 10
27.1530112365
 20
47.7111543715
 30
0.0
 10
27.1276448858
 20
47.8905491588
 30
0.0
 10
27.1233079427
 20
48.0604393069
 30
0.0
 10
27.1402330918
 20
48.2173426666
 30
0.0
 10
27.1782616083
 20
48.3580210416
 30
0.0
 10
27.2369456555
 20
48.4795365971
 30
0.0
 10
27.3155411347
 20
48.5788651339
 30
0.0
 10
27.380808665
 20
48.628863734
 30
0.0
 10
27.4152544251
 20
48.6487446076
 30
0.0
  0
SPLINE
  5
304
100
AcDbEntity
  8
0
100
AcDbSpline
 62
7
  6
CONTINUOUS
 70
0
 71
3
 72
13
 73
9
 74
0
 42
0.0000001
 43
0.0000001
 44
0.0000000001
 40
0.0
 40
0.0
 40
0.0
 40
0.0
 40
0.1081029667
 40
0.2182394015
 40
0.3322429388
 40
0.4516715836
 40
0.7107062232
 40
1.0
 40
1.0
 40
1.0
 40
1.0
 10
13.2404751935
 20
46.5712285559
 30
0.0
 10
13.2175683012
 20
46.5580075084
 30
0.0
 10
13.1689258262
 20
46.5352606871
 30
0.0
 10
13.0902538057
 20
46.5134871332
 30
0.0
 10
13.0063838485
 20
46.5041097211
 30
0.0
 10
12.8856012445
 20
46.5083189999
 30
0.0
 10
12.725152706
 20
46.5470081264
 30
0.0
 10
12.6032779508
 20
46.6050196916
 30
0.0
 10
12.5419815186
 20
46.6404084026
 30
0.0
  0
SPLINE
  5
305
100
AcDbEntity
  8
0
100
AcDbSpline
 62
7
  6
CONTINUOUS
 70
0
 71
3
 72
21
 73
17
 74
0
 42
0.0000001
 43
0.0000001
 44
0.0000000001
 40
0.0
 40
0.0
 40
0.0
 40
0.0
 40
0.0428250587
 40
0.0874156679
 40
0.1352120619
 40
0.1871329232
 40
0.2435930065
 40
0.3045652993
 40
0.3696770815
 40
0.4383040314
 40
0.5825316393
 40
0.7295792549
 40
0.8015790864
 40
0.8712098991
 40
0.9376299359
 40
1.0
 40
1.0
 40
1.0
 40
1.0
 10
25.3996782176
 20
56.7368423893
 30
0.0
 10
25.4341205205
 20
56.7169610465
 30
0.0
 10
25.4993878681
 20
56.6669705975
 30
0.0
 10
25.5779763182
 20
56.567644448
 30
0.0
 10
25.6366676862
 20
56.4461377275
 30
0.0
 10
25.6746917368
 20
56.3054619081
 30
0.0
 10
25.6916262886
 20
56.1485633817
 30
0.0
 10
25.6872879912
 20
55.9786777003
 30
0.0
 10
25.6619292391
 20
55.7992866642
 30
0.0
 10
25.5996789964
 20
55.5483965933
 30
0.0
 10
25.4737305652
 20
55.2368133415
 30
0.0
 10
25.2962016679
 20
54.9479726877
 30
0.0
 10
25.1273009437
 20
54.7394092573
 30
0.0
 10
24.9923008402
 20
54.6007687896
 30
0.0
 10
24.8510441199
 20
54.4819833005
 30
0.0
 10
24.7513515321
 20
54.4153074951
 30
0.0
 10
24.7011924482
 20
54.3863483073
 30
0.0
  0
SPLINE
  5
306
100
AcDbEntity
  8
0
100
AcDbSpline
 62
7
  6
CONTINUOUS
 70
0
 71
3
 72
13
 73
9
 74
0
 42
0.0000001
 43
0.0000001
 44
0.0000000001
 40
0.0
 40
0.0
 40
0.0
 40
0.0
 40
0.1081029667
 40
0.2182394015
 40
0.3322429388
 40
0.4516715836
 40
0.7107062232
 40
1.0
 40
1.0
 40
1.0
 40
1.0
 10
21.3227393519
 20
41.9050367317
 30
0.0
 10
21.2998324596
 20
41.8918156842
 30
0.0
 10
21.2511899846
 20
41.8690688629
 30
0.0
 10
21.1725179641
 20
41.8472953091
 30
0.0
 10
21.0886480069
 20
41.8379178969
 30
0.0
 10
20.9678654029
 20
41.8421271757
 30
0.0
 10
20.8074168645
 20
41.8808163022
 30
0.0
 10
20.6855421092
 20
41.9388278674
 30
0.0
 10
20.624245677
 20
41.9742165785
 30
0.0
  0
SPLINE
  5
307
100
AcDbEntity
  8
0
100
AcDbSpline
 62
7
  6
CONTINUOUS
 70
0
 71
3
 72
21
 73
17
 74
0
 42
0.0000001
 43
0.0000001
 44
0.0000000001
 40
0.0
 40
0.0
 40
0.0
 40
0.0
 40
0.0623706905
 40
0.1287892579
 40
0.1984166254
 40
0.2704133674
 40
0.4174546891
 40
0.5616816187
 40
0.6303100251
 40
0.6954240379
 40
0.7563975103
 40
0.8128593196
 40
0.8647809932
 40
0.9125791505
 40
0.9571719651
 40
1.0
 40
1.0
 40
1.0
 40
1.0
 10
20.0314839416
 20
50.9644488316
 30
0.0
 10
19.9813241503
 20
50.9934079454
 30
0.0
 10
19.881631533
 20
51.0600823005
 30
0.0
 10
19.7403772444
 20
51.1788644171
 30
0.0
 10
19.6053801944
 20
51.3174974078
 30
0.0
 10
19.4364850698
 20
51.5260500238
 30
0.0
 10
19.2589554067
 20
51.8148787401
 30
0.0
 10
19.1330016049
 20
52.1264545633
 30
0.0
 10
19.070747078
 20
52.3773461956
 30
0.0
 10
19.0453807274
 20
52.5567409829
 30
0.0
 10
19.0410437843
 20
52.726631131
 30
0.0
 10
19.0579689334
 20
52.8835344908
 30
0.0
 10
19.0959974498
 20
53.0242128658
 30
0.0
 10
19.1546814971
 20
53.1457284213
 30
0.0
 10
19.2332769763
 20
53.245056958
 30
0.0
 10
19.2985445066
 20
53.2950555582
 30
0.0
 10
19.3329902667
 20
53.3149364318
 30
0.0
  0
SPLINE
  5
308
100
AcDbEntity
  8
0
100
AcDbSpline
 62
7
  6
CONTINUOUS
 70
0
 71
3
 72
13
 73
9
 74
0
 42
0.0000001
 43
0.0000001
 44
0.0000000001
 40
0.0
 40
0.0
 40
0.0
 40
0.0
 40
0.1081029667
 40
0.2182394015
 40
0.3322429388
 40
0.4516715836
 40
0.7107062232
 40
1.0
 40
1.0
 40
1.0
 40
1.0
 10
24.645420283
 20
43.8233760108
 30
0.0
 10
24.6225133907
 20
43.8101549633
 30
0.0
 10
24.5738709157
 20
43.787408142
 30
0.0
 10
24.4951988952
 20
43.7656345881
 30
0.0
 10
24.411328938
 20
43.756257176
 30
0.0
 10
24.290546334
 20
43.7604664548
 30
0.0
 10
24.1300977955
 20
43.7991555813
 30
0.0
 10
24.0082230403
 20
43.8571671464
 30
0.0
 10
23.9469266081
 20
43.8925558575
 30
0.0
  0
SPLINE
  5
309
100
AcDbEntity
  8
0
100
AcDbSpline
 62
7
  6
CONTINUOUS
 70
0
 71
3
 72
13
 73
9
 74
0
 42
0.0000001
 43
0.0000001
 44
0.0000000001
 40
0.0
 40
0.0
 40
0.0
 40
0.0
 40
0.2893036701
 40
0.5483354681
 40
0.6677615273
 40
0.7817635835
 40
0.8918989949
 40
1.0
 40
1.0
 40
1.0
 40
1.0
 10
24.7011924482
 20
54.3863483073
 30
0.0
 10
24.6398948169
 20
54.3509583146
 30
0.0
 10
24.5180201715
 20
54.2929455411
 30
0.0
 10
24.3575724067
 20
54.2542562964
 30
0.0
 10
24.2367926462
 20
54.2500464791
 30
0.0
 10
24.1529251224
 20
54.2594251947
 30
0.0
 10
24.0742540131
 20
54.2811940569
 30
0.0
 10
24.0256122058
 20
54.3039400802
 30
0.0
 10
24.0027066787
 20
54.3171619788
 30
0.0
  0
SPLINE
  5
30A
100
AcDbEntity
  8
0
100
AcDbSpline
 62
7
  6
CONTINUOUS
 70
0
 71
3
 72
13
 73
9
 74
0
 42
0.0000001
 43
0.0000001
 44
0.0000000001
 40
0.0
 40
0.0
 40
0.0
 40
0.0
 40
0.2893036701
 40
0.5483354681
 40
0.6677615273
 40
0.7817635835
 40
0.8918989949
 40
1.0
 40
1.0
 40
1.0
 40
1.0
 10
34.3999094383
 20
48.7869181183
 30
0.0
 10
34.338611807
 20
48.7515281256
 30
0.0
 10
34.2167371616
 20
48.6935153521
 30
0.0
 10
34.0562893968
 20
48.6548261074
 30
0.0
 10
33.9355096363
 20
48.6506162901
 30
0.0
 10
33.8516421125
 20
48.6599950057
 30
0.0
 10
33.7729710032
 20
48.6817638679
 30
0.0
 10
33.724329196
 20
48.7045098912
 30
0.0
 10
33.7014236689
 20
48.7177317898
 30
0.0
  0
SPLINE
  5
30B
100
AcDbEntity
  8
0
100
AcDbSpline
 62
7
  6
CONTINUOUS
 70
0
 71
3
 72
21
 73
17
 74
0
 42
0.0000001
 43
0.0000001
 44
0.0000000001
 40
0.0
 40
0.0
 40
0.0
 40
0.0
 40
0.0623706905
 40
0.1287892579
 40
0.1984166254
 40
0.2704133674
 40
0.4174546891
 40
0.5616816187
 40
0.6303100251
 40
0.6954240379
 40
0.7563975103
 40
0.8128593196
 40
0.8647809932
 40
0.9125791505
 40
0.9571719651
 40
1.0
 40
1.0
 40
1.0
 40
1.0
 10
20.624245677
 20
41.9742165785
 30
0.0
 10
20.5740858857
 20
42.0031756923
 30
0.0
 10
20.4743932684
 20
42.0698500474
 30
0.0
 10
20.3331389799
 20
42.1886321639
 30
0.0
 10
20.1981419298
 20
42.3272651547
 30
0.0
 10
20.0292468052
 20
42.5358177707
 30
0.0
 10
19.8517171422
 20
42.824646487
 30
0.0
 10
19.7257633403
 20
43.1362223101
 30
0.0
 10
19.6635088135
 20
43.3871139425
 30
0.0
 10
19.6381424628
 20
43.5665087298
 30
0.0
 10
19.6338055197
 20
43.7363988779
 30
0.0
 10
19.6507306688
 20
43.8933022377
 30
0.0
 10
19.6887591853
 20
44.0339806127
 30
0.0
 10
19.7474432325
 20
44.1554961681
 30
0.0
 10
19.8260387117
 20
44.2548247049
 30
0.0
 10
19.891306242
 20
44.304823305
 30
0.0
 10
19.9257520021
 20
44.3247041786
 30
0.0
  0
ENDSEC
  0
SECTION
  2
OBJECTS
  0
DICTIONARY
  5
C
100
AcDbDictionary
280
0
281
1
  3
ACAD_GROUP
350
D
  3
ACAD_MLINESTYLE
350
17
  3
ACAD_LAYOUT
350
1A
  3
ACAD_PLOTSETTINGS
350
19
  3
ACAD_PLOTSTYLENAME
350
E
  0
DICTIONARY
  5
D
102
{ACAD_REACTORS
330
C
102
}
100
AcDbDictionary
280
0
281
1
  0
ACDBDICTIONARYWDFLT
  5
E
102
{ACAD_REACTORS
330
C
102
}
100
AcDbDictionary
281
1
  3
Normal
350
F
100
AcDbDictionaryWithDefault
340
F
  0
DICTIONARY
  5
17
102
{ACAD_REACTORS
330
C
102
}
100
AcDbDictionary
280
0
281
1
  3
Standard
350
18
  0
DICTIONARY
  5
19
102
{ACAD_REACTORS
330
C
102
}
100
AcDbDictionary
281
1
  0
DICTIONARY
  5
1A
102
{ACAD_REACTORS
330
C
102
}
100
AcDbDictionary
281
1
  3
Model
350
30C
  3
Layout1
350
30D
  0
ACDBPLACEHOLDER
  5
F
102
{ACAD_REACTORS
330
E
102
}
  0
MLINESTYLE
  5
18
102
{ACAD_REACTORS
330
17
102
}
100
AcDbMlineStyle
  2
STANDARD
 70
0
  3

 62
256
 51
90.0
 52
90.0
 71
2
 49
0.5
 62
256
  6
BYLAYER
 49
-0.5
 62
256
  6
BYLAYER
  0
LAYOUT
  5
30C
102
{ACAD_REACTORS
330
1A
102
}
100
AcDbPlotSettings
  1

  2
none_device
  4

  6

 40
0.0
 41
0.0
 42
0.0
 43
0.0
 44
210.0
 45
297.0
 46
0.0
 47
0.0
 48
0.0
 49
0.0
140
0.0
141
0.0
142
1.0
143
1.0
 70
1024
 72
1
 73
0
 74
0
  7

 75
0
147
1.0
148
0.0
149
0.0
100
AcDbLayout
  1
Model
 70
0
 71
0
 10
0.0
 20
0.0
 11
210.0
 21
297.0
 12
0.0
 22
0.0
 32
0.0
 14
0.0
 24
0.0
 34
0.0
 15
0.0
 25
0.0
 35
0.0
146
0.0
 13
0.0
 23
0.0
 33
0.0
 16
1.0
 26
0.0
 36
0.0
 17
0.0
 27
1.0
 37
0.0
 76
0
330
210
345
0
346
0
  0
LAYOUT
  5
30D
102
{ACAD_REACTORS
330
1A
102
}
100
AcDbPlotSettings
  1

  2
none_device
  4

  6

 40
0.0
 41
0.0
 42
0.0
 43
0.0
 44
210.0
 45
297.0
 46
0.0
 47
0.0
 48
0.0
 49
0.0
140
0.0
141
0.0
142
1.0
143
1.0
 70
0
 72
1
 73
0
 74
0
  7

 75
0
147
1.0
148
0.0
149
0.0
100
AcDbLayout
  1
Layout1
 70
0
 71
1
 10
0.0
 20
0.0
 11
210.0
 21
297.0
 12
0.0
 22
0.0
 32
0.0
 14
0.0
 24
0.0
 34
0.0
 15
0.0
 25
0.0
 35
0.0
146
0.0
 13
0.0
 23
0.0
 33
0.0
 16
1.0
 26
0.0
 36
0.0
 17
0.0
 27
1.0
 37
0.0
 76
0
330
211
345
0
346
0
  0
ENDSEC
  0
EOF
