999
DXF file: C:\Users\sesa63760\Dev\_Creo\CAD\MCADID0002469_3D-CAD\drw0001_5.dxf
999
Pro/ENGINEER 2019471 by Parametric Technology Corporation
  0
SECTION
  2
HEADER
  9
$ACADVER
  1
AC1024
  9
$DWGCODEPAGE
  3
ANSI_1252
  9
$EXTMAX
 10
47.9183538941
 20
67.7702433645
 30
0.0
  9
$EXTMIN
 10
0.0
 20
0.0
 30
0.0
  9
$LIMMIN
 10
0.0
 20
0.0
  9
$LIMMAX
 10
47.9183538941
 20
67.7702433645
  9
$VIEWCTR
 10
23.959176947
 20
33.8851216822
  9
$VIEWSIZE
 40
67.7702433645
  9
$CLAYER
  8
0
  9
$LTSCALE
 40
4.4176158638
  9
$CELTYPE
  6
BYLAYER
  9
$DIMSCALE
 40
1.0
  9
$DIMASZ
 40
0.570456594
  9
$DIMEXO
 40
1.0
  9
$DIMDLI
 40
3.0521709604
  9
$DIMEXE
 40
1.0
  9
$DIMCEN
 40
0.7228825959
  9
$DIMLFAC
 40
1.0
  9
$DIMBLK
  1
_FILLED
  9
$DIMALT
 70
0
  9
$DIMALTF
 40
0.0393700787
  9
$DIMTXT
 40
0.7986392316
  9
$DIMTOL
 70
1
  9
$DIMLIM
 70
0
  9
$DIMTFAC
 40
1.0
  9
$DIMTP
 40
0.01
  9
$DIMTM
 40
0.01
  9
$DIMGAP
 40
0.625
  9
$DIMDSEP
 70
46
  9
$AUNITS
 70
0
  9
$PDMODE
 70
3
  9
$PDSIZE
 40
0.3125
  9
$HANDSEED
  5
23E
  9
$TILEMODE
 70
1
  9
$MEASUREMENT
 70
1
  9
$INSUNITS
 70
4
  0
ENDSEC
  0
SECTION
  2
CLASSES
  0
CLASS
  1
ACDBDICTIONARYWDFLT
  2
AcDbDictionaryWithDefault
  3
AutoCAD 2000
 90
0
 91
1
280
0
281
0
  0
CLASS
  1
ACDBPLACEHOLDER
  2
AcDbPlaceHolder
  3
AutoCAD 2000
 90
0
 91
1
280
0
281
0
  0
CLASS
  1
LAYOUT
  2
AcDbLayout
  3
AutoCAD 2000
 90
0
 91
0
280
0
281
0
  0
ENDSEC
  0
SECTION
  2
TABLES
  0
TABLE
  2
VPORT
  5
8
100
AcDbSymbolTable
 70
2
  0
VPORT
  5
1F4
100
AcDbSymbolTableRecord
100
AcDbViewportTableRecord
  2
*ACTIVE
 70
0
 10
0.0
 20
0.0
 11
1.0
 21
1.0
 12
23.959176947
 22
33.8851216822
 13
0.0
 23
0.0
 14
1.0
 24
1.0
 15
0.0
 25
0.0
 16
0.0
 26
0.0
 36
1.0
 17
0.0
 27
0.0
 37
0.0
 40
67.7702433645
 41
0.7070707071
 42
50.0
 43
0.0
 44
0.0
 50
0.0
 51
0.0
 71
0
 72
100
 73
1
 74
1
 75
0
 76
0
 77
0
 78
0
  0
ENDTAB
  0
TABLE
  2
LTYPE
  5
5
100
AcDbSymbolTable
 70
6
  0
LTYPE
  5
14
100
AcDbSymbolTableRecord
100
AcDbLinetypeTableRecord
  2
BYBLOCK
 70
0
  3

 72
65
 73
0
 40
0.0
  0
LTYPE
  5
15
100
AcDbSymbolTableRecord
100
AcDbLinetypeTableRecord
  2
BYLAYER
 70
0
  3

 72
65
 73
0
 40
0.0
  0
LTYPE
  5
16
100
AcDbSymbolTableRecord
100
AcDbLinetypeTableRecord
  2
CONTINUOUS
 70
64
  3
Solid line
 72
65
 73
0
 40
0.0
  0
LTYPE
  5
1F5
100
AcDbSymbolTableRecord
100
AcDbLinetypeTableRecord
  2
CENTER
 70
64
  3
____ _ ____ _ ____ _ ____ _ ____ _ ____ _ ____
 72
65
 73
4
 40
0.6
 49
0.375
 74
0
 49
-0.075
 74
0
 49
0.075
 74
0
 49
-0.075
 74
0
  0
LTYPE
  5
1F6
100
AcDbSymbolTableRecord
100
AcDbLinetypeTableRecord
  2
HIDDEN
 70
64
  3
- - - - - - - - - - - - - - - - - - - -
 72
65
 73
2
 40
0.2
 49
0.1
 74
0
 49
-0.1
 74
0
  0
LTYPE
  5
1F7
100
AcDbSymbolTableRecord
100
AcDbLinetypeTableRecord
  2
PHANTOM
 70
64
  3
_____ _ _ _____ _ _ _____ _ _ _____
 72
65
 73
6
 40
0.8
 49
0.45
 74
0
 49
-0.05
 74
0
 49
0.1
 74
0
 49
-0.05
 74
0
 49
0.1
 74
0
 49
-0.05
 74
0
  0
LTYPE
  5
1F8
100
AcDbSymbolTableRecord
100
AcDbLinetypeTableRecord
  2
DOT
 70
64
  3
. . . . . . . . . . . . . . . . . . . .
 72
65
 73
2
 40
0.2
 49
0.1
 74
0
 49
-0.1
 74
0
  0
LTYPE
  5
1F9
100
AcDbSymbolTableRecord
100
AcDbLinetypeTableRecord
  2
DASHED
 70
64
  3
- - - - - - - - - - - - - - - - - - - -
 72
65
 73
2
 40
0.2
 49
0.1
 74
0
 49
-0.1
 74
0
  0
ENDTAB
  0
TABLE
  2
LAYER
  5
2
100
AcDbSymbolTable
 70
36
  0
LAYER
  5
10
100
AcDbSymbolTableRecord
100
AcDbLayerTableRecord
  2
0
 70
0
 62
7
  6
CONTINUOUS
370
-3
390
F
  0
LAYER
  5
1FA
100
AcDbSymbolTableRecord
100
AcDbLayerTableRecord
  2
DEFAULT_1
 70
0
 62
7
  6
CENTER
370
-3
390
F
  0
LAYER
  5
1FB
100
AcDbSymbolTableRecord
100
AcDbLayerTableRecord
  2
DEFAULT_2
 70
0
 62
7
  6
HIDDEN
370
-3
390
F
  0
LAYER
  5
1FC
100
AcDbSymbolTableRecord
100
AcDbLayerTableRecord
  2
DEFAULT_3
 70
0
 62
7
  6
PHANTOM
370
-3
390
F
  0
LAYER
  5
1FD
100
AcDbSymbolTableRecord
100
AcDbLayerTableRecord
  2
00_COMPONENTS
 70
0
 62
7
  6
CONTINUOUS
370
-3
390
F
  0
LAYER
  5
1FE
100
AcDbSymbolTableRecord
100
AcDbLayerTableRecord
  2
01_1_DEFAULT_DATUMS
 70
0
 62
7
  6
CONTINUOUS
370
-3
390
F
  0
LAYER
  5
1FF
100
AcDbSymbolTableRecord
100
AcDbLayerTableRecord
  2
01_PLANES
 70
0
 62
7
  6
CONTINUOUS
370
-3
390
F
  0
LAYER
  5
200
100
AcDbSymbolTableRecord
100
AcDbLayerTableRecord
  2
02_COORD_SYS
 70
0
 62
7
  6
CONTINUOUS
370
-3
390
F
  0
LAYER
  5
201
100
AcDbSymbolTableRecord
100
AcDbLayerTableRecord
  2
03_AXES
 70
0
 62
7
  6
CONTINUOUS
370
-3
390
F
  0
LAYER
  5
202
100
AcDbSymbolTableRecord
100
AcDbLayerTableRecord
  2
04_POINTS
 70
0
 62
7
  6
CONTINUOUS
370
-3
390
F
  0
LAYER
  5
203
100
AcDbSymbolTableRecord
100
AcDbLayerTableRecord
  2
05_CURVES
 70
0
 62
7
  6
CONTINUOUS
370
-3
390
F
  0
LAYER
  5
204
100
AcDbSymbolTableRecord
100
AcDbLayerTableRecord
  2
06_SURFS
 70
0
 62
7
  6
CONTINUOUS
370
-3
390
F
  0
LAYER
  5
205
100
AcDbSymbolTableRecord
100
AcDbLayerTableRecord
  2
07_COSMETICS
 70
0
 62
7
  6
CONTINUOUS
370
-3
390
F
  0
LAYER
  5
206
100
AcDbSymbolTableRecord
100
AcDbLayerTableRecord
  2
10_NOTES
 70
0
 62
7
  6
CONTINUOUS
370
-3
390
F
  0
LAYER
  5
207
100
AcDbSymbolTableRecord
100
AcDbLayerTableRecord
  2
11_NOTES_PUB
 70
0
 62
7
  6
CONTINUOUS
370
-3
390
F
  0
LAYER
  5
208
100
AcDbSymbolTableRecord
100
AcDbLayerTableRecord
  2
13_REF_GTOL
 70
0
 62
7
  6
CONTINUOUS
370
-3
390
F
  0
LAYER
  5
209
100
AcDbSymbolTableRecord
100
AcDbLayerTableRecord
  2
16_MISC
 70
0
 62
7
  6
CONTINUOUS
370
-3
390
F
  0
LAYER
  5
20A
100
AcDbSymbolTableRecord
100
AcDbLayerTableRecord
  2
17_NO_PRINT
 70
0
 62
7
  6
CONTINUOUS
370
-3
390
F
  0
LAYER
  5
20B
100
AcDbSymbolTableRecord
100
AcDbLayerTableRecord
  2
18_DATUM_CAMS_JOINTS
 70
0
 62
7
  6
CONTINUOUS
370
-3
390
F
  0
LAYER
  5
20C
100
AcDbSymbolTableRecord
100
AcDbLayerTableRecord
  2
19_DATUM_FUNCTIONAL
 70
0
 62
7
  6
CONTINUOUS
370
-3
390
F
  0
LAYER
  5
20D
100
AcDbSymbolTableRecord
100
AcDbLayerTableRecord
  2
20_DATUM_KINEMATIC_SCHEME
 70
0
 62
7
  6
CONTINUOUS
370
-3
390
F
  0
ENDTAB
  0
TABLE
  2
STYLE
  5
3
100
AcDbSymbolTable
 70
1
  0
STYLE
  5
11
100
AcDbSymbolTableRecord
100
AcDbTextStyleTableRecord
  2
STANDARD
 70
0
 40
0.0
 41
1.0
 50
0.0
 71
0
 42
0.2
  3
ARIAL.TTF
  4

  0
STYLE
  5
20E
100
AcDbSymbolTableRecord
100
AcDbTextStyleTableRecord
  2
TEXTSTYLE_1
 70
0
 40
0.0
 41
0.8
 50
0.0
 71
0
 42
0.2
  3
gdt
  4

  0
ENDTAB
  0
TABLE
  2
VIEW
  5
6
100
AcDbSymbolTable
 70
0
  0
ENDTAB
  0
TABLE
  2
UCS
  5
7
100
AcDbSymbolTable
 70
0
  0
ENDTAB
  0
TABLE
  2
APPID
  5
9
100
AcDbSymbolTable
 70
1
  0
APPID
  5
20F
100
AcDbSymbolTableRecord
100
AcDbRegAppTableRecord
  2
ACAD
 70
0
  0
ENDTAB
  0
TABLE
  2
BLOCK_RECORD
  5
1
100
AcDbSymbolTable
 70
0
  0
BLOCK_RECORD
  5
210
100
AcDbSymbolTableRecord
100
AcDbBlockTableRecord
  2
*Model_Space
  0
BLOCK_RECORD
  5
211
100
AcDbSymbolTableRecord
100
AcDbBlockTableRecord
  2
*Paper_Space
  0
BLOCK_RECORD
  5
212
100
AcDbSymbolTableRecord
100
AcDbBlockTableRecord
  2
_FILLED
  0
ENDTAB
  0
TABLE
  2
DIMSTYLE
  5
A
100
AcDbSymbolTable
 70
1
100
AcDbDimStyleTable
 71
0
  0
DIMSTYLE
105
213
100
AcDbSymbolTableRecord
100
AcDbDimStyleTableRecord
  2
STANDARD
 70
0
  3

  4

 40
1.0
 41
0.570456594
 42
1.0
 43
0.38
 44
1.0
 45
0.0
 46
0.0
 47
0.01
 48
0.01
140
0.7986392316
141
0.09
142
0.0
143
25.4
144
1.0
145
0.0
146
1.0
147
0.625
 71
1
 72
0
 73
0
 74
0
 75
0
 76
0
 77
1
 78
8
 79
2
170
0
171
1
172
0
173
0
174
0
175
0
176
0
177
0
178
0
270
2
179
2
271
2
272
2
273
2
274
2
275
0
280
0
281
0
282
0
283
1
284
8
285
0
286
0
287
3
288
0
340
11
278
46
341
212
342
212
343
212
344
212
  0
ENDTAB
  0
ENDSEC
  0
SECTION
  2
BLOCKS
  0
BLOCK
  5
20
100
AcDbEntity
  8
0
100
AcDbBlockBegin
  2
*Model_Space
 70
0
 10
0.0
 20
0.0
 30
0.0
  3
*Model_Space
  1

  0
ENDBLK
  5
21
100
AcDbEntity
  8
0
100
AcDbBlockEnd
  0
BLOCK
  5
1C
100
AcDbEntity
  8
0
100
AcDbBlockBegin
  2
*Paper_Space
 70
0
 10
0.0
 20
0.0
 30
0.0
  3
*Paper_Space
  1

  0
ENDBLK
  5
1D
100
AcDbEntity
  8
0
100
AcDbBlockEnd
  0
BLOCK
  5
214
100
AcDbEntity
  8
0
100
AcDbBlockBegin
  2
_FILLED
 70
64
 10
0.0
 20
0.0
  3
_FILLED
  1

  0
SOLID
  5
215
100
AcDbEntity
  8
0
  6
BYBLOCK
 62
0
100
AcDbTrace
 10
0.0
 20
0.0
 11
-1.0
 21
0.25
 12
-1.0
 22
-0.25
 13
-1.0
 23
-0.25
  0
ENDBLK
  5
216
100
AcDbEntity
  8
0
  6
BYBLOCK
 62
0
100
AcDbBlockEnd
  0
ENDSEC
  0
SECTION
  2
ENTITIES
  0
LINE
  5
217
100
AcDbEntity
  8
0
100
AcDbLine
 62
7
  6
BYLAYER
 10
5.5856417606
 20
21.6649467965
 11
5.5856417606
 21
29.6024467965
  0
LINE
  5
218
100
AcDbEntity
  8
0
100
AcDbLine
 62
7
  6
BYLAYER
 10
7.9104816849
 20
21.6649467965
 11
7.9104816849
 21
29.6024467965
  0
LINE
  5
219
100
AcDbEntity
  8
0
100
AcDbLine
 62
7
  6
BYLAYER
 10
25.8262667606
 20
21.6649467965
 11
5.5856482321
 21
21.6649467965
  0
LINE
  5
21A
100
AcDbEntity
  8
0
100
AcDbLine
 62
7
  6
BYLAYER
 10
37.8912602611
 20
22.4586967965
 11
33.60502326
 21
22.4586967965
  0
LINE
  5
21B
100
AcDbEntity
  8
0
100
AcDbLine
 62
7
  6
BYLAYER
 10
12.1199767416
 20
22.4586967965
 11
14.3650407719
 21
22.4586967965
  0
LINE
  5
21C
100
AcDbEntity
  8
0
100
AcDbLine
 62
7
  6
BYLAYER
 10
40.5105416555
 20
23.0936967965
 11
30.9857418656
 21
23.0936967965
  0
LINE
  5
21D
100
AcDbEntity
  8
0
100
AcDbLine
 62
7
  6
BYLAYER
 10
36.4284989034
 20
23.6493217965
 11
27.8106417606
 21
23.6493217965
  0
LINE
  5
21E
100
AcDbEntity
  8
0
100
AcDbLine
 62
7
  6
BYLAYER
 10
27.8106417606
 20
27.6180717965
 11
36.4284989034
 21
27.6180717965
  0
LINE
  5
21F
100
AcDbEntity
  8
0
100
AcDbLine
 62
7
  6
BYLAYER
 10
43.6855121584
 20
28.0149467965
 11
27.8107713627
 21
28.0149467965
  0
LINE
  5
220
100
AcDbEntity
  8
0
100
AcDbLine
 62
7
  6
BYLAYER
 10
19.7465942403
 20
21.6649467965
 11
19.7465942403
 21
21.6769291334
  0
LINE
  5
221
100
AcDbEntity
  8
0
100
AcDbLine
 62
7
  6
BYLAYER
 10
19.7465942403
 20
29.5904644596
 11
19.7465942403
 21
29.6024467965
  0
LINE
  5
222
100
AcDbEntity
  8
0
100
AcDbLine
 62
7
  6
BYLAYER
 10
12.1199767416
 20
28.8086967965
 11
14.3650407719
 21
28.8086967965
  0
LINE
  5
223
100
AcDbEntity
  8
0
100
AcDbLine
 62
7
  6
BYLAYER
 10
5.5856471098
 20
29.6024467965
 11
25.8262667606
 21
29.6024467965
  0
LINE
  5
224
100
AcDbEntity
  8
0
100
AcDbLine
 62
7
  6
BYLAYER
 10
25.8262667606
 20
29.6024467965
 11
27.8106417606
 21
27.6180717965
  0
LINE
  5
225
100
AcDbEntity
  8
0
100
AcDbLine
 62
7
  6
BYLAYER
 10
27.8106417606
 20
28.0149467965
 11
27.8106417606
 21
43.8899467965
  0
LINE
  5
226
100
AcDbEntity
  8
0
100
AcDbLine
 62
7
  6
BYLAYER
 10
30.9856417606
 20
23.0936967965
 11
30.9856417606
 21
23.6493217965
  0
LINE
  5
227
100
AcDbEntity
  8
0
100
AcDbLine
 62
7
  6
BYLAYER
 10
30.9856417606
 20
27.6180717965
 11
30.9856417606
 21
28.0149467965
  0
LINE
  5
228
100
AcDbEntity
  8
0
100
AcDbLine
 62
7
  6
BYLAYER
 10
30.9856417606
 20
43.8899467965
 11
30.9856417606
 21
46.2711967965
  0
LINE
  5
229
100
AcDbEntity
  8
0
100
AcDbLine
 62
7
  6
BYLAYER
 10
33.6050167606
 20
22.4586967965
 11
33.6050167606
 21
23.0936967965
  0
LINE
  5
22A
100
AcDbEntity
  8
0
100
AcDbLine
 62
7
  6
BYLAYER
 10
27.8106417606
 20
23.6493217965
 11
25.8262667606
 21
21.6649467965
  0
LINE
  5
22B
100
AcDbEntity
  8
0
100
AcDbLine
 62
7
  6
BYLAYER
 10
27.8107713627
 20
43.8899467965
 11
43.6855121584
 21
43.8899467965
  0
LINE
  5
22C
100
AcDbEntity
  8
0
100
AcDbLine
 62
7
  6
BYLAYER
 10
36.4284989034
 20
27.6180717965
 11
36.4284989034
 21
23.6493217965
  0
LINE
  5
22D
100
AcDbEntity
  8
0
100
AcDbLine
 62
7
  6
BYLAYER
 10
37.8912667606
 20
22.4586967965
 11
37.8912667606
 21
23.0936967965
  0
LINE
  5
22E
100
AcDbEntity
  8
0
100
AcDbLine
 62
7
  6
BYLAYER
 10
30.9857657107
 20
46.2711967965
 11
40.5105178104
 21
46.2711967965
  0
LINE
  5
22F
100
AcDbEntity
  8
0
100
AcDbLine
 62
7
  6
BYLAYER
 10
40.5106417606
 20
23.0936967965
 11
40.5106417606
 21
28.0149467965
  0
LINE
  5
230
100
AcDbEntity
  8
0
100
AcDbLine
 62
7
  6
BYLAYER
 10
40.5106417606
 20
43.8899467965
 11
40.5106417606
 21
46.2711967965
  0
LINE
  5
231
100
AcDbEntity
  8
0
100
AcDbLine
 62
7
  6
BYLAYER
 10
43.6856417606
 20
28.0149467965
 11
43.6856417606
 21
43.8899467965
  0
SPLINE
  5
232
100
AcDbEntity
  8
0
100
AcDbSpline
 62
7
  6
BYLAYER
 70
0
 71
3
 72
18
 73
14
 74
0
 42
0.0000001
 43
0.0000001
 44
0.0000000001
 40
0.0
 40
0.0
 40
0.0
 40
0.0
 40
0.0514873602
 40
0.1034638563
 40
0.1563853462
 40
0.2106512329
 40
0.2665799033
 40
0.3244043639
 40
0.4460590934
 40
0.5759018992
 40
0.7128719849
 40
0.8550715335
 40
1.0
 40
1.0
 40
1.0
 40
1.0
 10
12.1199767462
 20
28.80867323
 30
0.0
 10
12.0464499964
 20
28.8086733861
 30
0.0
 10
11.8984927196
 20
28.7983799954
 30
0.0
 10
11.6793334986
 20
28.7521339452
 30
0.0
 10
11.4645547264
 20
28.6757464595
 30
0.0
 10
11.2563750648
 20
28.5699069498
 30
0.0
 10
11.0567066259
 20
28.4358389994
 30
0.0
 10
10.8002211552
 20
28.2175713726
 30
0.0
 10
10.5120291482
 20
27.8785570372
 30
0.0
 10
10.2348611302
 20
27.394986786
 30
0.0
 10
10.0294398124
 20
26.8456536534
 30
0.0
 10
9.9032279432
 20
26.2512832706
 30
0.0
 10
9.8749127114
 20
25.8406625267
 30
0.0
 10
9.8749127114
 20
25.6336967965
 30
0.0
  0
SPLINE
  5
233
100
AcDbEntity
  8
0
100
AcDbSpline
 62
7
  6
BYLAYER
 70
0
 71
3
 72
18
 73
14
 74
0
 42
0.0000001
 43
0.0000001
 44
0.0000000001
 40
0.0
 40
0.0
 40
0.0
 40
0.0
 40
0.1449269876
 40
0.2871235681
 40
0.4240925174
 40
0.5539348831
 40
0.6755909443
 40
0.733416303
 40
0.7893461228
 40
0.8436129502
 40
0.8965352595
 40
0.948512297
 40
1.0
 40
1.0
 40
1.0
 40
1.0
 10
9.8749127114
 20
25.6336967965
 30
0.0
 10
9.8749127114
 20
25.4267331403
 30
0.0
 10
9.9032263647
 20
25.0161185749
 30
0.0
 10
10.0294358965
 20
24.4217559405
 30
0.0
 10
10.2348498976
 20
23.8724269083
 30
0.0
 10
10.5120149962
 20
23.3888554759
 30
0.0
 10
10.8002048209
 20
23.0498354464
 30
0.0
 10
11.0566942209
 20
22.8315649797
 30
0.0
 10
11.2563642817
 20
22.6974916845
 30
0.0
 10
11.4645478775
 20
22.5916504927
 30
0.0
 10
11.6793292188
 20
22.5152604028
 30
0.0
 10
11.8984909504
 20
22.4690137906
 30
0.0
 10
12.0464494843
 20
22.4587205191
 30
0.0
 10
12.1199767371
 20
22.458720363
 30
0.0
  0
SPLINE
  5
234
100
AcDbEntity
  8
0
100
AcDbSpline
 62
7
  6
BYLAYER
 70
0
 71
3
 72
31
 73
27
 74
0
 42
0.0000001
 43
0.0000001
 44
0.0000000001
 40
0.0
 40
0.0
 40
0.0
 40
0.0
 40
0.0257280085
 40
0.0517259324
 40
0.0781876614
 40
0.1053142344
 40
0.1332754277
 40
0.162184356
 40
0.223004523
 40
0.2550034868
 40
0.2879799917
 40
0.3564583721
 40
0.4275434615
 40
0.4999998123
 40
0.57245587
 40
0.6435401458
 40
0.712017631
 40
0.7449938676
 40
0.7769926832
 40
0.8378131661
 40
0.8667224401
 40
0.8946839547
 40
0.921810951
 40
0.9482733157
 40
0.9742718016
 40
1.0
 40
1.0
 40
1.0
 40
1.0
 10
18.6306624294
 20
29.6024467965
 30
0.0
 10
18.7225263484
 20
29.6024467965
 30
0.0
 10
18.9074635252
 20
29.5894850101
 30
0.0
 10
19.1814575437
 20
29.5318162917
 30
0.0
 10
19.4499562634
 20
29.4362380022
 30
0.0
 10
19.7102084252
 20
29.3039875056
 30
0.0
 10
19.959746014
 20
29.1363320398
 30
0.0
 10
20.2803837034
 20
28.863589985
 30
0.0
 10
20.5640822782
 20
28.5298034495
 30
0.0
 10
20.8060532356
 20
28.1509551255
 30
0.0
 10
21.027147793
 20
27.7282128042
 30
0.0
 10
21.2438394503
 20
27.1485806291
 30
0.0
 10
21.4016011401
 20
26.4055901833
 30
0.0
 10
21.4548488335
 20
25.6337001246
 30
0.0
 10
21.4016021491
 20
24.8618129513
 30
0.0
 10
21.2438436106
 20
24.1188291994
 30
0.0
 10
21.0271566006
 20
23.5392029921
 30
0.0
 10
20.8060672612
 20
23.1164632451
 30
0.0
 10
20.564099104
 20
22.7376135741
 30
0.0
 10
20.2804021778
 20
22.4038232045
 30
0.0
 10
19.9597639904
 20
22.131076386
 30
0.0
 10
19.710225259
 20
21.9634155912
 30
0.0
 10
19.4499694085
 20
21.8311613475
 30
0.0
 10
19.1814656763
 20
21.7355796662
 30
0.0
 10
18.9074668056
 20
21.677909984
 30
0.0
 10
18.7225270262
 20
21.6649467965
 30
0.0
 10
18.6306624294
 20
21.6649467965
 30
0.0
  0
SPLINE
  5
235
100
AcDbEntity
  8
0
100
AcDbSpline
 62
7
  6
BYLAYER
 70
0
 71
3
 72
18
 73
14
 74
0
 42
0.0000001
 43
0.0000001
 44
0.0000000001
 40
0.0
 40
0.0
 40
0.0
 40
0.0
 40
0.0514873602
 40
0.1034638563
 40
0.1563853462
 40
0.2106512329
 40
0.2665799033
 40
0.3244043639
 40
0.4460590934
 40
0.5759018992
 40
0.7128719849
 40
0.8550715335
 40
1.0
 40
1.0
 40
1.0
 40
1.0
 10
14.3650407674
 20
28.80867323
 30
0.0
 10
14.4385675172
 20
28.8086733861
 30
0.0
 10
14.586524794
 20
28.7983799954
 30
0.0
 10
14.805684015
 20
28.7521339452
 30
0.0
 10
15.0204627872
 20
28.6757464595
 30
0.0
 10
15.2286424488
 20
28.5699069498
 30
0.0
 10
15.4283108877
 20
28.4358389994
 30
0.0
 10
15.6847963584
 20
28.2175713726
 30
0.0
 10
15.9729883654
 20
27.8785570372
 30
0.0
 10
16.2501563834
 20
27.394986786
 30
0.0
 10
16.4555777011
 20
26.8456536534
 30
0.0
 10
16.5817895703
 20
26.2512832706
 30
0.0
 10
16.6101048022
 20
25.8406625267
 30
0.0
 10
16.6101048022
 20
25.6336967965
 30
0.0
  0
SPLINE
  5
236
100
AcDbEntity
  8
0
100
AcDbSpline
 62
7
  6
BYLAYER
 70
0
 71
3
 72
18
 73
14
 74
0
 42
0.0000001
 43
0.0000001
 44
0.0000000001
 40
0.0
 40
0.0
 40
0.0
 40
0.0
 40
0.0514873602
 40
0.1034638563
 40
0.1563853462
 40
0.2106512329
 40
0.2665799033
 40
0.3244043639
 40
0.4460590934
 40
0.5759018992
 40
0.7128719849
 40
0.8550715335
 40
1.0
 40
1.0
 40
1.0
 40
1.0
 10
12.1199767371
 20
22.458720363
 30
0.0
 10
12.1935034869
 20
22.4587202069
 30
0.0
 10
12.3414607637
 20
22.4690135976
 30
0.0
 10
12.5606199847
 20
22.5152596478
 30
0.0
 10
12.7753987569
 20
22.5916471335
 30
0.0
 10
12.9835784185
 20
22.6974866432
 30
0.0
 10
13.1832468574
 20
22.8315545936
 30
0.0
 10
13.4397323281
 20
23.0498222204
 30
0.0
 10
13.7279243351
 20
23.3888365558
 30
0.0
 10
14.0050923531
 20
23.872406807
 30
0.0
 10
14.2105136709
 20
24.4217399396
 30
0.0
 10
14.3367255401
 20
25.0161103224
 30
0.0
 10
14.3650407719
 20
25.4267310664
 30
0.0
 10
14.3650407719
 20
25.6336967965
 30
0.0
  0
SPLINE
  5
237
100
AcDbEntity
  8
0
100
AcDbSpline
 62
7
  6
BYLAYER
 70
0
 71
3
 72
18
 73
14
 74
0
 42
0.0000001
 43
0.0000001
 44
0.0000000001
 40
0.0
 40
0.0
 40
0.0
 40
0.0
 40
0.1449269876
 40
0.2871235681
 40
0.4240925174
 40
0.5539348831
 40
0.6755909443
 40
0.733416303
 40
0.7893461228
 40
0.8436129502
 40
0.8965352595
 40
0.948512297
 40
1.0
 40
1.0
 40
1.0
 40
1.0
 10
14.3650407719
 20
25.6336967965
 30
0.0
 10
14.3650407719
 20
25.8406604527
 30
0.0
 10
14.3367271186
 20
26.2512750181
 30
0.0
 10
14.2105175868
 20
26.8456376525
 30
0.0
 10
14.0051035857
 20
27.3949666848
 30
0.0
 10
13.7279384871
 20
27.8785381171
 30
0.0
 10
13.4397486624
 20
28.2175581467
 30
0.0
 10
13.1832592624
 20
28.4358286133
 30
0.0
 10
12.9835892016
 20
28.5699019085
 30
0.0
 10
12.7754056058
 20
28.6757431003
 30
0.0
 10
12.5606242645
 20
28.7521331902
 30
0.0
 10
12.3414625329
 20
28.7983798025
 30
0.0
 10
12.193503999
 20
28.8086730739
 30
0.0
 10
12.1199767462
 20
28.80867323
 30
0.0
  0
SPLINE
  5
238
100
AcDbEntity
  8
0
100
AcDbSpline
 62
7
  6
BYLAYER
 70
0
 71
3
 72
27
 73
23
 74
0
 42
0.0000001
 43
0.0000001
 44
0.0000000001
 40
0.0
 40
0.0
 40
0.0
 40
0.0
 40
0.0256613469
 40
0.0517420212
 40
0.0783947566
 40
0.1057733155
 40
0.1630983432
 40
0.2243043376
 40
0.2893088652
 40
0.3575614677
 40
0.428165076
 40
0.4999991108
 40
0.5718329051
 40
0.6424358926
 40
0.7106879008
 40
0.7756923603
 40
0.8368990082
 40
0.8942248729
 40
0.9216039659
 40
0.94825735
 40
0.9743385013
 40
1.0
 40
1.0
 40
1.0
 40
1.0
 10
19.7465942403
 20
21.6769291334
 30
0.0
 10
19.8339460304
 20
21.6865503688
 30
0.0
 10
20.0089866627
 20
21.7176867595
 30
0.0
 10
20.2657813406
 20
21.7982788579
 30
0.0
 10
20.51599154
 20
21.912499327
 30
0.0
 10
20.8425696458
 20
22.1108548338
 30
0.0
 10
21.2230243455
 20
22.440990709
 30
0.0
 10
21.611296872
 20
22.9394510931
 30
0.0
 10
21.9270049433
 20
23.5291178272
 30
0.0
 10
22.1600382507
 20
24.1898321708
 30
0.0
 10
22.3029772869
 20
24.8993462543
 30
0.0
 10
22.3511506149
 20
25.633686376
 30
0.0
 10
22.3029800363
 20
26.3680245144
 30
0.0
 10
22.1600451901
 20
27.0775343233
 30
0.0
 10
21.9270168895
 20
27.7382456579
 30
0.0
 10
21.6113136335
 20
28.3279149133
 30
0.0
 10
21.2230419436
 20
28.8263820589
 30
0.0
 10
20.8425856487
 20
29.1565267482
 30
0.0
 10
20.5160030601
 20
29.3548883737
 30
0.0
 10
20.2657878692
 20
29.469111745
 30
0.0
 10
20.008989178
 20
29.5497055691
 30
0.0
 10
19.8339465471
 20
29.5808431673
 30
0.0
 10
19.7465942403
 20
29.5904644596
 30
0.0
  0
SPLINE
  5
239
100
AcDbEntity
  8
0
100
AcDbSpline
 62
7
  6
BYLAYER
 70
0
 71
3
 72
18
 73
14
 74
0
 42
0.0000001
 43
0.0000001
 44
0.0000000001
 40
0.0
 40
0.0
 40
0.0
 40
0.0
 40
0.1449269876
 40
0.2871235681
 40
0.4240925174
 40
0.5539348831
 40
0.6755909443
 40
0.733416303
 40
0.7893461228
 40
0.8436129502
 40
0.8965352595
 40
0.948512297
 40
1.0
 40
1.0
 40
1.0
 40
1.0
 10
16.6101048022
 20
25.6336967965
 30
0.0
 10
16.6101048022
 20
25.4267331403
 30
0.0
 10
16.5817911488
 20
25.0161185749
 30
0.0
 10
16.4555816171
 20
24.4217559405
 30
0.0
 10
16.2501676159
 20
23.8724269083
 30
0.0
 10
15.9730025174
 20
23.3888554759
 30
0.0
 10
15.6848126927
 20
23.0498354464
 30
0.0
 10
15.4283232927
 20
22.8315649797
 30
0.0
 10
15.2286532319
 20
22.6974916845
 30
0.0
 10
15.0204696361
 20
22.5916504927
 30
0.0
 10
14.8056882947
 20
22.5152604028
 30
0.0
 10
14.5865265632
 20
22.4690137906
 30
0.0
 10
14.4385680293
 20
22.4587205191
 30
0.0
 10
14.3650407765
 20
22.458720363
 30
0.0
  0
SPLINE
  5
23A
100
AcDbEntity
  8
0
100
AcDbSpline
 62
7
  6
BYLAYER
 70
0
 71
3
 72
31
 73
27
 74
0
 42
0.0000001
 43
0.0000001
 44
0.0000000001
 40
0.0
 40
0.0
 40
0.0
 40
0.0
 40
0.0257280085
 40
0.0517259324
 40
0.0781876614
 40
0.1053142344
 40
0.1332754277
 40
0.162184356
 40
0.223004523
 40
0.2550034868
 40
0.2879799917
 40
0.3564583721
 40
0.4275434615
 40
0.4999998123
 40
0.57245587
 40
0.6435401458
 40
0.712017631
 40
0.7449938676
 40
0.7769926832
 40
0.8378131661
 40
0.8667224401
 40
0.8946839547
 40
0.921810951
 40
0.9482733157
 40
0.9742718016
 40
1.0
 40
1.0
 40
1.0
 40
1.0
 10
14.3650407719
 20
21.6649467965
 30
0.0
 10
14.4569046909
 20
21.6649467965
 30
0.0
 10
14.6418418677
 20
21.6779085829
 30
0.0
 10
14.9158358862
 20
21.7355773013
 30
0.0
 10
15.1843346059
 20
21.8311555908
 30
0.0
 10
15.4445867677
 20
21.9634060874
 30
0.0
 10
15.6941243565
 20
22.1310615532
 30
0.0
 10
16.0147620459
 20
22.4038036081
 30
0.0
 10
16.2984606207
 20
22.7375901435
 30
0.0
 10
16.5404315781
 20
23.1164384675
 30
0.0
 10
16.7615261354
 20
23.5391807889
 30
0.0
 10
16.9782177928
 20
24.1188129639
 30
0.0
 10
17.1359794826
 20
24.8618034097
 30
0.0
 10
17.189227176
 20
25.6336934684
 30
0.0
 10
17.1359804916
 20
26.4055806417
 30
0.0
 10
16.9782219531
 20
27.1485643936
 30
0.0
 10
16.7615349431
 20
27.7281906009
 30
0.0
 10
16.5404456037
 20
28.1509303479
 30
0.0
 10
16.2984774465
 20
28.5297800189
 30
0.0
 10
16.0147805203
 20
28.8635703886
 30
0.0
 10
15.6941423329
 20
29.136317207
 30
0.0
 10
15.4446036015
 20
29.3039780018
 30
0.0
 10
15.184347751
 20
29.4362322456
 30
0.0
 10
14.9158440188
 20
29.5318139268
 30
0.0
 10
14.6418451481
 20
29.589483609
 30
0.0
 10
14.4569053687
 20
29.6024467965
 30
0.0
 10
14.3650407719
 20
29.6024467965
 30
0.0
  0
ELLIPSE
  5
23B
100
AcDbEntity
  8
0
100
AcDbEllipse
 62
7
  6
BYLAYER
 10
19.2372667522
 20
25.6336967965
 30
0.0
 11
6.5594326234
 21
0.0
 31
0.0
 40
0.6050447086
 41
-1.4930699868
 42
1.4930699868
  0
ENDSEC
  0
SECTION
  2
OBJECTS
  0
DICTIONARY
  5
C
100
AcDbDictionary
280
0
281
1
  3
ACAD_GROUP
350
D
  3
ACAD_MLINESTYLE
350
17
  3
ACAD_LAYOUT
350
1A
  3
ACAD_PLOTSETTINGS
350
19
  3
ACAD_PLOTSTYLENAME
350
E
  0
DICTIONARY
  5
D
102
{ACAD_REACTORS
330
C
102
}
100
AcDbDictionary
280
0
281
1
  0
ACDBDICTIONARYWDFLT
  5
E
102
{ACAD_REACTORS
330
C
102
}
100
AcDbDictionary
281
1
  3
Normal
350
F
100
AcDbDictionaryWithDefault
340
F
  0
DICTIONARY
  5
17
102
{ACAD_REACTORS
330
C
102
}
100
AcDbDictionary
280
0
281
1
  3
Standard
350
18
  0
DICTIONARY
  5
19
102
{ACAD_REACTORS
330
C
102
}
100
AcDbDictionary
281
1
  0
DICTIONARY
  5
1A
102
{ACAD_REACTORS
330
C
102
}
100
AcDbDictionary
281
1
  3
Model
350
23C
  3
Layout1
350
23D
  0
ACDBPLACEHOLDER
  5
F
102
{ACAD_REACTORS
330
E
102
}
  0
MLINESTYLE
  5
18
102
{ACAD_REACTORS
330
17
102
}
100
AcDbMlineStyle
  2
STANDARD
 70
0
  3

 62
256
 51
90.0
 52
90.0
 71
2
 49
0.5
 62
256
  6
BYLAYER
 49
-0.5
 62
256
  6
BYLAYER
  0
LAYOUT
  5
23C
102
{ACAD_REACTORS
330
1A
102
}
100
AcDbPlotSettings
  1

  2
none_device
  4

  6

 40
0.0
 41
0.0
 42
0.0
 43
0.0
 44
210.0
 45
297.0
 46
0.0
 47
0.0
 48
0.0
 49
0.0
140
0.0
141
0.0
142
1.0
143
1.0
 70
1024
 72
1
 73
0
 74
0
  7

 75
0
147
1.0
148
0.0
149
0.0
100
AcDbLayout
  1
Model
 70
0
 71
0
 10
0.0
 20
0.0
 11
210.0
 21
297.0
 12
0.0
 22
0.0
 32
0.0
 14
0.0
 24
0.0
 34
0.0
 15
0.0
 25
0.0
 35
0.0
146
0.0
 13
0.0
 23
0.0
 33
0.0
 16
1.0
 26
0.0
 36
0.0
 17
0.0
 27
1.0
 37
0.0
 76
0
330
210
345
0
346
0
  0
LAYOUT
  5
23D
102
{ACAD_REACTORS
330
1A
102
}
100
AcDbPlotSettings
  1

  2
none_device
  4

  6

 40
0.0
 41
0.0
 42
0.0
 43
0.0
 44
210.0
 45
297.0
 46
0.0
 47
0.0
 48
0.0
 49
0.0
140
0.0
141
0.0
142
1.0
143
1.0
 70
0
 72
1
 73
0
 74
0
  7

 75
0
147
1.0
148
0.0
149
0.0
100
AcDbLayout
  1
Layout1
 70
0
 71
1
 10
0.0
 20
0.0
 11
210.0
 21
297.0
 12
0.0
 22
0.0
 32
0.0
 14
0.0
 24
0.0
 34
0.0
 15
0.0
 25
0.0
 35
0.0
146
0.0
 13
0.0
 23
0.0
 33
0.0
 16
1.0
 26
0.0
 36
0.0
 17
0.0
 27
1.0
 37
0.0
 76
0
330
211
345
0
346
0
  0
ENDSEC
  0
EOF
