999
DXF file: C:\Users\sesa63760\Dev\_Creo\CAD\MCADUE0001297_3D-CAD\drw0001_6.dxf
999
Pro/ENGINEER 2019471 by Parametric Technology Corporation
  0
SECTION
  2
HEADER
  9
$ACADVER
  1
AC1024
  9
$DWGCODEPAGE
  3
ANSI_1252
  9
$EXTMAX
 10
423.5166918451
 20
598.9736070381
 30
0.0
  9
$EXTMIN
 10
0.0
 20
0.0
 30
0.0
  9
$LIMMIN
 10
0.0
 20
0.0
  9
$LIMMAX
 10
423.5166918451
 20
598.9736070381
  9
$VIEWCTR
 10
211.7583459226
 20
299.4868035191
  9
$VIEWSIZE
 40
598.9736070381
  9
$CLAYER
  8
0
  9
$LTSCALE
 40
39.0442054958
  9
$CELTYPE
  6
BYLAYER
  9
$DIMSCALE
 40
1.0
  9
$DIMASZ
 40
5.0418653791
  9
$DIMEXO
 40
1.0
  9
$DIMDLI
 40
26.9759965244
  9
$DIMEXE
 40
1.0
  9
$DIMCEN
 40
6.3890518084
  9
$DIMLFAC
 40
1.0
  9
$DIMBLK
  1
_FILLED
  9
$DIMALT
 70
0
  9
$DIMALTF
 40
0.0393700787
  9
$DIMTXT
 40
7.0586115308
  9
$DIMTOL
 70
1
  9
$DIMLIM
 70
0
  9
$DIMTFAC
 40
1.0
  9
$DIMTP
 40
0.01
  9
$DIMTM
 40
0.01
  9
$DIMGAP
 40
0.625
  9
$DIMDSEP
 70
46
  9
$AUNITS
 70
0
  9
$PDMODE
 70
3
  9
$PDSIZE
 40
0.3125
  9
$HANDSEED
  5
314
  9
$TILEMODE
 70
1
  9
$MEASUREMENT
 70
1
  9
$INSUNITS
 70
4
  0
ENDSEC
  0
SECTION
  2
CLASSES
  0
CLASS
  1
ACDBDICTIONARYWDFLT
  2
AcDbDictionaryWithDefault
  3
AutoCAD 2000
 90
0
 91
1
280
0
281
0
  0
CLASS
  1
ACDBPLACEHOLDER
  2
AcDbPlaceHolder
  3
AutoCAD 2000
 90
0
 91
1
280
0
281
0
  0
CLASS
  1
LAYOUT
  2
AcDbLayout
  3
AutoCAD 2000
 90
0
 91
0
280
0
281
0
  0
ENDSEC
  0
SECTION
  2
TABLES
  0
TABLE
  2
VPORT
  5
8
100
AcDbSymbolTable
 70
2
  0
VPORT
  5
1F4
100
AcDbSymbolTableRecord
100
AcDbViewportTableRecord
  2
*ACTIVE
 70
0
 10
0.0
 20
0.0
 11
1.0
 21
1.0
 12
211.7583459226
 22
299.4868035191
 13
0.0
 23
0.0
 14
1.0
 24
1.0
 15
0.0
 25
0.0
 16
0.0
 26
0.0
 36
1.0
 17
0.0
 27
0.0
 37
0.0
 40
598.9736070381
 41
0.7070707071
 42
50.0
 43
0.0
 44
0.0
 50
0.0
 51
0.0
 71
0
 72
100
 73
1
 74
1
 75
0
 76
0
 77
0
 78
0
  0
ENDTAB
  0
TABLE
  2
LTYPE
  5
5
100
AcDbSymbolTable
 70
6
  0
LTYPE
  5
14
100
AcDbSymbolTableRecord
100
AcDbLinetypeTableRecord
  2
BYBLOCK
 70
0
  3

 72
65
 73
0
 40
0.0
  0
LTYPE
  5
15
100
AcDbSymbolTableRecord
100
AcDbLinetypeTableRecord
  2
BYLAYER
 70
0
  3

 72
65
 73
0
 40
0.0
  0
LTYPE
  5
16
100
AcDbSymbolTableRecord
100
AcDbLinetypeTableRecord
  2
CONTINUOUS
 70
64
  3
Solid line
 72
65
 73
0
 40
0.0
  0
LTYPE
  5
1F5
100
AcDbSymbolTableRecord
100
AcDbLinetypeTableRecord
  2
CENTER
 70
64
  3
____ _ ____ _ ____ _ ____ _ ____ _ ____ _ ____
 72
65
 73
4
 40
0.6
 49
0.375
 74
0
 49
-0.075
 74
0
 49
0.075
 74
0
 49
-0.075
 74
0
  0
LTYPE
  5
1F6
100
AcDbSymbolTableRecord
100
AcDbLinetypeTableRecord
  2
HIDDEN
 70
64
  3
- - - - - - - - - - - - - - - - - - - -
 72
65
 73
2
 40
0.2
 49
0.1
 74
0
 49
-0.1
 74
0
  0
LTYPE
  5
1F7
100
AcDbSymbolTableRecord
100
AcDbLinetypeTableRecord
  2
PHANTOM
 70
64
  3
_____ _ _ _____ _ _ _____ _ _ _____
 72
65
 73
6
 40
0.8
 49
0.45
 74
0
 49
-0.05
 74
0
 49
0.1
 74
0
 49
-0.05
 74
0
 49
0.1
 74
0
 49
-0.05
 74
0
  0
LTYPE
  5
1F8
100
AcDbSymbolTableRecord
100
AcDbLinetypeTableRecord
  2
DOT
 70
64
  3
. . . . . . . . . . . . . . . . . . . .
 72
65
 73
2
 40
0.2
 49
0.1
 74
0
 49
-0.1
 74
0
  0
LTYPE
  5
1F9
100
AcDbSymbolTableRecord
100
AcDbLinetypeTableRecord
  2
DASHED
 70
64
  3
- - - - - - - - - - - - - - - - - - - -
 72
65
 73
2
 40
0.2
 49
0.1
 74
0
 49
-0.1
 74
0
  0
ENDTAB
  0
TABLE
  2
LAYER
  5
2
100
AcDbSymbolTable
 70
36
  0
LAYER
  5
10
100
AcDbSymbolTableRecord
100
AcDbLayerTableRecord
  2
0
 70
0
 62
7
  6
CONTINUOUS
370
-3
390
F
  0
LAYER
  5
1FA
100
AcDbSymbolTableRecord
100
AcDbLayerTableRecord
  2
DEFAULT_1
 70
0
 62
7
  6
CENTER
370
-3
390
F
  0
LAYER
  5
1FB
100
AcDbSymbolTableRecord
100
AcDbLayerTableRecord
  2
DEFAULT_2
 70
0
 62
8
  6
HIDDEN
370
-3
390
F
  0
LAYER
  5
1FC
100
AcDbSymbolTableRecord
100
AcDbLayerTableRecord
  2
DEFAULT_3
 70
0
 62
7
  6
PHANTOM
370
-3
390
F
  0
LAYER
  5
1FD
100
AcDbSymbolTableRecord
100
AcDbLayerTableRecord
  2
00_COMPONENTS
 70
0
 62
7
  6
CONTINUOUS
370
-3
390
F
  0
LAYER
  5
1FE
100
AcDbSymbolTableRecord
100
AcDbLayerTableRecord
  2
01_1_DEFAULT_DATUMS
 70
0
 62
7
  6
CONTINUOUS
370
-3
390
F
  0
LAYER
  5
1FF
100
AcDbSymbolTableRecord
100
AcDbLayerTableRecord
  2
01_PLANES
 70
0
 62
7
  6
CONTINUOUS
370
-3
390
F
  0
LAYER
  5
200
100
AcDbSymbolTableRecord
100
AcDbLayerTableRecord
  2
02_COORD_SYS
 70
0
 62
7
  6
CONTINUOUS
370
-3
390
F
  0
LAYER
  5
201
100
AcDbSymbolTableRecord
100
AcDbLayerTableRecord
  2
03_AXES
 70
0
 62
7
  6
CONTINUOUS
370
-3
390
F
  0
LAYER
  5
202
100
AcDbSymbolTableRecord
100
AcDbLayerTableRecord
  2
04_POINTS
 70
0
 62
7
  6
CONTINUOUS
370
-3
390
F
  0
LAYER
  5
203
100
AcDbSymbolTableRecord
100
AcDbLayerTableRecord
  2
05_CURVES
 70
0
 62
7
  6
CONTINUOUS
370
-3
390
F
  0
LAYER
  5
204
100
AcDbSymbolTableRecord
100
AcDbLayerTableRecord
  2
06_SURFS
 70
0
 62
7
  6
CONTINUOUS
370
-3
390
F
  0
LAYER
  5
205
100
AcDbSymbolTableRecord
100
AcDbLayerTableRecord
  2
07_COSMETICS
 70
0
 62
7
  6
CONTINUOUS
370
-3
390
F
  0
LAYER
  5
206
100
AcDbSymbolTableRecord
100
AcDbLayerTableRecord
  2
10_NOTES
 70
0
 62
7
  6
CONTINUOUS
370
-3
390
F
  0
LAYER
  5
207
100
AcDbSymbolTableRecord
100
AcDbLayerTableRecord
  2
11_NOTES_PUB
 70
0
 62
7
  6
CONTINUOUS
370
-3
390
F
  0
LAYER
  5
208
100
AcDbSymbolTableRecord
100
AcDbLayerTableRecord
  2
13_REF_GTOL
 70
0
 62
7
  6
CONTINUOUS
370
-3
390
F
  0
LAYER
  5
209
100
AcDbSymbolTableRecord
100
AcDbLayerTableRecord
  2
16_MISC
 70
0
 62
7
  6
CONTINUOUS
370
-3
390
F
  0
LAYER
  5
20A
100
AcDbSymbolTableRecord
100
AcDbLayerTableRecord
  2
17_NO_PRINT
 70
0
 62
7
  6
CONTINUOUS
370
-3
390
F
  0
LAYER
  5
20B
100
AcDbSymbolTableRecord
100
AcDbLayerTableRecord
  2
18_DATUM_CAMS_JOINTS
 70
0
 62
7
  6
CONTINUOUS
370
-3
390
F
  0
LAYER
  5
20C
100
AcDbSymbolTableRecord
100
AcDbLayerTableRecord
  2
19_DATUM_FUNCTIONAL
 70
0
 62
7
  6
CONTINUOUS
370
-3
390
F
  0
LAYER
  5
20D
100
AcDbSymbolTableRecord
100
AcDbLayerTableRecord
  2
20_DATUM_KINEMATIC_SCHEME
 70
0
 62
7
  6
CONTINUOUS
370
-3
390
F
  0
ENDTAB
  0
TABLE
  2
STYLE
  5
3
100
AcDbSymbolTable
 70
1
  0
STYLE
  5
11
100
AcDbSymbolTableRecord
100
AcDbTextStyleTableRecord
  2
STANDARD
 70
0
 40
0.0
 41
0.8
 50
0.0
 71
0
 42
0.2
  3
txt
  4

  0
STYLE
  5
20E
100
AcDbSymbolTableRecord
100
AcDbTextStyleTableRecord
  2
TEXTSTYLE_1
 70
0
 40
0.0
 41
0.8
 50
0.0
 71
0
 42
0.2
  3
gdt
  4

  0
ENDTAB
  0
TABLE
  2
VIEW
  5
6
100
AcDbSymbolTable
 70
0
  0
ENDTAB
  0
TABLE
  2
UCS
  5
7
100
AcDbSymbolTable
 70
0
  0
ENDTAB
  0
TABLE
  2
APPID
  5
9
100
AcDbSymbolTable
 70
1
  0
APPID
  5
20F
100
AcDbSymbolTableRecord
100
AcDbRegAppTableRecord
  2
ACAD
 70
0
  0
ENDTAB
  0
TABLE
  2
BLOCK_RECORD
  5
1
100
AcDbSymbolTable
 70
0
  0
BLOCK_RECORD
  5
210
100
AcDbSymbolTableRecord
100
AcDbBlockTableRecord
  2
*Model_Space
  0
BLOCK_RECORD
  5
211
100
AcDbSymbolTableRecord
100
AcDbBlockTableRecord
  2
*Paper_Space
  0
BLOCK_RECORD
  5
212
100
AcDbSymbolTableRecord
100
AcDbBlockTableRecord
  2
_FILLED
  0
ENDTAB
  0
TABLE
  2
DIMSTYLE
  5
A
100
AcDbSymbolTable
 70
1
100
AcDbDimStyleTable
 71
0
  0
DIMSTYLE
105
213
100
AcDbSymbolTableRecord
100
AcDbDimStyleTableRecord
  2
STANDARD
 70
0
  3

  4

 40
1.0
 41
5.0418653791
 42
1.0
 43
0.38
 44
1.0
 45
0.0
 46
0.0
 47
0.01
 48
0.01
140
7.0586115308
141
0.09
142
0.0
143
25.4
144
1.0
145
0.0
146
1.0
147
0.625
 71
1
 72
0
 73
0
 74
0
 75
0
 76
0
 77
1
 78
8
 79
2
170
0
171
1
172
0
173
0
174
0
175
0
176
0
177
0
178
0
270
2
179
2
271
2
272
2
273
2
274
2
275
0
280
0
281
0
282
0
283
1
284
8
285
0
286
0
287
3
288
0
340
11
278
46
341
212
342
212
343
212
344
212
  0
ENDTAB
  0
ENDSEC
  0
SECTION
  2
BLOCKS
  0
BLOCK
  5
20
100
AcDbEntity
  8
0
100
AcDbBlockBegin
  2
*Model_Space
 70
0
 10
0.0
 20
0.0
 30
0.0
  3
*Model_Space
  1

  0
ENDBLK
  5
21
100
AcDbEntity
  8
0
100
AcDbBlockEnd
  0
BLOCK
  5
1C
100
AcDbEntity
  8
0
100
AcDbBlockBegin
  2
*Paper_Space
 70
0
 10
0.0
 20
0.0
 30
0.0
  3
*Paper_Space
  1

  0
ENDBLK
  5
1D
100
AcDbEntity
  8
0
100
AcDbBlockEnd
  0
BLOCK
  5
214
100
AcDbEntity
  8
0
100
AcDbBlockBegin
  2
_FILLED
 70
64
 10
0.0
 20
0.0
  3
_FILLED
  1

  0
SOLID
  5
215
100
AcDbEntity
  8
0
  6
BYBLOCK
 62
0
100
AcDbTrace
 10
0.0
 20
0.0
 11
-1.0
 21
0.25
 12
-1.0
 22
-0.25
 13
-1.0
 23
-0.25
  0
ENDBLK
  5
216
100
AcDbEntity
  8
0
  6
BYBLOCK
 62
0
100
AcDbBlockEnd
  0
ENDSEC
  0
SECTION
  2
ENTITIES
  0
LINE
  5
217
100
AcDbEntity
  8
0
100
AcDbLine
 62
7
  6
CONTINUOUS
 10
91.792465422
 20
53.2832148061
 11
94.4137519637
 21
52.6868035191
  0
LINE
  5
218
100
AcDbEntity
  8
0
100
AcDbLine
 62
7
  6
CONTINUOUS
 10
120.6240485752
 20
49.4868035265
 11
342.2240485752
 21
49.4868035242
  0
LINE
  5
219
100
AcDbEntity
  8
0
100
AcDbLine
 62
7
  6
CONTINUOUS
 10
120.6240485752
 20
50.4868035191
 11
342.2240485752
 21
50.4868035191
  0
LINE
  5
21A
100
AcDbEntity
  8
0
100
AcDbLine
 62
7
  6
CONTINUOUS
 10
109.9137519638
 20
51.4868035191
 11
94.4137519637
 21
51.4868035191
  0
LINE
  5
21B
100
AcDbEntity
  8
0
100
AcDbLine
 62
7
  6
CONTINUOUS
 10
109.9137519638
 20
52.6868035191
 11
94.4137519637
 21
52.6868035191
  0
LINE
  5
21C
100
AcDbEntity
  8
0
100
AcDbLine
 62
7
  6
CONTINUOUS
 10
344.6240485752
 20
64.9868035191
 11
344.4240485752
 21
64.9868035191
  0
LINE
  5
21D
100
AcDbEntity
  8
0
100
AcDbLine
 62
7
  6
CONTINUOUS
 10
115.0424305843
 20
69.0238638778
 11
111.2137519638
 21
68.2796441439
  0
LINE
  5
21E
100
AcDbEntity
  8
0
100
AcDbLine
 62
7
  6
CONTINUOUS
 10
111.2137519638
 20
69.2612713274
 11
115.0424305844
 21
70.0054910613
  0
LINE
  5
21F
100
AcDbEntity
  8
0
100
AcDbLine
 62
7
  6
CONTINUOUS
 10
344.6240485752
 20
77.9868035191
 11
344.4240485752
 21
77.9868035191
  0
LINE
  5
220
100
AcDbEntity
  8
0
100
AcDbLine
 62
7
  6
CONTINUOUS
 10
117.2240485752
 20
113.4868035191
 11
117.4240485752
 21
113.4868035191
  0
LINE
  5
221
100
AcDbEntity
  8
0
100
AcDbLine
 62
7
  6
CONTINUOUS
 10
117.2240485752
 20
123.4868035191
 11
117.4240485752
 21
123.4868035191
  0
LWPOLYLINE
  5
222
100
AcDbEntity
  8
0
100
AcDbPolyline
 62
7
  6
CONTINUOUS
 90
4
 70
0
 10
85.5549050295
 20
277.7258475945
 10
85.5741233125
 20
277.5439855781
 10
85.6082836216
 20
277.1219143138
 10
85.6137517097
 20
276.9373854207
  0
LINE
  5
223
100
AcDbEntity
  8
0
100
AcDbLine
 62
7
  6
CONTINUOUS
 10
85.5952537367
 20
277.3868990458
 11
85.563086425
 21
277.6969963378
  0
LWPOLYLINE
  5
224
100
AcDbEntity
  8
0
100
AcDbPolyline
 62
7
  6
CONTINUOUS
 90
3
 70
0
 10
85.2241919142
 20
277.8922501472
 10
85.3116939931
 20
276.8923103072
 10
85.4233429822
 20
276.1343035121
  0
LWPOLYLINE
  5
225
100
AcDbEntity
  8
0
100
AcDbPolyline
 62
7
  6
CONTINUOUS
 90
3
 70
0
 10
85.2242584186
 20
276.4624659349
 10
85.2576337027
 20
276.0333870666
 10
85.4081507896
 20
275.0840917924
  0
LINE
  5
226
100
AcDbEntity
  8
0
100
AcDbLine
 62
7
  6
CONTINUOUS
 10
85.2334789943
 20
277.9013526338
 11
85.2340142167
 21
277.8931707225
  0
LINE
  5
227
100
AcDbEntity
  8
0
100
AcDbLine
 62
7
  6
CONTINUOUS
 10
85.2340621988
 20
276.4633140031
 11
85.2334796177
 21
276.4727486994
  0
LWPOLYLINE
  5
228
100
AcDbEntity
  8
0
100
AcDbPolyline
 62
7
  6
CONTINUOUS
 90
4
 70
0
 10
85.409809912
 20
279.9454405897
 10
85.4528783892
 20
278.938709314
 10
85.4868700865
 20
278.453142083
 10
85.554908066
 20
277.725758067
  0
LINE
  5
229
100
AcDbEntity
  8
0
100
AcDbLine
 62
7
  6
CONTINUOUS
 10
85.419902725
 20
279.945690174
 11
85.4200854038
 21
279.9390580184
  0
LINE
  5
22A
100
AcDbEntity
  8
0
100
AcDbLine
 62
7
  6
CONTINUOUS
 10
85.6137509938
 20
314.4378166263
 11
85.6137519638
 21
314.4367143179
  0
LINE
  5
22B
100
AcDbEntity
  8
0
100
AcDbLine
 62
7
  6
CONTINUOUS
 10
85.6137519062
 20
274.9381628269
 11
85.6137519638
 21
274.9379057138
  0
LINE
  5
22C
100
AcDbEntity
  8
0
100
AcDbLine
 62
7
  6
CONTINUOUS
 10
85.6137519638
 20
276.9358520811
 11
85.6137517266
 21
276.9370187815
  0
LINE
  5
22D
100
AcDbEntity
  8
0
100
AcDbLine
 62
7
  6
CONTINUOUS
 10
85.2239852616
 20
312.9008585376
 11
85.2239852616
 21
303.1746642813
  0
LINE
  5
22E
100
AcDbEntity
  8
0
100
AcDbLine
 62
7
  6
CONTINUOUS
 10
85.2239852616
 20
295.7989427568
 11
85.2239852616
 21
277.9013395631
  0
LINE
  5
22F
100
AcDbEntity
  8
0
100
AcDbLine
 62
7
  6
CONTINUOUS
 10
85.2239852616
 20
277.8922488522
 11
85.2239852616
 21
276.4727485005
  0
LINE
  5
230
100
AcDbEntity
  8
0
100
AcDbLine
 62
7
  6
CONTINUOUS
 10
85.2334796179
 20
276.4727485005
 11
85.2334796179
 21
277.7861138698
  0
LINE
  5
231
100
AcDbEntity
  8
0
100
AcDbLine
 62
7
  6
CONTINUOUS
 10
85.2334789944
 20
277.9013395631
 11
85.2334789944
 21
295.9258320191
  0
LINE
  5
232
100
AcDbEntity
  8
0
100
AcDbLine
 62
7
  6
CONTINUOUS
 10
85.2334765381
 20
303.047791442
 11
85.2334765381
 21
311.4722928362
  0
LINE
  5
233
100
AcDbEntity
  8
0
100
AcDbLine
 62
7
  6
CONTINUOUS
 10
85.2334733422
 20
311.6309962037
 11
85.2334733422
 21
312.9008585376
  0
LINE
  5
234
100
AcDbEntity
  8
0
100
AcDbLine
 62
7
  6
CONTINUOUS
 10
85.6137519638
 20
312.4379996048
 11
85.6137516269
 21
312.4366322734
  0
LWPOLYLINE
  5
235
100
AcDbEntity
  8
0
100
AcDbPolyline
 62
7
  6
CONTINUOUS
 90
3
 70
0
 10
85.4098199607
 20
309.4281586851
 10
85.2465585197
 20
294.6928106907
 10
85.4098198345
 20
279.945448908
  0
LINE
  5
236
100
AcDbEntity
  8
0
100
AcDbLine
 62
7
  6
CONTINUOUS
 10
85.4200854161
 20
309.4345506892
 11
85.4199235245
 21
309.4279122881
  0
LWPOLYLINE
  5
237
100
AcDbEntity
  8
0
100
AcDbPolyline
 62
7
  6
CONTINUOUS
 90
4
 70
0
 10
85.613754399
 20
312.4361202329
 10
85.6083511214
 20
312.2530293116
 10
85.5745499847
 20
311.8338900576
 10
85.5549065306
 20
311.6477784106
  0
LWPOLYLINE
  5
238
100
AcDbEntity
  8
0
100
AcDbPolyline
 62
7
  6
CONTINUOUS
 90
9
 70
0
 10
85.6137390706
 20
314.4378169947
 10
85.6120753918
 20
314.3958683493
 10
85.5909938352
 20
314.2174026857
 10
85.5408057713
 20
313.9127925331
 10
85.5039988911
 20
313.7046876186
 10
85.4140639716
 20
313.1831120966
 10
85.3183533196
 20
312.5338339965
 10
85.2423397176
 20
311.7835663247
 10
85.2253470732
 20
311.4911616281
  0
LWPOLYLINE
  5
239
100
AcDbEntity
  8
0
100
AcDbPolyline
 62
7
  6
CONTINUOUS
 90
4
 70
0
 10
85.5549102716
 20
311.6478689162
 10
85.4874435132
 20
310.9277140495
 10
85.4533436103
 20
310.4424920505
 10
85.409809885
 20
309.4281670046
  0
LINE
  5
23A
100
AcDbEntity
  8
0
100
AcDbLine
 62
7
  6
CONTINUOUS
 10
85.2250340831
 20
311.4917176922
 11
85.2244722433
 21
311.4862157905
  0
LINE
  5
23B
100
AcDbEntity
  8
0
100
AcDbLine
 62
7
  6
CONTINUOUS
 10
85.5549065306
 20
311.6477784106
 11
85.5549170166
 21
311.6478731345
  0
LINE
  5
23C
100
AcDbEntity
  8
0
100
AcDbLine
 62
7
  6
CONTINUOUS
 10
115.0424305844
 20
529.9497431604
 11
114.8516215853
 21
528.9681159576
  0
LWPOLYLINE
  5
23D
100
AcDbEntity
  8
0
100
AcDbPolyline
 62
7
  6
CONTINUOUS
 90
4
 70
0
 10
85.4917431797
 20
314.6490660181
 10
85.4085697141
 20
314.2914851073
 10
85.2582840221
 20
313.3465130699
 10
85.2242555517
 20
312.9111274338
  0
LINE
  5
23E
100
AcDbEntity
  8
0
100
AcDbLine
 62
7
  6
CONTINUOUS
 10
85.6055906085
 20
315.0622637233
 11
85.4917431797
 21
314.6490660181
  0
LINE
  5
23F
100
AcDbEntity
  8
0
100
AcDbLine
 62
7
  6
CONTINUOUS
 10
85.6070563175
 20
315.0674112393
 11
85.6055906085
 21
315.0622637233
  0
LINE
  5
240
100
AcDbEntity
  8
0
100
AcDbLine
 62
7
  6
CONTINUOUS
 10
85.6064838531
 20
315.0620874118
 11
85.6216555884
 21
315.1152969958
  0
LINE
  5
241
100
AcDbEntity
  8
0
100
AcDbLine
 62
7
  6
CONTINUOUS
 10
85.6146603547
 20
274.2813219805
 11
85.6249321461
 21
274.2475459946
  0
LINE
  5
242
100
AcDbEntity
  8
0
100
AcDbLine
 62
7
  6
CONTINUOUS
 10
85.6064399444
 20
274.3115362963
 11
85.6211051566
 21
274.2600620181
  0
LINE
  5
243
100
AcDbEntity
  8
0
100
AcDbLine
 62
7
  6
CONTINUOUS
 10
85.4918673695
 20
274.7240663971
 11
85.6066607107
 21
274.3074747583
  0
LINE
  5
244
100
AcDbEntity
  8
0
100
AcDbLine
 62
7
  6
CONTINUOUS
 10
85.4081507896
 20
275.0840917924
 11
85.4918673695
 21
274.7240663971
  0
LINE
  5
245
100
AcDbEntity
  8
0
100
AcDbLine
 62
7
  6
CONTINUOUS
 10
115.0424305872
 20
69.0238638633
 11
114.851621589
 21
70.0054910612
  0
LWPOLYLINE
  5
246
100
AcDbEntity
  8
0
100
AcDbPolyline
 62
7
  6
CONTINUOUS
 90
4
 70
0
 10
85.4233429822
 20
276.1343035121
 10
85.5754337823
 20
275.256663511
 10
85.6051034195
 20
275.0503964934
 10
85.6137423209
 20
274.9369122603
  0
LINE
  5
247
100
AcDbEntity
  8
0
100
AcDbLine
 62
7
  6
CONTINUOUS
 10
85.2334789943
 20
277.9013526338
 11
85.2344647073
 21
277.8935459403
  0
LINE
  5
248
100
AcDbEntity
  8
0
100
AcDbLine
 62
7
  6
CONTINUOUS
 10
85.2241928112
 20
277.8922304068
 11
85.2242693799
 21
277.8916124426
  0
LINE
  5
249
100
AcDbEntity
  8
0
100
AcDbLine
 62
7
  6
CONTINUOUS
 10
85.2345700026
 20
276.4637126221
 11
85.2334796177
 21
276.4727486994
  0
LINE
  5
24A
100
AcDbEntity
  8
0
100
AcDbLine
 62
7
  6
CONTINUOUS
 10
85.5549148483
 20
277.7257588772
 11
85.5549050295
 21
277.7258475945
  0
LINE
  5
24B
100
AcDbEntity
  8
0
100
AcDbLine
 62
7
  6
CONTINUOUS
 10
89.0741537989
 20
279.4563686041
 11
89.0741537989
 21
309.9172399191
  0
LINE
  5
24C
100
AcDbEntity
  8
0
100
AcDbLine
 62
7
  6
CONTINUOUS
 10
89.6326847718
 20
269.8872360395
 11
89.6326847718
 21
272.7364690973
  0
LINE
  5
24D
100
AcDbEntity
  8
0
100
AcDbLine
 62
7
  6
CONTINUOUS
 10
89.6326847718
 20
316.6371419474
 11
89.6326847718
 21
319.4863709987
  0
LINE
  5
24E
100
AcDbEntity
  8
0
100
AcDbLine
 62
7
  6
CONTINUOUS
 10
90.3751366799
 20
269.7160886101
 11
90.3751366799
 21
272.5849853557
  0
LINE
  5
24F
100
AcDbEntity
  8
0
100
AcDbLine
 62
7
  6
CONTINUOUS
 10
90.3751366799
 20
316.7886263713
 11
90.3751366799
 21
319.657518428
  0
LINE
  5
250
100
AcDbEntity
  8
0
100
AcDbLine
 62
7
  6
CONTINUOUS
 10
91.2137519638
 20
544.2868035191
 11
91.2137519638
 21
54.6868035191
  0
LINE
  5
251
100
AcDbEntity
  8
0
100
AcDbLine
 62
7
  6
CONTINUOUS
 10
91.792465422
 20
53.2832148061
 11
91.792465422
 21
545.6903922321
  0
LINE
  5
252
100
AcDbEntity
  8
0
100
AcDbLine
 62
7
  6
CONTINUOUS
 10
94.4137519637
 20
51.4868035202
 11
94.4137519637
 21
52.6868035212
  0
LINE
  5
253
100
AcDbEntity
  8
0
100
AcDbLine
 62
7
  6
CONTINUOUS
 10
94.4137519637
 20
546.2868035191
 11
94.4137519637
 21
547.486803518
  0
LINE
  5
254
100
AcDbEntity
  8
0
100
AcDbLine
 62
7
  6
CONTINUOUS
 10
97.2603553659
 20
546.2868035191
 11
97.2603553659
 21
52.6868035191
  0
LINE
  5
255
100
AcDbEntity
  8
0
100
AcDbLine
 62
7
  6
CONTINUOUS
 10
98.243337819
 20
547.4868035191
 11
98.243337819
 21
546.2868035191
  0
LINE
  5
256
100
AcDbEntity
  8
0
100
AcDbLine
 62
7
  6
CONTINUOUS
 10
98.243337819
 20
52.6868035191
 11
98.243337819
 21
51.4868035191
  0
LINE
  5
257
100
AcDbEntity
  8
0
100
AcDbLine
 62
7
  6
CONTINUOUS
 10
99.8816419076
 20
51.4868035191
 11
99.8816419076
 21
547.4868035191
  0
LINE
  5
258
100
AcDbEntity
  8
0
100
AcDbLine
 62
7
  6
CONTINUOUS
 10
85.6149907881
 20
315.0933596716
 11
85.6249406883
 21
315.1261262301
  0
LINE
  5
259
100
AcDbEntity
  8
0
100
AcDbLine
 62
7
  6
CONTINUOUS
 10
109.9137519638
 20
547.4868035191
 11
109.9137519638
 21
51.4868035191
  0
LINE
  5
25A
100
AcDbEntity
  8
0
100
AcDbLine
 62
7
  6
CONTINUOUS
 10
111.2137519638
 20
545.3952940733
 11
111.2137519638
 21
53.5783129648
  0
LINE
  5
25B
100
AcDbEntity
  8
0
100
AcDbLine
 62
7
  6
CONTINUOUS
 10
115.0424305844
 20
528.9681159769
 11
115.0424305844
 21
70.0054910613
  0
LINE
  5
25C
100
AcDbEntity
  8
0
100
AcDbLine
 62
7
  6
CONTINUOUS
 10
116.2240485752
 20
117.7368045198
 11
116.2240485752
 21
119.2367712304
  0
LINE
  5
25D
100
AcDbEntity
  8
0
100
AcDbLine
 62
7
  6
CONTINUOUS
 10
116.2240485752
 20
479.7368045198
 11
116.2240485752
 21
481.2367712304
  0
LINE
  5
25E
100
AcDbEntity
  8
0
100
AcDbLine
 62
7
  6
CONTINUOUS
 10
117.2240485752
 20
113.4868035191
 11
117.2240485752
 21
123.486803516
  0
LINE
  5
25F
100
AcDbEntity
  8
0
100
AcDbLine
 62
7
  6
CONTINUOUS
 10
117.2240485752
 20
475.4868035191
 11
117.2240485752
 21
485.486803516
  0
LINE
  5
260
100
AcDbEntity
  8
0
100
AcDbLine
 62
7
  6
CONTINUOUS
 10
117.4240485752
 20
546.286803519
 11
117.4240485752
 21
52.6868035191
  0
LINE
  5
261
100
AcDbEntity
  8
0
100
AcDbLine
 62
7
  6
CONTINUOUS
 10
120.6240485752
 20
49.4868035265
 11
120.6240485752
 21
549.4868035116
  0
LINE
  5
262
100
AcDbEntity
  8
0
100
AcDbLine
 62
7
  6
CONTINUOUS
 10
90.3751366799
 20
269.7160886101
 11
89.6326903876
 21
269.8872335436
  0
LINE
  5
263
100
AcDbEntity
  8
0
100
AcDbLine
 62
7
  6
CONTINUOUS
 10
85.2334796179
 20
276.4727485005
 11
85.2239852616
 21
276.4727485005
  0
LINE
  5
264
100
AcDbEntity
  8
0
100
AcDbLine
 62
7
  6
CONTINUOUS
 10
85.2334789944
 20
277.9013395631
 11
85.2239852616
 21
277.9013395631
  0
LINE
  5
265
100
AcDbEntity
  8
0
100
AcDbLine
 62
7
  6
CONTINUOUS
 10
90.3751366799
 20
269.7160886101
 11
91.2137519638
 21
269.6868035191
  0
LINE
  5
266
100
AcDbEntity
  8
0
100
AcDbLine
 62
7
  6
CONTINUOUS
 10
85.2248049102
 20
311.4722674751
 11
85.2239852616
 21
311.4722503222
  0
LINE
  5
267
100
AcDbEntity
  8
0
100
AcDbLine
 62
7
  6
CONTINUOUS
 10
85.2248049102
 20
311.4722674751
 11
85.2334765381
 21
311.4722928362
  0
LINE
  5
268
100
AcDbEntity
  8
0
100
AcDbLine
 62
7
  6
CONTINUOUS
 10
85.2239852616
 20
312.9008585376
 11
85.2334733422
 21
312.9008585376
  0
LINE
  5
269
100
AcDbEntity
  8
0
100
AcDbLine
 62
7
  6
CONTINUOUS
 10
91.2137519638
 20
319.6868035191
 11
90.3751366799
 21
319.657518428
  0
LINE
  5
26A
100
AcDbEntity
  8
0
100
AcDbLine
 62
7
  6
CONTINUOUS
 10
90.3751366799
 20
319.657518428
 11
89.6326903876
 21
319.4863734945
  0
LINE
  5
26B
100
AcDbEntity
  8
0
100
AcDbLine
 62
7
  6
CONTINUOUS
 10
342.2240485752
 20
549.486803514
 11
342.2240485752
 21
49.4868035242
  0
LINE
  5
26C
100
AcDbEntity
  8
0
100
AcDbLine
 62
7
  6
CONTINUOUS
 10
344.4240485752
 20
51.6868035191
 11
344.4240485752
 21
547.2868035191
  0
LINE
  5
26D
100
AcDbEntity
  8
0
100
AcDbLine
 62
7
  6
CONTINUOUS
 10
344.6240485752
 20
533.9868035191
 11
344.6240485752
 21
520.9868035191
  0
LINE
  5
26E
100
AcDbEntity
  8
0
100
AcDbLine
 62
7
  6
CONTINUOUS
 10
344.6240485752
 20
77.9868035191
 11
344.6240485752
 21
64.9868035191
  0
LINE
  5
26F
100
AcDbEntity
  8
0
100
AcDbLine
 62
7
  6
CONTINUOUS
 10
92.2579609404
 20
53.1773023937
 11
91.792465422
 21
52.8513589227
  0
LINE
  5
270
100
AcDbEntity
  8
0
100
AcDbLine
 62
7
  6
CONTINUOUS
 10
92.2579609403
 20
545.7963046444
 11
91.792465422
 21
546.1222481154
  0
LINE
  5
271
100
AcDbEntity
  8
0
100
AcDbLine
 62
7
  6
CONTINUOUS
 10
117.2240485752
 20
475.4868035191
 11
117.4240485752
 21
475.4868035191
  0
LINE
  5
272
100
AcDbEntity
  8
0
100
AcDbLine
 62
7
  6
CONTINUOUS
 10
117.2240485752
 20
485.4868035191
 11
117.4240485752
 21
485.4868035191
  0
LINE
  5
273
100
AcDbEntity
  8
0
100
AcDbLine
 62
7
  6
CONTINUOUS
 10
115.0424305844
 20
528.9681159769
 11
111.2137519638
 21
529.7123357107
  0
LINE
  5
274
100
AcDbEntity
  8
0
100
AcDbLine
 62
7
  6
CONTINUOUS
 10
111.2137519638
 20
530.6939628943
 11
115.0424305844
 21
529.9497431604
  0
LINE
  5
275
100
AcDbEntity
  8
0
100
AcDbLine
 62
7
  6
CONTINUOUS
 10
344.6240485752
 20
520.9868035191
 11
344.4240485752
 21
520.9868035191
  0
LINE
  5
276
100
AcDbEntity
  8
0
100
AcDbLine
 62
7
  6
CONTINUOUS
 10
344.6240485752
 20
533.9868035191
 11
344.4240485752
 21
533.9868035191
  0
LINE
  5
277
100
AcDbEntity
  8
0
100
AcDbLine
 62
7
  6
CONTINUOUS
 10
94.4137519637
 20
546.2868035191
 11
109.9137519638
 21
546.2868035191
  0
LINE
  5
278
100
AcDbEntity
  8
0
100
AcDbLine
 62
7
  6
CONTINUOUS
 10
94.4137519637
 20
546.2868035191
 11
91.792465422
 21
545.6903922321
  0
LINE
  5
279
100
AcDbEntity
  8
0
100
AcDbLine
 62
7
  6
CONTINUOUS
 10
94.4137519637
 20
547.4868035191
 11
109.9137519638
 21
547.4868035191
  0
LINE
  5
27A
100
AcDbEntity
  8
0
100
AcDbLine
 62
7
  6
CONTINUOUS
 10
120.6240485752
 20
548.4868035191
 11
342.2240485752
 21
548.4868035191
  0
LINE
  5
27B
100
AcDbEntity
  8
0
100
AcDbLine
 62
7
  6
CONTINUOUS
 10
120.6240485752
 20
549.4868035191
 11
342.2240485752
 21
549.4868035191
  0
ARC
  5
27C
100
AcDbEntity
  8
0
100
AcDbCircle
 62
7
  6
CONTINUOUS
 10
160.1910389695
 20
123.3898613622
 40
69.9164965432
100
AcDbArc
 50
229.8657191827
 51
230.1863990736
  0
ARC
  5
27D
100
AcDbEntity
  8
0
100
AcDbCircle
 62
7
  6
CONTINUOUS
 10
134.3340152118
 20
92.6803326002
 40
29.771020746
100
AcDbArc
 50
229.6091134079
 51
229.8153693762
  0
ARC
  5
27E
100
AcDbEntity
  8
0
100
AcDbCircle
 62
7
  6
CONTINUOUS
 10
105.0163265153
 20
279.4388771114
 40
19.8685891441
100
AcDbArc
 50
188.1978958052
 51
189.1582104063
  0
ARC
  5
27F
100
AcDbEntity
  8
0
100
AcDbCircle
 62
7
  6
CONTINUOUS
 10
101.4435401271
 20
278.9193183289
 40
16.2582268652
100
AcDbArc
 50
186.8214690733
 51
188.1809913133
  0
ARC
  5
280
100
AcDbEntity
  8
0
100
AcDbCircle
 62
7
  6
CONTINUOUS
 10
128.9427985752
 20
118.4868035191
 40
12.7408438324
100
AcDbArc
 50
156.8936731546
 51
176.6252870295
  0
ARC
  5
281
100
AcDbEntity
  8
0
100
AcDbCircle
 62
7
  6
CONTINUOUS
 10
128.9427985752
 20
118.4868035191
 40
12.7408438324
100
AcDbArc
 50
183.3747129705
 51
203.1063268454
  0
ARC
  5
282
100
AcDbEntity
  8
0
100
AcDbCircle
 62
7
  6
CONTINUOUS
 10
95.2451231494
 20
277.1887863409
 40
10.0597591226
100
AcDbArc
 50
194.7317770453
 51
196.3762592995
  0
ARC
  5
283
100
AcDbEntity
  8
0
100
AcDbCircle
 62
7
  6
CONTINUOUS
 10
95.0317136875
 20
277.1337938299
 40
9.8393808724
100
AcDbArc
 50
193.3722297151
 51
194.7380898126
  0
ARC
  5
284
100
AcDbEntity
  8
0
100
AcDbCircle
 62
7
  6
CONTINUOUS
 10
94.8865443589
 20
277.0792063296
 40
9.6848329784
100
AcDbArc
 50
196.3523861544
 51
196.7917172267
  0
ARC
  5
285
100
AcDbEntity
  8
0
100
AcDbCircle
 62
7
  6
CONTINUOUS
 10
94.818886795
 20
277.0838416457
 40
9.6207713834
100
AcDbArc
 50
191.4114480644
 51
193.3759456027
  0
ARC
  5
286
100
AcDbEntity
  8
0
100
AcDbCircle
 62
7
  6
CONTINUOUS
 10
94.3942986444
 20
277.0004863705
 40
9.1880848144
100
AcDbArc
 50
188.6870313955
 51
191.4257821337
  0
ARC
  5
287
100
AcDbEntity
  8
0
100
AcDbCircle
 62
7
  6
CONTINUOUS
 10
93.7043547658
 20
276.9049914249
 40
8.4916382905
100
AcDbArc
 50
182.989047523
 51
188.7532068668
  0
ARC
  5
288
100
AcDbEntity
  8
0
100
AcDbCircle
 62
7
  6
CONTINUOUS
 10
92.6545852971
 20
276.6868035191
 40
7.4408333333
100
AcDbArc
 50
199.1332403462
 51
246.0384220125
  0
ARC
  5
289
100
AcDbEntity
  8
0
100
AcDbCircle
 62
7
  6
CONTINUOUS
 10
107.2827634672
 20
59.5348506396
 40
7.3268469557
100
AcDbArc
 50
295.2687355497
 51
295.8209927058
  0
ARC
  5
28A
100
AcDbEntity
  8
0
100
AcDbCircle
 62
7
  6
CONTINUOUS
 10
79.692129377
 20
277.2140528605
 40
5.8908225324
100
AcDbArc
 50
4.9760848676
 51
5.6333572519
  0
ARC
  5
28B
100
AcDbEntity
  8
0
100
AcDbCircle
 62
7
  6
CONTINUOUS
 10
81.595571706
 20
277.3821287757
 40
3.979976091
100
AcDbArc
 50
4.5375288006
 51
4.9424271477
  0
ARC
  5
28C
100
AcDbEntity
  8
0
100
AcDbCircle
 62
7
  6
CONTINUOUS
 10
94.4137519638
 20
54.6868035191
 40
3.2
100
AcDbArc
 50
180.0
 51
269.9999999997
  0
ARC
  5
28D
100
AcDbEntity
  8
0
100
AcDbCircle
 62
7
  6
CONTINUOUS
 10
120.6240485752
 20
52.6868035191
 40
3.2
100
AcDbArc
 50
180.0
 51
270.0
  0
ARC
  5
28E
100
AcDbEntity
  8
0
100
AcDbCircle
 62
7
  6
CONTINUOUS
 10
120.6240485752
 20
52.6868035191
 40
2.2
100
AcDbArc
 50
220.9399350579
 51
270.0
  0
ARC
  5
28F
100
AcDbEntity
  8
0
100
AcDbCircle
 62
7
  6
CONTINUOUS
 10
115.4240485752
 20
67.0606095109
 40
2.0
100
AcDbArc
 50
0.0000000001
 51
101.0
  0
ARC
  5
290
100
AcDbEntity
  8
0
100
AcDbCircle
 62
7
  6
CONTINUOUS
 10
109.9137519638
 20
52.7868035191
 40
1.3
100
AcDbArc
 50
270.0
 51
27.8249417428
  0
ARC
  5
291
100
AcDbEntity
  8
0
100
AcDbCircle
 62
7
  6
CONTINUOUS
 10
86.0828281905
 20
295.7984700875
 40
0.8588452239
100
AcDbArc
 50
171.4719029139
 51
179.9685069893
  0
ARC
  5
292
100
AcDbEntity
  8
0
100
AcDbCircle
 62
7
  6
CONTINUOUS
 10
85.4239852616
 20
276.4727485005
 40
0.2
100
AcDbArc
 50
180.0000000001
 51
182.9466546198
  0
ARC
  5
293
100
AcDbEntity
  8
0
100
AcDbCircle
 62
7
  6
CONTINUOUS
 10
85.4239852616
 20
277.9013395631
 40
0.2
100
AcDbArc
 50
180.0
 51
182.6051944208
  0
ARC
  5
294
100
AcDbEntity
  8
0
100
AcDbCircle
 62
7
  6
CONTINUOUS
 10
24.1966402318
 20
318.1690730844
 40
61.7089388828
100
AcDbArc
 50
353.9607293707
 51
354.1215030163
  0
ARC
  5
295
100
AcDbEntity
  8
0
100
AcDbCircle
 62
7
  6
CONTINUOUS
 10
92.1011529233
 20
312.5406103795
 40
6.8868730159
100
AcDbArc
 50
174.3537069058
 51
176.9136545129
  0
ARC
  5
296
100
AcDbEntity
  8
0
100
AcDbCircle
 62
7
  6
CONTINUOUS
 10
91.6719879956
 20
312.5843054136
 40
6.4554913974
100
AcDbArc
 50
172.2967591882
 51
174.3648793561
  0
ARC
  5
297
100
AcDbEntity
  8
0
100
AcDbCircle
 62
7
  6
CONTINUOUS
 10
82.2058717262
 20
312.5020449263
 40
3.4190442993
100
AcDbArc
 50
358.0507735093
 51
359.2728994072
  0
ARC
  5
298
100
AcDbEntity
  8
0
100
AcDbCircle
 62
7
  6
CONTINUOUS
 10
84.6200084203
 20
311.7285157502
 40
0.9444980572
100
AcDbArc
 50
355.3611090992
 51
356.8535465326
  0
ARC
  5
299
100
AcDbEntity
  8
0
100
AcDbCircle
 62
7
  6
CONTINUOUS
 10
86.0828153012
 20
303.1751357897
 40
0.8588322988
100
AcDbArc
 50
180.0314179212
 51
188.5270401847
  0
ARC
  5
29A
100
AcDbEntity
  8
0
100
AcDbCircle
 62
7
  6
CONTINUOUS
 10
85.4239852616
 20
311.4722674751
 40
0.2
100
AcDbArc
 50
176.000855591
 51
180.0000000001
  0
ARC
  5
29B
100
AcDbEntity
  8
0
100
AcDbCircle
 62
7
  6
CONTINUOUS
 10
85.4239852616
 20
312.9008585376
 40
0.2
100
AcDbArc
 50
177.056190555
 51
180.0000000001
  0
ARC
  5
29C
100
AcDbEntity
  8
0
100
AcDbCircle
 62
7
  6
CONTINUOUS
 10
108.4448430256
 20
309.3618393957
 40
23.345261736
100
AcDbArc
 50
169.7594686218
 51
170.1520289317
  0
ARC
  5
29D
100
AcDbEntity
  8
0
100
AcDbCircle
 62
7
  6
CONTINUOUS
 10
105.1069940247
 20
309.9571431394
 40
19.9549693629
100
AcDbArc
 50
171.4608697563
 51
172.3887704335
  0
ARC
  5
29E
100
AcDbEntity
  8
0
100
AcDbCircle
 62
7
  6
CONTINUOUS
 10
104.7133459568
 20
310.009238973
 40
19.5580179936
100
AcDbArc
 50
170.2606687272
 51
170.7682722706
  0
ARC
  5
29F
100
AcDbEntity
  8
0
100
AcDbCircle
 62
7
  6
CONTINUOUS
 10
103.3476212546
 20
310.2283846909
 40
18.1748258834
100
AcDbArc
 50
170.7594675519
 51
171.4829200737
  0
ARC
  5
2A0
100
AcDbEntity
  8
0
100
AcDbCircle
 62
7
  6
CONTINUOUS
 10
102.5467833615
 20
310.3015546378
 40
17.3716977991
100
AcDbArc
 50
172.3962755658
 51
172.7136300402
  0
ARC
  5
2A1
100
AcDbEntity
  8
0
100
AcDbCircle
 62
7
  6
CONTINUOUS
 10
100.4896269139
 20
310.5612014708
 40
15.298223339
100
AcDbArc
 50
172.7010599415
 51
173.4863380205
  0
ARC
  5
2A2
100
AcDbEntity
  8
0
100
AcDbCircle
 62
7
  6
CONTINUOUS
 10
95.1864233587
 20
312.2029278488
 40
9.9983621197
100
AcDbArc
 50
163.6303231427
 51
165.2674229993
  0
ARC
  5
2A3
100
AcDbEntity
  8
0
100
AcDbCircle
 62
7
  6
CONTINUOUS
 10
95.1342095232
 20
312.2136117522
 40
9.9451483375
100
AcDbArc
 50
165.2504520801
 51
166.6061119032
  0
ARC
  5
2A4
100
AcDbEntity
  8
0
100
AcDbCircle
 62
7
  6
CONTINUOUS
 10
94.7673556169
 20
312.3004186713
 40
9.5681643409
100
AcDbArc
 50
166.6029158213
 51
168.6154421463
  0
ARC
  5
2A5
100
AcDbEntity
  8
0
100
AcDbCircle
 62
7
  6
CONTINUOUS
 10
94.5467254684
 20
312.3913861425
 40
9.3314814124
100
AcDbArc
 50
163.1687065073
 51
163.6175514111
  0
ARC
  5
2A6
100
AcDbEntity
  8
0
100
AcDbCircle
 62
7
  6
CONTINUOUS
 10
94.3899373747
 20
312.3741420488
 40
9.1836198064
100
AcDbArc
 50
168.6015484481
 51
171.366750963
  0
ARC
  5
2A7
100
AcDbEntity
  8
0
100
AcDbCircle
 62
7
  6
CONTINUOUS
 10
93.6985297724
 20
312.4691233631
 40
8.4857944344
100
AcDbArc
 50
171.3000317571
 51
177.0123736186
  0
ARC
  5
2A8
100
AcDbEntity
  8
0
100
AcDbCircle
 62
7
  6
CONTINUOUS
 10
92.6545852971
 20
312.6868035191
 40
7.4408333333
100
AcDbArc
 50
113.9615779875
 51
160.8665539307
  0
ARC
  5
2A9
100
AcDbEntity
  8
0
100
AcDbCircle
 62
7
  6
CONTINUOUS
 10
160.2055244848
 20
475.5664366356
 40
69.9390671312
100
AcDbArc
 50
129.813636924
 51
130.13411493
  0
ARC
  5
2AA
100
AcDbEntity
  8
0
100
AcDbCircle
 62
7
  6
CONTINUOUS
 10
134.3368357843
 20
506.2899512059
 40
29.7753795845
100
AcDbArc
 50
130.1844197203
 51
130.390876614
  0
ARC
  5
2AB
100
AcDbEntity
  8
0
100
AcDbCircle
 62
7
  6
CONTINUOUS
 10
128.9427985752
 20
480.4868035191
 40
12.7408438324
100
AcDbArc
 50
156.8936731546
 51
176.6252870295
  0
ARC
  5
2AC
100
AcDbEntity
  8
0
100
AcDbCircle
 62
7
  6
CONTINUOUS
 10
128.9427985752
 20
480.4868035191
 40
12.7408438324
100
AcDbArc
 50
183.3747129705
 51
203.1063268454
  0
ARC
  5
2AD
100
AcDbEntity
  8
0
100
AcDbCircle
 62
7
  6
CONTINUOUS
 10
107.2501334442
 20
539.3675324493
 40
7.4051285891
100
AcDbArc
 50
64.1651816059
 51
64.7290342126
  0
ARC
  5
2AE
100
AcDbEntity
  8
0
100
AcDbCircle
 62
7
  6
CONTINUOUS
 10
94.4137519638
 20
544.2868035191
 40
3.2
100
AcDbArc
 50
90.0000000003
 51
180.0
  0
ARC
  5
2AF
100
AcDbEntity
  8
0
100
AcDbCircle
 62
7
  6
CONTINUOUS
 10
120.6240485752
 20
546.2868035191
 40
3.2
100
AcDbArc
 50
90.0
 51
172.9767263868
  0
ARC
  5
2B0
100
AcDbEntity
  8
0
100
AcDbCircle
 62
7
  6
CONTINUOUS
 10
120.6240485752
 20
546.2868035191
 40
2.2
100
AcDbArc
 50
90.0
 51
139.0496015892
  0
ARC
  5
2B1
100
AcDbEntity
  8
0
100
AcDbCircle
 62
7
  6
CONTINUOUS
 10
115.4240485752
 20
531.9129975273
 40
2.0
100
AcDbArc
 50
258.9999999986
 51
360.0
  0
ARC
  5
2B2
100
AcDbEntity
  8
0
100
AcDbCircle
 62
7
  6
CONTINUOUS
 10
109.9137519638
 20
546.1868035191
 40
1.3
100
AcDbArc
 50
332.2979279705
 51
90.0
  0
ARC
  5
2B3
100
AcDbEntity
  8
0
100
AcDbCircle
 62
7
  6
CONTINUOUS
 10
301.9589334841
 20
285.7921187589
 40
216.617941476
100
AcDbArc
 50
181.3423797916
 51
181.546577178
  0
ARC
  5
2B4
100
AcDbEntity
  8
0
100
AcDbCircle
 62
7
  6
CONTINUOUS
 10
323.9990485752
 20
71.4868035191
 40
21.625
100
AcDbArc
 50
342.5076754749
 51
17.4923245251
  0
ARC
  5
2B5
100
AcDbEntity
  8
0
100
AcDbCircle
 62
7
  6
CONTINUOUS
 10
342.2240485752
 20
51.6868035191
 40
2.2
100
AcDbArc
 50
270.0
 51
360.0
  0
ARC
  5
2B6
100
AcDbEntity
  8
0
100
AcDbCircle
 62
7
  6
CONTINUOUS
 10
360.9396566513
 20
302.0711443881
 40
275.6179502672
100
AcDbArc
 50
178.4704841476
 51
178.6283625997
  0
ARC
  5
2B7
100
AcDbEntity
  8
0
100
AcDbCircle
 62
7
  6
CONTINUOUS
 10
323.9990485752
 20
527.4868035191
 40
21.625
100
AcDbArc
 50
342.5076754749
 51
17.4923245251
  0
ARC
  5
2B8
100
AcDbEntity
  8
0
100
AcDbCircle
 62
7
  6
CONTINUOUS
 10
342.2240485752
 20
547.2868035191
 40
2.2
100
AcDbArc
 50
0.0
 51
90.0
  0
SPLINE
  5
2B9
100
AcDbEntity
  8
0
100
AcDbSpline
 62
7
  6
CONTINUOUS
 70
0
 71
3
 72
8
 73
4
 74
0
 42
0.0000001
 43
0.0000001
 44
0.0000000001
 40
0.0
 40
0.0
 40
0.0
 40
0.0
 40
1.0
 40
1.0
 40
1.0
 40
1.0
 10
85.5630861133
 20
277.6969962547
 30
0.0
 10
85.558858943
 20
277.7060223839
 30
0.0
 10
85.5560159943
 20
277.715852956
 30
0.0
 10
85.5549147226
 20
277.7257588723
 30
0.0
  0
SPLINE
  5
2BA
100
AcDbEntity
  8
0
100
AcDbSpline
 62
7
  6
CONTINUOUS
 70
0
 71
3
 72
8
 73
4
 74
0
 42
0.0000001
 43
0.0000001
 44
0.0000000001
 40
0.0
 40
0.0
 40
0.0
 40
0.0
 40
1.0
 40
1.0
 40
1.0
 40
1.0
 10
85.2242693799
 20
277.8916124426
 30
0.0
 10
85.2244862678
 20
277.8941865277
 30
0.0
 10
85.2265567682
 20
277.896432213
 30
0.0
 10
85.228555117
 20
277.898069148
 30
0.0
  0
SPLINE
  5
2BB
100
AcDbEntity
  8
0
100
AcDbSpline
 62
7
  6
CONTINUOUS
 70
0
 71
3
 72
8
 73
4
 74
0
 42
0.0000001
 43
0.0000001
 44
0.0000000001
 40
0.0
 40
0.0
 40
0.0
 40
0.0
 40
1.0
 40
1.0
 40
1.0
 40
1.0
 10
85.228555117
 20
277.898069148
 30
0.0
 10
85.2300718336
 20
277.8993115569
 30
0.0
 10
85.2317359819
 20
277.9003768166
 30
0.0
 10
85.2334440215
 20
277.9013394225
 30
0.0
  0
SPLINE
  5
2BC
100
AcDbEntity
  8
0
100
AcDbSpline
 62
7
  6
CONTINUOUS
 70
0
 71
3
 72
9
 73
5
 74
0
 42
0.0000001
 43
0.0000001
 44
0.0000000001
 40
0.0
 40
0.0
 40
0.0
 40
0.0
 40
0.6931465248
 40
1.0
 40
1.0
 40
1.0
 40
1.0
 10
85.2242693906
 20
276.4621902028
 30
0.0
 10
85.2242505671
 20
276.4640911276
 30
0.0
 10
85.2257581737
 20
276.4667690725
 30
0.0
 10
85.2277210585
 20
276.4686348607
 30
0.0
 10
85.2283571681
 20
276.4691858698
 30
0.0
  0
SPLINE
  5
2BD
100
AcDbEntity
  8
0
100
AcDbSpline
 62
7
  6
CONTINUOUS
 70
0
 71
3
 72
8
 73
4
 74
0
 42
0.0000001
 43
0.0000001
 44
0.0000000001
 40
0.0
 40
0.0
 40
0.0
 40
0.0
 40
1.0
 40
1.0
 40
1.0
 40
1.0
 10
85.2283571681
 20
276.4691858698
 30
0.0
 10
85.2299264959
 20
276.4705452485
 30
0.0
 10
85.2316721541
 20
276.471703834
 30
0.0
 10
85.2334666326
 20
276.4727481265
 30
0.0
  0
SPLINE
  5
2BE
100
AcDbEntity
  8
0
100
AcDbSpline
 62
7
  6
CONTINUOUS
 70
0
 71
3
 72
23
 73
19
 74
0
 42
0.0000001
 43
0.0000001
 44
0.0000000001
 40
0.0
 40
0.0
 40
0.0
 40
0.0
 40
0.2291048881
 40
0.4399425471
 40
0.6136027056
 40
0.6804751394
 40
0.7317213806
 40
0.7670566182
 40
0.7794947388
 40
0.7892251891
 40
0.7973185802
 40
0.8053180939
 40
0.8146268166
 40
0.8260280154
 40
0.8560795316
 40
0.8957913892
 40
0.9441513705
 40
1.0
 40
1.0
 40
1.0
 40
1.0
 10
85.2340142167
 20
277.8931707225
 30
0.0
 10
85.2424960706
 20
277.7639729444
 30
0.0
 10
85.2609912215
 20
277.5159167014
 30
0.0
 10
85.3108292905
 20
277.172420081
 30
0.0
 10
85.3694199586
 20
276.9236026107
 30
0.0
 10
85.4236842966
 20
276.7676209752
 30
0.0
 10
85.4599468521
 20
276.6888288173
 30
0.0
 10
85.4908829898
 20
276.6413925434
 30
0.0
 10
85.5152590788
 20
276.6195910243
 30
0.0
 10
85.5307403414
 20
276.6116487883
 30
0.0
 10
85.5458380116
 20
276.6106012106
 30
0.0
 10
85.559317678
 20
276.6168681822
 30
0.0
 10
85.5705395072
 20
276.6289228479
 30
0.0
 10
85.5846719954
 20
276.6540650811
 30
0.0
 10
85.5972900731
 20
276.69861989
 30
0.0
 10
85.6071483955
 20
276.7646418114
 30
0.0
 10
85.6127412181
 20
276.8458753914
 30
0.0
 10
85.6137614961
 20
276.9047686933
 30
0.0
 10
85.6137563273
 20
276.9363308801
 30
0.0
  0
SPLINE
  5
2BF
100
AcDbEntity
  8
0
100
AcDbSpline
 62
7
  6
CONTINUOUS
 70
0
 71
3
 72
9
 73
5
 74
0
 42
0.0000001
 43
0.0000001
 44
0.0000000001
 40
0.0
 40
0.0
 40
0.0
 40
0.0
 40
0.5825075334
 40
1.0
 40
1.0
 40
1.0
 40
1.0
 10
85.5457496697
 20
313.9291013222
 30
0.0
 10
85.5635735112
 20
314.0296542568
 30
0.0
 10
85.5934483152
 20
314.2023177796
 30
0.0
 10
85.6180859255
 20
314.3761689518
 30
0.0
 10
85.6229817457
 20
314.4491963706
 30
0.0
  0
SPLINE
  5
2C0
100
AcDbEntity
  8
0
100
AcDbSpline
 62
7
  6
CONTINUOUS
 70
0
 71
3
 72
18
 73
14
 74
0
 42
0.0000001
 43
0.0000001
 44
0.0000000001
 40
0.0
 40
0.0
 40
0.0
 40
0.0
 40
0.164842503
 40
0.2835061541
 40
0.3253906232
 40
0.3564220682
 40
0.3793150372
 40
0.4010186979
 40
0.4297708604
 40
0.4698636407
 40
0.5896270585
 40
0.7657733593
 40
1.0
 40
1.0
 40
1.0
 40
1.0
 10
85.6229817457
 20
314.4491963706
 30
0.0
 10
85.6242472536
 20
314.4680730386
 30
0.0
 10
85.6256079752
 20
314.5005675991
 30
0.0
 10
85.6240392047
 20
314.5380676834
 30
0.0
 10
85.6191534227
 20
314.5595953325
 30
0.0
 10
85.614732509
 20
314.5697453298
 30
0.0
 10
85.6079469446
 20
314.5760531629
 30
0.0
 10
85.5988758398
 20
314.5759212344
 30
0.0
 10
85.5898522828
 20
314.5703107005
 30
0.0
 10
85.574474766
 20
314.5550057052
 30
0.0
 10
85.5534842308
 20
314.5222581805
 30
0.0
 10
85.526020268
 20
314.4680248932
 30
0.0
 10
85.5078584601
 20
314.424489863
 30
0.0
 10
85.4980514115
 20
314.3994602982
 30
0.0
  0
SPLINE
  5
2C1
100
AcDbEntity
  8
0
100
AcDbSpline
 62
7
  6
CONTINUOUS
 70
0
 71
3
 72
10
 73
6
 74
0
 42
0.0000001
 43
0.0000001
 44
0.0000000001
 40
0.0
 40
0.0
 40
0.0
 40
0.0
 40
0.1827491834
 40
0.4160499782
 40
1.0
 40
1.0
 40
1.0
 40
1.0
 10
85.4980514115
 20
314.3994602982
 30
0.0
 10
85.4763299275
 20
314.3440226925
 30
0.0
 10
85.4330180803
 20
314.2154150926
 30
0.0
 10
85.3477891206
 20
313.9008440015
 30
0.0
 10
85.3003177662
 20
313.6381442506
 30
0.0
 10
85.2747534089
 20
313.449613928
 30
0.0
  0
SPLINE
  5
2C2
100
AcDbEntity
  8
0
100
AcDbSpline
 62
7
  6
CONTINUOUS
 70
0
 71
3
 72
9
 73
5
 74
0
 42
0.0000001
 43
0.0000001
 44
0.0000000001
 40
0.0
 40
0.0
 40
0.0
 40
0.0
 40
0.5320252866
 40
1.0
 40
1.0
 40
1.0
 40
1.0
 10
85.4714691867
 20
313.5121815475
 30
0.0
 10
85.4845071113
 20
313.5861431915
 30
0.0
 10
85.5107692506
 20
313.7248488828
 30
0.0
 10
85.5342798422
 20
313.8640441987
 30
0.0
 10
85.5457496697
 20
313.9291013222
 30
0.0
  0
LINE
  5
2C3
100
AcDbEntity
  8
0
100
AcDbLine
 62
7
  6
CONTINUOUS
 10
85.437206419
 20
313.3177903715
 11
85.443572678
 21
313.3546839855
  0
SPLINE
  5
2C4
100
AcDbEntity
  8
0
100
AcDbSpline
 62
7
  6
CONTINUOUS
 70
0
 71
3
 72
9
 73
5
 74
0
 42
0.0000001
 43
0.0000001
 44
0.0000000001
 40
0.0
 40
0.0
 40
0.0
 40
0.0
 40
0.2536079825
 40
1.0
 40
1.0
 40
1.0
 40
1.0
 10
85.2247923056
 20
311.4917363679
 30
0.0
 10
85.2279263649
 20
311.559938892
 30
0.0
 10
85.2428297567
 20
311.8287492808
 30
0.0
 10
85.2673973558
 20
312.0969886226
 30
0.0
 10
85.2901561381
 20
312.296633828
 30
0.0
  0
LINE
  5
2C5
100
AcDbEntity
  8
0
100
AcDbLine
 62
7
  6
CONTINUOUS
 10
85.2334733418
 20
312.9007530292
 11
85.2340438876
 21
312.9103038428
  0
SPLINE
  5
2C6
100
AcDbEntity
  8
0
100
AcDbSpline
 62
7
  6
CONTINUOUS
 70
0
 71
3
 72
24
 73
20
 74
0
 42
0.0000001
 43
0.0000001
 44
0.0000000001
 40
0.0
 40
0.0
 40
0.0
 40
0.0
 40
0.2271620857
 40
0.438658426
 40
0.5350740023
 40
0.6236179086
 40
0.7033226009
 40
0.7731991709
 40
0.8320260355
 40
0.8786619186
 40
0.913281649
 40
0.9368226075
 40
0.9447090622
 40
0.950280012
 40
0.9544130404
 40
0.9590572551
 40
0.9657010155
 40
0.9747439236
 40
1.0
 40
1.0
 40
1.0
 40
1.0
 10
85.2340438876
 20
312.9103038428
 30
0.0
 10
85.241998298
 20
313.0423647464
 30
0.0
 10
85.2622685183
 20
313.2971575209
 30
0.0
 10
85.305695285
 20
313.6059897449
 30
0.0
 10
85.3493762643
 20
313.8327544789
 30
0.0
 10
85.383444766
 20
313.9831140043
 30
0.0
 10
85.4185438155
 20
314.1173079094
 30
0.0
 10
85.4532897347
 20
314.2336426012
 30
0.0
 10
85.4864690256
 20
314.3302346324
 30
0.0
 10
85.5172063633
 20
314.4059344607
 30
0.0
 10
85.5446942749
 20
314.4603786122
 30
0.0
 10
85.5654521629
 20
314.493145342
 30
0.0
 10
85.5803726057
 20
314.5086807215
 30
0.0
 10
85.5890761101
 20
314.5145954789
 30
0.0
 10
85.5982197424
 20
314.5145081643
 30
0.0
 10
85.6045635966
 20
314.5071998226
 30
0.0
 10
85.6086123949
 20
314.4961027312
 30
0.0
 10
85.6131407341
 20
314.4725711521
 30
0.0
 10
85.613722605
 20
314.4525262101
 30
0.0
 10
85.6137509942
 20
314.4378169822
 30
0.0
  0
SPLINE
  5
2C7
100
AcDbEntity
  8
0
100
AcDbSpline
 62
7
  6
CONTINUOUS
 70
0
 71
3
 72
11
 73
7
 74
0
 42
0.0000001
 43
0.0000001
 44
0.0000000001
 40
0.0
 40
0.0
 40
0.0
 40
0.0
 40
0.2492453876
 40
0.4991374345
 40
0.7494687785
 40
1.0
 40
1.0
 40
1.0
 40
1.0
 10
85.5630956009
 20
311.6766703337
 30
0.0
 10
85.7157899848
 20
312.2030398341
 30
0.0
 10
86.1222702615
 20
313.2310913508
 30
0.0
 10
87.0228870053
 20
314.6243879905
 30
0.0
 10
88.1956065746
 20
315.8037126552
 30
0.0
 10
89.1358260825
 20
316.3991941949
 30
0.0
 10
89.6326847718
 20
316.6371419474
 30
0.0
  0
SPLINE
  5
2C8
100
AcDbEntity
  8
0
100
AcDbSpline
 62
7
  6
CONTINUOUS
 70
0
 71
3
 72
10
 73
6
 74
0
 42
0.0000001
 43
0.0000001
 44
0.0000000001
 40
0.0
 40
0.0
 40
0.0
 40
0.0
 40
0.5878830237
 40
0.8242985399
 40
1.0
 40
1.0
 40
1.0
 40
1.0
 10
85.2242691719
 20
276.4621944327
 30
0.0
 10
85.2402761362
 20
276.1653292556
 30
0.0
 10
85.288240967
 20
275.7492749527
 30
0.0
 10
85.4027870116
 20
275.2564593861
 30
0.0
 10
85.4655416396
 20
275.0572850791
 30
0.0
 10
85.4979201023
 20
274.9745411107
 30
0.0
  0
SPLINE
  5
2C9
100
AcDbEntity
  8
0
100
AcDbSpline
 62
7
  6
CONTINUOUS
 70
0
 71
3
 72
18
 73
14
 74
0
 42
0.0000001
 43
0.0000001
 44
0.0000000001
 40
0.0
 40
0.0
 40
0.0
 40
0.0
 40
0.2349528905
 40
0.4119137098
 40
0.531576162
 40
0.5713696666
 40
0.5998683238
 40
0.6214687224
 40
0.6443742475
 40
0.6753902351
 40
0.717192766
 40
0.8355299839
 40
1.0
 40
1.0
 40
1.0
 40
1.0
 10
85.4979201023
 20
274.9745411107
 30
0.0
 10
85.5077516142
 20
274.949416437
 30
0.0
 10
85.5259662218
 20
274.9056834094
 30
0.0
 10
85.553438752
 20
274.851242327
 30
0.0
 10
85.5744288096
 20
274.818397413
 30
0.0
 10
85.5898032288
 20
274.8031811155
 30
0.0
 10
85.5988152519
 20
274.7976634421
 30
0.0
 10
85.6078449048
 20
274.7976522799
 30
0.0
 10
85.6145804538
 20
274.803981965
 30
0.0
 10
85.6189979065
 20
274.8141270709
 30
0.0
 10
85.62388367
 20
274.8356168633
 30
0.0
 10
85.625474524
 20
274.8730448331
 30
0.0
 10
85.6241220465
 20
274.9054772665
 30
0.0
 10
85.6228613233
 20
274.9243213214
 30
0.0
  0
SPLINE
  5
2CA
100
AcDbEntity
  8
0
100
AcDbSpline
 62
7
  6
CONTINUOUS
 70
0
 71
3
 72
9
 73
5
 74
0
 42
0.0000001
 43
0.0000001
 44
0.0000000001
 40
0.0
 40
0.0
 40
0.0
 40
0.0
 40
0.2308590448
 40
1.0
 40
1.0
 40
1.0
 40
1.0
 10
85.6228613233
 20
274.9243213214
 30
0.0
 10
85.6224936119
 20
274.92981751
 30
0.0
 10
85.6207267412
 20
274.9536134248
 30
0.0
 10
85.6183547055
 20
274.9773615158
 30
0.0
 10
85.6163210902
 20
274.9956007934
 30
0.0
  0
SPLINE
  5
2CB
100
AcDbEntity
  8
0
100
AcDbSpline
 62
7
  6
CONTINUOUS
 70
0
 71
3
 72
11
 73
7
 74
0
 42
0.0000001
 43
0.0000001
 44
0.0000000001
 40
0.0
 40
0.0
 40
0.0
 40
0.0
 40
0.2505310944
 40
0.500862352
 40
0.7507540892
 40
1.0
 40
1.0
 40
1.0
 40
1.0
 10
89.6326847718
 20
272.7364690973
 30
0.0
 10
89.13582208
 20
272.9744188484
 30
0.0
 10
88.1955923288
 20
273.5699019126
 30
0.0
 10
87.0228688003
 20
274.7492413388
 30
0.0
 10
86.1222450535
 20
276.1425521319
 30
0.0
 10
85.7157801643
 20
277.1706205292
 30
0.0
 10
85.563086425
 20
277.6969963378
 30
0.0
  0
LINE
  5
2CC
100
AcDbEntity
  8
0
100
AcDbLine
 62
7
  6
CONTINUOUS
 10
85.5933621827
 20
315.0208033515
 11
85.5940982899
 21
315.023307865
  0
SPLINE
  5
2CD
100
AcDbEntity
  8
0
100
AcDbSpline
 62
7
  6
CONTINUOUS
 70
0
 71
3
 72
9
 73
5
 74
0
 42
0.0000001
 43
0.0000001
 44
0.0000000001
 40
0.0
 40
0.0
 40
0.0
 40
0.0
 40
0.3054816516
 40
1.0
 40
1.0
 40
1.0
 40
1.0
 10
85.2334742979
 20
312.9008457168
 30
0.0
 10
85.2325156421
 20
312.9014036443
 30
0.0
 10
85.2294660577
 20
312.9033330922
 30
0.0
 10
85.2265529417
 20
312.9057659011
 30
0.0
 10
85.2252796597
 20
312.907942609
 30
0.0
  0
SPLINE
  5
2CE
100
AcDbEntity
  8
0
100
AcDbSpline
 62
7
  6
CONTINUOUS
 70
0
 71
3
 72
9
 73
5
 74
0
 42
0.0000001
 43
0.0000001
 44
0.0000000001
 40
0.0
 40
0.0
 40
0.0
 40
0.0
 40
0.5233927499
 40
1.0
 40
1.0
 40
1.0
 40
1.0
 10
85.2252796597
 20
312.907942609
 30
0.0
 10
85.2249593721
 20
312.9084901488
 30
0.0
 10
85.2244493991
 20
312.9096042428
 30
0.0
 10
85.2242638426
 20
312.9108227813
 30
0.0
 10
85.2242688448
 20
312.9114003944
 30
0.0
  0
SPLINE
  5
2CF
100
AcDbEntity
  8
0
100
AcDbSpline
 62
7
  6
CONTINUOUS
 70
0
 71
3
 72
8
 73
4
 74
0
 42
0.0000001
 43
0.0000001
 44
0.0000000001
 40
0.0
 40
0.0
 40
0.0
 40
0.0
 40
1.0
 40
1.0
 40
1.0
 40
1.0
 10
85.5549168913
 20
311.6478731437
 30
0.0
 10
85.556020036
 20
311.6577906755
 30
0.0
 10
85.5588653534
 20
311.6676326406
 30
0.0
 10
85.5630954567
 20
311.6766703722
 30
0.0
  0
SPLINE
  5
2D0
100
AcDbEntity
  8
0
100
AcDbSpline
 62
7
  6
CONTINUOUS
 70
0
 71
3
 72
9
 73
5
 74
0
 42
0.0000001
 43
0.0000001
 44
0.0000000001
 40
0.0
 40
0.0
 40
0.0
 40
0.0
 40
0.2492553489
 40
1.0
 40
1.0
 40
1.0
 40
1.0
 10
89.6326916134
 20
272.7364959638
 30
0.0
 10
89.691439216
 20
272.7133828755
 30
0.0
 10
89.9312653488
 20
272.631493192
 30
0.0
 10
90.1850809082
 20
272.5908586551
 30
0.0
 10
90.3751366889
 20
272.5849772776
 30
0.0
  0
SPLINE
  5
2D1
100
AcDbEntity
  8
0
100
AcDbSpline
 62
7
  6
CONTINUOUS
 70
0
 71
3
 72
9
 73
5
 74
0
 42
0.0000001
 43
0.0000001
 44
0.0000000001
 40
0.0
 40
0.0
 40
0.0
 40
0.0
 40
0.2576679626
 40
1.0
 40
1.0
 40
1.0
 40
1.0
 10
85.5280751135
 20
278.0564337072
 30
0.0
 10
85.5302038832
 20
278.033734528
 30
0.0
 10
85.5385953832
 20
277.9456514736
 30
0.0
 10
85.5480680515
 20
277.8576761483
 30
0.0
 10
85.5545017057
 20
277.7923095402
 30
0.0
  0
SPLINE
  5
2D2
100
AcDbEntity
  8
0
100
AcDbSpline
 62
7
  6
CONTINUOUS
 70
0
 71
3
 72
10
 73
6
 74
0
 42
0.0000001
 43
0.0000001
 44
0.0000000001
 40
0.0
 40
0.0
 40
0.0
 40
0.0
 40
0.5175273181
 40
0.7648819898
 40
1.0
 40
1.0
 40
1.0
 40
1.0
 10
85.4200610819
 20
279.9390550012
 30
0.0
 10
85.4248249795
 20
279.6137412034
 30
0.0
 10
85.451070782
 20
279.1333624244
 30
0.0
 10
85.4893779981
 20
278.5059387462
 30
0.0
 10
85.5128029541
 20
278.2034518714
 30
0.0
 10
85.5280751135
 20
278.0564337072
 30
0.0
  0
SPLINE
  5
2D3
100
AcDbEntity
  8
0
100
AcDbSpline
 62
7
  6
CONTINUOUS
 70
0
 71
3
 72
9
 73
5
 74
0
 42
0.0000001
 43
0.0000001
 44
0.0000000001
 40
0.0
 40
0.0
 40
0.0
 40
0.0
 40
0.2489601895
 40
1.0
 40
1.0
 40
1.0
 40
1.0
 10
85.4404862337
 20
310.0282814793
 30
0.0
 10
85.4379703795
 20
309.9790436927
 30
0.0
 10
85.4285706363
 20
309.7812359932
 30
0.0
 10
85.4223302722
 20
309.5832664269
 30
0.0
 10
85.4200610918
 20
309.4345540171
 30
0.0
  0
SPLINE
  5
2D4
100
AcDbEntity
  8
0
100
AcDbSpline
 62
7
  6
CONTINUOUS
 70
0
 71
3
 72
12
 73
8
 74
0
 42
0.0000001
 43
0.0000001
 44
0.0000000001
 40
0.0
 40
0.0
 40
0.0
 40
0.0
 40
0.1086546858
 40
0.2252754048
 40
0.47260205
 40
0.7313900783
 40
1.0
 40
1.0
 40
1.0
 40
1.0
 10
85.5614125019
 20
311.6521290036
 30
0.0
 10
85.5567163325
 20
311.5933325803
 30
0.0
 10
85.5424974054
 20
311.4718353351
 30
0.0
 10
85.5183613727
 20
311.2164247838
 30
0.0
 10
85.4897701943
 20
310.8795475947
 30
0.0
 10
85.4649011261
 20
310.459706672
 30
0.0
 10
85.4473304608
 20
310.1739368343
 30
0.0
 10
85.4404862337
 20
310.0282814793
 30
0.0
  0
SPLINE
  5
2D5
100
AcDbEntity
  8
0
100
AcDbSpline
 62
7
  6
CONTINUOUS
 70
0
 71
3
 72
12
 73
8
 74
0
 42
0.0000001
 43
0.0000001
 44
0.0000000001
 40
0.0
 40
0.0
 40
0.0
 40
0.0
 40
0.3161782123
 40
0.5984681635
 40
0.8280321739
 40
0.9204944158
 40
1.0
 40
1.0
 40
1.0
 40
1.0
 10
91.2137519842
 20
315.5866088022
 30
0.0
 10
91.0165413667
 20
315.649081516
 30
0.0
 10
90.6449156933
 20
315.7761161662
 30
0.0
 10
90.1624628274
 20
316.0249200503
 30
0.0
 10
89.8433026453
 20
316.2681504219
 30
0.0
 10
89.6847745936
 20
316.4791815718
 30
0.0
 10
89.6406851314
 20
316.5857331783
 30
0.0
 10
89.6326745877
 20
316.6371316393
 30
0.0
  0
SPLINE
  5
2D6
100
AcDbEntity
  8
0
100
AcDbSpline
 62
7
  6
CONTINUOUS
 70
0
 71
3
 72
13
 73
9
 74
0
 42
0.0000001
 43
0.0000001
 44
0.0000000001
 40
0.0
 40
0.0
 40
0.0
 40
0.0
 40
0.0668747752
 40
0.1557425196
 40
0.266147979
 40
0.3950621754
 40
0.6906954112
 40
1.0
 40
1.0
 40
1.0
 40
1.0
 10
85.4200610644
 20
309.4345540026
 30
0.0
 10
85.4930882286
 20
309.4731872018
 30
0.0
 10
85.6727298975
 20
309.5445418965
 30
0.0
 10
85.9894435201
 20
309.633579113
 30
0.0
 10
86.3870460923
 20
309.7145586257
 30
0.0
 10
87.0407318654
 20
309.8129984978
 30
0.0
 10
87.9447681341
 20
309.8914657458
 30
0.0
 10
88.6920489074
 20
309.9148669309
 30
0.0
 10
89.0741538827
 20
309.9172261137
 30
0.0
  0
SPLINE
  5
2D7
100
AcDbEntity
  8
0
100
AcDbSpline
 62
7
  6
CONTINUOUS
 70
0
 71
3
 72
9
 73
5
 74
0
 42
0.0000001
 43
0.0000001
 44
0.0000000001
 40
0.0
 40
0.0
 40
0.0
 40
0.0
 40
0.3794610186
 40
1.0
 40
1.0
 40
1.0
 40
1.0
 10
85.4200854559
 20
309.4345493623
 30
0.0
 10
85.4186067293
 20
309.4341157859
 30
0.0
 10
85.4150793553
 20
309.4328977455
 30
0.0
 10
85.4100488726
 20
309.4306799628
 30
0.0
 10
85.4099437759
 20
309.428162164
 30
0.0
  0
SPLINE
  5
2D8
100
AcDbEntity
  8
0
100
AcDbSpline
 62
7
  6
CONTINUOUS
 70
0
 71
3
 72
9
 73
5
 74
0
 42
0.0000001
 43
0.0000001
 44
0.0000000001
 40
0.0
 40
0.0
 40
0.0
 40
0.0
 40
0.4995601818
 40
1.0
 40
1.0
 40
1.0
 40
1.0
 10
85.4006814748
 20
308.6686945552
 30
0.0
 10
85.3459798155
 20
306.3998660851
 30
0.0
 10
85.2675051597
 20
301.8573970608
 30
0.0
 10
85.2495990256
 20
297.3143704274
 30
0.0
 10
85.2486512996
 20
295.0408866565
 30
0.0
  0
LINE
  5
2D9
100
AcDbEntity
  8
0
100
AcDbLine
 62
7
  6
CONTINUOUS
 10
85.2486512996
 20
295.0408866565
 11
85.2486583527
 21
294.3174318256
  0
SPLINE
  5
2DA
100
AcDbEntity
  8
0
100
AcDbSpline
 62
7
  6
CONTINUOUS
 70
0
 71
3
 72
9
 73
5
 74
0
 42
0.0000001
 43
0.0000001
 44
0.0000000001
 40
0.0
 40
0.0
 40
0.0
 40
0.0
 40
0.5004365401
 40
1.0
 40
1.0
 40
1.0
 40
1.0
 10
85.2486583527
 20
294.3174318256
 30
0.0
 10
85.2496424316
 20
292.0486055092
 30
0.0
 10
85.2674023603
 20
287.5148523126
 30
0.0
 10
85.3462183211
 20
282.9816718137
 30
0.0
 10
85.4004417686
 20
280.7174527409
 30
0.0
  0
SPLINE
  5
2DB
100
AcDbEntity
  8
0
100
AcDbSpline
 62
7
  6
CONTINUOUS
 70
0
 71
3
 72
11
 73
7
 74
0
 42
0.0000001
 43
0.0000001
 44
0.0000000001
 40
0.0
 40
0.0
 40
0.0
 40
0.0
 40
0.2658729927
 40
0.5223468889
 40
0.7673103118
 40
1.0
 40
1.0
 40
1.0
 40
1.0
 10
89.0741526746
 20
279.4563690359
 30
0.0
 10
89.0741541394
 20
278.999101191
 30
0.0
 10
89.1537379455
 20
278.0978724743
 30
0.0
 10
89.5428770539
 20
276.8249784772
 30
0.0
 10
90.2111756225
 20
275.7350565199
 30
0.0
 10
90.859936381
 20
275.1954890122
 30
0.0
 10
91.2137530927
 20
275.0084831638
 30
0.0
  0
SPLINE
  5
2DC
100
AcDbEntity
  8
0
100
AcDbSpline
 62
7
  6
CONTINUOUS
 70
0
 71
3
 72
11
 73
7
 74
0
 42
0.0000001
 43
0.0000001
 44
0.0000000001
 40
0.0
 40
0.0
 40
0.0
 40
0.0
 40
0.2326896922
 40
0.4776531171
 40
0.7341270135
 40
1.0
 40
1.0
 40
1.0
 40
1.0
 10
91.2137531012
 20
314.3651238787
 30
0.0
 10
90.859936483
 20
314.1781180818
 30
0.0
 10
90.2111758775
 20
313.6385507641
 30
0.0
 10
89.5428773632
 20
312.5486291922
 30
0.0
 10
89.1537381725
 20
311.2757356254
 30
0.0
 10
89.0741542267
 20
310.3745071917
 30
0.0
 10
89.0741526699
 20
309.9172394873
 30
0.0
  0
SPLINE
  5
2DD
100
AcDbEntity
  8
0
100
AcDbSpline
 62
7
  6
CONTINUOUS
 70
0
 71
3
 72
9
 73
5
 74
0
 42
0.0000001
 43
0.0000001
 44
0.0000000001
 40
0.0
 40
0.0
 40
0.0
 40
0.0
 40
0.2730028948
 40
1.0
 40
1.0
 40
1.0
 40
1.0
 10
85.5810718569
 20
311.8488917496
 30
0.0
 10
85.5860566341
 20
311.8976444331
 30
0.0
 10
85.6038036935
 20
312.0762543949
 30
0.0
 10
85.6185273172
 20
312.2553210433
 30
0.0
 10
85.6229376342
 20
312.3857500389
 30
0.0
  0
SPLINE
  5
2DE
100
AcDbEntity
  8
0
100
AcDbSpline
 62
7
  6
CONTINUOUS
 70
0
 71
3
 72
23
 73
19
 74
0
 42
0.0000001
 43
0.0000001
 44
0.0000000001
 40
0.0
 40
0.0
 40
0.0
 40
0.0
 40
0.0574193039
 40
0.1072904951
 40
0.1485548726
 40
0.1803296596
 40
0.1925812943
 40
0.2026196973
 40
0.2110477208
 40
0.219091998
 40
0.2399733541
 40
0.2739231533
 40
0.3233443042
 40
0.3884993325
 40
0.468040269
 40
0.5597978094
 40
0.7696995222
 40
1.0
 40
1.0
 40
1.0
 40
1.0
 10
85.6246407214
 20
312.4586573953
 30
0.0
 10
85.6250455764
 20
312.4924367026
 30
0.0
 10
85.6247394264
 20
312.5555702875
 30
0.0
 10
85.6200834871
 20
312.6429252892
 30
0.0
 10
85.6107915453
 20
312.7146597939
 30
0.0
 10
85.5983524673
 20
312.7636566291
 30
0.0
 10
85.5842876242
 20
312.7923468068
 30
0.0
 10
85.573020229
 20
312.8067139786
 30
0.0
 10
85.5595203397
 20
312.8154333412
 30
0.0
 10
85.5366620977
 20
312.817141274
 30
0.0
 10
85.504464726
 20
312.7935242916
 30
0.0
 10
85.4697912915
 20
312.743498453
 30
0.0
 10
85.430897308
 20
312.6646040545
 30
0.0
 10
85.39141816
 20
312.5574433476
 30
0.0
 10
85.3525620797
 20
312.4237244594
 30
0.0
 10
85.3023216296
 20
312.2050737347
 30
0.0
 10
85.2543680415
 20
311.8953828989
 30
0.0
 10
85.2328484766
 20
311.637119472
 30
0.0
 10
85.2253451551
 20
311.5018337699
 30
0.0
  0
LINE
  5
2DF
100
AcDbEntity
  8
0
100
AcDbLine
 62
7
  6
CONTINUOUS
 10
85.2253451551
 20
311.5018337699
 11
85.2247923056
 21
311.4917363679
  0
LINE
  5
2E0
100
AcDbEntity
  8
0
100
AcDbLine
 62
7
  6
CONTINUOUS
 10
85.2334765381
 20
311.4722876807
 11
85.234286352
 21
311.4854883684
  0
SPLINE
  5
2E1
100
AcDbEntity
  8
0
100
AcDbSpline
 62
7
  6
CONTINUOUS
 70
0
 71
3
 72
23
 73
19
 74
0
 42
0.0000001
 43
0.0000001
 44
0.0000000001
 40
0.0
 40
0.0
 40
0.0
 40
0.0
 40
0.2292162125
 40
0.4399916666
 40
0.6134895154
 40
0.6801549246
 40
0.7312597368
 40
0.766601873
 40
0.7790401275
 40
0.7887522419
 40
0.796838072
 40
0.8048897489
 40
0.8143028273
 40
0.8258160342
 40
0.8559753793
 40
0.8956713473
 40
0.944037389
 40
1.0
 40
1.0
 40
1.0
 40
1.0
 10
85.234286352
 20
311.4854883684
 30
0.0
 10
85.2422676455
 20
311.6144150927
 30
0.0
 10
85.2612357019
 20
311.8617846948
 30
0.0
 10
85.3115354195
 20
312.204132931
 30
0.0
 10
85.369911231
 20
312.4520176194
 30
0.0
 10
85.4242372969
 20
312.6071876524
 30
0.0
 10
85.4605022111
 20
312.6854914875
 30
0.0
 10
85.4912946907
 20
312.732730121
 30
0.0
 10
85.5155624547
 20
312.7544981464
 30
0.0
 10
85.5310100222
 20
312.7624044296
 30
0.0
 10
85.5461150021
 20
312.7632536105
 30
0.0
 10
85.5595149764
 20
312.7567173142
 30
0.0
 10
85.5706576207
 20
312.7444647692
 30
0.0
 10
85.5846981
 20
312.7191613582
 30
0.0
 10
85.597315284
 20
312.6746395769
 30
0.0
 10
85.607168662
 20
312.6087432224
 30
0.0
 10
85.6127442372
 20
312.5276821813
 30
0.0
 10
85.6137592828
 20
312.4688867477
 30
0.0
 10
85.6137583568
 20
312.4373493271
 30
0.0
  0
SPLINE
  5
2E2
100
AcDbEntity
  8
0
100
AcDbSpline
 62
7
  6
CONTINUOUS
 70
0
 71
3
 72
9
 73
5
 74
0
 42
0.0000001
 43
0.0000001
 44
0.0000000001
 40
0.0
 40
0.0
 40
0.0
 40
0.0
 40
0.3760889613
 40
1.0
 40
1.0
 40
1.0
 40
1.0
 10
85.2250340831
 20
311.4917176922
 30
0.0
 10
85.2249034421
 20
311.4896114642
 30
0.0
 10
85.2247041815
 20
311.4842017024
 30
0.0
 10
85.2254964018
 20
311.4777035782
 30
0.0
 10
85.2281298566
 20
311.4753969051
 30
0.0
  0
SPLINE
  5
2E3
100
AcDbEntity
  8
0
100
AcDbSpline
 62
7
  6
CONTINUOUS
 70
0
 71
3
 72
8
 73
4
 74
0
 42
0.0000001
 43
0.0000001
 44
0.0000000001
 40
0.0
 40
0.0
 40
0.0
 40
0.0
 40
1.0
 40
1.0
 40
1.0
 40
1.0
 10
85.2281298566
 20
311.4753969051
 30
0.0
 10
85.2296971506
 20
311.4740240944
 30
0.0
 10
85.2314983071
 20
311.4727049888
 30
0.0
 10
85.2335322179
 20
311.4722530744
 30
0.0
  0
SPLINE
  5
2E4
100
AcDbEntity
  8
0
100
AcDbSpline
 62
7
  6
CONTINUOUS
 70
0
 71
3
 72
9
 73
5
 74
0
 42
0.0000001
 43
0.0000001
 44
0.0000000001
 40
0.0
 40
0.0
 40
0.0
 40
0.0
 40
0.2492552785
 40
1.0
 40
1.0
 40
1.0
 40
1.0
 10
89.6326916796
 20
316.6371155896
 30
0.0
 10
89.6914392782
 20
316.6602285439
 30
0.0
 10
89.9312654495
 20
316.7421176865
 30
0.0
 10
90.1850809809
 20
316.7827515764
 30
0.0
 10
90.3751366894
 20
316.7886324661
 30
0.0
  0
SPLINE
  5
2E5
100
AcDbEntity
  8
0
100
AcDbSpline
 62
7
  6
CONTINUOUS
 70
0
 71
3
 72
24
 73
20
 74
0
 42
0.0000001
 43
0.0000001
 44
0.0000000001
 40
0.0
 40
0.0
 40
0.0
 40
0.0
 40
0.0248604572
 40
0.0337195306
 40
0.0403163345
 40
0.0450821712
 40
0.0492460673
 40
0.0545828249
 40
0.0621367231
 40
0.0853702358
 40
0.1204325505
 40
0.1674313945
 40
0.2261355267
 40
0.2958289051
 40
0.3755661988
 40
0.4642701376
 40
0.5607812081
 40
0.7724635733
 40
1.0
 40
1.0
 40
1.0
 40
1.0
 10
85.613748712
 20
274.9366051663
 30
0.0
 10
85.6137548407
 20
274.9221344563
 30
0.0
 10
85.6132233042
 20
274.9024285644
 30
0.0
 10
85.6087602074
 20
274.8792828417
 30
0.0
 10
85.6046166396
 20
274.8682569945
 30
0.0
 10
85.5985001399
 20
274.8609003406
 30
0.0
 10
85.5895796162
 20
274.8596983872
 30
0.0
 10
85.580572308
 20
274.8646984439
 30
0.0
 10
85.5654459643
 20
274.8793222573
 30
0.0
 10
85.5447679534
 20
274.9121071357
 30
0.0
 10
85.5177420472
 20
274.9670110711
 30
0.0
 10
85.4870330464
 20
275.0431049922
 30
0.0
 10
85.4536495557
 20
275.1395933846
 30
0.0
 10
85.4187797491
 20
275.2556585743
 30
0.0
 10
85.3837256774
 20
275.3897907892
 30
0.0
 10
85.3497105498
 20
275.5402447172
 30
0.0
 10
85.3058712267
 20
275.7671056489
 30
0.0
 10
85.2622495147
 20
276.0761325294
 30
0.0
 10
85.2422800715
 20
276.3311253788
 30
0.0
 10
85.2340621988
 20
276.4633140031
 30
0.0
  0
SPLINE
  5
2E6
100
AcDbEntity
  8
0
100
AcDbSpline
 62
7
  6
CONTINUOUS
 70
0
 71
3
 72
13
 73
9
 74
0
 42
0.0000001
 43
0.0000001
 44
0.0000000001
 40
0.0
 40
0.0
 40
0.0
 40
0.0
 40
0.3093058709
 40
0.6049393357
 40
0.7338532627
 40
0.8442583064
 40
0.9331256013
 40
1.0
 40
1.0
 40
1.0
 40
1.0
 10
89.0741538827
 20
279.4563822727
 30
0.0
 10
88.692047315
 20
279.4587415332
 30
0.0
 10
87.9447646612
 20
279.4821429836
 30
0.0
 10
87.0407268737
 20
279.5606107862
 30
0.0
 10
86.3870417055
 20
279.6590510045
 30
0.0
 10
85.9894405605
 20
279.7400305398
 30
0.0
 10
85.6727284722
 20
279.8290675815
 30
0.0
 10
85.4930878079
 20
279.9004220216
 30
0.0
 10
85.4200610583
 20
279.9390550137
 30
0.0
  0
SPLINE
  5
2E7
100
AcDbEntity
  8
0
100
AcDbSpline
 62
7
  6
CONTINUOUS
 70
0
 71
3
 72
13
 73
9
 74
0
 42
0.0000001
 43
0.0000001
 44
0.0000000001
 40
0.0
 40
0.0
 40
0.0
 40
0.0
 40
0.0794924384
 40
0.1720070005
 40
0.4014688882
 40
0.5372585535
 40
0.6839606406
 40
1.0
 40
1.0
 40
1.0
 40
1.0
 10
89.6326746811
 20
272.7364793596
 30
0.0
 10
89.6409052076
 20
272.7878494206
 30
0.0
 10
89.6840748045
 20
272.8947845448
 30
0.0
 10
89.8440660899
 20
273.1049382981
 30
0.0
 10
90.0852066853
 20
273.2903063701
 30
0.0
 10
90.3749877607
 20
273.4579468845
 30
0.0
 10
90.7289933642
 20
273.6271981313
 30
0.0
 10
91.0169115374
 20
273.7234534295
 30
0.0
 10
91.2137519799
 20
273.7869798865
 30
0.0
  0
SPLINE
  5
2E8
100
AcDbEntity
  8
0
100
AcDbSpline
 62
7
  6
CONTINUOUS
 70
0
 71
3
 72
13
 73
9
 74
0
 42
0.0000001
 43
0.0000001
 44
0.0000000001
 40
0.0
 40
0.0
 40
0.0
 40
0.0
 40
0.0789453046
 40
0.1648925647
 40
0.2644192881
 40
0.380585182
 40
0.6625913183
 40
1.0
 40
1.0
 40
1.0
 40
1.0
 10
90.3751552332
 20
316.788626678
 30
0.0
 10
90.3751692073
 20
316.7619233502
 30
0.0
 10
90.3859113617
 20
316.705677444
 30
0.0
 10
90.4332501485
 20
316.6280279566
 30
0.0
 10
90.5093335565
 20
316.5585799876
 30
0.0
 10
90.6544289499
 20
316.4716862608
 30
0.0
 10
90.8934935403
 20
316.394308645
 30
0.0
 10
91.1004454814
 20
316.3603067702
 30
0.0
 10
91.2137524319
 20
316.3466346626
 30
0.0
  0
SPLINE
  5
2E9
100
AcDbEntity
  8
0
100
AcDbSpline
 62
7
  6
CONTINUOUS
 70
0
 71
3
 72
9
 73
5
 74
0
 42
0.0000001
 43
0.0000001
 44
0.0000000001
 40
0.0
 40
0.0
 40
0.0
 40
0.0
 40
0.3795131344
 40
1.0
 40
1.0
 40
1.0
 40
1.0
 10
85.4200590578
 20
279.9390547133
 30
0.0
 10
85.4185819099
 20
279.9394884077
 30
0.0
 10
85.4150590538
 20
279.9407055535
 30
0.0
 10
85.4100351634
 20
279.9429288034
 30
0.0
 10
85.4099351599
 20
279.9454438272
 30
0.0
  0
SPLINE
  5
2EA
100
AcDbEntity
  8
0
100
AcDbSpline
 62
7
  6
CONTINUOUS
 70
0
 71
3
 72
13
 73
9
 74
0
 42
0.0000001
 43
0.0000001
 44
0.0000000001
 40
0.0
 40
0.0
 40
0.0
 40
0.0
 40
0.3374078029
 40
0.6194138669
 40
0.7355800505
 40
0.8351071732
 40
0.9210547707
 40
1.0
 40
1.0
 40
1.0
 40
1.0
 10
91.2137524369
 20
273.02697232
 30
0.0
 10
91.1004463047
 20
273.0133002943
 30
0.0
 10
90.8934956232
 20
272.9792986371
 30
0.0
 10
90.6544323038
 20
272.9019218689
 30
0.0
 10
90.509336888
 20
272.8150293432
 30
0.0
 10
90.4332529127
 20
272.7455822369
 30
0.0
 10
90.3859130289
 20
272.6679337147
 30
0.0
 10
90.3751697184
 20
272.6116882223
 30
0.0
 10
90.3751552144
 20
272.5849850432
 30
0.0
  0
SPLINE
  5
2EB
100
AcDbEntity
  8
0
100
AcDbSpline
 62
7
  6
CONTINUOUS
 70
0
 71
3
 72
9
 73
5
 74
0
 42
0.0000001
 43
0.0000001
 44
0.0000000001
 40
0.0
 40
0.0
 40
0.0
 40
0.0
 40
0.2537039038
 40
1.0
 40
1.0
 40
1.0
 40
1.0
 10
85.2242699058
 20
277.8916023209
 30
0.0
 10
85.2258292364
 20
277.8617849754
 30
0.0
 10
85.2327105756
 20
277.744297519
 30
0.0
 10
85.2426194099
 20
277.6269788797
 30
0.0
 10
85.2520143593
 20
277.5396521561
 30
0.0
  0
SPLINE
  5
2EC
100
AcDbEntity
  8
0
100
AcDbSpline
 62
7
  6
CONTINUOUS
 70
0
 71
3
 72
22
 73
18
 74
0
 42
0.0000001
 43
0.0000001
 44
0.0000000001
 40
0.0
 40
0.0
 40
0.0
 40
0.0
 40
0.2390056759
 40
0.3471932374
 40
0.4447431093
 40
0.5293690709
 40
0.5991728388
 40
0.6531877485
 40
0.6915333422
 40
0.7054599145
 40
0.7165697858
 40
0.7258376852
 40
0.7347041221
 40
0.756182364
 40
0.7867863995
 40
0.876670059
 40
1.0
 40
1.0
 40
1.0
 40
1.0
 10
85.2520143593
 20
277.5396521561
 30
0.0
 10
85.2643810403
 20
277.4247029769
 30
0.0
 10
85.2872996644
 20
277.2581339467
 30
0.0
 10
85.3294598306
 20
277.0471210821
 30
0.0
 10
85.3632668638
 20
276.9107275524
 30
0.0
 10
85.3990137861
 20
276.7941409447
 30
0.0
 10
85.4352126836
 20
276.6998652558
 30
0.0
 10
85.4702456457
 20
276.6296339859
 30
0.0
 10
85.4998519757
 20
276.586948641
 30
0.0
 10
85.5229854388
 20
276.5665705668
 30
0.0
 10
85.5378230666
 20
276.5586563092
 30
0.0
 10
85.5522632312
 20
276.5567132247
 30
0.0
 10
85.5709861331
 20
276.5631747169
 30
0.0
 10
85.5897114789
 20
276.5881194963
 30
0.0
 10
85.6119939784
 20
276.6529693706
 30
0.0
 10
85.6245563116
 20
276.7715535896
 30
0.0
 10
85.6253981798
 20
276.8744384053
 30
0.0
 10
85.624261107
 20
276.9340850716
 30
0.0
  0
SPLINE
  5
2ED
100
AcDbEntity
  8
0
100
AcDbSpline
 62
7
  6
CONTINUOUS
 70
0
 71
3
 72
9
 73
5
 74
0
 42
0.0000001
 43
0.0000001
 44
0.0000000001
 40
0.0
 40
0.0
 40
0.0
 40
0.0
 40
0.2244318102
 40
1.0
 40
1.0
 40
1.0
 40
1.0
 10
85.624261107
 20
276.9340850716
 30
0.0
 10
85.6236140302
 20
276.9680283417
 30
0.0
 10
85.618348991
 20
277.1192243376
 30
0.0
 10
85.6061543314
 20
277.2700876066
 30
0.0
 10
85.5952537367
 20
277.3868990458
 30
0.0
  0
SPLINE
  5
2EE
100
AcDbEntity
  8
0
100
AcDbSpline
 62
7
  6
CONTINUOUS
 70
0
 71
3
 72
10
 73
6
 74
0
 42
0.0000001
 43
0.0000001
 44
0.0000000001
 40
0.0
 40
0.0
 40
0.0
 40
0.0
 40
0.1796913717
 40
0.4129125161
 40
1.0
 40
1.0
 40
1.0
 40
1.0
 10
85.6163210902
 20
274.9956007934
 30
0.0
 10
85.6076992464
 20
275.0729291876
 30
0.0
 10
85.5803630473
 20
275.2497219313
 30
0.0
 10
85.5047732373
 20
275.6760306244
 30
0.0
 10
85.4414289795
 20
276.0255904075
 30
0.0
 10
85.4010099383
 20
276.2765693839
 30
0.0
  0
SPLINE
  5
2EF
100
AcDbEntity
  8
0
100
AcDbSpline
 62
7
  6
CONTINUOUS
 70
0
 71
3
 72
9
 73
5
 74
0
 42
0.0000001
 43
0.0000001
 44
0.0000000001
 40
0.0
 40
0.0
 40
0.0
 40
0.0
 40
0.2435692238
 40
1.0
 40
1.0
 40
1.0
 40
1.0
 10
85.3004040838
 20
276.9882306848
 30
0.0
 10
85.2916990055
 20
277.0613271689
 30
0.0
 10
85.2582086213
 20
277.3616887287
 30
0.0
 10
85.2347223656
 20
277.6632281863
 30
0.0
 10
85.2242699058
 20
277.8916023209
 30
0.0
  0
SPLINE
  5
2F0
100
AcDbEntity
  8
0
100
AcDbSpline
 62
7
  6
CONTINUOUS
 70
0
 71
3
 72
9
 73
5
 74
0
 42
0.0000001
 43
0.0000001
 44
0.0000000001
 40
0.0
 40
0.0
 40
0.0
 40
0.0
 40
0.2206258512
 40
1.0
 40
1.0
 40
1.0
 40
1.0
 10
111.2136557011
 20
53.5783378025
 30
0.0
 10
111.2136542803
 20
53.5564963148
 30
0.0
 10
111.2002788247
 20
53.4570425371
 30
0.0
 10
111.1348436442
 20
53.3729285341
 30
0.0
 10
111.0799299638
 20
53.3187289593
 30
0.0
  0
SPLINE
  5
2F1
100
AcDbEntity
  8
0
100
AcDbSpline
 62
7
  6
CONTINUOUS
 70
0
 71
3
 72
9
 73
5
 74
0
 42
0.0000001
 43
0.0000001
 44
0.0000000001
 40
0.0
 40
0.0
 40
0.0
 40
0.0
 40
0.2041220911
 40
1.0
 40
1.0
 40
1.0
 40
1.0
 10
111.0799299638
 20
53.3187289593
 30
0.0
 10
111.0452241537
 20
53.2844744686
 30
0.0
 10
110.8600808002
 20
53.1321494467
 30
0.0
 10
110.6451860387
 20
53.0223610159
 30
0.0
 10
110.4740518115
 20
52.9395216095
 30
0.0
  0
SPLINE
  5
2F2
100
AcDbEntity
  8
0
100
AcDbSpline
 62
7
  6
CONTINUOUS
 70
0
 71
3
 72
8
 73
4
 74
0
 42
0.0000001
 43
0.0000001
 44
0.0000000001
 40
0.0
 40
0.0
 40
0.0
 40
0.0
 40
1.0
 40
1.0
 40
1.0
 40
1.0
 10
110.4103341187
 20
52.9090685626
 30
0.0
 10
110.2713556235
 20
52.8434403286
 30
0.0
 10
110.1306196955
 20
52.7815701446
 30
0.0
 10
109.9897913215
 20
52.7200115844
 30
0.0
  0
LINE
  5
2F3
100
AcDbEntity
  8
0
100
AcDbLine
 62
7
  6
CONTINUOUS
 10
109.9897913215
 20
52.7200115844
 11
109.9137519638
 21
52.6868035191
  0
SPLINE
  5
2F4
100
AcDbEntity
  8
0
100
AcDbSpline
 62
7
  6
CONTINUOUS
 70
0
 71
3
 72
9
 73
5
 74
0
 42
0.0000001
 43
0.0000001
 44
0.0000000001
 40
0.0
 40
0.0
 40
0.0
 40
0.0
 40
0.2203728399
 40
1.0
 40
1.0
 40
1.0
 40
1.0
 10
111.2136334585
 20
545.3952748047
 30
0.0
 10
111.2136324131
 20
545.4170518949
 30
0.0
 10
111.2002588477
 20
545.5163207625
 30
0.0
 10
111.135033932
 20
545.6003075052
 30
0.0
 10
111.0802867543
 20
545.6545131226
 30
0.0
  0
SPLINE
  5
2F5
100
AcDbEntity
  8
0
100
AcDbSpline
 62
7
  6
CONTINUOUS
 70
0
 71
3
 72
9
 73
5
 74
0
 42
0.0000001
 43
0.0000001
 44
0.0000000001
 40
0.0
 40
0.0
 40
0.0
 40
0.0
 40
0.2042382641
 40
1.0
 40
1.0
 40
1.0
 40
1.0
 10
111.0802867543
 20
545.6545131226
 30
0.0
 10
111.0457558972
 20
545.6887023997
 30
0.0
 10
110.8616147822
 20
545.840725364
 30
0.0
 10
110.6475208564
 20
545.9500153563
 30
0.0
 10
110.4771265979
 20
546.0325489239
 30
0.0
  0
SPLINE
  5
2F6
100
AcDbEntity
  8
0
100
AcDbSpline
 62
7
  6
CONTINUOUS
 70
0
 71
3
 72
8
 73
4
 74
0
 42
0.0000001
 43
0.0000001
 44
0.0000000001
 40
0.0
 40
0.0
 40
0.0
 40
0.0
 40
1.0
 40
1.0
 40
1.0
 40
1.0
 10
110.4113804054
 20
546.0639827829
 30
0.0
 10
110.2720798383
 20
546.1297710272
 30
0.0
 10
110.1310360301
 20
546.1918333953
 30
0.0
 10
109.9898843485
 20
546.2535500371
 30
0.0
  0
LINE
  5
2F7
100
AcDbEntity
  8
0
100
AcDbLine
 62
7
  6
CONTINUOUS
 10
109.9898843485
 20
546.2535500371
 11
109.9137519638
 21
546.2868035191
  0
SPLINE
  5
2F8
100
AcDbEntity
  8
0
100
AcDbSpline
 62
7
  6
CONTINUOUS
 70
0
 71
3
 72
9
 73
5
 74
0
 42
0.0000001
 43
0.0000001
 44
0.0000000001
 40
0.0
 40
0.0
 40
0.0
 40
0.0
 40
0.2607848441
 40
1.0
 40
1.0
 40
1.0
 40
1.0
 10
91.792465422
 20
545.6903922321
 30
0.0
 10
91.7617840823
 20
545.6519837189
 30
0.0
 10
91.6467534768
 20
545.5026702392
 30
0.0
 10
91.5427740013
 20
545.3445353727
 30
0.0
 10
91.4754600118
 20
545.2225293134
 30
0.0
  0
SPLINE
  5
2F9
100
AcDbEntity
  8
0
100
AcDbSpline
 62
7
  6
CONTINUOUS
 70
0
 71
3
 72
9
 73
5
 74
0
 42
0.0000001
 43
0.0000001
 44
0.0000000001
 40
0.0
 40
0.0
 40
0.0
 40
0.0
 40
0.2595664352
 40
1.0
 40
1.0
 40
1.0
 40
1.0
 10
91.4754600118
 20
545.2225293134
 30
0.0
 10
91.4542391995
 20
545.1840667634
 30
0.0
 10
91.3761569385
 20
545.0339324087
 30
0.0
 10
91.3138169207
 20
544.875287163
 30
0.0
 10
91.2798621834
 20
544.7546664376
 30
0.0
  0
SPLINE
  5
2FA
100
AcDbEntity
  8
0
100
AcDbSpline
 62
7
  6
CONTINUOUS
 70
0
 71
3
 72
8
 73
4
 74
0
 42
0.0000001
 43
0.0000001
 44
0.0000000001
 40
0.0
 40
0.0
 40
0.0
 40
0.0
 40
1.0
 40
1.0
 40
1.0
 40
1.0
 10
91.2798621834
 20
544.7546664376
 30
0.0
 10
91.2371836712
 20
544.6030553954
 30
0.0
 10
91.2137519638
 20
544.444307054
 30
0.0
 10
91.2137519638
 20
544.2868035191
 30
0.0
  0
SPLINE
  5
2FB
100
AcDbEntity
  8
0
100
AcDbSpline
 62
7
  6
CONTINUOUS
 70
0
 71
3
 72
8
 73
4
 74
0
 42
0.0000001
 43
0.0000001
 44
0.0000000001
 40
0.0
 40
0.0
 40
0.0
 40
0.0
 40
1.0
 40
1.0
 40
1.0
 40
1.0
 10
91.2137519638
 20
54.6868035191
 30
0.0
 10
91.2137519638
 20
54.5292999841
 30
0.0
 10
91.2371836712
 20
54.3705516427
 30
0.0
 10
91.2798621834
 20
54.2189406006
 30
0.0
  0
SPLINE
  5
2FC
100
AcDbEntity
  8
0
100
AcDbSpline
 62
7
  6
CONTINUOUS
 70
0
 71
3
 72
9
 73
5
 74
0
 42
0.0000001
 43
0.0000001
 44
0.0000000001
 40
0.0
 40
0.0
 40
0.0
 40
0.0
 40
0.7404335648
 40
1.0
 40
1.0
 40
1.0
 40
1.0
 10
91.2798621834
 20
54.2189406006
 30
0.0
 10
91.3138169207
 20
54.0983198751
 30
0.0
 10
91.3761569385
 20
53.9396746295
 30
0.0
 10
91.4542391995
 20
53.7895402747
 30
0.0
 10
91.4754600118
 20
53.7510777247
 30
0.0
  0
SPLINE
  5
2FD
100
AcDbEntity
  8
0
100
AcDbSpline
 62
7
  6
CONTINUOUS
 70
0
 71
3
 72
9
 73
5
 74
0
 42
0.0000001
 43
0.0000001
 44
0.0000000001
 40
0.0
 40
0.0
 40
0.0
 40
0.0
 40
0.2395971206
 40
1.0
 40
1.0
 40
1.0
 40
1.0
 10
91.4754600118
 20
53.7510777247
 30
0.0
 10
91.4972794608
 20
53.7115301506
 30
0.0
 10
91.5925430993
 20
53.5487895241
 30
0.0
 10
91.7029983054
 20
53.3952144435
 30
0.0
 10
91.792465422
 20
53.2832148061
 30
0.0
  0
LINE
  5
2FE
100
AcDbEntity
  8
0
100
AcDbLine
 62
7
  6
CONTINUOUS
 10
115.4240615573
 20
69.6847943549
 11
115.5486449439
 21
69.5806722917
  0
SPLINE
  5
2FF
100
AcDbEntity
  8
0
100
AcDbSpline
 62
7
  6
CONTINUOUS
 70
0
 71
3
 72
9
 73
5
 74
0
 42
0.0000001
 43
0.0000001
 44
0.0000000001
 40
0.0
 40
0.0
 40
0.0
 40
0.0
 40
0.2596861376
 40
1.0
 40
1.0
 40
1.0
 40
1.0
 10
115.5486449439
 20
69.5806722917
 30
0.0
 10
115.6431820582
 20
69.5015566375
 30
0.0
 10
116.0063337147
 20
69.1960534779
 30
0.0
 10
116.3625149197
 20
68.8805804919
 30
0.0
 10
116.6066578801
 20
68.6278004932
 30
0.0
  0
SPLINE
  5
300
100
AcDbEntity
  8
0
100
AcDbSpline
 62
7
  6
CONTINUOUS
 70
0
 71
3
 72
9
 73
5
 74
0
 42
0.0000001
 43
0.0000001
 44
0.0000000001
 40
0.0
 40
0.0
 40
0.0
 40
0.0
 40
0.2908493817
 40
1.0
 40
1.0
 40
1.0
 40
1.0
 10
116.6066578801
 20
68.6278004932
 30
0.0
 10
116.7270870011
 20
68.5031109548
 30
0.0
 10
117.1217989071
 20
68.0652197496
 30
0.0
 10
117.4240485752
 20
67.4832755035
 30
0.0
 10
117.4240485752
 20
67.0606095109
 30
0.0
  0
SPLINE
  5
301
100
AcDbEntity
  8
0
100
AcDbSpline
 62
7
  6
CONTINUOUS
 70
0
 71
3
 72
8
 73
4
 74
0
 42
0.0000001
 43
0.0000001
 44
0.0000000001
 40
0.0
 40
0.0
 40
0.0
 40
0.0
 40
1.0
 40
1.0
 40
1.0
 40
1.0
 10
342.2240485752
 20
50.486803519
 30
0.0
 10
342.4825228823
 20
50.5765579852
 30
0.0
 10
342.7411029873
 20
50.6661343879
 30
0.0
 10
342.9976376475
 20
50.7612910995
 30
0.0
  0
SPLINE
  5
302
100
AcDbEntity
  8
0
100
AcDbSpline
 62
7
  6
CONTINUOUS
 70
0
 71
3
 72
9
 73
5
 74
0
 42
0.0000001
 43
0.0000001
 44
0.0000000001
 40
0.0
 40
0.0
 40
0.0
 40
0.0
 40
0.2806467969
 40
1.0
 40
1.0
 40
1.0
 40
1.0
 10
342.9976376475
 20
50.7612910995
 30
0.0
 10
343.0900285244
 20
50.7955617592
 30
0.0
 10
343.4178175724
 20
50.9207820349
 30
0.0
 10
343.742729587
 20
51.0583370066
 30
0.0
 10
343.9624776805
 20
51.1828718594
 30
0.0
  0
SPLINE
  5
303
100
AcDbEntity
  8
0
100
AcDbSpline
 62
7
  6
CONTINUOUS
 70
0
 71
3
 72
9
 73
5
 74
0
 42
0.0000001
 43
0.0000001
 44
0.0000000001
 40
0.0
 40
0.0
 40
0.0
 40
0.0
 40
0.3371610988
 40
1.0
 40
1.0
 40
1.0
 40
1.0
 10
343.9624776805
 20
51.1828718594
 30
0.0
 10
344.0304717985
 20
51.2214052426
 30
0.0
 10
344.2206862203
 20
51.3377113949
 30
0.0
 10
344.4240485752
 20
51.5331576763
 30
0.0
 10
344.4240485752
 20
51.6868035191
 30
0.0
  0
SPLINE
  5
304
100
AcDbEntity
  8
0
100
AcDbSpline
 62
7
  6
CONTINUOUS
 70
0
 71
3
 72
9
 73
5
 74
0
 42
0.0000001
 43
0.0000001
 44
0.0000000001
 40
0.0
 40
0.0
 40
0.0
 40
0.0
 40
0.3732322663
 40
1.0
 40
1.0
 40
1.0
 40
1.0
 10
344.4240485752
 20
547.2868035191
 30
0.0
 10
344.4240485752
 20
547.4105759026
 30
0.0
 10
344.1789721917
 20
547.7015471963
 30
0.0
 10
343.8872741804
 20
547.8373715219
 30
0.0
 10
343.6990085636
 20
547.9254505415
 30
0.0
  0
SPLINE
  5
305
100
AcDbEntity
  8
0
100
AcDbSpline
 62
7
  6
CONTINUOUS
 70
0
 71
3
 72
9
 73
5
 74
0
 42
0.0000001
 43
0.0000001
 44
0.0000000001
 40
0.0
 40
0.0
 40
0.0
 40
0.0
 40
0.2306002304
 40
1.0
 40
1.0
 40
1.0
 40
1.0
 10
343.6990085636
 20
547.9254505415
 30
0.0
 10
343.6462454432
 20
547.9501354734
 30
0.0
 10
343.4156273404
 20
548.0533185336
 30
0.0
 10
343.1799292685
 20
548.1446975281
 30
0.0
 10
342.9977036164
 20
548.2122914694
 30
0.0
  0
SPLINE
  5
306
100
AcDbEntity
  8
0
100
AcDbSpline
 62
7
  6
CONTINUOUS
 70
0
 71
3
 72
8
 73
4
 74
0
 42
0.0000001
 43
0.0000001
 44
0.0000000001
 40
0.0
 40
0.0
 40
0.0
 40
0.0
 40
1.0
 40
1.0
 40
1.0
 40
1.0
 10
342.9977036164
 20
548.2122914694
 30
0.0
 10
342.7411473177
 20
548.3074572773
 30
0.0
 10
342.4825450358
 20
548.3970413602
 30
0.0
 10
342.2240485752
 20
548.4868035191
 30
0.0
  0
SPLINE
  5
307
100
AcDbEntity
  8
0
100
AcDbSpline
 62
7
  6
CONTINUOUS
 70
0
 71
3
 72
9
 73
5
 74
0
 42
0.0000001
 43
0.0000001
 44
0.0000000001
 40
0.0
 40
0.0
 40
0.0
 40
0.0
 40
0.2199093578
 40
1.0
 40
1.0
 40
1.0
 40
1.0
 10
117.4240485752
 20
531.9129975273
 30
0.0
 10
117.4240485752
 20
531.7812579594
 30
0.0
 10
117.3333184096
 20
531.1795337204
 30
0.0
 10
116.9309152113
 20
530.6814686891
 30
0.0
 10
116.6062268625
 20
530.3453605197
 30
0.0
  0
SPLINE
  5
308
100
AcDbEntity
  8
0
100
AcDbSpline
 62
7
  6
CONTINUOUS
 70
0
 71
3
 72
9
 73
5
 74
0
 42
0.0000001
 43
0.0000001
 44
0.0000000001
 40
0.0
 40
0.0
 40
0.0
 40
0.0
 40
0.2378160314
 40
1.0
 40
1.0
 40
1.0
 40
1.0
 10
116.6062268625
 20
530.3453605197
 30
0.0
 10
116.5278159537
 20
530.2641917709
 30
0.0
 10
116.1889387601
 20
529.9316942392
 30
0.0
 10
115.8260525077
 20
529.6250901237
 30
0.0
 10
115.5486721432
 20
529.392957518
 30
0.0
  0
LINE
  5
309
100
AcDbEntity
  8
0
100
AcDbLine
 62
7
  6
CONTINUOUS
 10
115.5486721432
 20
529.392957518
 11
115.4240615518
 21
529.2888126885
  0
SPLINE
  5
30A
100
AcDbEntity
  8
0
100
AcDbSpline
 62
7
  6
CONTINUOUS
 70
0
 71
3
 72
9
 73
5
 74
0
 42
0.0000001
 43
0.0000001
 44
0.0000000001
 40
0.0
 40
0.0
 40
0.0
 40
0.0
 40
0.2301664155
 40
1.0
 40
1.0
 40
1.0
 40
1.0
 10
117.4240485752
 20
52.6868035191
 30
0.0
 10
117.4240485752
 20
52.645811865
 30
0.0
 10
117.4424999048
 20
52.4673659458
 30
0.0
 10
117.5343097087
 20
52.3037558292
 30
0.0
 10
117.6188097144
 20
52.1957869694
 30
0.0
  0
SPLINE
  5
30B
100
AcDbEntity
  8
0
100
AcDbSpline
 62
7
  6
CONTINUOUS
 70
0
 71
3
 72
9
 73
5
 74
0
 42
0.0000001
 43
0.0000001
 44
0.0000000001
 40
0.0
 40
0.0
 40
0.0
 40
0.0
 40
0.2127827702
 40
1.0
 40
1.0
 40
1.0
 40
1.0
 10
117.6188097144
 20
52.1957869694
 30
0.0
 10
117.6609027161
 20
52.1420031458
 30
0.0
 10
117.8785302993
 20
51.9047339262
 30
0.0
 10
118.1461541206
 20
51.7199853863
 30
0.0
 10
118.3609980882
 20
51.5869946469
 30
0.0
  0
SPLINE
  5
30C
100
AcDbEntity
  8
0
100
AcDbSpline
 62
7
  6
CONTINUOUS
 70
0
 71
3
 72
9
 73
5
 74
0
 42
0.0000001
 43
0.0000001
 44
0.0000000001
 40
0.0
 40
0.0
 40
0.0
 40
0.0
 40
0.2372103258
 40
1.0
 40
1.0
 40
1.0
 40
1.0
 10
118.3609980882
 20
51.5869946469
 30
0.0
 10
118.4031312463
 20
51.5609137663
 30
0.0
 10
118.5821433071
 20
51.4532138322
 30
0.0
 10
118.7657847788
 20
51.3533590933
 30
0.0
 10
118.9072312622
 20
51.2799890253
 30
0.0
  0
SPLINE
  5
30D
100
AcDbEntity
  8
0
100
AcDbSpline
 62
7
  6
CONTINUOUS
 70
0
 71
3
 72
9
 73
5
 74
0
 42
0.0000001
 43
0.0000001
 44
0.0000000001
 40
0.0
 40
0.0
 40
0.0
 40
0.0
 40
0.2352280601
 40
1.0
 40
1.0
 40
1.0
 40
1.0
 10
118.9072312622
 20
51.2799890253
 30
0.0
 10
119.0388807599
 20
51.2117007767
 30
0.0
 10
119.6040270265
 20
50.9319242416
 30
0.0
 10
120.1823301203
 20
50.6801331277
 30
0.0
 10
120.6240485752
 20
50.48680352
 30
0.0
  0
SPLINE
  5
30E
100
AcDbEntity
  8
0
100
AcDbSpline
 62
7
  6
CONTINUOUS
 70
0
 71
3
 72
9
 73
5
 74
0
 42
0.0000001
 43
0.0000001
 44
0.0000000001
 40
0.0
 40
0.0
 40
0.0
 40
0.0
 40
0.2600327839
 40
1.0
 40
1.0
 40
1.0
 40
1.0
 10
120.6240485752
 20
548.486803519
 30
0.0
 10
120.4739064522
 20
548.4210899012
 30
0.0
 10
119.8966914143
 20
548.1681856773
 30
0.0
 10
119.3216658454
 20
547.9085689617
 30
0.0
 10
118.907654164
 20
547.6938373334
 30
0.0
  0
SPLINE
  5
30F
100
AcDbEntity
  8
0
100
AcDbSpline
 62
7
  6
CONTINUOUS
 70
0
 71
3
 72
9
 73
5
 74
0
 42
0.0000001
 43
0.0000001
 44
0.0000000001
 40
0.0
 40
0.0
 40
0.0
 40
0.0
 40
0.2623323802
 40
1.0
 40
1.0
 40
1.0
 40
1.0
 10
118.907654164
 20
547.6938373334
 30
0.0
 10
118.8590280462
 20
547.6686168724
 30
0.0
 10
118.6743571514
 20
547.5711778342
 30
0.0
 10
118.4925911991
 20
547.4680479019
 30
0.0
 10
118.3616112122
 20
547.3869918703
 30
0.0
  0
SPLINE
  5
310
100
AcDbEntity
  8
0
100
AcDbSpline
 62
7
  6
CONTINUOUS
 70
0
 71
3
 72
9
 73
5
 74
0
 42
0.0000001
 43
0.0000001
 44
0.0000000001
 40
0.0
 40
0.0
 40
0.0
 40
0.0
 40
0.2881488715
 40
1.0
 40
1.0
 40
1.0
 40
1.0
 10
118.3616112122
 20
547.3869918703
 30
0.0
 10
118.2829719005
 20
547.3383264926
 30
0.0
 10
118.0150808441
 20
547.1630780603
 30
0.0
 10
117.7596309093
 20
546.9577477728
 30
0.0
 10
117.6188220662
 20
546.777834816
 30
0.0
  0
SPLINE
  5
311
100
AcDbEntity
  8
0
100
AcDbSpline
 62
7
  6
CONTINUOUS
 70
0
 71
3
 72
9
 73
5
 74
0
 42
0.0000001
 43
0.0000001
 44
0.0000000001
 40
0.0
 40
0.0
 40
0.0
 40
0.0
 40
0.279874323
 40
1.0
 40
1.0
 40
1.0
 40
1.0
 10
117.6188220662
 20
546.777834816
 30
0.0
 10
117.588149783
 20
546.7386445133
 30
0.0
 10
117.4862760881
 20
546.5935910892
 30
0.0
 10
117.4240485752
 20
546.4148534077
 30
0.0
 10
117.4240485752
 20
546.286803519
 30
0.0
  0
ENDSEC
  0
SECTION
  2
OBJECTS
  0
DICTIONARY
  5
C
100
AcDbDictionary
280
0
281
1
  3
ACAD_GROUP
350
D
  3
ACAD_MLINESTYLE
350
17
  3
ACAD_LAYOUT
350
1A
  3
ACAD_PLOTSETTINGS
350
19
  3
ACAD_PLOTSTYLENAME
350
E
  0
DICTIONARY
  5
D
102
{ACAD_REACTORS
330
C
102
}
100
AcDbDictionary
280
0
281
1
  0
ACDBDICTIONARYWDFLT
  5
E
102
{ACAD_REACTORS
330
C
102
}
100
AcDbDictionary
281
1
  3
Normal
350
F
100
AcDbDictionaryWithDefault
340
F
  0
DICTIONARY
  5
17
102
{ACAD_REACTORS
330
C
102
}
100
AcDbDictionary
280
0
281
1
  3
Standard
350
18
  0
DICTIONARY
  5
19
102
{ACAD_REACTORS
330
C
102
}
100
AcDbDictionary
281
1
  0
DICTIONARY
  5
1A
102
{ACAD_REACTORS
330
C
102
}
100
AcDbDictionary
281
1
  3
Model
350
312
  3
Layout1
350
313
  0
ACDBPLACEHOLDER
  5
F
102
{ACAD_REACTORS
330
E
102
}
  0
MLINESTYLE
  5
18
102
{ACAD_REACTORS
330
17
102
}
100
AcDbMlineStyle
  2
STANDARD
 70
0
  3

 62
256
 51
90.0
 52
90.0
 71
2
 49
0.5
 62
256
  6
BYLAYER
 49
-0.5
 62
256
  6
BYLAYER
  0
LAYOUT
  5
312
102
{ACAD_REACTORS
330
1A
102
}
100
AcDbPlotSettings
  1

  2
none_device
  4

  6

 40
0.0
 41
0.0
 42
0.0
 43
0.0
 44
210.0
 45
297.0
 46
0.0
 47
0.0
 48
0.0
 49
0.0
140
0.0
141
0.0
142
1.0
143
1.0
 70
1024
 72
1
 73
0
 74
0
  7

 75
0
147
1.0
148
0.0
149
0.0
100
AcDbLayout
  1
Model
 70
0
 71
0
 10
0.0
 20
0.0
 11
210.0
 21
297.0
 12
0.0
 22
0.0
 32
0.0
 14
0.0
 24
0.0
 34
0.0
 15
0.0
 25
0.0
 35
0.0
146
0.0
 13
0.0
 23
0.0
 33
0.0
 16
1.0
 26
0.0
 36
0.0
 17
0.0
 27
1.0
 37
0.0
 76
0
330
210
345
0
346
0
  0
LAYOUT
  5
313
102
{ACAD_REACTORS
330
1A
102
}
100
AcDbPlotSettings
  1

  2
none_device
  4

  6

 40
0.0
 41
0.0
 42
0.0
 43
0.0
 44
210.0
 45
297.0
 46
0.0
 47
0.0
 48
0.0
 49
0.0
140
0.0
141
0.0
142
1.0
143
1.0
 70
0
 72
1
 73
0
 74
0
  7

 75
0
147
1.0
148
0.0
149
0.0
100
AcDbLayout
  1
Layout1
 70
0
 71
1
 10
0.0
 20
0.0
 11
210.0
 21
297.0
 12
0.0
 22
0.0
 32
0.0
 14
0.0
 24
0.0
 34
0.0
 15
0.0
 25
0.0
 35
0.0
146
0.0
 13
0.0
 23
0.0
 33
0.0
 16
1.0
 26
0.0
 36
0.0
 17
0.0
 27
1.0
 37
0.0
 76
0
330
211
345
0
346
0
  0
ENDSEC
  0
EOF
