999
DXF file: C:\Users\sesa63760\Dev\_Creo\CAD\MCADID0000483_3D-CAD\drw0001_1.dxf
999
Pro/ENGINEER 2019471 by Parametric Technology Corporation
  0
SECTION
  2
HEADER
  9
$ACADVER
  1
AC1024
  9
$DWGCODEPAGE
  3
ANSI_1252
  9
$EXTMAX
 10
207.7207428428
 20
293.7764791634
 30
0.0
  9
$EXTMIN
 10
0.0
 20
0.0
 30
0.0
  9
$LIMMIN
 10
0.0
 20
0.0
  9
$LIMMAX
 10
207.7207428428
 20
293.7764791634
  9
$VIEWCTR
 10
103.8603714214
 20
146.8882395817
  9
$VIEWSIZE
 40
293.7764791634
  9
$CLAYER
  8
0
  9
$LTSCALE
 40
19.1498741973
  9
$CELTYPE
  6
BYLAYER
  9
$DIMSCALE
 40
1.0
  9
$DIMASZ
 40
2.4728659862
  9
$DIMEXO
 40
1.0
  9
$DIMDLI
 40
13.2308221727
  9
$DIMEXE
 40
1.0
  9
$DIMCEN
 40
3.1336157777
  9
$DIMLFAC
 40
1.0
  9
$DIMBLK
  1
_FILLED
  9
$DIMALT
 70
0
  9
$DIMALTF
 40
0.0393700787
  9
$DIMTXT
 40
3.4620123807
  9
$DIMTOL
 70
1
  9
$DIMLIM
 70
0
  9
$DIMTFAC
 40
1.0
  9
$DIMTP
 40
0.01
  9
$DIMTM
 40
0.01
  9
$DIMGAP
 40
0.625
  9
$DIMDSEP
 70
46
  9
$AUNITS
 70
0
  9
$PDMODE
 70
3
  9
$PDSIZE
 40
0.3125
  9
$HANDSEED
  5
39F
  9
$TILEMODE
 70
1
  9
$MEASUREMENT
 70
1
  9
$INSUNITS
 70
4
  0
ENDSEC
  0
SECTION
  2
CLASSES
  0
CLASS
  1
ACDBDICTIONARYWDFLT
  2
AcDbDictionaryWithDefault
  3
AutoCAD 2000
 90
0
 91
1
280
0
281
0
  0
CLASS
  1
ACDBPLACEHOLDER
  2
AcDbPlaceHolder
  3
AutoCAD 2000
 90
0
 91
1
280
0
281
0
  0
CLASS
  1
LAYOUT
  2
AcDbLayout
  3
AutoCAD 2000
 90
0
 91
0
280
0
281
0
  0
ENDSEC
  0
SECTION
  2
TABLES
  0
TABLE
  2
VPORT
  5
8
100
AcDbSymbolTable
 70
2
  0
VPORT
  5
1F4
100
AcDbSymbolTableRecord
100
AcDbViewportTableRecord
  2
*ACTIVE
 70
0
 10
0.0
 20
0.0
 11
1.0
 21
1.0
 12
103.8603714214
 22
146.8882395817
 13
0.0
 23
0.0
 14
1.0
 24
1.0
 15
0.0
 25
0.0
 16
0.0
 26
0.0
 36
1.0
 17
0.0
 27
0.0
 37
0.0
 40
293.7764791634
 41
0.7070707071
 42
50.0
 43
0.0
 44
0.0
 50
0.0
 51
0.0
 71
0
 72
100
 73
1
 74
1
 75
0
 76
0
 77
0
 78
0
  0
ENDTAB
  0
TABLE
  2
LTYPE
  5
5
100
AcDbSymbolTable
 70
6
  0
LTYPE
  5
14
100
AcDbSymbolTableRecord
100
AcDbLinetypeTableRecord
  2
BYBLOCK
 70
0
  3

 72
65
 73
0
 40
0.0
  0
LTYPE
  5
15
100
AcDbSymbolTableRecord
100
AcDbLinetypeTableRecord
  2
BYLAYER
 70
0
  3

 72
65
 73
0
 40
0.0
  0
LTYPE
  5
16
100
AcDbSymbolTableRecord
100
AcDbLinetypeTableRecord
  2
CONTINUOUS
 70
64
  3
Solid line
 72
65
 73
0
 40
0.0
  0
LTYPE
  5
1F5
100
AcDbSymbolTableRecord
100
AcDbLinetypeTableRecord
  2
CENTER
 70
64
  3
____ _ ____ _ ____ _ ____ _ ____ _ ____ _ ____
 72
65
 73
4
 40
0.6
 49
0.375
 74
0
 49
-0.075
 74
0
 49
0.075
 74
0
 49
-0.075
 74
0
  0
LTYPE
  5
1F6
100
AcDbSymbolTableRecord
100
AcDbLinetypeTableRecord
  2
HIDDEN
 70
64
  3
- - - - - - - - - - - - - - - - - - - -
 72
65
 73
2
 40
0.2
 49
0.1
 74
0
 49
-0.1
 74
0
  0
LTYPE
  5
1F7
100
AcDbSymbolTableRecord
100
AcDbLinetypeTableRecord
  2
PHANTOM
 70
64
  3
_____ _ _ _____ _ _ _____ _ _ _____
 72
65
 73
6
 40
0.8
 49
0.45
 74
0
 49
-0.05
 74
0
 49
0.1
 74
0
 49
-0.05
 74
0
 49
0.1
 74
0
 49
-0.05
 74
0
  0
LTYPE
  5
1F8
100
AcDbSymbolTableRecord
100
AcDbLinetypeTableRecord
  2
DOT
 70
64
  3
. . . . . . . . . . . . . . . . . . . .
 72
65
 73
2
 40
0.2
 49
0.1
 74
0
 49
-0.1
 74
0
  0
LTYPE
  5
1F9
100
AcDbSymbolTableRecord
100
AcDbLinetypeTableRecord
  2
DASHED
 70
64
  3
- - - - - - - - - - - - - - - - - - - -
 72
65
 73
2
 40
0.2
 49
0.1
 74
0
 49
-0.1
 74
0
  0
ENDTAB
  0
TABLE
  2
LAYER
  5
2
100
AcDbSymbolTable
 70
36
  0
LAYER
  5
10
100
AcDbSymbolTableRecord
100
AcDbLayerTableRecord
  2
0
 70
0
 62
7
  6
CONTINUOUS
370
-3
390
F
  0
LAYER
  5
1FA
100
AcDbSymbolTableRecord
100
AcDbLayerTableRecord
  2
DEFAULT_1
 70
0
 62
7
  6
CENTER
370
-3
390
F
  0
LAYER
  5
1FB
100
AcDbSymbolTableRecord
100
AcDbLayerTableRecord
  2
DEFAULT_2
 70
0
 62
8
  6
HIDDEN
370
-3
390
F
  0
LAYER
  5
1FC
100
AcDbSymbolTableRecord
100
AcDbLayerTableRecord
  2
DEFAULT_3
 70
0
 62
7
  6
PHANTOM
370
-3
390
F
  0
LAYER
  5
1FD
100
AcDbSymbolTableRecord
100
AcDbLayerTableRecord
  2
00_COMPONENTS
 70
0
 62
7
  6
CONTINUOUS
370
-3
390
F
  0
LAYER
  5
1FE
100
AcDbSymbolTableRecord
100
AcDbLayerTableRecord
  2
01_1_DEFAULT_DATUMS
 70
0
 62
7
  6
CONTINUOUS
370
-3
390
F
  0
LAYER
  5
1FF
100
AcDbSymbolTableRecord
100
AcDbLayerTableRecord
  2
01_PLANES
 70
0
 62
7
  6
CONTINUOUS
370
-3
390
F
  0
LAYER
  5
200
100
AcDbSymbolTableRecord
100
AcDbLayerTableRecord
  2
02_COORD_SYS
 70
0
 62
7
  6
CONTINUOUS
370
-3
390
F
  0
LAYER
  5
201
100
AcDbSymbolTableRecord
100
AcDbLayerTableRecord
  2
03_AXES
 70
0
 62
7
  6
CONTINUOUS
370
-3
390
F
  0
LAYER
  5
202
100
AcDbSymbolTableRecord
100
AcDbLayerTableRecord
  2
04_POINTS
 70
0
 62
7
  6
CONTINUOUS
370
-3
390
F
  0
LAYER
  5
203
100
AcDbSymbolTableRecord
100
AcDbLayerTableRecord
  2
05_CURVES
 70
0
 62
7
  6
CONTINUOUS
370
-3
390
F
  0
LAYER
  5
204
100
AcDbSymbolTableRecord
100
AcDbLayerTableRecord
  2
06_SURFS
 70
0
 62
7
  6
CONTINUOUS
370
-3
390
F
  0
LAYER
  5
205
100
AcDbSymbolTableRecord
100
AcDbLayerTableRecord
  2
07_COSMETICS
 70
0
 62
7
  6
CONTINUOUS
370
-3
390
F
  0
LAYER
  5
206
100
AcDbSymbolTableRecord
100
AcDbLayerTableRecord
  2
10_NOTES
 70
0
 62
7
  6
CONTINUOUS
370
-3
390
F
  0
LAYER
  5
207
100
AcDbSymbolTableRecord
100
AcDbLayerTableRecord
  2
11_NOTES_PUB
 70
0
 62
7
  6
CONTINUOUS
370
-3
390
F
  0
LAYER
  5
208
100
AcDbSymbolTableRecord
100
AcDbLayerTableRecord
  2
13_REF_GTOL
 70
0
 62
7
  6
CONTINUOUS
370
-3
390
F
  0
LAYER
  5
209
100
AcDbSymbolTableRecord
100
AcDbLayerTableRecord
  2
16_MISC
 70
0
 62
7
  6
CONTINUOUS
370
-3
390
F
  0
LAYER
  5
20A
100
AcDbSymbolTableRecord
100
AcDbLayerTableRecord
  2
17_NO_PRINT
 70
0
 62
7
  6
CONTINUOUS
370
-3
390
F
  0
LAYER
  5
20B
100
AcDbSymbolTableRecord
100
AcDbLayerTableRecord
  2
18_DATUM_CAMS_JOINTS
 70
0
 62
7
  6
CONTINUOUS
370
-3
390
F
  0
LAYER
  5
20C
100
AcDbSymbolTableRecord
100
AcDbLayerTableRecord
  2
19_DATUM_FUNCTIONAL
 70
0
 62
7
  6
CONTINUOUS
370
-3
390
F
  0
LAYER
  5
20D
100
AcDbSymbolTableRecord
100
AcDbLayerTableRecord
  2
20_DATUM_KINEMATIC_SCHEME
 70
0
 62
7
  6
CONTINUOUS
370
-3
390
F
  0
ENDTAB
  0
TABLE
  2
STYLE
  5
3
100
AcDbSymbolTable
 70
1
  0
STYLE
  5
11
100
AcDbSymbolTableRecord
100
AcDbTextStyleTableRecord
  2
STANDARD
 70
0
 40
0.0
 41
0.8
 50
0.0
 71
0
 42
0.2
  3
txt
  4

  0
STYLE
  5
20E
100
AcDbSymbolTableRecord
100
AcDbTextStyleTableRecord
  2
TEXTSTYLE_1
 70
0
 40
0.0
 41
0.8
 50
0.0
 71
0
 42
0.2
  3
gdt
  4

  0
ENDTAB
  0
TABLE
  2
VIEW
  5
6
100
AcDbSymbolTable
 70
0
  0
ENDTAB
  0
TABLE
  2
UCS
  5
7
100
AcDbSymbolTable
 70
0
  0
ENDTAB
  0
TABLE
  2
APPID
  5
9
100
AcDbSymbolTable
 70
1
  0
APPID
  5
20F
100
AcDbSymbolTableRecord
100
AcDbRegAppTableRecord
  2
ACAD
 70
0
  0
ENDTAB
  0
TABLE
  2
BLOCK_RECORD
  5
1
100
AcDbSymbolTable
 70
0
  0
BLOCK_RECORD
  5
210
100
AcDbSymbolTableRecord
100
AcDbBlockTableRecord
  2
*Model_Space
  0
BLOCK_RECORD
  5
211
100
AcDbSymbolTableRecord
100
AcDbBlockTableRecord
  2
*Paper_Space
  0
BLOCK_RECORD
  5
212
100
AcDbSymbolTableRecord
100
AcDbBlockTableRecord
  2
_FILLED
  0
ENDTAB
  0
TABLE
  2
DIMSTYLE
  5
A
100
AcDbSymbolTable
 70
1
100
AcDbDimStyleTable
 71
0
  0
DIMSTYLE
105
213
100
AcDbSymbolTableRecord
100
AcDbDimStyleTableRecord
  2
STANDARD
 70
0
  3

  4

 40
1.0
 41
2.4728659862
 42
1.0
 43
0.38
 44
1.0
 45
0.0
 46
0.0
 47
0.01
 48
0.01
140
3.4620123807
141
0.09
142
0.0
143
25.4
144
1.0
145
0.0
146
1.0
147
0.625
 71
1
 72
0
 73
0
 74
0
 75
0
 76
0
 77
1
 78
8
 79
2
170
0
171
1
172
0
173
0
174
0
175
0
176
0
177
0
178
0
270
2
179
2
271
2
272
2
273
2
274
2
275
0
280
0
281
0
282
0
283
1
284
8
285
0
286
0
287
3
288
0
340
11
278
46
341
212
342
212
343
212
344
212
  0
ENDTAB
  0
ENDSEC
  0
SECTION
  2
BLOCKS
  0
BLOCK
  5
20
100
AcDbEntity
  8
0
100
AcDbBlockBegin
  2
*Model_Space
 70
0
 10
0.0
 20
0.0
 30
0.0
  3
*Model_Space
  1

  0
ENDBLK
  5
21
100
AcDbEntity
  8
0
100
AcDbBlockEnd
  0
BLOCK
  5
1C
100
AcDbEntity
  8
0
100
AcDbBlockBegin
  2
*Paper_Space
 70
0
 10
0.0
 20
0.0
 30
0.0
  3
*Paper_Space
  1

  0
ENDBLK
  5
1D
100
AcDbEntity
  8
0
100
AcDbBlockEnd
  0
BLOCK
  5
214
100
AcDbEntity
  8
0
100
AcDbBlockBegin
  2
_FILLED
 70
64
 10
0.0
 20
0.0
  3
_FILLED
  1

  0
SOLID
  5
215
100
AcDbEntity
  8
0
  6
BYBLOCK
 62
0
100
AcDbTrace
 10
0.0
 20
0.0
 11
-1.0
 21
0.25
 12
-1.0
 22
-0.25
 13
-1.0
 23
-0.25
  0
ENDBLK
  5
216
100
AcDbEntity
  8
0
  6
BYBLOCK
 62
0
100
AcDbBlockEnd
  0
ENDSEC
  0
SECTION
  2
ENTITIES
  0
LINE
  5
217
100
AcDbEntity
  8
0
100
AcDbLine
 62
7
  6
CONTINUOUS
 10
25.3226894589
 20
243.0730962574
 11
29.7496288289
 21
246.3045336213
  0
LINE
  5
218
100
AcDbEntity
  8
0
100
AcDbLine
 62
7
  6
CONTINUOUS
 10
28.9868296265
 20
242.8656368096
 11
33.724425336
 21
246.0794851655
  0
LINE
  5
219
100
AcDbEntity
  8
0
100
AcDbLine
 62
7
  6
CONTINUOUS
 10
51.1077359643
 20
247.990830642
 11
40.2605581038
 21
242.3059325218
  0
LINE
  5
21A
100
AcDbEntity
  8
0
100
AcDbLine
 62
7
  6
CONTINUOUS
 10
52.8155615052
 20
247.79441246
 11
41.2294281006
 21
241.7465678228
  0
LINE
  5
21B
100
AcDbEntity
  8
0
100
AcDbLine
 62
7
  6
CONTINUOUS
 10
56.6009097852
 20
249.2729833089
 11
53.2522633767
 21
247.5422882208
  0
LINE
  5
21C
100
AcDbEntity
  8
0
100
AcDbLine
 62
7
  6
CONTINUOUS
 10
55.0443659903
 20
249.4658908051
 11
52.0695771138
 21
247.9940589638
  0
LINE
  5
21D
100
AcDbEntity
  8
0
100
AcDbLine
 62
7
  6
CONTINUOUS
 10
28.9979664924
 20
240.8195329658
 11
29.4818070206
 21
240.9783415639
  0
LINE
  5
21E
100
AcDbEntity
  8
0
100
AcDbLine
 62
7
  6
CONTINUOUS
 10
61.2157588523
 20
247.3710787486
 11
59.4544064816
 21
246.3541675534
  0
LINE
  5
21F
100
AcDbEntity
  8
0
100
AcDbLine
 62
7
  6
CONTINUOUS
 10
59.0139728773
 20
247.8798322003
 11
58.282850695
 21
247.4877539807
  0
LINE
  5
220
100
AcDbEntity
  8
0
100
AcDbLine
 62
7
  6
CONTINUOUS
 10
60.0284524293
 20
246.8201476465
 11
59.7229634057
 21
246.656323329
  0
LINE
  5
221
100
AcDbEntity
  8
0
100
AcDbLine
 62
7
  6
CONTINUOUS
 10
64.1837616226
 20
244.0809385406
 11
65.132609501
 21
244.5535213074
  0
LINE
  5
222
100
AcDbEntity
  8
0
100
AcDbLine
 62
7
  6
CONTINUOUS
 10
64.4616589975
 20
243.9204980461
 11
65.2187584005
 21
244.2975786496
  0
LINE
  5
223
100
AcDbEntity
  8
0
100
AcDbLine
 62
7
  6
CONTINUOUS
 10
39.8662833715
 20
228.5831470389
 11
39.8097150645
 21
228.5504875066
  0
LINE
  5
224
100
AcDbEntity
  8
0
100
AcDbLine
 62
7
  6
CONTINUOUS
 10
40.8097105877
 20
228.4514389486
 11
40.8662788946
 21
228.4840984809
  0
LINE
  5
225
100
AcDbEntity
  8
0
100
AcDbLine
 62
7
  6
CONTINUOUS
 10
28.856545725
 20
239.9809638843
 11
28.9979664924
 21
240.8195329658
  0
LINE
  5
226
100
AcDbEntity
  8
0
100
AcDbLine
 62
7
  6
CONTINUOUS
 10
40.3824330673
 20
212.936143731
 11
40.7618873672
 21
213.2757535763
  0
LINE
  5
227
100
AcDbEntity
  8
0
100
AcDbLine
 62
7
  6
CONTINUOUS
 10
24.0979960539
 20
240.0429867304
 11
24.0979960539
 21
130.9582638027
  0
LINE
  5
228
100
AcDbEntity
  8
0
100
AcDbLine
 62
7
  6
CONTINUOUS
 10
24.7553081415
 20
130.5916439291
 11
24.7553081415
 21
238.3699629902
  0
LINE
  5
229
100
AcDbEntity
  8
0
100
AcDbLine
 62
7
  6
CONTINUOUS
 10
25.2693975841
 20
237.9098637247
 11
25.2693975841
 21
130.1315446637
  0
LINE
  5
22A
100
AcDbEntity
  8
0
100
AcDbLine
 62
7
  6
CONTINUOUS
 10
25.362651654
 20
130.0648514946
 11
25.362651654
 21
237.8431705557
  0
LINE
  5
22B
100
AcDbEntity
  8
0
100
AcDbLine
 62
7
  6
CONTINUOUS
 10
40.3824330673
 20
212.936143731
 11
40.5191185512
 21
213.3397531934
  0
LINE
  5
22C
100
AcDbEntity
  8
0
100
AcDbLine
 62
7
  6
CONTINUOUS
 10
64.861615876
 20
241.4092826346
 11
66.2752901308
 21
243.6874205329
  0
LINE
  5
22D
100
AcDbEntity
  8
0
100
AcDbLine
 62
7
  6
CONTINUOUS
 10
67.3240446142
 20
242.8885252737
 11
66.1310793699
 21
240.9771811773
  0
LINE
  5
22E
100
AcDbEntity
  8
0
100
AcDbLine
 62
7
  6
CONTINUOUS
 10
64.5544546871
 20
214.8080332045
 11
64.4978863801
 21
214.7753736722
  0
LINE
  5
22F
100
AcDbEntity
  8
0
100
AcDbLine
 62
7
  6
CONTINUOUS
 10
28.9979664924
 20
123.2431848992
 11
28.856545725
 21
123.9184563191
  0
LINE
  5
230
100
AcDbEntity
  8
0
100
AcDbLine
 62
7
  6
CONTINUOUS
 10
65.9121058304
 20
212.3258873289
 11
65.9686741374
 21
212.3585468612
  0
LINE
  5
231
100
AcDbEntity
  8
0
100
AcDbLine
 62
7
  6
CONTINUOUS
 10
165.4701434458
 20
49.3517337795
 11
164.6732124689
 21
49.6485353829
  0
LINE
  5
232
100
AcDbEntity
  8
0
100
AcDbLine
 62
7
  6
CONTINUOUS
 10
39.3954911374
 20
217.4286354093
 11
39.3954911374
 21
227.6349156234
  0
LINE
  5
233
100
AcDbEntity
  8
0
100
AcDbLine
 62
7
  6
CONTINUOUS
 10
39.4699837043
 20
213.2869702507
 11
39.4699837043
 21
138.3318179084
  0
LINE
  5
234
100
AcDbEntity
  8
0
100
AcDbLine
 62
7
  6
CONTINUOUS
 10
39.5855020904
 20
138.2780234419
 11
39.5855020904
 21
213.2329453344
  0
LINE
  5
235
100
AcDbEntity
  8
0
100
AcDbLine
 62
7
  6
CONTINUOUS
 10
40.3824330673
 20
212.936143731
 11
40.3824330673
 21
137.9812218385
  0
LINE
  5
236
100
AcDbEntity
  8
0
100
AcDbLine
 62
7
  6
CONTINUOUS
 10
40.7618873672
 20
138.3208316838
 11
40.7618873672
 21
213.2757535763
  0
LINE
  5
237
100
AcDbEntity
  8
0
100
AcDbLine
 62
7
  6
CONTINUOUS
 10
41.0444637625
 20
213.3346950979
 11
41.0444637625
 21
138.3471131087
  0
LINE
  5
238
100
AcDbEntity
  8
0
100
AcDbLine
 62
7
  6
CONTINUOUS
 10
41.1151741462
 20
138.3879375241
 11
41.1151741462
 21
213.3444053936
  0
LINE
  5
239
100
AcDbEntity
  8
0
100
AcDbLine
 62
7
  6
CONTINUOUS
 10
40.948122025
 20
135.9179095853
 11
41.0895427924
 21
136.7564786668
  0
LINE
  5
23A
100
AcDbEntity
  8
0
100
AcDbLine
 62
7
  6
CONTINUOUS
 10
67.3390929914
 20
242.9676804896
 11
67.3240446142
 21
242.888525281
  0
LINE
  5
23B
100
AcDbEntity
  8
0
100
AcDbLine
 62
7
  6
CONTINUOUS
 10
65.9686741374
 20
202.1522666471
 11
65.9121058304
 21
202.1196071148
  0
LINE
  5
23C
100
AcDbEntity
  8
0
100
AcDbLine
 62
7
  6
CONTINUOUS
 10
65.5544502102
 20
201.2366947638
 11
65.4978819032
 21
201.2040352315
  0
LINE
  5
23D
100
AcDbEntity
  8
0
100
AcDbLine
 62
7
  6
CONTINUOUS
 10
149.5537749341
 20
74.2938646407
 11
149.1359087949
 21
74.3772913761
  0
LINE
  5
23E
100
AcDbEntity
  8
0
100
AcDbLine
 62
7
  6
CONTINUOUS
 10
25.2693975841
 20
130.1315446637
 11
24.7553081415
 21
130.5916439291
  0
LINE
  5
23F
100
AcDbEntity
  8
0
100
AcDbLine
 62
7
  6
CONTINUOUS
 10
184.1729260845
 20
94.086935438
 11
186.1656593
 21
94.1560234506
  0
LINE
  5
240
100
AcDbEntity
  8
0
100
AcDbLine
 62
7
  6
CONTINUOUS
 10
186.5925807111
 20
92.8568337652
 11
183.912621952
 21
92.7714355721
  0
LINE
  5
241
100
AcDbEntity
  8
0
100
AcDbLine
 62
7
  6
CONTINUOUS
 10
184.1732152958
 20
94.6200371627
 11
185.3619663359
 21
94.6200253027
  0
LINE
  5
242
100
AcDbEntity
  8
0
100
AcDbLine
 62
7
  6
CONTINUOUS
 10
185.2987230414
 20
94.6374504428
 11
184.1732247487
 21
94.6374616718
  0
LINE
  5
243
100
AcDbEntity
  8
0
100
AcDbLine
 62
7
  6
CONTINUOUS
 10
28.9868296254
 20
122.490602675
 11
162.347723786
 21
45.4963963737
  0
LINE
  5
244
100
AcDbEntity
  8
0
100
AcDbLine
 62
7
  6
CONTINUOUS
 10
161.2274850949
 20
46.9021638039
 11
28.9979664924
 21
123.2431848992
  0
LINE
  5
245
100
AcDbEntity
  8
0
100
AcDbLine
 62
7
  6
CONTINUOUS
 10
28.856545725
 20
123.9184563191
 11
161.0860643275
 21
47.5774352238
  0
LINE
  5
246
100
AcDbEntity
  8
0
100
AcDbLine
 62
7
  6
CONTINUOUS
 10
161.0749321696
 20
47.6915433016
 11
28.8454135671
 21
124.0325643969
  0
LINE
  5
247
100
AcDbEntity
  8
0
100
AcDbLine
 62
7
  6
CONTINUOUS
 10
60.1687622403
 20
246.7665985811
 11
60.1687620265
 21
247.0380815428
  0
LINE
  5
248
100
AcDbEntity
  8
0
100
AcDbLine
 62
7
  6
CONTINUOUS
 10
60.0284419398
 20
246.6855851015
 11
60.0284524293
 21
246.8201476465
  0
LINE
  5
249
100
AcDbEntity
  8
0
100
AcDbLine
 62
7
  6
CONTINUOUS
 10
107.1936990177
 20
205.966648414
 11
105.1986003297
 21
204.8147845251
  0
LINE
  5
24A
100
AcDbEntity
  8
0
100
AcDbLine
 62
7
  6
CONTINUOUS
 10
119.6381562553
 20
207.9906181748
 11
118.9310524181
 21
207.582374021
  0
LINE
  5
24B
100
AcDbEntity
  8
0
100
AcDbLine
 62
7
  6
CONTINUOUS
 10
121.0523757056
 20
207.1741366658
 11
120.3452718684
 21
206.7658925119
  0
LINE
  5
24C
100
AcDbEntity
  8
0
100
AcDbLine
 62
7
  6
CONTINUOUS
 10
111.9868536911
 20
200.8956732817
 11
113.9819523788
 21
202.0475371704
  0
LINE
  5
24D
100
AcDbEntity
  8
0
100
AcDbLine
 62
7
  6
CONTINUOUS
 10
112.2453742186
 20
200.7464197621
 11
113.9819523791
 21
201.7016934084
  0
LINE
  5
24E
100
AcDbEntity
  8
0
100
AcDbLine
 62
7
  6
CONTINUOUS
 10
41.0895427924
 20
213.3444053936
 11
40.948122025
 21
214.0196768136
  0
LWPOLYLINE
  5
24F
100
AcDbEntity
  8
0
100
AcDbPolyline
 62
7
  6
CONTINUOUS
 90
5
 70
0
 10
67.3390682322
 20
242.9676694608
 10
67.3388914053
 20
242.9733679331
 10
67.280756455
 20
243.2312338805
 10
67.114735844
 20
243.4696081522
 10
66.9428364373
 20
243.5987483717
  0
LINE
  5
250
100
AcDbEntity
  8
0
100
AcDbLine
 62
7
  6
CONTINUOUS
 10
65.9121058304
 20
212.3258873289
 11
65.9121058304
 21
202.1196071148
  0
LINE
  5
251
100
AcDbEntity
  8
0
100
AcDbLine
 62
7
  6
CONTINUOUS
 10
65.9686741374
 20
212.3585468612
 11
65.9686741374
 21
202.1522666471
  0
LINE
  5
252
100
AcDbEntity
  8
0
100
AcDbLine
 62
7
  6
CONTINUOUS
 10
67.3240446142
 20
242.8885252737
 11
67.3240446142
 21
240.2887148177
  0
LINE
  5
253
100
AcDbEntity
  8
0
100
AcDbLine
 62
7
  6
CONTINUOUS
 10
67.3394392298
 20
240.2798305061
 11
67.3394392298
 21
242.9441353948
  0
LINE
  5
254
100
AcDbEntity
  8
0
100
AcDbLine
 62
7
  6
CONTINUOUS
 10
40.7618873672
 20
138.3208316838
 11
40.3824330673
 21
137.9812218385
  0
LINE
  5
255
100
AcDbEntity
  8
0
100
AcDbLine
 62
7
  6
CONTINUOUS
 10
120.9028873104
 20
203.3738399943
 11
124.5961884517
 21
205.4054866707
  0
LINE
  5
256
100
AcDbEntity
  8
0
100
AcDbLine
 62
7
  6
CONTINUOUS
 10
40.936828754
 20
135.7910402923
 11
148.9833945042
 21
73.4117376798
  0
LINE
  5
257
100
AcDbEntity
  8
0
100
AcDbLine
 62
7
  6
CONTINUOUS
 10
148.9944880274
 20
73.5387222946
 11
40.948122025
 21
135.9179095853
  0
LINE
  5
258
100
AcDbEntity
  8
0
100
AcDbLine
 62
7
  6
CONTINUOUS
 10
41.0895427924
 20
136.7564786668
 11
149.1359087949
 21
74.3772913761
  0
LINE
  5
259
100
AcDbEntity
  8
0
100
AcDbLine
 62
7
  6
CONTINUOUS
 10
149.6197493231
 20
74.5360999742
 11
41.5733833206
 21
136.9152872649
  0
LINE
  5
25A
100
AcDbEntity
  8
0
100
AcDbLine
 62
7
  6
CONTINUOUS
 10
41.7515734876
 20
137.122369937
 11
149.7979394901
 21
74.7431826463
  0
LINE
  5
25B
100
AcDbEntity
  8
0
100
AcDbLine
 62
7
  6
CONTINUOUS
 10
149.84301852
 20
74.7988049959
 11
41.8222838713
 21
137.1631943524
  0
LINE
  5
25C
100
AcDbEntity
  8
0
100
AcDbLine
 62
7
  6
CONTINUOUS
 10
113.9819523788
 20
202.0475371704
 11
114.274820961
 21
202.4557779251
  0
LINE
  5
25D
100
AcDbEntity
  8
0
100
AcDbLine
 62
7
  6
CONTINUOUS
 10
113.9819137484
 20
201.7016721581
 11
114.2748426669
 21
202.0963056823
  0
LINE
  5
25E
100
AcDbEntity
  8
0
100
AcDbLine
 62
7
  6
CONTINUOUS
 10
185.3619663359
 20
94.6200253027
 11
185.544720229
 21
94.573762737
  0
LINE
  5
25F
100
AcDbEntity
  8
0
100
AcDbLine
 62
7
  6
CONTINUOUS
 10
186.3490496529
 20
94.1093954655
 11
186.1656592999
 21
94.1560234507
  0
LINE
  5
260
100
AcDbEntity
  8
0
100
AcDbLine
 62
7
  6
CONTINUOUS
 10
185.544720229
 20
94.573762737
 11
185.2987230414
 21
94.6374504428
  0
LINE
  5
261
100
AcDbEntity
  8
0
100
AcDbLine
 62
7
  6
CONTINUOUS
 10
185.2987230414
 20
94.6374504428
 11
185.3619663359
 21
94.6200253027
  0
LINE
  5
262
100
AcDbEntity
  8
0
100
AcDbLine
 62
7
  6
CONTINUOUS
 10
40.3824330673
 20
137.9812218385
 11
39.5855020904
 21
138.2780234419
  0
LINE
  5
263
100
AcDbEntity
  8
0
100
AcDbLine
 62
7
  6
CONTINUOUS
 10
41.1151741462
 20
138.3879375241
 11
41.0444637625
 21
138.3471131087
  0
LINE
  5
264
100
AcDbEntity
  8
0
100
AcDbLine
 62
7
  6
CONTINUOUS
 10
41.7515734876
 20
137.122369937
 11
41.8222838713
 21
137.1631943524
  0
LINE
  5
265
100
AcDbEntity
  8
0
100
AcDbLine
 62
7
  6
CONTINUOUS
 10
150.357107962
 20
74.3254537738
 11
149.84301852
 21
74.7855530387
  0
LINE
  5
266
100
AcDbEntity
  8
0
100
AcDbLine
 62
7
  6
CONTINUOUS
 10
41.0895427924
 20
136.7564786668
 11
41.5733833206
 21
136.9152872649
  0
LINE
  5
267
100
AcDbEntity
  8
0
100
AcDbLine
 62
7
  6
CONTINUOUS
 10
137.8009803044
 20
166.7345368265
 11
137.7444119974
 21
166.7018772942
  0
LINE
  5
268
100
AcDbEntity
  8
0
100
AcDbLine
 62
7
  6
CONTINUOUS
 10
138.7444075205
 20
166.6028287362
 11
138.8009758275
 21
166.6354882685
  0
LINE
  5
269
100
AcDbEntity
  8
0
100
AcDbLine
 62
7
  6
CONTINUOUS
 10
161.7113256231
 20
164.6373204686
 11
161.2274850949
 21
164.4785118705
  0
LINE
  5
26A
100
AcDbEntity
  8
0
100
AcDbLine
 62
7
  6
CONTINUOUS
 10
186.592595755
 20
161.8776001009
 11
186.8054856069
 21
161.9303995779
  0
LINE
  5
26B
100
AcDbEntity
  8
0
100
AcDbLine
 62
7
  6
CONTINUOUS
 10
185.3619663359
 20
94.6200253027
 11
186.1656593
 21
94.1560234506
  0
LINE
  5
26C
100
AcDbEntity
  8
0
100
AcDbLine
 62
7
  6
CONTINUOUS
 10
186.349424367
 20
94.1091794531
 11
185.545731403
 21
94.5731813051
  0
LINE
  5
26D
100
AcDbEntity
  8
0
100
AcDbLine
 62
7
  6
CONTINUOUS
 10
113.9819523791
 20
202.0475371706
 11
113.9819523791
 21
201.7016934084
  0
LINE
  5
26E
100
AcDbEntity
  8
0
100
AcDbLine
 62
7
  6
CONTINUOUS
 10
114.2748426539
 20
202.4557779251
 11
114.2748426539
 21
202.0963056825
  0
LINE
  5
26F
100
AcDbEntity
  8
0
100
AcDbLine
 62
7
  6
CONTINUOUS
 10
177.8888635015
 20
180.0113542528
 11
176.1275111308
 21
178.9944430576
  0
LINE
  5
270
100
AcDbEntity
  8
0
100
AcDbLine
 62
7
  6
CONTINUOUS
 10
175.6870775266
 20
180.5201077045
 11
174.9559553443
 21
180.1280294848
  0
LINE
  5
271
100
AcDbEntity
  8
0
100
AcDbLine
 62
7
  6
CONTINUOUS
 10
176.7015570786
 20
179.4604231506
 11
176.3960680549
 21
179.2965988332
  0
LINE
  5
272
100
AcDbEntity
  8
0
100
AcDbLine
 62
7
  6
CONTINUOUS
 10
180.8568662719
 20
176.7212140448
 11
181.8057141502
 21
177.1937968116
  0
LINE
  5
273
100
AcDbEntity
  8
0
100
AcDbLine
 62
7
  6
CONTINUOUS
 10
181.8918633171
 20
176.937854287
 11
181.1347636467
 21
176.5607735503
  0
LINE
  5
274
100
AcDbEntity
  8
0
100
AcDbLine
 62
7
  6
CONTINUOUS
 10
118.9310524181
 20
207.582374021
 11
118.9310524181
 21
206.7658716038
  0
LINE
  5
275
100
AcDbEntity
  8
0
100
AcDbLine
 62
7
  6
CONTINUOUS
 10
120.3452718684
 20
206.7658925119
 11
120.3452718684
 21
205.9493900948
  0
LINE
  5
276
100
AcDbEntity
  8
0
100
AcDbLine
 62
7
  6
CONTINUOUS
 10
167.0853194963
 20
169.0852788644
 11
162.3477237869
 21
165.8714305084
  0
LINE
  5
277
100
AcDbEntity
  8
0
100
AcDbLine
 62
7
  6
CONTINUOUS
 10
169.3035697052
 20
167.074292785
 11
180.9452221389
 21
173.8203919179
  0
LINE
  5
278
100
AcDbEntity
  8
0
100
AcDbLine
 62
7
  6
CONTINUOUS
 10
149.0540668421
 20
160.715997328
 11
148.9974985351
 21
160.6833377957
  0
LINE
  5
279
100
AcDbEntity
  8
0
100
AcDbLine
 62
7
  6
CONTINUOUS
 10
150.4117179854
 20
158.2338514524
 11
150.4682862924
 21
158.2665109847
  0
LINE
  5
27A
100
AcDbEntity
  8
0
100
AcDbLine
 62
7
  6
CONTINUOUS
 10
150.4682862924
 20
153.3674964819
 11
150.4117179854
 21
153.3348369496
  0
LINE
  5
27B
100
AcDbEntity
  8
0
100
AcDbLine
 62
7
  6
CONTINUOUS
 10
150.0540623652
 20
152.4519245986
 11
149.9974940583
 21
152.4192650663
  0
LINE
  5
27C
100
AcDbEntity
  8
0
100
AcDbLine
 62
7
  6
CONTINUOUS
 10
180.9501407092
 20
173.8108464445
 11
184.3049264038
 21
175.5447031816
  0
LINE
  5
27D
100
AcDbEntity
  8
0
100
AcDbLine
 62
7
  6
CONTINUOUS
 10
167.2365573573
 20
157.4037693786
 11
172.3886424349
 21
159.8997050742
  0
LINE
  5
27E
100
AcDbEntity
  8
0
100
AcDbLine
 62
7
  6
CONTINUOUS
 10
181.8053786932
 20
177.1938256199
 11
181.8631087549
 21
177.2063415666
  0
LINE
  5
27F
100
AcDbEntity
  8
0
100
AcDbLine
 62
7
  6
CONTINUOUS
 10
24.7553081415
 20
238.3699629902
 11
25.2693975841
 21
237.9098637247
  0
LINE
  5
280
100
AcDbEntity
  8
0
100
AcDbLine
 62
7
  6
CONTINUOUS
 10
183.4136137414
 20
169.5440106159
 11
186.5925807943
 21
171.5823917447
  0
LINE
  5
281
100
AcDbEntity
  8
0
100
AcDbLine
 62
7
  6
CONTINUOUS
 10
183.4194169583
 20
169.534984572
 11
171.7558198538
 21
162.8273396225
  0
LINE
  5
282
100
AcDbEntity
  8
0
100
AcDbLine
 62
7
  6
CONTINUOUS
 10
184.1583806192
 20
157.0073579263
 11
183.9124974146
 21
156.893191574
  0
LINE
  5
283
100
AcDbEntity
  8
0
100
AcDbLine
 62
7
  6
CONTINUOUS
 10
170.5418999798
 20
180.6887539492
 11
174.6766944989
 21
181.3176815733
  0
LINE
  5
284
100
AcDbEntity
  8
0
100
AcDbLine
 62
7
  6
CONTINUOUS
 10
174.6302193993
 20
181.1301116721
 11
170.3878868585
 21
180.4850336324
  0
LINE
  5
285
100
AcDbEntity
  8
0
100
AcDbLine
 62
7
  6
CONTINUOUS
 10
181.8927421464
 20
177.2020649269
 11
181.9204262092
 21
177.2043337469
  0
LINE
  5
286
100
AcDbEntity
  8
0
100
AcDbLine
 62
7
  6
CONTINUOUS
 10
184.7679106971
 20
175.5739840732
 11
184.3049263997
 21
175.544703184
  0
LINE
  5
287
100
AcDbEntity
  8
0
100
AcDbLine
 62
7
  6
CONTINUOUS
 10
149.1359087949
 20
150.9652181029
 11
41.0895427924
 21
213.3444053936
  0
LINE
  5
288
100
AcDbEntity
  8
0
100
AcDbLine
 62
7
  6
CONTINUOUS
 10
40.948122025
 20
214.0196768136
 11
148.9944880274
 21
151.6404895229
  0
LINE
  5
289
100
AcDbEntity
  8
0
100
AcDbLine
 62
7
  6
CONTINUOUS
 10
148.9835169831
 20
151.7545045838
 11
40.9369512605
 21
214.1338071803
  0
LINE
  5
28A
100
AcDbEntity
  8
0
100
AcDbLine
 62
7
  6
CONTINUOUS
 10
64.4978863801
 20
201.3030837895
 11
40.8097105877
 21
214.979149066
  0
LINE
  5
28B
100
AcDbEntity
  8
0
100
AcDbLine
 62
7
  6
CONTINUOUS
 10
138.7444075205
 20
158.4378045649
 11
148.9974985351
 21
152.5183136244
  0
LINE
  5
28C
100
AcDbEntity
  8
0
100
AcDbLine
 62
7
  6
CONTINUOUS
 10
119.4886678602
 20
204.1903215033
 11
118.9310524181
 21
206.7658716038
  0
LINE
  5
28D
100
AcDbEntity
  8
0
100
AcDbLine
 62
7
  6
CONTINUOUS
 10
120.3452718684
 20
205.9493900948
 11
120.9028873104
 21
203.3738399943
  0
LINE
  5
28E
100
AcDbEntity
  8
0
100
AcDbLine
 62
7
  6
CONTINUOUS
 10
137.3301880702
 20
165.786305411
 11
137.3301880702
 21
160.8872909082
  0
LINE
  5
28F
100
AcDbEntity
  8
0
100
AcDbLine
 62
7
  6
CONTINUOUS
 10
170.53495951
 20
180.687692935
 11
170.3878382584
 21
180.484922851
  0
LINE
  5
290
100
AcDbEntity
  8
0
100
AcDbLine
 62
7
  6
CONTINUOUS
 10
165.4701434458
 20
157.1300528406
 11
165.8495977457
 21
157.469662686
  0
LINE
  5
291
100
AcDbEntity
  8
0
100
AcDbLine
 62
7
  6
CONTINUOUS
 10
181.863501854
 20
177.2063278057
 11
181.9200015324
 21
177.204348634
  0
LINE
  5
292
100
AcDbEntity
  8
0
100
AcDbLine
 62
7
  6
CONTINUOUS
 10
164.6732124689
 20
157.426854444
 11
165.4701434458
 21
157.1300528406
  0
LINE
  5
293
100
AcDbEntity
  8
0
100
AcDbLine
 62
7
  6
CONTINUOUS
 10
148.9974985351
 20
160.6833377957
 11
138.7444075205
 21
166.6028287362
  0
LINE
  5
294
100
AcDbEntity
  8
0
100
AcDbLine
 62
7
  6
CONTINUOUS
 10
138.8009758275
 20
166.6354882685
 11
149.0540668421
 21
160.715997328
  0
LINE
  5
295
100
AcDbEntity
  8
0
100
AcDbLine
 62
7
  6
CONTINUOUS
 10
149.84301852
 20
149.7404749312
 11
150.357107962
 21
149.2803756663
  0
LINE
  5
296
100
AcDbEntity
  8
0
100
AcDbLine
 62
7
  6
CONTINUOUS
 10
161.0860643275
 20
47.5774352238
 11
161.2274850949
 21
46.9021638039
  0
LINE
  5
297
100
AcDbEntity
  8
0
100
AcDbLine
 62
7
  6
CONTINUOUS
 10
149.84301852
 20
74.7855530387
 11
149.84301852
 21
149.7404749312
  0
LINE
  5
298
100
AcDbEntity
  8
0
100
AcDbLine
 62
7
  6
CONTINUOUS
 10
181.8631087549
 20
177.2063415666
 11
181.8927421464
 21
177.2020649269
  0
LINE
  5
299
100
AcDbEntity
  8
0
100
AcDbLine
 62
7
  6
CONTINUOUS
 10
39.5855020904
 20
213.2329453344
 11
40.3824330673
 21
212.936143731
  0
LINE
  5
29A
100
AcDbEntity
  8
0
100
AcDbLine
 62
7
  6
CONTINUOUS
 10
40.8097105877
 20
228.4514389486
 11
64.4978863801
 21
214.7753736722
  0
LINE
  5
29B
100
AcDbEntity
  8
0
100
AcDbLine
 62
7
  6
CONTINUOUS
 10
40.8662788946
 20
228.4840984809
 11
64.5544546871
 21
214.8080332045
  0
LINE
  5
29C
100
AcDbEntity
  8
0
100
AcDbLine
 62
7
  6
CONTINUOUS
 10
28.8454135672
 20
239.8540015746
 11
161.0749321696
 21
163.5129804794
  0
LINE
  5
29D
100
AcDbEntity
  8
0
100
AcDbLine
 62
7
  6
CONTINUOUS
 10
161.0860643275
 20
163.639942789
 11
28.856545725
 21
239.9809638843
  0
LINE
  5
29E
100
AcDbEntity
  8
0
100
AcDbLine
 62
7
  6
CONTINUOUS
 10
28.9979664924
 20
240.8195329658
 11
161.2274850949
 21
164.4785118705
  0
LINE
  5
29F
100
AcDbEntity
  8
0
100
AcDbLine
 62
7
  6
CONTINUOUS
 10
161.7113256231
 20
164.6373204686
 11
29.4818070206
 21
240.9783415639
  0
LINE
  5
2A0
100
AcDbEntity
  8
0
100
AcDbLine
 62
7
  6
CONTINUOUS
 10
162.1355908671
 20
165.1704091186
 11
29.1989625425
 21
241.9196713142
  0
LINE
  5
2A1
100
AcDbEntity
  8
0
100
AcDbLine
 62
7
  6
CONTINUOUS
 10
162.3477237878
 20
165.8714305079
 11
28.9868296256
 21
242.8656368101
  0
LINE
  5
2A2
100
AcDbEntity
  8
0
100
AcDbLine
 62
7
  6
CONTINUOUS
 10
114.274820961
 20
202.4557779251
 11
113.9819464912
 21
202.864022079
  0
LINE
  5
2A3
100
AcDbEntity
  8
0
100
AcDbLine
 62
7
  6
CONTINUOUS
 10
148.9944880274
 20
151.6404895229
 11
149.1359087949
 21
150.9652181029
  0
LINE
  5
2A4
100
AcDbEntity
  8
0
100
AcDbLine
 62
7
  6
CONTINUOUS
 10
150.357107962
 20
149.2803756663
 11
150.357107962
 21
74.3254537738
  0
LINE
  5
2A5
100
AcDbEntity
  8
0
100
AcDbLine
 62
7
  6
CONTINUOUS
 10
150.4117179854
 20
153.3348369496
 11
150.4117179854
 21
158.2338514524
  0
LINE
  5
2A6
100
AcDbEntity
  8
0
100
AcDbLine
 62
7
  6
CONTINUOUS
 10
150.4503620325
 20
74.2585746392
 11
150.4503620325
 21
149.2137269698
  0
LINE
  5
2A7
100
AcDbEntity
  8
0
100
AcDbLine
 62
7
  6
CONTINUOUS
 10
150.4682862924
 20
158.2665109847
 11
150.4682862924
 21
153.3674964819
  0
LINE
  5
2A8
100
AcDbEntity
  8
0
100
AcDbLine
 62
7
  6
CONTINUOUS
 10
161.2274850949
 20
164.4785118705
 11
161.0860643275
 21
163.639942789
  0
LINE
  5
2A9
100
AcDbEntity
  8
0
100
AcDbLine
 62
7
  6
CONTINUOUS
 10
181.9204262092
 20
177.2043337469
 11
181.9680746295
 21
177.1906923729
  0
LINE
  5
2AA
100
AcDbEntity
  8
0
100
AcDbLine
 62
7
  6
CONTINUOUS
 10
33.7244253371
 20
246.0794851649
 11
167.0853194952
 21
169.085278865
  0
LINE
  5
2AB
100
AcDbEntity
  8
0
100
AcDbLine
 62
7
  6
CONTINUOUS
 10
113.9819464912
 20
202.864022079
 11
108.6079125806
 21
205.966651813
  0
LINE
  5
2AC
100
AcDbEntity
  8
0
100
AcDbLine
 62
7
  6
CONTINUOUS
 10
164.5576940828
 20
157.4806933816
 11
164.5576940828
 21
49.7023743206
  0
LINE
  5
2AD
100
AcDbEntity
  8
0
100
AcDbLine
 62
7
  6
CONTINUOUS
 10
164.6732124689
 20
49.6485353829
 11
164.6732124689
 21
157.426854444
  0
LINE
  5
2AE
100
AcDbEntity
  8
0
100
AcDbLine
 62
7
  6
CONTINUOUS
 10
165.4701434458
 20
157.1300528406
 11
165.4701434458
 21
49.3517337795
  0
LINE
  5
2AF
100
AcDbEntity
  8
0
100
AcDbLine
 62
7
  6
CONTINUOUS
 10
165.8495977457
 20
49.6913436249
 11
165.8495977457
 21
157.469662686
  0
LINE
  5
2B0
100
AcDbEntity
  8
0
100
AcDbLine
 62
7
  6
CONTINUOUS
 10
166.5233933941
 20
48.9757332688
 11
166.5233933943
 21
157.5705547469
  0
LINE
  5
2B1
100
AcDbEntity
  8
0
100
AcDbLine
 62
7
  6
CONTINUOUS
 10
167.2365573573
 20
48.3190464536
 11
167.2365573573
 21
157.4037693796
  0
LINE
  5
2B2
100
AcDbEntity
  8
0
100
AcDbLine
 62
7
  6
CONTINUOUS
 10
149.1359087949
 20
74.3772913761
 11
148.9944880274
 21
73.5387222946
  0
LINE
  5
2B3
100
AcDbEntity
  8
0
100
AcDbLine
 62
7
  6
CONTINUOUS
 10
186.5925307789
 20
171.5823596768
 11
186.8494328505
 21
171.9687069581
  0
LINE
  5
2B4
100
AcDbEntity
  8
0
100
AcDbLine
 62
7
  6
CONTINUOUS
 10
176.3512853144
 20
180.4013543156
 11
176.5375070522
 21
180.3257023257
  0
LINE
  5
2B5
100
AcDbEntity
  8
0
100
AcDbLine
 62
7
  6
CONTINUOUS
 10
124.5961884517
 20
205.4054866707
 11
121.0523757056
 21
207.1741366658
  0
LINE
  5
2B6
100
AcDbEntity
  8
0
100
AcDbLine
 62
7
  6
CONTINUOUS
 10
119.6381562553
 20
207.9906181748
 11
123.1819690014
 21
206.2219681798
  0
LWPOLYLINE
  5
2B7
100
AcDbEntity
  8
0
100
AcDbPolyline
 62
7
  6
CONTINUOUS
 90
4
 70
0
 10
174.8885421364
 20
181.2776763675
 10
174.8567413428
 20
181.293836009
 10
174.7798199467
 20
181.3168798459
 10
174.6766963265
 20
181.3176818293
  0
LINE
  5
2B8
100
AcDbEntity
  8
0
100
AcDbLine
 62
7
  6
CONTINUOUS
 10
119.4886678602
 20
204.1903215033
 11
120.9028873104
 21
203.3738399943
  0
LINE
  5
2B9
100
AcDbEntity
  8
0
100
AcDbLine
 62
7
  6
CONTINUOUS
 10
118.9310524181
 20
206.7658716038
 11
120.3452718684
 21
205.9493900948
  0
LINE
  5
2BA
100
AcDbEntity
  8
0
100
AcDbLine
 62
7
  6
CONTINUOUS
 10
118.9310524181
 20
207.582374021
 11
120.3452718684
 21
206.7658925119
  0
LINE
  5
2BB
100
AcDbEntity
  8
0
100
AcDbLine
 62
7
  6
CONTINUOUS
 10
121.0523757056
 20
207.1741366658
 11
119.6381562553
 21
207.9906181748
  0
LINE
  5
2BC
100
AcDbEntity
  8
0
100
AcDbLine
 62
7
  6
CONTINUOUS
 10
124.5961884517
 20
205.4054866707
 11
123.1819690014
 21
206.2219681798
  0
LINE
  5
2BD
100
AcDbEntity
  8
0
100
AcDbLine
 62
7
  6
CONTINUOUS
 10
52.8155826282
 20
247.7944002649
 11
180.9452010094
 21
173.8204041168
  0
LINE
  5
2BE
100
AcDbEntity
  8
0
100
AcDbLine
 62
7
  6
CONTINUOUS
 10
165.7079846484
 20
183.1866702801
 11
69.541065298
 21
238.7074145808
  0
LWPOLYLINE
  5
2BF
100
AcDbEntity
  8
0
100
AcDbPolyline
 62
7
  6
CONTINUOUS
 90
3
 70
0
 10
170.5607238695
 20
180.6859408657
 10
133.0596690459
 20
202.3451233928
 10
65.6159472343
 20
241.2744665742
  0
LINE
  5
2C0
100
AcDbEntity
  8
0
100
AcDbLine
 62
7
  6
CONTINUOUS
 10
172.3886424349
 20
159.899705073
 11
172.3886424349
 21
50.814982151
  0
LWPOLYLINE
  5
2C1
100
AcDbEntity
  8
0
100
AcDbPolyline
 62
7
  6
CONTINUOUS
 90
3
 70
0
 10
186.8052190299
 20
161.9299042958
 10
186.8223850306
 20
161.9664115443
 10
186.8494300844
 20
162.1061603426
  0
LINE
  5
2C2
100
AcDbEntity
  8
0
100
AcDbLine
 62
7
  6
CONTINUOUS
 10
183.912626344
 20
156.8932129111
 11
186.5924807677
 21
161.8776046911
  0
LINE
  5
2C3
100
AcDbEntity
  8
0
100
AcDbLine
 62
7
  6
CONTINUOUS
 10
186.8052776931
 20
161.9300124151
 11
184.1617704489
 21
157.0136554851
  0
LINE
  5
2C4
100
AcDbEntity
  8
0
100
AcDbLine
 62
7
  6
CONTINUOUS
 10
181.1347636467
 20
176.5607735503
 11
179.5669370468
 21
177.4659381822
  0
LINE
  5
2C5
100
AcDbEntity
  8
0
100
AcDbLine
 62
7
  6
CONTINUOUS
 10
58.2829959529
 20
247.4876701179
 11
59.8506772949
 21
246.5825893488
  0
LINE
  5
2C6
100
AcDbEntity
  8
0
100
AcDbLine
 62
7
  6
CONTINUOUS
 10
62.8938323976
 20
244.825662678
 11
64.4616313525
 21
243.9205140066
  0
LINE
  5
2C7
100
AcDbEntity
  8
0
100
AcDbLine
 62
7
  6
CONTINUOUS
 10
174.9561006021
 20
180.1279456221
 11
176.5237819441
 21
179.2228648529
  0
LINE
  5
2C8
100
AcDbEntity
  8
0
100
AcDbLine
 62
7
  6
CONTINUOUS
 10
174.6302193993
 20
181.1301116721
 11
175.6870775266
 21
180.5201077045
  0
LINE
  5
2C9
100
AcDbEntity
  8
0
100
AcDbLine
 62
7
  6
CONTINUOUS
 10
56.6009097852
 20
249.2729833089
 11
59.0139728773
 21
247.8798322003
  0
LINE
  5
2CA
100
AcDbEntity
  8
0
100
AcDbLine
 62
7
  6
CONTINUOUS
 10
181.8918633171
 20
176.937854287
 11
184.3049264038
 21
175.5447031816
  0
LINE
  5
2CB
100
AcDbEntity
  8
0
100
AcDbLine
 62
7
  6
CONTINUOUS
 10
184.7679106979
 20
175.5739840727
 11
181.9676350797
 21
177.19068738
  0
LINE
  5
2CC
100
AcDbEntity
  8
0
100
AcDbLine
 62
7
  6
CONTINUOUS
 10
176.5372746187
 20
180.3258365274
 11
174.8884754801
 21
181.2777496188
  0
LINE
  5
2CD
100
AcDbEntity
  8
0
100
AcDbLine
 62
7
  6
CONTINUOUS
 10
66.943143842
 20
243.5986060116
 11
65.2945304304
 21
244.5504118758
  0
LINE
  5
2CE
100
AcDbEntity
  8
0
100
AcDbLine
 62
7
  6
CONTINUOUS
 10
59.8641699694
 20
247.6855610232
 11
57.0638943472
 21
249.3022643329
  0
LINE
  5
2CF
100
AcDbEntity
  8
0
100
AcDbLine
 62
7
  6
CONTINUOUS
 10
65.2187584005
 20
244.2975786496
 11
66.2752901308
 21
243.6874205329
  0
LINE
  5
2D0
100
AcDbEntity
  8
0
100
AcDbLine
 62
7
  6
CONTINUOUS
 10
176.8399154563
 20
179.8068130359
 11
176.8418666757
 21
179.6783569652
  0
LINE
  5
2D1
100
AcDbEntity
  8
0
100
AcDbLine
 62
7
  6
CONTINUOUS
 10
176.7015647304
 20
179.3258710795
 11
176.7015570786
 21
179.4604231506
  0
LINE
  5
2D2
100
AcDbEntity
  8
0
100
AcDbLine
 62
7
  6
CONTINUOUS
 10
176.8418666757
 20
179.6783569652
 11
176.8418665643
 21
179.4068738975
  0
LINE
  5
2D3
100
AcDbEntity
  8
0
100
AcDbLine
 62
7
  6
CONTINUOUS
 10
183.4194169583
 20
169.534960181
 11
183.4194169583
 21
66.4908646645
  0
LINE
  5
2D4
100
AcDbEntity
  8
0
100
AcDbLine
 62
7
  6
CONTINUOUS
 10
183.9123963672
 20
102.8407105839
 11
183.9123700205
 21
153.2996692928
  0
LINE
  5
2D5
100
AcDbEntity
  8
0
100
AcDbLine
 62
7
  6
CONTINUOUS
 10
184.1726156849
 20
93.5147773521
 11
184.1732102309
 21
157.0136592203
  0
LINE
  5
2D6
100
AcDbEntity
  8
0
100
AcDbLine
 62
7
  6
CONTINUOUS
 10
59.864090502
 20
247.6858151172
 11
59.6781794947
 21
247.7610792191
  0
LINE
  5
2D7
100
AcDbEntity
  8
0
100
AcDbLine
 62
7
  6
CONTINUOUS
 10
186.5925807943
 20
171.5823917447
 11
186.5924807677
 21
161.8776046911
  0
LINE
  5
2D8
100
AcDbEntity
  8
0
100
AcDbLine
 62
7
  6
CONTINUOUS
 10
186.5925807111
 20
92.8568337652
 11
186.5925807111
 21
69.0296880999
  0
LINE
  5
2D9
100
AcDbEntity
  8
0
100
AcDbLine
 62
7
  6
CONTINUOUS
 10
186.8494328505
 20
69.4160033666
 11
186.8494328505
 21
93.2431491514
  0
LINE
  5
2DA
100
AcDbEntity
  8
0
100
AcDbLine
 62
7
  6
CONTINUOUS
 10
186.8494328505
 20
162.105351705
 11
186.8494328505
 21
171.9687069581
  0
LINE
  5
2DB
100
AcDbEntity
  8
0
100
AcDbLine
 62
7
  6
CONTINUOUS
 10
149.8330099605
 20
74.763430471
 11
149.7979394901
 21
74.7431826463
  0
LINE
  5
2DC
100
AcDbEntity
  8
0
100
AcDbLine
 62
7
  6
CONTINUOUS
 10
149.6197493231
 20
74.5360999742
 11
149.1359087949
 21
74.3772913761
  0
LINE
  5
2DD
100
AcDbEntity
  8
0
100
AcDbLine
 62
7
  6
CONTINUOUS
 10
64.8616158257
 20
241.4092826347
 11
65.6159351839
 21
241.2702959479
  0
LINE
  5
2DE
100
AcDbEntity
  8
0
100
AcDbLine
 62
7
  6
CONTINUOUS
 10
65.2473341992
 20
244.5640577993
 11
65.294971513
 21
244.5504168737
  0
LINE
  5
2DF
100
AcDbEntity
  8
0
100
AcDbLine
 62
7
  6
CONTINUOUS
 10
184.1692047772
 20
93.5166499159
 11
183.9125690555
 21
92.7713606763
  0
LINE
  5
2E0
100
AcDbEntity
  8
0
100
AcDbLine
 62
7
  6
CONTINUOUS
 10
65.1903972047
 20
244.5660523016
 11
65.2468968832
 21
244.5640731298
  0
LINE
  5
2E1
100
AcDbEntity
  8
0
100
AcDbLine
 62
7
  6
CONTINUOUS
 10
66.2752901297
 20
243.6874205095
 11
66.9428528086
 21
243.5987739447
  0
LINE
  5
2E2
100
AcDbEntity
  8
0
100
AcDbLine
 62
7
  6
CONTINUOUS
 10
65.1900041054
 20
244.5660660624
 11
65.2196374971
 21
244.5617894227
  0
LINE
  5
2E3
100
AcDbEntity
  8
0
100
AcDbLine
 62
7
  6
CONTINUOUS
 10
65.1322740438
 20
244.5535501157
 11
65.1900041054
 21
244.5660660624
  0
LINE
  5
2E4
100
AcDbEntity
  8
0
100
AcDbLine
 62
7
  6
CONTINUOUS
 10
65.2196374971
 20
244.5617894227
 11
65.2473341992
 21
244.5640577993
  0
LINE
  5
2E5
100
AcDbEntity
  8
0
100
AcDbLine
 62
7
  6
CONTINUOUS
 10
56.6009097862
 20
249.2729833083
 11
57.0638943472
 21
249.3022643329
  0
LINE
  5
2E6
100
AcDbEntity
  8
0
100
AcDbLine
 62
7
  6
CONTINUOUS
 10
186.8494328505
 20
69.4160033666
 11
186.5925807111
 21
69.0296880999
  0
LINE
  5
2E7
100
AcDbEntity
  8
0
100
AcDbLine
 62
7
  6
CONTINUOUS
 10
165.0496628737
 20
47.3292692148
 11
164.6500305425
 21
46.9300770049
  0
LINE
  5
2E8
100
AcDbEntity
  8
0
100
AcDbLine
 62
7
  6
CONTINUOUS
 10
165.8495977457
 20
49.6913436249
 11
165.4701434458
 21
49.3517337795
  0
LINE
  5
2E9
100
AcDbEntity
  8
0
100
AcDbLine
 62
7
  6
CONTINUOUS
 10
185.9813638893
 20
67.5851852388
 11
183.2193368893
 21
65.7448865028
  0
LINE
  5
2EA
100
AcDbEntity
  8
0
100
AcDbLine
 62
7
  6
CONTINUOUS
 10
186.5925807111
 20
69.0296880999
 11
183.4194169583
 21
66.9950280972
  0
LINE
  5
2EB
100
AcDbEntity
  8
0
100
AcDbLine
 62
7
  6
CONTINUOUS
 10
172.3886424349
 20
59.4814719245
 11
183.4194169583
 21
66.4907878435
  0
LINE
  5
2EC
100
AcDbEntity
  8
0
100
AcDbLine
 62
7
  6
CONTINUOUS
 10
182.7355991958
 20
64.9135126307
 11
172.3886424349
 21
58.3620404381
  0
LINE
  5
2ED
100
AcDbEntity
  8
0
100
AcDbLine
 62
7
  6
CONTINUOUS
 10
27.036297175
 20
241.466586204
 11
26.4907696573
 21
241.3200933781
  0
LINE
  5
2EE
100
AcDbEntity
  8
0
100
AcDbLine
 62
7
  6
CONTINUOUS
 10
172.3886424349
 20
50.8149821504
 11
167.2365573573
 21
48.3190464541
  0
LINE
  5
2EF
100
AcDbEntity
  8
0
100
AcDbLine
 62
7
  6
CONTINUOUS
 10
165.5841354847
 20
45.0419892548
 11
170.596123484
 21
47.2600866191
  0
ARC
  5
2F0
100
AcDbEntity
  8
0
100
AcDbCircle
 62
7
  6
CONTINUOUS
 10
-84.1779448165
 20
561.7112927806
 40
349.3516998934
100
AcDbArc
 50
294.4004983356
 51
294.8967815753
  0
ARC
  5
2F1
100
AcDbEntity
  8
0
100
AcDbCircle
 62
7
  6
CONTINUOUS
 10
171.9569033831
 20
177.0775275461
 40
9.9359416358
100
AcDbArc
 50
359.1945454222
 51
359.8919500332
  0
ARC
  5
2F2
100
AcDbEntity
  8
0
100
AcDbCircle
 62
7
  6
CONTINUOUS
 10
32.4640145889
 20
128.4993408344
 40
6.9423158628
100
AcDbArc
 50
236.3085778516
 51
239.9425464405
  0
ARC
  5
2F3
100
AcDbEntity
  8
0
100
AcDbCircle
 62
7
  6
CONTINUOUS
 10
30.898059803
 20
130.9606310029
 40
6.8000641612
100
AcDbArc
 50
180.0199454865
 51
183.7297607868
  0
ARC
  5
2F4
100
AcDbEntity
  8
0
100
AcDbCircle
 62
7
  6
CONTINUOUS
 10
158.3185982603
 20
159.4429860699
 40
5.8153368523
100
AcDbArc
 50
57.7507971127
 51
59.9861375379
  0
ARC
  5
2F5
100
AcDbEntity
  8
0
100
AcDbCircle
 62
7
  6
CONTINUOUS
 10
160.7090583279
 20
157.5706389763
 40
5.8143349158
100
AcDbArc
 50
0.0002803136
 51
0.3100643269
  0
ARC
  5
2F6
100
AcDbEntity
  8
0
100
AcDbCircle
 62
7
  6
CONTINUOUS
 10
163.3403242736
 20
51.4786418459
 40
4.5056743127
100
AcDbArc
 50
239.9791061409
 51
244.4293045276
  0
ARC
  5
2F7
100
AcDbEntity
  8
0
100
AcDbCircle
 62
7
  6
CONTINUOUS
 10
175.6273694674
 20
178.1637525595
 40
2.3571114996
100
AcDbArc
 50
82.5979965083
 51
88.5484837029
  0
ARC
  5
2F8
100
AcDbEntity
  8
0
100
AcDbCircle
 62
7
  6
CONTINUOUS
 10
58.9542648766
 20
245.5234782609
 40
2.357110293
100
AcDbArc
 50
82.5980029852
 51
88.5484843815
  0
ARC
  5
2F9
100
AcDbEntity
  8
0
100
AcDbCircle
 62
7
  6
CONTINUOUS
 10
27.2486392601
 20
238.3791429658
 40
2.0906440753
100
AcDbArc
 50
92.5586328714
 51
94.226935335
  0
ARC
  5
2FA
100
AcDbEntity
  8
0
100
AcDbCircle
 62
7
  6
CONTINUOUS
 10
162.5139958862
 20
49.0352903451
 40
2.0520754055
100
AcDbArc
 50
323.669095694
 51
327.1002487215
  0
ARC
  5
2FB
100
AcDbEntity
  8
0
100
AcDbCircle
 62
7
  6
CONTINUOUS
 10
27.2807233281
 20
238.3457675666
 40
1.9826817115
100
AcDbArc
 50
94.4871840273
 51
95.1628912395
  0
ARC
  5
2FC
100
AcDbEntity
  8
0
100
AcDbCircle
 62
7
  6
CONTINUOUS
 10
162.4691948642
 20
49.10135848
 40
1.9826597237
100
AcDbArc
 50
324.8355683953
 51
325.512252013
  0
ARC
  5
2FD
100
AcDbEntity
  8
0
100
AcDbCircle
 62
7
  6
CONTINUOUS
 10
27.2384358862
 20
238.4971696274
 40
1.9721869457
100
AcDbArc
 50
94.1840482009
 51
101.0671318471
  0
ARC
  5
2FE
100
AcDbEntity
  8
0
100
AcDbCircle
 62
7
  6
CONTINUOUS
 10
162.6050104768
 20
48.9681290498
 40
1.9389636938
100
AcDbArc
 50
318.8438132897
 51
323.6745428799
  0
ARC
  5
2FF
100
AcDbEntity
  8
0
100
AcDbCircle
 62
7
  6
CONTINUOUS
 10
27.2733866331
 20
238.4178843218
 40
1.9101975056
100
AcDbArc
 50
95.1383760231
 51
100.1729700369
  0
ARC
  5
300
100
AcDbEntity
  8
0
100
AcDbCircle
 62
7
  6
CONTINUOUS
 10
162.5279772141
 20
49.0589475925
 40
1.910179688
100
AcDbArc
 50
319.8267931967
 51
324.860067958
  0
ARC
  5
301
100
AcDbEntity
  8
0
100
AcDbCircle
 62
7
  6
CONTINUOUS
 10
148.5945266591
 20
74.3253796208
 40
1.7625813045
100
AcDbArc
 50
358.9170744752
 51
0.002410472
  0
ARC
  5
302
100
AcDbEntity
  8
0
100
AcDbCircle
 62
7
  6
CONTINUOUS
 10
58.4910484388
 20
247.5187297502
 40
1.6886764005
100
AcDbArc
 50
335.5633932733
 51
339.7394660098
  0
ARC
  5
303
100
AcDbEntity
  8
0
100
AcDbCircle
 62
7
  6
CONTINUOUS
 10
175.1646131585
 20
180.1588159766
 40
1.6881792509
100
AcDbArc
 50
335.5647082009
 51
339.7400853893
  0
ARC
  5
304
100
AcDbEntity
  8
0
100
AcDbCircle
 62
7
  6
CONTINUOUS
 10
175.5567199965
 20
179.2905847793
 40
1.3657022369
100
AcDbArc
 50
42.9384656809
 51
54.4227715706
  0
ARC
  5
305
100
AcDbEntity
  8
0
100
AcDbCircle
 62
7
  6
CONTINUOUS
 10
58.8836159459
 20
246.650308928
 40
1.3657019707
100
AcDbArc
 50
42.9385272112
 51
54.4228509359
  0
ARC
  5
306
100
AcDbEntity
  8
0
100
AcDbCircle
 62
7
  6
CONTINUOUS
 10
185.8494328505
 20
93.2431491514
 40
1.0
100
AcDbArc
 50
0.00000016
 51
60.02534273
  0
ARC
  5
307
100
AcDbEntity
  8
0
100
AcDbCircle
 62
7
  6
CONTINUOUS
 10
66.4291387103
 20
242.6786784633
 40
0.9830105126
100
AcDbArc
 50
55.5986429499
 51
59.268459273
  0
ARC
  5
308
100
AcDbEntity
  8
0
100
AcDbCircle
 62
7
  6
CONTINUOUS
 10
150.2412683004
 20
75.5105011514
 40
0.886181766
100
AcDbArc
 50
239.9822355245
 51
243.0292102648
  0
ARC
  5
309
100
AcDbEntity
  8
0
100
AcDbCircle
 62
7
  6
CONTINUOUS
 10
66.49872619
 20
242.8928896483
 40
0.8253299187
100
AcDbArc
 50
359.6970113815
 51
1.3647064527
  0
SPLINE
  5
30A
100
AcDbEntity
  8
0
100
AcDbSpline
 62
7
  6
CONTINUOUS
 70
0
 71
3
 72
11
 73
7
 74
0
 42
0.0000001
 43
0.0000001
 44
0.0000000001
 40
0.0
 40
0.0
 40
0.0
 40
0.0
 40
0.2472457358
 40
0.493902662
 40
0.7437558974
 40
1.0
 40
1.0
 40
1.0
 40
1.0
 10
185.981364331
 20
67.5851855333
 30
0.0
 10
186.1258492492
 20
67.6814538128
 30
0.0
 10
186.3871144039
 20
67.9186527303
 30
0.0
 10
186.6615869413
 20
68.3699759787
 30
0.0
 10
186.8190548031
 20
68.8793904544
 30
0.0
 10
186.8494328505
 20
69.2360658532
 30
0.0
 10
186.8494328505
 20
69.4160033666
 30
0.0
  0
SPLINE
  5
30B
100
AcDbEntity
  8
0
100
AcDbSpline
 62
7
  6
CONTINUOUS
 70
0
 71
3
 72
10
 73
6
 74
0
 42
0.0000001
 43
0.0000001
 44
0.0000000001
 40
0.0
 40
0.0
 40
0.0
 40
0.0
 40
0.5045192883
 40
0.7522209253
 40
1.0
 40
1.0
 40
1.0
 40
1.0
 10
57.0638943477
 20
249.3022643326
 30
0.0
 10
56.7582082186
 20
249.4787483095
 30
0.0
 10
56.24406169
 20
249.6676035033
 30
0.0
 10
55.5374871433
 20
249.650431557
 30
0.0
 10
55.2014599405
 20
249.5432233309
 30
0.0
 10
55.0459466751
 20
249.4666294092
 30
0.0
  0
SPLINE
  5
30C
100
AcDbEntity
  8
0
100
AcDbSpline
 62
7
  6
CONTINUOUS
 70
0
 71
3
 72
14
 73
10
 74
0
 42
0.0000001
 43
0.0000001
 44
0.0000000001
 40
0.0
 40
0.0
 40
0.0
 40
0.0
 40
0.0869537643
 40
0.1839778958
 40
0.2963866188
 40
0.4243766725
 40
0.5646146507
 40
0.7117133931
 40
1.0
 40
1.0
 40
1.0
 40
1.0
 10
61.2158204703
 20
247.3709718752
 30
0.0
 10
61.3469647659
 20
247.4466908242
 30
0.0
 10
61.6657883558
 20
247.5410940201
 30
0.0
 10
62.1881916244
 20
247.4781974813
 30
0.0
 10
62.7320562007
 20
247.2398751304
 30
0.0
 10
63.2697595155
 20
246.8452151621
 30
0.0
 10
63.7712489092
 20
246.3190586142
 30
0.0
 10
64.3441360978
 20
245.4941412069
 30
0.0
 10
64.6422843898
 20
244.7791261873
 30
0.0
 10
64.7509061671
 20
244.2889535187
 30
0.0
  0
SPLINE
  5
30D
100
AcDbEntity
  8
0
100
AcDbSpline
 62
7
  6
CONTINUOUS
 70
0
 71
3
 72
14
 73
10
 74
0
 42
0.0000001
 43
0.0000001
 44
0.0000000001
 40
0.0
 40
0.0
 40
0.0
 40
0.0
 40
0.0869537643
 40
0.1839778958
 40
0.2963866188
 40
0.4243766725
 40
0.5646146507
 40
0.7117133931
 40
1.0
 40
1.0
 40
1.0
 40
1.0
 10
177.8889251195
 20
180.0112473793
 30
0.0
 10
178.0200694151
 20
180.0869663284
 30
0.0
 10
178.338893005
 20
180.1813695243
 30
0.0
 10
178.8612962736
 20
180.1184729854
 30
0.0
 10
179.40516085
 20
179.8801506345
 30
0.0
 10
179.9428641647
 20
179.4854906662
 30
0.0
 10
180.4443535585
 20
178.9593341184
 30
0.0
 10
181.0172407471
 20
178.1344167111
 30
0.0
 10
181.3153890391
 20
177.4194016915
 30
0.0
 10
181.4240108163
 20
176.9292290229
 30
0.0
  0
SPLINE
  5
30E
100
AcDbEntity
  8
0
100
AcDbSpline
 62
7
  6
CONTINUOUS
 70
0
 71
3
 72
9
 73
5
 74
0
 42
0.0000001
 43
0.0000001
 44
0.0000000001
 40
0.0
 40
0.0
 40
0.0
 40
0.0
 40
0.494219488
 40
1.0
 40
1.0
 40
1.0
 40
1.0
 10
176.5372914711
 20
180.3257521206
 30
0.0
 10
176.6253270515
 20
180.2749909314
 30
0.0
 10
176.7829484732
 20
180.1271317549
 30
0.0
 10
176.8387660596
 20
179.9170011168
 30
0.0
 10
176.8397275152
 20
179.8130067178
 30
0.0
  0
SPLINE
  5
30F
100
AcDbEntity
  8
0
100
AcDbSpline
 62
7
  6
CONTINUOUS
 70
0
 71
3
 72
9
 73
5
 74
0
 42
0.0000001
 43
0.0000001
 44
0.0000000001
 40
0.0
 40
0.0
 40
0.0
 40
0.0
 40
0.2454585439
 40
1.0
 40
1.0
 40
1.0
 40
1.0
 10
51.1077588075
 20
247.9907897261
 30
0.0
 10
51.1432886764
 20
248.0094016034
 30
0.0
 10
51.2918943533
 20
248.0777832066
 30
0.0
 10
51.4543219327
 20
248.1147618943
 30
0.0
 10
51.5771184915
 20
248.1258591259
 30
0.0
  0
SPLINE
  5
310
100
AcDbEntity
  8
0
100
AcDbSpline
 62
7
  6
CONTINUOUS
 70
0
 71
3
 72
9
 73
5
 74
0
 42
0.0000001
 43
0.0000001
 44
0.0000000001
 40
0.0
 40
0.0
 40
0.0
 40
0.0
 40
0.2244694803
 40
1.0
 40
1.0
 40
1.0
 40
1.0
 10
51.5771184915
 20
248.1258591259
 30
0.0
 10
51.6735513476
 20
248.1345738468
 30
0.0
 10
52.1075161924
 20
248.1285901288
 30
0.0
 10
52.5258710009
 20
247.961661567
 30
0.0
 10
52.8155826282
 20
247.7944002649
 30
0.0
  0
SPLINE
  5
311
100
AcDbEntity
  8
0
100
AcDbSpline
 62
7
  6
CONTINUOUS
 70
0
 71
3
 72
8
 73
4
 74
0
 42
0.0000001
 43
0.0000001
 44
0.0000000001
 40
0.0
 40
0.0
 40
0.0
 40
0.0
 40
1.0
 40
1.0
 40
1.0
 40
1.0
 10
149.7244550584
 20
74.4835772728
 30
0.0
 10
149.6885330413
 20
74.4988830573
 30
0.0
 10
149.653565099
 20
74.5165768686
 30
0.0
 10
149.6197493231
 20
74.5360999742
 30
0.0
  0
SPLINE
  5
312
100
AcDbEntity
  8
0
100
AcDbSpline
 62
7
  6
CONTINUOUS
 70
0
 71
3
 72
9
 73
5
 74
0
 42
0.0000001
 43
0.0000001
 44
0.0000000001
 40
0.0
 40
0.0
 40
0.0
 40
0.0
 40
0.4932472872
 40
1.0
 40
1.0
 40
1.0
 40
1.0
 10
40.5191361409
 20
213.339728161
 30
0.0
 10
40.5486775849
 20
213.3692429922
 30
0.0
 10
40.620225977
 20
213.4187353528
 30
0.0
 10
40.704932601
 20
213.4374077193
 30
0.0
 10
40.7477561572
 20
213.4400089649
 30
0.0
  0
SPLINE
  5
313
100
AcDbEntity
  8
0
100
AcDbSpline
 62
7
  6
CONTINUOUS
 70
0
 71
3
 72
9
 73
5
 74
0
 42
0.0000001
 43
0.0000001
 44
0.0000000001
 40
0.0
 40
0.0
 40
0.0
 40
0.0
 40
0.2254289054
 40
1.0
 40
1.0
 40
1.0
 40
1.0
 10
40.7477561572
 20
213.4400089649
 30
0.0
 10
40.7746007762
 20
213.4416395965
 30
0.0
 10
40.8944644496
 20
213.4370492532
 30
0.0
 10
41.0095148297
 20
213.3906085142
 30
0.0
 10
41.0895427924
 20
213.3444053936
 30
0.0
  0
SPLINE
  5
314
100
AcDbEntity
  8
0
100
AcDbSpline
 62
7
  6
CONTINUOUS
 70
0
 71
3
 72
11
 73
7
 74
0
 42
0.0000001
 43
0.0000001
 44
0.0000000001
 40
0.0
 40
0.0
 40
0.0
 40
0.0
 40
0.217745073
 40
0.4508830113
 40
0.7104597664
 40
1.0
 40
1.0
 40
1.0
 40
1.0
 10
39.809771018
 20
228.5503905936
 30
0.0
 10
39.7438107287
 20
228.5123085986
 30
0.0
 10
39.6202741997
 20
228.4086899151
 30
0.0
 10
39.4888613782
 20
228.1937274797
 30
0.0
 10
39.4109551163
 20
227.928905887
 30
0.0
 10
39.3954911374
 20
227.7361928839
 30
0.0
 10
39.3954911374
 20
227.6349156234
 30
0.0
  0
SPLINE
  5
315
100
AcDbEntity
  8
0
100
AcDbSpline
 62
7
  6
CONTINUOUS
 70
0
 71
3
 72
11
 73
7
 74
0
 42
0.0000001
 43
0.0000001
 44
0.0000000001
 40
0.0
 40
0.0
 40
0.0
 40
0.0
 40
0.217745073
 40
0.4508830113
 40
0.7104597664
 40
1.0
 40
1.0
 40
1.0
 40
1.0
 10
137.7444679508
 20
166.7017803812
 30
0.0
 10
137.6785076615
 20
166.6636983862
 30
0.0
 10
137.5549711325
 20
166.5600797027
 30
0.0
 10
137.4235583111
 20
166.3451172673
 30
0.0
 10
137.3456520491
 20
166.0802956746
 30
0.0
 10
137.3301880702
 20
165.8875826715
 30
0.0
 10
137.3301880702
 20
165.786305411
 30
0.0
  0
SPLINE
  5
316
100
AcDbEntity
  8
0
100
AcDbSpline
 62
7
  6
CONTINUOUS
 70
0
 71
3
 72
11
 73
7
 74
0
 42
0.0000001
 43
0.0000001
 44
0.0000000001
 40
0.0
 40
0.0
 40
0.0
 40
0.0
 40
0.2209405583
 40
0.4500096192
 40
0.7066872367
 40
1.0
 40
1.0
 40
1.0
 40
1.0
 10
26.490808393
 20
241.3200099624
 30
0.0
 10
26.2293979738
 20
241.2497881144
 30
0.0
 10
25.7183887902
 20
240.9976878269
 30
0.0
 10
25.1512746594
 20
240.3160067396
 30
0.0
 10
24.8185292035
 20
239.4066383265
 30
0.0
 10
24.7553081415
 20
238.7293052396
 30
0.0
 10
24.7553081415
 20
238.3699629902
 30
0.0
  0
SPLINE
  5
317
100
AcDbEntity
  8
0
100
AcDbSpline
 62
7
  6
CONTINUOUS
 70
0
 71
3
 72
11
 73
7
 74
0
 42
0.0000001
 43
0.0000001
 44
0.0000000001
 40
0.0
 40
0.0
 40
0.0
 40
0.0
 40
0.2196533853
 40
0.4568529964
 40
0.7166183201
 40
1.0
 40
1.0
 40
1.0
 40
1.0
 10
27.0363349576
 20
241.4665048407
 30
0.0
 10
27.2169167371
 20
241.5150139487
 30
0.0
 10
27.6074048654
 20
241.5650048028
 30
0.0
 10
28.2183590081
 20
241.5006336955
 30
0.0
 10
28.8565125424
 20
241.3043297567
 30
0.0
 10
29.2728914738
 20
241.0989562824
 30
0.0
 10
29.4818070206
 20
240.9783415639
 30
0.0
  0
SPLINE
  5
318
100
AcDbEntity
  8
0
100
AcDbSpline
 62
7
  6
CONTINUOUS
 70
0
 71
3
 72
11
 73
7
 74
0
 42
0.0000001
 43
0.0000001
 44
0.0000000001
 40
0.0
 40
0.0
 40
0.0
 40
0.0
 40
0.2177848824
 40
0.4509122254
 40
0.7102974332
 40
1.0
 40
1.0
 40
1.0
 40
1.0
 10
26.0963464861
 20
242.2269789787
 30
0.0
 10
26.3010272597
 20
242.3451506156
 30
0.0
 10
26.7713112208
 20
242.515822063
 30
0.0
 10
27.5524449034
 20
242.5356117431
 30
0.0
 10
28.3849539016
 20
242.3345867773
 30
0.0
 10
28.9265914053
 20
242.0769211324
 30
0.0
 10
29.1988636216
 20
241.9197282511
 30
0.0
  0
SPLINE
  5
319
100
AcDbEntity
  8
0
100
AcDbSpline
 62
7
  6
CONTINUOUS
 70
0
 71
3
 72
11
 73
7
 74
0
 42
0.0000001
 43
0.0000001
 44
0.0000000001
 40
0.0
 40
0.0
 40
0.0
 40
0.0
 40
0.21839068
 40
0.4498880895
 40
0.7084031982
 40
1.0
 40
1.0
 40
1.0
 40
1.0
 10
29.749646885
 20
246.3045046489
 30
0.0
 10
29.9966320207
 20
246.4847451251
 30
0.0
 10
30.5807658457
 20
246.7626223406
 30
0.0
 10
31.5865353026
 20
246.8451045773
 30
0.0
 10
32.6681820493
 20
246.6132653103
 30
0.0
 10
33.3708676016
 20
246.283607201
 30
0.0
 10
33.7244253371
 20
246.0794851649
 30
0.0
  0
SPLINE
  5
31A
100
AcDbEntity
  8
0
100
AcDbSpline
 62
7
  6
CONTINUOUS
 70
0
 71
3
 72
11
 73
7
 74
0
 42
0.0000001
 43
0.0000001
 44
0.0000000001
 40
0.0
 40
0.0
 40
0.0
 40
0.0
 40
0.2179925721
 40
0.4527845926
 40
0.7125786449
 40
1.0
 40
1.0
 40
1.0
 40
1.0
 10
25.3227357588
 20
243.0730227439
 30
0.0
 10
25.1242387347
 20
242.9280391853
 30
0.0
 10
24.758765306
 20
242.5585187678
 30
0.0
 10
24.3734096716
 20
241.8437449409
 30
0.0
 10
24.143799965
 20
240.9858348898
 30
0.0
 10
24.0979960539
 20
240.3670817614
 30
0.0
 10
24.0979960539
 20
240.0429867304
 30
0.0
  0
SPLINE
  5
31B
100
AcDbEntity
  8
0
100
AcDbSpline
 62
7
  6
CONTINUOUS
 70
0
 71
3
 72
11
 73
7
 74
0
 42
0.0000001
 43
0.0000001
 44
0.0000000001
 40
0.0
 40
0.0
 40
0.0
 40
0.0
 40
0.2429854048
 40
0.5000131077
 40
0.7570345964
 40
1.0
 40
1.0
 40
1.0
 40
1.0
 10
186.8494328505
 20
171.9687069581
 30
0.0
 10
186.8494328505
 20
172.3188222928
 30
0.0
 10
186.7290060779
 20
173.0408899492
 30
0.0
 10
186.2878891958
 20
174.0480799619
 30
0.0
 10
185.6361900406
 20
174.933653455
 30
0.0
 10
185.0710962277
 20
175.3989437867
 30
0.0
 10
184.7679106968
 20
175.5739840734
 30
0.0
  0
SPLINE
  5
31C
100
AcDbEntity
  8
0
100
AcDbSpline
 62
7
  6
CONTINUOUS
 70
0
 71
3
 72
9
 73
5
 74
0
 42
0.0000001
 43
0.0000001
 44
0.0000000001
 40
0.0
 40
0.0
 40
0.0
 40
0.0
 40
0.2796265571
 40
1.0
 40
1.0
 40
1.0
 40
1.0
 10
183.4194169583
 20
66.4908646645
 30
0.0
 10
183.4194169592
 20
66.370405326
 30
0.0
 10
183.3965099572
 20
65.9416619781
 30
0.0
 10
183.2659968229
 20
65.5062836259
 30
0.0
 10
183.0872932414
 20
65.2525752087
 30
0.0
  0
SPLINE
  5
31D
100
AcDbEntity
  8
0
100
AcDbSpline
 62
7
  6
CONTINUOUS
 70
0
 71
3
 72
9
 73
5
 74
0
 42
0.0000001
 43
0.0000001
 44
0.0000000001
 40
0.0
 40
0.0
 40
0.0
 40
0.0
 40
0.2572901724
 40
1.0
 40
1.0
 40
1.0
 40
1.0
 10
183.0872932414
 20
65.2525752087
 30
0.0
 10
183.0630802357
 20
65.2181996058
 30
0.0
 10
182.963109017
 20
65.0888704055
 30
0.0
 10
182.8381132259
 20
64.9784984509
 30
0.0
 10
182.7355785699
 20
64.9135471931
 30
0.0
  0
SPLINE
  5
31E
100
AcDbEntity
  8
0
100
AcDbSpline
 62
7
  6
CONTINUOUS
 70
0
 71
3
 72
11
 73
7
 74
0
 42
0.0000001
 43
0.0000001
 44
0.0000000001
 40
0.0
 40
0.0
 40
0.0
 40
0.0
 40
0.23723507
 40
0.4999989576
 40
0.7627624178
 40
1.0
 40
1.0
 40
1.0
 40
1.0
 10
180.9452010094
 20
173.8204041168
 30
0.0
 10
181.2964288
 20
173.6175390979
 30
0.0
 10
181.9612930406
 20
173.0582674815
 30
0.0
 10
182.7370937992
 20
171.9979901997
 30
0.0
 10
183.2673763532
 20
170.7959975987
 30
0.0
 10
183.4194169584
 20
169.9405691812
 30
0.0
 10
183.4194169583
 20
169.534960181
 30
0.0
  0
SPLINE
  5
31F
100
AcDbEntity
  8
0
100
AcDbSpline
 62
7
  6
CONTINUOUS
 70
0
 71
3
 72
13
 73
9
 74
0
 42
0.0000001
 43
0.0000001
 44
0.0000000001
 40
0.0
 40
0.0
 40
0.0
 40
0.0
 40
0.1142484259
 40
0.2375469717
 40
0.4999989156
 40
0.762451453
 40
0.8857506921
 40
1.0
 40
1.0
 40
1.0
 40
1.0
 10
167.0853194952
 20
169.085278865
 30
0.0
 10
167.4483480472
 20
168.8756889744
 30
0.0
 10
168.1655368433
 20
168.3729737621
 30
0.0
 10
169.5081420298
 20
167.1163516473
 30
0.0
 10
170.9263378686
 20
165.1791833069
 30
0.0
 10
171.8948878019
 20
162.9824078317
 30
0.0
 10
172.3118650226
 20
161.1913615509
 30
0.0
 10
172.388642435
 20
160.318895203
 30
0.0
 10
172.3886424349
 20
159.899705073
 30
0.0
  0
SPLINE
  5
320
100
AcDbEntity
  8
0
100
AcDbSpline
 62
7
  6
CONTINUOUS
 70
0
 71
3
 72
11
 73
7
 74
0
 42
0.0000001
 43
0.0000001
 44
0.0000000001
 40
0.0
 40
0.0
 40
0.0
 40
0.0
 40
0.2915978443
 40
0.5501133293
 40
0.7816103053
 40
1.0
 40
1.0
 40
1.0
 40
1.0
 10
172.3886424349
 20
50.814982151
 30
0.0
 10
172.388642435
 20
50.4067194791
 30
0.0
 10
172.3227975878
 20
49.6333248694
 30
0.0
 10
171.982752997
 20
48.5806409434
 30
0.0
 10
171.4084274618
 20
47.7508369329
 30
0.0
 10
170.8756991983
 20
47.3838929899
 30
0.0
 10
170.5961074257
 20
47.2601167343
 30
0.0
  0
SPLINE
  5
321
100
AcDbEntity
  8
0
100
AcDbSpline
 62
7
  6
CONTINUOUS
 70
0
 71
3
 72
11
 73
7
 74
0
 42
0.0000001
 43
0.0000001
 44
0.0000000001
 40
0.0
 40
0.0
 40
0.0
 40
0.0
 40
0.2874204079
 40
0.547214043
 40
0.7820064538
 40
1.0
 40
1.0
 40
1.0
 40
1.0
 10
162.347723786
 20
45.4963963737
 30
0.0
 10
162.6283909253
 20
45.3343567909
 30
0.0
 10
163.1871338356
 20
45.0646611657
 30
0.0
 10
164.0448866107
 20
44.8345676997
 30
0.0
 10
164.8565543191
 20
44.8109130172
 30
0.0
 10
165.3592919663
 20
44.9426579507
 30
0.0
 10
165.5840949871
 20
45.0420660764
 30
0.0
  0
SPLINE
  5
322
100
AcDbEntity
  8
0
100
AcDbSpline
 62
7
  6
CONTINUOUS
 70
0
 71
3
 72
11
 73
7
 74
0
 42
0.0000001
 43
0.0000001
 44
0.0000000001
 40
0.0
 40
0.0
 40
0.0
 40
0.0
 40
0.2396285564
 40
0.5000006541
 40
0.7603723917
 40
1.0
 40
1.0
 40
1.0
 40
1.0
 10
24.1123984223
 20
130.5182824734
 30
0.0
 10
24.1598016074
 20
129.7799568699
 30
0.0
 10
24.4867031881
 20
128.252041875
 30
0.0
 10
25.4610713634
 20
126.1001243177
 30
0.0
 10
26.8375043971
 20
124.1803428524
 30
0.0
 10
27.9972673327
 20
123.1332864378
 30
0.0
 10
28.6129740504
 20
122.7230759245
 30
0.0
  0
SPLINE
  5
323
100
AcDbEntity
  8
0
100
AcDbSpline
 62
7
  6
CONTINUOUS
 70
0
 71
3
 72
11
 73
7
 74
0
 42
0.0000001
 43
0.0000001
 44
0.0000000001
 40
0.0
 40
0.0
 40
0.0
 40
0.0
 40
0.2897039084
 40
0.5490902965
 40
0.7822170897
 40
1.0
 40
1.0
 40
1.0
 40
1.0
 10
166.5233932437
 20
48.9757026335
 30
0.0
 10
166.5233932437
 20
48.6612932712
 30
0.0
 10
166.4757313907
 20
48.0633535599
 30
0.0
 10
166.2335801359
 20
47.2418136644
 30
0.0
 10
165.8258666323
 20
46.5751837064
 30
0.0
 10
165.4429011349
 20
46.2532235629
 30
0.0
 10
165.2382112191
 20
46.1350467679
 30
0.0
  0
SPLINE
  5
324
100
AcDbEntity
  8
0
100
AcDbSpline
 62
7
  6
CONTINUOUS
 70
0
 71
3
 72
11
 73
7
 74
0
 42
0.0000001
 43
0.0000001
 44
0.0000000001
 40
0.0
 40
0.0
 40
0.0
 40
0.0
 40
0.2370530095
 40
0.4996030521
 40
0.7623669576
 40
1.0
 40
1.0
 40
1.0
 40
1.0
 10
162.1356934502
 20
165.1703500673
 30
0.0
 10
162.7560049151
 20
164.8122211784
 30
0.0
 10
163.9303949108
 20
163.8251732741
 30
0.0
 10
165.3032851041
 20
161.9543977572
 30
0.0
 10
166.2451247638
 20
159.8317082539
 30
0.0
 10
166.5194259477
 20
158.3201159704
 30
0.0
 10
166.523308105
 20
157.6021039299
 30
0.0
  0
SPLINE
  5
325
100
AcDbEntity
  8
0
100
AcDbSpline
 62
7
  6
CONTINUOUS
 70
0
 71
3
 72
11
 73
7
 74
0
 42
0.0000001
 43
0.0000001
 44
0.0000000001
 40
0.0
 40
0.0
 40
0.0
 40
0.0
 40
0.2372367421
 40
0.4999989081
 40
0.7627616684
 40
1.0
 40
1.0
 40
1.0
 40
1.0
 10
161.7113256231
 20
164.6373204686
 30
0.0
 10
162.2988367903
 20
164.2981284116
 30
0.0
 10
163.4106442558
 20
163.3624208447
 30
0.0
 10
164.7082800005
 20
161.5891801258
 30
0.0
 10
165.5951445824
 20
159.578774082
 30
0.0
 10
165.8495977457
 20
158.1480628557
 30
0.0
 10
165.8495977457
 20
157.469662686
 30
0.0
  0
SPLINE
  5
326
100
AcDbEntity
  8
0
100
AcDbSpline
 62
7
  6
CONTINUOUS
 70
0
 71
3
 72
11
 73
7
 74
0
 42
0.0000001
 43
0.0000001
 44
0.0000000001
 40
0.0
 40
0.0
 40
0.0
 40
0.0
 40
0.2833825873
 40
0.5431482336
 40
0.7803475033
 40
1.0
 40
1.0
 40
1.0
 40
1.0
 10
165.8495977457
 20
49.6913436249
 30
0.0
 10
165.8495977457
 20
49.4501015499
 30
0.0
 10
165.8192701615
 20
48.986803782
 30
0.0
 10
165.6701973024
 20
48.3359717615
 30
0.0
 10
165.4204617524
 20
47.7746658446
 30
0.0
 10
165.1819167075
 20
47.4614795275
 30
0.0
 10
165.0496112997
 20
47.3293426218
 30
0.0
  0
SPLINE
  5
327
100
AcDbEntity
  8
0
100
AcDbSpline
 62
7
  6
CONTINUOUS
 70
0
 71
3
 72
11
 73
7
 74
0
 42
0.0000001
 43
0.0000001
 44
0.0000000001
 40
0.0
 40
0.0
 40
0.0
 40
0.0
 40
0.2933116376
 40
0.5499888571
 40
0.7790584122
 40
1.0
 40
1.0
 40
1.0
 40
1.0
 10
161.2274850949
 20
46.9021638039
 30
0.0
 10
161.5386780723
 20
46.7225005191
 30
0.0
 10
162.1568632103
 20
46.438598354
 30
0.0
 10
163.1107504799
 20
46.2720930435
 30
0.0
 10
163.9846405801
 20
46.4223899757
 30
0.0
 10
164.458461063
 20
46.7388795715
 30
0.0
 10
164.6499776675
 20
46.9301522635
 30
0.0
  0
SPLINE
  5
328
100
AcDbEntity
  8
0
100
AcDbSpline
 62
7
  6
CONTINUOUS
 70
0
 71
3
 72
11
 73
7
 74
0
 42
0.0000001
 43
0.0000001
 44
0.0000000001
 40
0.0
 40
0.0
 40
0.0
 40
0.0
 40
0.2372383316
 40
0.5000010919
 40
0.7627632579
 40
1.0
 40
1.0
 40
1.0
 40
1.0
 10
24.7553081415
 20
130.5916439291
 30
0.0
 10
24.7553081415
 20
129.8961313915
 30
0.0
 10
25.0161797823
 20
128.4293310574
 30
0.0
 10
25.9254151619
 20
126.3682133402
 30
0.0
 10
27.2557832395
 20
124.5502433467
 30
0.0
 10
28.3956355954
 20
123.5909329376
 30
0.0
 10
28.9979664924
 20
123.2431848992
 30
0.0
  0
SPLINE
  5
329
100
AcDbEntity
  8
0
100
AcDbSpline
 62
7
  6
CONTINUOUS
 70
0
 71
3
 72
11
 73
7
 74
0
 42
0.0000001
 43
0.0000001
 44
0.0000000001
 40
0.0
 40
0.0
 40
0.0
 40
0.0
 40
0.2895391946
 40
0.5491157945
 40
0.7822541179
 40
1.0
 40
1.0
 40
1.0
 40
1.0
 10
148.9974985351
 20
152.5183136244
 30
0.0
 10
149.0852050508
 20
152.4676773895
 30
0.0
 10
149.2598271671
 20
152.3847172716
 30
0.0
 10
149.5281155382
 20
152.319779137
 30
0.0
 10
149.7799783606
 20
152.3261060467
 30
0.0
 10
149.9314793348
 20
152.3812808616
 30
0.0
 10
149.9974381048
 20
152.4193619794
 30
0.0
  0
SPLINE
  5
32A
100
AcDbEntity
  8
0
100
AcDbSpline
 62
7
  6
CONTINUOUS
 70
0
 71
3
 72
11
 73
7
 74
0
 42
0.0000001
 43
0.0000001
 44
0.0000000001
 40
0.0
 40
0.0
 40
0.0
 40
0.0
 40
0.2372539654
 40
0.5000012591
 40
0.7627478695
 40
1.0
 40
1.0
 40
1.0
 40
1.0
 10
137.3301880702
 20
160.8872909082
 30
0.0
 10
137.3301880702
 20
160.655439142
 30
0.0
 10
137.4171166015
 20
160.1664930929
 30
0.0
 10
137.720328112
 20
159.4795404959
 30
0.0
 10
138.1636425882
 20
158.8734788972
 30
0.0
 10
138.5436184183
 20
158.5537275846
 30
0.0
 10
138.7444075205
 20
158.4378045649
 30
0.0
  0
SPLINE
  5
32B
100
AcDbEntity
  8
0
100
AcDbSpline
 62
7
  6
CONTINUOUS
 70
0
 71
3
 72
11
 73
7
 74
0
 42
0.0000001
 43
0.0000001
 44
0.0000000001
 40
0.0
 40
0.0
 40
0.0
 40
0.0
 40
0.2895391946
 40
0.5491157945
 40
0.7822541179
 40
1.0
 40
1.0
 40
1.0
 40
1.0
 10
64.4978863801
 20
201.3030837895
 30
0.0
 10
64.5855928957
 20
201.2524475547
 30
0.0
 10
64.7602150121
 20
201.1694874368
 30
0.0
 10
65.0285033831
 20
201.1045493022
 30
0.0
 10
65.2803662056
 20
201.1108762118
 30
0.0
 10
65.4318671797
 20
201.1660510268
 30
0.0
 10
65.4978259498
 20
201.2041321446
 30
0.0
  0
SPLINE
  5
32C
100
AcDbEntity
  8
0
100
AcDbSpline
 62
7
  6
CONTINUOUS
 70
0
 71
3
 72
11
 73
7
 74
0
 42
0.0000001
 43
0.0000001
 44
0.0000000001
 40
0.0
 40
0.0
 40
0.0
 40
0.0
 40
0.2372539654
 40
0.5000012591
 40
0.7627478695
 40
1.0
 40
1.0
 40
1.0
 40
1.0
 10
39.3954911374
 20
217.4286354093
 30
0.0
 10
39.3954911374
 20
217.196783643
 30
0.0
 10
39.4824196686
 20
216.7078375939
 30
0.0
 10
39.7856311791
 20
216.020884997
 30
0.0
 10
40.2289456554
 20
215.4148233982
 30
0.0
 10
40.6089214855
 20
215.0950720856
 30
0.0
 10
40.8097105877
 20
214.979149066
 30
0.0
  0
SPLINE
  5
32D
100
AcDbEntity
  8
0
100
AcDbSpline
 62
7
  6
CONTINUOUS
 70
0
 71
3
 72
8
 73
4
 74
0
 42
0.0000001
 43
0.0000001
 44
0.0000000001
 40
0.0
 40
0.0
 40
0.0
 40
0.0
 40
1.0
 40
1.0
 40
1.0
 40
1.0
 10
40.7618873672
 20
213.2757535763
 30
0.0
 10
40.7618873672
 20
213.3148062732
 30
0.0
 10
40.764048251
 20
213.353942186
 30
0.0
 10
40.7687550161
 20
213.3927102076
 30
0.0
  0
SPLINE
  5
32E
100
AcDbEntity
  8
0
100
AcDbSpline
 62
7
  6
CONTINUOUS
 70
0
 71
3
 72
11
 73
7
 74
0
 42
0.0000001
 43
0.0000001
 44
0.0000000001
 40
0.0
 40
0.0
 40
0.0
 40
0.0
 40
0.237217774
 40
0.4999989081
 40
0.7627806366
 40
1.0
 40
1.0
 40
1.0
 40
1.0
 10
149.1359087949
 20
150.9652181029
 30
0.0
 10
149.2362892779
 20
150.9072647151
 30
0.0
 10
149.4262671121
 20
150.7473832624
 30
0.0
 10
149.6480018731
 20
150.4443807162
 30
0.0
 10
149.7995442651
 20
150.1008514792
 30
0.0
 10
149.84301852
 20
149.8563844501
 30
0.0
 10
149.84301852
 20
149.7404749312
 30
0.0
  0
SPLINE
  5
32F
100
AcDbEntity
  8
0
100
AcDbSpline
 62
7
  6
CONTINUOUS
 70
0
 71
3
 72
9
 73
5
 74
0
 42
0.0000001
 43
0.0000001
 44
0.0000000001
 40
0.0
 40
0.0
 40
0.0
 40
0.0
 40
0.5507495269
 40
1.0
 40
1.0
 40
1.0
 40
1.0
 10
149.84301852
 20
74.7855530387
 30
0.0
 10
149.84301852
 20
74.6900569465
 30
0.0
 10
149.8198458899
 20
74.5126011056
 30
0.0
 10
149.7033710632
 20
74.3667188618
 30
0.0
 10
149.6359108766
 20
74.3277695914
 30
0.0
  0
SPLINE
  5
330
100
AcDbEntity
  8
0
100
AcDbSpline
 62
7
  6
CONTINUOUS
 70
0
 71
3
 72
8
 73
4
 74
0
 42
0.0000001
 43
0.0000001
 44
0.0000000001
 40
0.0
 40
0.0
 40
0.0
 40
0.0
 40
1.0
 40
1.0
 40
1.0
 40
1.0
 10
149.6359108766
 20
74.3277695914
 30
0.0
 10
149.6102593959
 20
74.3129592786
 30
0.0
 10
149.5823693446
 20
74.3015713567
 30
0.0
 10
149.5537620499
 20
74.2938923911
 30
0.0
  0
SPLINE
  5
331
100
AcDbEntity
  8
0
100
AcDbSpline
 62
7
  6
CONTINUOUS
 70
0
 71
3
 72
11
 73
7
 74
0
 42
0.0000001
 43
0.0000001
 44
0.0000000001
 40
0.0
 40
0.0
 40
0.0
 40
0.0
 40
0.237217774
 40
0.4999989081
 40
0.7627806366
 40
1.0
 40
1.0
 40
1.0
 40
1.0
 10
41.5733833206
 20
136.9152872649
 30
0.0
 10
41.4581842888
 20
136.9817959523
 30
0.0
 10
41.2401612038
 20
137.1652797134
 30
0.0
 10
40.9856931137
 20
137.5130126484
 30
0.0
 10
40.8117794571
 20
137.9072549786
 30
0.0
 10
40.7618873672
 20
138.1878111608
 30
0.0
 10
40.7618873672
 20
138.3208316838
 30
0.0
  0
SPLINE
  5
332
100
AcDbEntity
  8
0
100
AcDbSpline
 62
7
  6
CONTINUOUS
 70
0
 71
3
 72
11
 73
7
 74
0
 42
0.0000001
 43
0.0000001
 44
0.0000000001
 40
0.0
 40
0.0
 40
0.0
 40
0.0
 40
0.2372436391
 40
0.5000005261
 40
0.7627571268
 40
1.0
 40
1.0
 40
1.0
 40
1.0
 10
108.6079125806
 20
205.966651813
 30
0.0
 10
108.5075218528
 20
206.0246111156
 30
0.0
 10
108.274064437
 20
206.1091766841
 30
0.0
 10
107.9008046876
 20
206.1496954816
 30
0.0
 10
107.5275455014
 20
206.1091749809
 30
0.0
 10
107.2940890035
 20
206.0246082533
 30
0.0
 10
107.1936990177
 20
205.966648414
 30
0.0
  0
SPLINE
  5
333
100
AcDbEntity
  8
0
100
AcDbSpline
 62
7
  6
CONTINUOUS
 70
0
 71
3
 72
9
 73
5
 74
0
 42
0.0000001
 43
0.0000001
 44
0.0000000001
 40
0.0
 40
0.0
 40
0.0
 40
0.0
 40
0.5056088261
 40
1.0
 40
1.0
 40
1.0
 40
1.0
 10
60.1667465174
 20
247.1696603664
 30
0.0
 10
60.1653039198
 20
247.2741382055
 30
0.0
 10
60.1113305292
 20
247.4855987337
 30
0.0
 10
59.9526266371
 20
247.6345535539
 30
0.0
 10
59.8641048804
 20
247.685568485
 30
0.0
  0
SPLINE
  5
334
100
AcDbEntity
  8
0
100
AcDbSpline
 62
7
  6
CONTINUOUS
 70
0
 71
3
 72
9
 73
5
 74
0
 42
0.0000001
 43
0.0000001
 44
0.0000000001
 40
0.0
 40
0.0
 40
0.0
 40
0.0
 40
0.2450632283
 40
1.0
 40
1.0
 40
1.0
 40
1.0
 10
184.3049264936
 20
175.5447032262
 30
0.0
 10
184.3246037226
 20
175.5333428298
 30
0.0
 10
184.4043699182
 20
175.4860742143
 30
0.0
 10
184.4820372338
 20
175.4352840318
 30
0.0
 10
184.539462603
 20
175.3952647529
 30
0.0
  0
SPLINE
  5
335
100
AcDbEntity
  8
0
100
AcDbSpline
 62
7
  6
CONTINUOUS
 70
0
 71
3
 72
11
 73
7
 74
0
 42
0.0000001
 43
0.0000001
 44
0.0000000001
 40
0.0
 40
0.0
 40
0.0
 40
0.0
 40
0.2434354485
 40
0.5061700475
 40
0.7656202068
 40
1.0
 40
1.0
 40
1.0
 40
1.0
 10
184.539462603
 20
175.3952647529
 30
0.0
 10
184.8368383046
 20
175.1880260136
 30
0.0
 10
185.3918572093
 20
174.6644036817
 30
0.0
 10
186.0361722192
 20
173.7148520636
 30
0.0
 10
186.4703571896
 20
172.6673068992
 30
0.0
 10
186.5925807944
 20
171.9313723659
 30
0.0
 10
186.5925807944
 20
171.5823917446
 30
0.0
  0
SPLINE
  5
336
100
AcDbEntity
  8
0
100
AcDbSpline
 62
7
  6
CONTINUOUS
 70
0
 71
3
 72
11
 73
7
 74
0
 42
0.0000001
 43
0.0000001
 44
0.0000000001
 40
0.0
 40
0.0
 40
0.0
 40
0.0
 40
0.2359030764
 40
0.4971530691
 40
0.7599358887
 40
1.0
 40
1.0
 40
1.0
 40
1.0
 10
165.4701434458
 20
157.1300528406
 30
0.0
 10
165.4701434458
 20
157.8039965723
 30
0.0
 10
165.2247512715
 20
159.2253535391
 30
0.0
 10
164.3624985415
 20
161.2344924584
 30
0.0
 10
163.0924033999
 20
163.0288013613
 30
0.0
 10
162.0018004121
 20
163.9954038414
 30
0.0
 10
161.4216779962
 20
164.3612214097
 30
0.0
  0
SPLINE
  5
337
100
AcDbEntity
  8
0
100
AcDbSpline
 62
7
  6
CONTINUOUS
 70
0
 71
3
 72
9
 73
5
 74
0
 42
0.0000001
 43
0.0000001
 44
0.0000000001
 40
0.0
 40
0.0
 40
0.0
 40
0.0
 40
0.2776305913
 40
1.0
 40
1.0
 40
1.0
 40
1.0
 10
28.9979664924
 20
240.8195329658
 30
0.0
 10
28.8294351383
 20
240.9168323873
 30
0.0
 10
28.2070298776
 20
241.2351853744
 30
0.0
 10
27.4963534537
 20
241.4170868203
 30
0.0
 10
26.9904803182
 20
241.3954185894
 30
0.0
  0
SPLINE
  5
338
100
AcDbEntity
  8
0
100
AcDbSpline
 62
7
  6
CONTINUOUS
 70
0
 71
3
 72
9
 73
5
 74
0
 42
0.0000001
 43
0.0000001
 44
0.0000000001
 40
0.0
 40
0.0
 40
0.0
 40
0.0
 40
0.2555053033
 40
1.0
 40
1.0
 40
1.0
 40
1.0
 10
26.9904803182
 20
241.3954185894
 30
0.0
 10
26.947433362
 20
241.3935747449
 30
0.0
 10
26.7791811781
 20
241.3820442642
 30
0.0
 10
26.6120557549
 20
241.3525802549
 30
0.0
 10
26.490808393
 20
241.3200099624
 30
0.0
  0
SPLINE
  5
339
100
AcDbEntity
  8
0
100
AcDbSpline
 62
7
  6
CONTINUOUS
 70
0
 71
3
 72
9
 73
5
 74
0
 42
0.0000001
 43
0.0000001
 44
0.0000000001
 40
0.0
 40
0.0
 40
0.0
 40
0.0
 40
0.2392840402
 40
1.0
 40
1.0
 40
1.0
 40
1.0
 10
25.2693975841
 20
237.9098637247
 30
0.0
 10
25.276218615
 20
237.9037590452
 30
0.0
 10
25.305473875
 20
237.8790870546
 30
0.0
 10
25.3374489438
 20
237.857721018
 30
0.0
 10
25.362651654
 20
237.8431705557
 30
0.0
  0
SPLINE
  5
33A
100
AcDbEntity
  8
0
100
AcDbSpline
 62
7
  6
CONTINUOUS
 70
0
 71
3
 72
9
 73
5
 74
0
 42
0.0000001
 43
0.0000001
 44
0.0000000001
 40
0.0
 40
0.0
 40
0.0
 40
0.0
 40
0.2777426526
 40
1.0
 40
1.0
 40
1.0
 40
1.0
 10
28.8565457248
 20
239.9809638834
 30
0.0
 10
28.7136893889
 20
240.0634401616
 30
0.0
 10
28.1862959211
 20
240.333102571
 30
0.0
 10
27.5838393672
 20
240.4868815424
 30
0.0
 10
27.155309298
 20
240.4677027968
 30
0.0
  0
SPLINE
  5
33B
100
AcDbEntity
  8
0
100
AcDbSpline
 62
7
  6
CONTINUOUS
 70
0
 71
3
 72
11
 73
7
 74
0
 42
0.0000001
 43
0.0000001
 44
0.0000000001
 40
0.0
 40
0.0
 40
0.0
 40
0.0
 40
0.2227277405
 40
0.4507315806
 40
0.7062455283
 40
1.0
 40
1.0
 40
1.0
 40
1.0
 10
26.8598568346
 20
240.4326797024
 30
0.0
 10
26.6244264079
 20
240.3864036991
 30
0.0
 10
26.1592462249
 20
240.1946189059
 30
0.0
 10
25.6339945287
 20
239.6154161871
 30
0.0
 10
25.3271249097
 20
238.8214407816
 30
0.0
 10
25.2693975841
 20
238.2263131749
 30
0.0
 10
25.2693975841
 20
237.9098637247
 30
0.0
  0
SPLINE
  5
33C
100
AcDbEntity
  8
0
100
AcDbSpline
 62
7
  6
CONTINUOUS
 70
0
 71
3
 72
9
 73
5
 74
0
 42
0.0000001
 43
0.0000001
 44
0.0000000001
 40
0.0
 40
0.0
 40
0.0
 40
0.0
 40
0.2411758082
 40
1.0
 40
1.0
 40
1.0
 40
1.0
 10
28.8454135671
 20
239.8540015747
 30
0.0
 10
28.8454135671
 20
239.8642543074
 30
0.0
 10
28.8464047656
 20
239.9067636205
 30
0.0
 10
28.8511811952
 20
239.9491543494
 30
0.0
 10
28.856545725
 20
239.9809638843
 30
0.0
  0
SPLINE
  5
33D
100
AcDbEntity
  8
0
100
AcDbSpline
 62
7
  6
CONTINUOUS
 70
0
 71
3
 72
9
 73
5
 74
0
 42
0.0000001
 43
0.0000001
 44
0.0000000001
 40
0.0
 40
0.0
 40
0.0
 40
0.0
 40
0.2392844125
 40
1.0
 40
1.0
 40
1.0
 40
1.0
 10
28.856545725
 20
123.9184563191
 30
0.0
 10
28.8546693298
 20
123.9274159368
 30
0.0
 10
28.8479299711
 20
123.965088066
 30
0.0
 10
28.8454135671
 20
124.0034626853
 30
0.0
 10
28.8454135671
 20
124.0325643969
 30
0.0
  0
SPLINE
  5
33E
100
AcDbEntity
  8
0
100
AcDbSpline
 62
7
  6
CONTINUOUS
 70
0
 71
3
 72
11
 73
7
 74
0
 42
0.0000001
 43
0.0000001
 44
0.0000000001
 40
0.0
 40
0.0
 40
0.0
 40
0.0
 40
0.2372174733
 40
0.4999424546
 40
0.7627158378
 40
1.0
 40
1.0
 40
1.0
 40
1.0
 10
25.2693975835
 20
130.1315446641
 30
0.0
 10
25.2693975835
 20
129.543543521
 30
0.0
 10
25.4899027649
 20
128.3035111078
 30
0.0
 10
26.258572599
 20
126.5609405084
 30
0.0
 10
27.3833357338
 20
125.0237506478
 30
0.0
 10
28.3471757586
 20
124.2125345534
 30
0.0
 10
28.856545725
 20
123.9184563192
 30
0.0
  0
SPLINE
  5
33F
100
AcDbEntity
  8
0
100
AcDbSpline
 62
7
  6
CONTINUOUS
 70
0
 71
3
 72
9
 73
5
 74
0
 42
0.0000001
 43
0.0000001
 44
0.0000000001
 40
0.0
 40
0.0
 40
0.0
 40
0.0
 40
0.2609971136
 40
1.0
 40
1.0
 40
1.0
 40
1.0
 10
25.362651654
 20
130.0648514946
 30
0.0
 10
25.3540052528
 20
130.0698433837
 30
0.0
 10
25.3213210181
 20
130.0897150474
 30
0.0
 10
25.290462386
 20
130.1126921079
 30
0.0
 10
25.2693975841
 20
130.1315446636
 30
0.0
  0
SPLINE
  5
340
100
AcDbEntity
  8
0
100
AcDbSpline
 62
7
  6
CONTINUOUS
 70
0
 71
3
 72
9
 73
5
 74
0
 42
0.0000001
 43
0.0000001
 44
0.0000000001
 40
0.0
 40
0.0
 40
0.0
 40
0.0
 40
0.2587520975
 40
1.0
 40
1.0
 40
1.0
 40
1.0
 10
164.6732124689
 20
49.6485353829
 30
0.0
 10
164.6629046224
 20
49.652374342
 30
0.0
 10
164.6233554175
 20
49.667960153
 30
0.0
 10
164.5849829922
 20
49.6866194178
 30
0.0
 10
164.5576940828
 20
49.7023743206
 30
0.0
  0
SPLINE
  5
341
100
AcDbEntity
  8
0
100
AcDbSpline
 62
7
  6
CONTINUOUS
 70
0
 71
3
 72
11
 73
7
 74
0
 42
0.0000001
 43
0.0000001
 44
0.0000000001
 40
0.0
 40
0.0
 40
0.0
 40
0.0
 40
0.2878381296
 40
0.5412277144
 40
0.7720255369
 40
1.0
 40
1.0
 40
1.0
 40
1.0
 10
161.3955651188
 20
47.4142829982
 30
0.0
 10
161.6452538089
 20
47.295176752
 30
0.0
 10
162.1392563951
 20
47.1154802377
 30
0.0
 10
162.8906077616
 20
47.0564476356
 30
0.0
 10
163.565822408
 20
47.2438355734
 30
0.0
 10
163.9206255127
 20
47.5271610122
 30
0.0
 10
164.0648918792
 20
47.6920700791
 30
0.0
  0
SPLINE
  5
342
100
AcDbEntity
  8
0
100
AcDbSpline
 62
7
  6
CONTINUOUS
 70
0
 71
3
 72
9
 73
5
 74
0
 42
0.0000001
 43
0.0000001
 44
0.0000000001
 40
0.0
 40
0.0
 40
0.0
 40
0.0
 40
0.2254237165
 40
1.0
 40
1.0
 40
1.0
 40
1.0
 10
164.2369639988
 20
47.9206628949
 30
0.0
 10
164.3103251372
 20
48.0339951268
 30
0.0
 10
164.587444203
 20
48.5684166457
 30
0.0
 10
164.6732124689
 20
49.1846497892
 30
0.0
 10
164.6732124689
 20
49.6485353829
 30
0.0
  0
SPLINE
  5
343
100
AcDbEntity
  8
0
100
AcDbSpline
 62
7
  6
CONTINUOUS
 70
0
 71
3
 72
9
 73
5
 74
0
 42
0.0000001
 43
0.0000001
 44
0.0000000001
 40
0.0
 40
0.0
 40
0.0
 40
0.0
 40
0.2609967335
 40
1.0
 40
1.0
 40
1.0
 40
1.0
 10
161.0749321696
 20
47.6915433016
 30
0.0
 10
161.0749321696
 20
47.6815592631
 30
0.0
 10
161.075799802
 20
47.6433176577
 30
0.0
 10
161.0802696241
 20
47.60510441
 30
0.0
 10
161.0860643275
 20
47.5774352238
 30
0.0
  0
SPLINE
  5
344
100
AcDbEntity
  8
0
100
AcDbSpline
 62
7
  6
CONTINUOUS
 70
0
 71
3
 72
9
 73
5
 74
0
 42
0.0000001
 43
0.0000001
 44
0.0000000001
 40
0.0
 40
0.0
 40
0.0
 40
0.0
 40
0.2587617055
 40
1.0
 40
1.0
 40
1.0
 40
1.0
 10
161.0860643275
 20
163.639942789
 30
0.0
 10
161.08423506
 20
163.6290959581
 30
0.0
 10
161.077958652
 20
163.5870520668
 30
0.0
 10
161.0749321696
 20
163.5444906285
 30
0.0
 10
161.0749321696
 20
163.5129804794
 30
0.0
  0
SPLINE
  5
345
100
AcDbEntity
  8
0
100
AcDbSpline
 62
7
  6
CONTINUOUS
 70
0
 71
3
 72
11
 73
7
 74
0
 42
0.0000001
 43
0.0000001
 44
0.0000000001
 40
0.0
 40
0.0
 40
0.0
 40
0.0
 40
0.2372174733
 40
0.4999424546
 40
0.7627158378
 40
1.0
 40
1.0
 40
1.0
 40
1.0
 10
164.6732124689
 20
157.426854444
 30
0.0
 10
164.6732124689
 20
158.0148555872
 30
0.0
 10
164.4527072876
 20
159.2548880003
 30
0.0
 10
163.6840374534
 20
160.9974585997
 30
0.0
 10
162.5592743187
 20
162.5346484603
 30
0.0
 10
161.5954342938
 20
163.3458645548
 30
0.0
 10
161.0860643275
 20
163.639942789
 30
0.0
  0
SPLINE
  5
346
100
AcDbEntity
  8
0
100
AcDbSpline
 62
7
  6
CONTINUOUS
 70
0
 71
3
 72
9
 73
5
 74
0
 42
0.0000001
 43
0.0000001
 44
0.0000000001
 40
0.0
 40
0.0
 40
0.0
 40
0.0
 40
0.2411754997
 40
1.0
 40
1.0
 40
1.0
 40
1.0
 10
164.5576940828
 20
157.4806933817
 30
0.0
 10
164.5665731874
 20
157.4755671442
 30
0.0
 10
164.603882874
 20
157.4551713975
 30
0.0
 10
164.6429824311
 20
157.4381130398
 30
0.0
 10
164.6732124689
 20
157.4268544441
 30
0.0
  0
SPLINE
  5
347
100
AcDbEntity
  8
0
100
AcDbSpline
 62
7
  6
CONTINUOUS
 70
0
 71
3
 72
9
 73
5
 74
0
 42
0.0000001
 43
0.0000001
 44
0.0000000001
 40
0.0
 40
0.0
 40
0.0
 40
0.0
 40
0.279135281
 40
1.0
 40
1.0
 40
1.0
 40
1.0
 10
28.8454135672
 20
239.8540015746
 30
0.0
 10
28.7006725492
 20
239.9375659499
 30
0.0
 10
28.1687288436
 20
240.208286528
 30
0.0
 10
27.5558987468
 20
240.3561446886
 30
0.0
 10
27.1256060387
 20
240.3223720783
 30
0.0
  0
SPLINE
  5
348
100
AcDbEntity
  8
0
100
AcDbSpline
 62
7
  6
CONTINUOUS
 70
0
 71
3
 72
11
 73
7
 74
0
 42
0.0000001
 43
0.0000001
 44
0.0000000001
 40
0.0
 40
0.0
 40
0.0
 40
0.0
 40
0.2232512782
 40
0.4510242563
 40
0.7062046459
 40
1.0
 40
1.0
 40
1.0
 40
1.0
 10
26.9360067576
 20
240.2980516893
 30
0.0
 10
26.7040606733
 20
240.2563157313
 30
0.0
 10
26.2446687231
 20
240.0755392249
 30
0.0
 10
25.7237415143
 20
239.5128396525
 30
0.0
 10
25.4196677326
 20
238.7362655104
 30
0.0
 10
25.362651654
 20
238.1533102347
 30
0.0
 10
25.362651654
 20
237.8431705557
 30
0.0
  0
SPLINE
  5
349
100
AcDbEntity
  8
0
100
AcDbSpline
 62
7
  6
CONTINUOUS
 70
0
 71
3
 72
11
 73
7
 74
0
 42
0.0000001
 43
0.0000001
 44
0.0000000001
 40
0.0
 40
0.0
 40
0.0
 40
0.0
 40
0.2372413576
 40
0.5000010231
 40
0.762760128
 40
1.0
 40
1.0
 40
1.0
 40
1.0
 10
164.5576940828
 20
157.4806933816
 30
0.0
 10
164.5576940828
 20
158.0516403644
 30
0.0
 10
164.3435348024
 20
159.2557219106
 30
0.0
 10
163.5971477009
 20
160.9476619248
 30
0.0
 10
162.5050737351
 20
162.4400143863
 30
0.0
 10
161.5693864613
 20
163.2275136191
 30
0.0
 10
161.0749321696
 20
163.5129804794
 30
0.0
  0
SPLINE
  5
34A
100
AcDbEntity
  8
0
100
AcDbSpline
 62
7
  6
CONTINUOUS
 70
0
 71
3
 72
11
 73
7
 74
0
 42
0.0000001
 43
0.0000001
 44
0.0000000001
 40
0.0
 40
0.0
 40
0.0
 40
0.0
 40
0.2937941408
 40
0.5489740482
 40
0.7767475746
 40
1.0
 40
1.0
 40
1.0
 40
1.0
 10
161.0749321696
 20
47.6915433016
 30
0.0
 10
161.3435157957
 20
47.5364799808
 30
0.0
 10
161.8768675036
 20
47.2943907713
 30
0.0
 10
162.7014200249
 20
47.1694504191
 30
0.0
 10
163.4491796327
 20
47.3392388767
 30
0.0
 10
163.8354255409
 20
47.6466900373
 30
0.0
 10
163.9875412734
 20
47.8266898284
 30
0.0
  0
SPLINE
  5
34B
100
AcDbEntity
  8
0
100
AcDbSpline
 62
7
  6
CONTINUOUS
 70
0
 71
3
 72
9
 73
5
 74
0
 42
0.0000001
 43
0.0000001
 44
0.0000000001
 40
0.0
 40
0.0
 40
0.0
 40
0.0
 40
0.2247529644
 40
1.0
 40
1.0
 40
1.0
 40
1.0
 10
164.1033967663
 20
47.9787170755
 30
0.0
 10
164.1796940746
 20
48.0897786382
 30
0.0
 10
164.468986804
 20
48.6188803099
 30
0.0
 10
164.5576940828
 20
49.2375978066
 30
0.0
 10
164.5576940828
 20
49.7023743206
 30
0.0
  0
SPLINE
  5
34C
100
AcDbEntity
  8
0
100
AcDbSpline
 62
7
  6
CONTINUOUS
 70
0
 71
3
 72
11
 73
7
 74
0
 42
0.0000001
 43
0.0000001
 44
0.0000000001
 40
0.0
 40
0.0
 40
0.0
 40
0.0
 40
0.2372413576
 40
0.5000010231
 40
0.762760128
 40
1.0
 40
1.0
 40
1.0
 40
1.0
 10
25.362651654
 20
130.0648514946
 30
0.0
 10
25.362651654
 20
129.4939045118
 30
0.0
 10
25.5768109344
 20
128.2898229657
 30
0.0
 10
26.3231980358
 20
126.5978829514
 30
0.0
 10
27.4152720017
 20
125.1055304899
 30
0.0
 10
28.3509592755
 20
124.3180312571
 30
0.0
 10
28.8454135671
 20
124.0325643969
 30
0.0
  0
SPLINE
  5
34D
100
AcDbEntity
  8
0
100
AcDbSpline
 62
7
  6
CONTINUOUS
 70
0
 71
3
 72
11
 73
7
 74
0
 42
0.0000001
 43
0.0000001
 44
0.0000000001
 40
0.0
 40
0.0
 40
0.0
 40
0.0
 40
0.2372523758
 40
0.4999990758
 40
0.7627462798
 40
1.0
 40
1.0
 40
1.0
 40
1.0
 10
149.0540668421
 20
160.715997328
 30
0.0
 10
149.2548561519
 20
160.6000741885
 30
0.0
 10
149.6348321941
 20
160.2803225892
 30
0.0
 10
150.0781466608
 20
159.6742606866
 30
0.0
 10
150.3813579033
 20
158.9873082333
 30
0.0
 10
150.4682862924
 20
158.4983625112
 30
0.0
 10
150.4682862924
 20
158.2665109847
 30
0.0
  0
SPLINE
  5
34E
100
AcDbEntity
  8
0
100
AcDbSpline
 62
7
  6
CONTINUOUS
 70
0
 71
3
 72
9
 73
5
 74
0
 42
0.0000001
 43
0.0000001
 44
0.0000000001
 40
0.0
 40
0.0
 40
0.0
 40
0.0
 40
0.5437422847
 40
1.0
 40
1.0
 40
1.0
 40
1.0
 10
150.4682862924
 20
153.3674964819
 30
0.0
 10
150.4682862924
 20
153.210779642
 30
0.0
 10
150.4345956914
 20
152.9196809703
 30
0.0
 10
150.290295055
 20
152.6565645578
 30
0.0
 10
150.1977447394
 20
152.5631448134
 30
0.0
  0
SPLINE
  5
34F
100
AcDbEntity
  8
0
100
AcDbSpline
 62
7
  6
CONTINUOUS
 70
0
 71
3
 72
9
 73
5
 74
0
 42
0.0000001
 43
0.0000001
 44
0.0000000001
 40
0.0
 40
0.0
 40
0.0
 40
0.0
 40
0.5437422847
 40
1.0
 40
1.0
 40
1.0
 40
1.0
 10
65.9686741374
 20
202.1522666471
 30
0.0
 10
65.9686741374
 20
201.9955498072
 30
0.0
 10
65.9349835364
 20
201.7044511355
 30
0.0
 10
65.7906828999
 20
201.441334723
 30
0.0
 10
65.6981325843
 20
201.3479149785
 30
0.0
  0
SPLINE
  5
350
100
AcDbEntity
  8
0
100
AcDbSpline
 62
7
  6
CONTINUOUS
 70
0
 71
3
 72
11
 73
7
 74
0
 42
0.0000001
 43
0.0000001
 44
0.0000000001
 40
0.0
 40
0.0
 40
0.0
 40
0.0
 40
0.2372523758
 40
0.4999990758
 40
0.7627462798
 40
1.0
 40
1.0
 40
1.0
 40
1.0
 10
64.5544546871
 20
214.8080332045
 30
0.0
 10
64.7552439968
 20
214.692110065
 30
0.0
 10
65.135220039
 20
214.3723584658
 30
0.0
 10
65.5785345057
 20
213.7662965631
 30
0.0
 10
65.8817457483
 20
213.0793441098
 30
0.0
 10
65.9686741374
 20
212.5903983878
 30
0.0
 10
65.9686741374
 20
212.3585468612
 30
0.0
  0
SPLINE
  5
351
100
AcDbEntity
  8
0
100
AcDbSpline
 62
7
  6
CONTINUOUS
 70
0
 71
3
 72
15
 73
11
 74
0
 42
0.0000001
 43
0.0000001
 44
0.0000000001
 40
0.0
 40
0.0
 40
0.0
 40
0.0
 40
0.1447714669
 40
0.274559429
 40
0.3911244756
 40
0.4999934862
 40
0.608864121
 40
0.7254337147
 40
0.8552266854
 40
1.0
 40
1.0
 40
1.0
 40
1.0
 10
39.4699837043
 20
213.2869702507
 30
0.0
 10
39.4699837043
 20
213.3920262189
 30
0.0
 10
39.4860209681
 20
213.5919359876
 30
0.0
 10
39.5667508246
 20
213.8666114753
 30
0.0
 10
39.7032538433
 20
214.0896837624
 30
0.0
 10
39.892684507
 20
214.2487072604
 30
0.0
 10
40.1251337524
 20
214.3332139
 30
0.0
 10
40.3865799257
 20
214.3398583959
 30
0.0
 10
40.6648217095
 20
214.2724078653
 30
0.0
 10
40.8459684475
 20
214.1863349436
 30
0.0
 10
40.9369512605
 20
214.1338071803
 30
0.0
  0
SPLINE
  5
352
100
AcDbEntity
  8
0
100
AcDbSpline
 62
7
  6
CONTINUOUS
 70
0
 71
3
 72
11
 73
7
 74
0
 42
0.0000001
 43
0.0000001
 44
0.0000000001
 40
0.0
 40
0.0
 40
0.0
 40
0.0
 40
0.2372501845
 40
0.5000033916
 40
0.7627536163
 40
1.0
 40
1.0
 40
1.0
 40
1.0
 10
40.936828754
 20
135.7910402923
 30
0.0
 10
40.7285585984
 20
135.9112824024
 30
0.0
 10
40.3343855137
 20
136.2429147853
 30
0.0
 10
39.8745830634
 20
136.8715998089
 30
0.0
 10
39.5600638887
 20
137.5841581257
 30
0.0
 10
39.4699837043
 20
138.0913334605
 30
0.0
 10
39.4699837043
 20
138.3318179084
 30
0.0
  0
SPLINE
  5
353
100
AcDbEntity
  8
0
100
AcDbSpline
 62
7
  6
CONTINUOUS
 70
0
 71
3
 72
15
 73
11
 74
0
 42
0.0000001
 43
0.0000001
 44
0.0000000001
 40
0.0
 40
0.0
 40
0.0
 40
0.0
 40
0.1447714674
 40
0.2745594304
 40
0.3911244779
 40
0.499993489
 40
0.6088641236
 40
0.7254337165
 40
0.8552266859
 40
1.0
 40
1.0
 40
1.0
 40
1.0
 10
150.4503620325
 20
74.2585746392
 30
0.0
 10
150.4503620325
 20
74.1535186715
 30
0.0
 10
150.4343247692
 20
73.9536089036
 30
0.0
 10
150.3535949159
 20
73.6789334159
 30
0.0
 10
150.217091902
 20
73.4558611268
 30
0.0
 10
150.0276612434
 20
73.2968376248
 30
0.0
 10
149.795212003
 20
73.2123309791
 30
0.0
 10
149.5337658338
 20
73.2056864755
 30
0.0
 10
149.2555240525
 20
73.2731369985
 30
0.0
 10
149.0743773161
 20
73.3592099172
 30
0.0
 10
148.9833945042
 20
73.4117376798
 30
0.0
  0
SPLINE
  5
354
100
AcDbEntity
  8
0
100
AcDbSpline
 62
7
  6
CONTINUOUS
 70
0
 71
3
 72
9
 73
5
 74
0
 42
0.0000001
 43
0.0000001
 44
0.0000000001
 40
0.0
 40
0.0
 40
0.0
 40
0.0
 40
0.2362774536
 40
1.0
 40
1.0
 40
1.0
 40
1.0
 10
148.9835169831
 20
151.7545045838
 30
0.0
 10
149.0266711374
 20
151.7295900848
 30
0.0
 10
149.2051964225
 20
151.6170585813
 30
0.0
 10
149.3675300291
 20
151.4797579504
 30
0.0
 10
149.4817545194
 20
151.3662022362
 30
0.0
  0
SPLINE
  5
355
100
AcDbEntity
  8
0
100
AcDbSpline
 62
7
  6
CONTINUOUS
 70
0
 71
3
 72
10
 73
6
 74
0
 42
0.0000001
 43
0.0000001
 44
0.0000000001
 40
0.0
 40
0.0
 40
0.0
 40
0.0
 40
0.5162842355
 40
0.7698806872
 40
1.0
 40
1.0
 40
1.0
 40
1.0
 10
149.4817545194
 20
151.3662022362
 30
0.0
 10
149.77554426
 20
151.0741326134
 30
0.0
 10
150.1304035735
 20
150.5464854643
 30
0.0
 10
150.3965881656
 20
149.7872206161
 30
0.0
 10
150.4503620325
 20
149.3983749042
 30
0.0
 10
150.4503620325
 20
149.2137269698
 30
0.0
  0
SPLINE
  5
356
100
AcDbEntity
  8
0
100
AcDbSpline
 62
7
  6
CONTINUOUS
 70
0
 71
3
 72
14
 73
10
 74
0
 42
0.0000001
 43
0.0000001
 44
0.0000000001
 40
0.0
 40
0.0
 40
0.0
 40
0.0
 40
0.2498303677
 40
0.3750819573
 40
0.500550278
 40
0.6252460413
 40
0.7483865335
 40
0.8719515334
 40
1.0
 40
1.0
 40
1.0
 40
1.0
 10
183.9123700205
 20
153.2996692928
 30
0.0
 10
183.9127811184
 20
153.598981288
 30
0.0
 10
183.9105651968
 20
154.0483515614
 30
0.0
 10
183.9130060076
 20
154.6480449075
 30
0.0
 10
183.9172378831
 20
155.0977858457
 30
0.0
 10
183.9172415071
 20
155.5450811858
 30
0.0
 10
183.9029198211
 20
155.9898425691
 30
0.0
 10
183.8891470134
 20
156.4386244141
 30
0.0
 10
183.8994356027
 20
156.7403710508
 30
0.0
 10
183.912626344
 20
156.8932129111
 30
0.0
  0
SPLINE
  5
357
100
AcDbEntity
  8
0
100
AcDbSpline
 62
7
  6
CONTINUOUS
 70
0
 71
3
 72
11
 73
7
 74
0
 42
0.0000001
 43
0.0000001
 44
0.0000000001
 40
0.0
 40
0.0
 40
0.0
 40
0.0
 40
0.2895391946
 40
0.5491157945
 40
0.7822541179
 40
1.0
 40
1.0
 40
1.0
 40
1.0
 10
138.7444075205
 20
166.6028287362
 30
0.0
 10
138.6567010049
 20
166.6534649711
 30
0.0
 10
138.4820788885
 20
166.736425089
 30
0.0
 10
138.2137905175
 20
166.8013632236
 30
0.0
 10
137.961927695
 20
166.7950363139
 30
0.0
 10
137.8104267209
 20
166.739861499
 30
0.0
 10
137.7444679508
 20
166.7017803812
 30
0.0
  0
SPLINE
  5
358
100
AcDbEntity
  8
0
100
AcDbSpline
 62
7
  6
CONTINUOUS
 70
0
 71
3
 72
11
 73
7
 74
0
 42
0.0000001
 43
0.0000001
 44
0.0000000001
 40
0.0
 40
0.0
 40
0.0
 40
0.0
 40
0.2372539654
 40
0.5000012591
 40
0.7627478695
 40
1.0
 40
1.0
 40
1.0
 40
1.0
 10
150.4117179854
 20
158.2338514524
 30
0.0
 10
150.4117179854
 20
158.4657032186
 30
0.0
 10
150.3247894542
 20
158.9546492677
 30
0.0
 10
150.0215779437
 20
159.6416018646
 30
0.0
 10
149.5782634674
 20
160.2476634634
 30
0.0
 10
149.1982876373
 20
160.567414776
 30
0.0
 10
148.9974985351
 20
160.6833377957
 30
0.0
  0
SPLINE
  5
359
100
AcDbEntity
  8
0
100
AcDbSpline
 62
7
  6
CONTINUOUS
 70
0
 71
3
 72
11
 73
7
 74
0
 42
0.0000001
 43
0.0000001
 44
0.0000000001
 40
0.0
 40
0.0
 40
0.0
 40
0.0
 40
0.2895391946
 40
0.5491157945
 40
0.7822541179
 40
1.0
 40
1.0
 40
1.0
 40
1.0
 10
40.8097105877
 20
228.4514389486
 30
0.0
 10
40.722004072
 20
228.5020751835
 30
0.0
 10
40.5473819557
 20
228.5850353014
 30
0.0
 10
40.2790935846
 20
228.649973436
 30
0.0
 10
40.0272307622
 20
228.6436465263
 30
0.0
 10
39.875729788
 20
228.5884717114
 30
0.0
 10
39.809771018
 20
228.5503905936
 30
0.0
  0
SPLINE
  5
35A
100
AcDbEntity
  8
0
100
AcDbSpline
 62
7
  6
CONTINUOUS
 70
0
 71
3
 72
11
 73
7
 74
0
 42
0.0000001
 43
0.0000001
 44
0.0000000001
 40
0.0
 40
0.0
 40
0.0
 40
0.0
 40
0.2372539654
 40
0.5000012591
 40
0.7627478695
 40
1.0
 40
1.0
 40
1.0
 40
1.0
 10
65.9121058304
 20
212.3258873289
 30
0.0
 10
65.9121058304
 20
212.5577390951
 30
0.0
 10
65.8251772991
 20
213.0466851442
 30
0.0
 10
65.5219657886
 20
213.7336377411
 30
0.0
 10
65.0786513124
 20
214.3396993399
 30
0.0
 10
64.6986754823
 20
214.6594506525
 30
0.0
 10
64.4978863801
 20
214.7753736722
 30
0.0
  0
SPLINE
  5
35B
100
AcDbEntity
  8
0
100
AcDbSpline
 62
7
  6
CONTINUOUS
 70
0
 71
3
 72
9
 73
5
 74
0
 42
0.0000001
 43
0.0000001
 44
0.0000000001
 40
0.0
 40
0.0
 40
0.0
 40
0.0
 40
0.2392742457
 40
1.0
 40
1.0
 40
1.0
 40
1.0
 10
150.357107962
 20
149.2803756663
 30
0.0
 10
150.3639287139
 20
149.2742712364
 30
0.0
 10
150.3931838596
 20
149.2495991105
 30
0.0
 10
150.4251589972
 20
149.2282331467
 30
0.0
 10
150.4503620325
 20
149.2136824967
 30
0.0
  0
SPLINE
  5
35C
100
AcDbEntity
  8
0
100
AcDbSpline
 62
7
  6
CONTINUOUS
 70
0
 71
3
 72
9
 73
5
 74
0
 42
0.0000001
 43
0.0000001
 44
0.0000000001
 40
0.0
 40
0.0
 40
0.0
 40
0.0
 40
0.2369802819
 40
1.0
 40
1.0
 40
1.0
 40
1.0
 10
148.9944880274
 20
151.6404895229
 30
0.0
 10
149.031763081
 20
151.6189692475
 30
0.0
 10
149.1857539363
 20
151.5224757269
 30
0.0
 10
149.3267680079
 20
151.4059509265
 30
0.0
 10
149.4265887082
 20
151.3098209742
 30
0.0
  0
SPLINE
  5
35D
100
AcDbEntity
  8
0
100
AcDbSpline
 62
7
  6
CONTINUOUS
 70
0
 71
3
 72
9
 73
5
 74
0
 42
0.0000001
 43
0.0000001
 44
0.0000000001
 40
0.0
 40
0.0
 40
0.0
 40
0.0
 40
0.4998888669
 40
1.0
 40
1.0
 40
1.0
 40
1.0
 10
149.4265887082
 20
151.3098209742
 30
0.0
 10
149.6348211556
 20
151.1092876664
 30
0.0
 10
149.9894173744
 20
150.6423347011
 30
0.0
 10
150.216774982
 20
150.1018683089
 30
0.0
 10
150.2864712588
 20
149.8211707408
 30
0.0
  0
SPLINE
  5
35E
100
AcDbEntity
  8
0
100
AcDbSpline
 62
7
  6
CONTINUOUS
 70
0
 71
3
 72
9
 73
5
 74
0
 42
0.0000001
 43
0.0000001
 44
0.0000000001
 40
0.0
 40
0.0
 40
0.0
 40
0.0
 40
0.262534625
 40
1.0
 40
1.0
 40
1.0
 40
1.0
 10
150.2864712588
 20
149.8211707408
 30
0.0
 10
150.2979878566
 20
149.7747883348
 30
0.0
 10
150.3370684762
 20
149.5970216186
 30
0.0
 10
150.357107962
 20
149.4146210174
 30
0.0
 10
150.357107962
 20
149.2803756663
 30
0.0
  0
SPLINE
  5
35F
100
AcDbEntity
  8
0
100
AcDbSpline
 62
7
  6
CONTINUOUS
 70
0
 71
3
 72
9
 73
5
 74
0
 42
0.0000001
 43
0.0000001
 44
0.0000000001
 40
0.0
 40
0.0
 40
0.0
 40
0.0
 40
0.2609967335
 40
1.0
 40
1.0
 40
1.0
 40
1.0
 10
148.9833558696
 20
151.7545976006
 30
0.0
 10
148.9833558696
 20
151.7446135621
 30
0.0
 10
148.984223502
 20
151.7063719567
 30
0.0
 10
148.9886933241
 20
151.668158709
 30
0.0
 10
148.9944880274
 20
151.6404895229
 30
0.0
  0
SPLINE
  5
360
100
AcDbEntity
  8
0
100
AcDbSpline
 62
7
  6
CONTINUOUS
 70
0
 71
3
 72
9
 73
5
 74
0
 42
0.0000001
 43
0.0000001
 44
0.0000000001
 40
0.0
 40
0.0
 40
0.0
 40
0.0
 40
0.2587517934
 40
1.0
 40
1.0
 40
1.0
 40
1.0
 10
148.9944880274
 20
73.5387222946
 30
0.0
 10
148.99265883
 20
73.5278758791
 30
0.0
 10
148.9863822864
 20
73.4858320079
 30
0.0
 10
148.9833558696
 20
73.4432705558
 30
0.0
 10
148.9833558696
 20
73.4117599849
 30
0.0
  0
SPLINE
  5
361
100
AcDbEntity
  8
0
100
AcDbSpline
 62
7
  6
CONTINUOUS
 70
0
 71
3
 72
15
 73
11
 74
0
 42
0.0000001
 43
0.0000001
 44
0.0000000001
 40
0.0
 40
0.0
 40
0.0
 40
0.0
 40
0.1436787434
 40
0.2725062137
 40
0.3885700102
 40
0.4975125357
 40
0.606892725
 40
0.7241862999
 40
0.8546977589
 40
1.0
 40
1.0
 40
1.0
 40
1.0
 10
150.3567931466
 20
74.2920677319
 30
0.0
 10
150.3549887984
 20
74.196828238
 30
0.0
 10
150.3369734215
 20
74.0158445566
 30
0.0
 10
150.2583910808
 20
73.7681165654
 30
0.0
 10
150.1296370192
 20
73.5679486464
 30
0.0
 10
149.9535622344
 20
73.4263631595
 30
0.0
 10
149.7393012832
 20
73.3523252027
 30
0.0
 10
149.4992207492
 20
73.3484470498
 30
0.0
 10
149.244080621
 20
73.411463048
 30
0.0
 10
149.0779152691
 20
73.4905566438
 30
0.0
 10
148.9944880274
 20
73.5387222946
 30
0.0
  0
SPLINE
  5
362
100
AcDbEntity
  8
0
100
AcDbSpline
 62
7
  6
CONTINUOUS
 70
0
 71
3
 72
9
 73
5
 74
0
 42
0.0000001
 43
0.0000001
 44
0.0000000001
 40
0.0
 40
0.0
 40
0.0
 40
0.0
 40
0.2609971137
 40
1.0
 40
1.0
 40
1.0
 40
1.0
 10
150.4503620325
 20
74.2587606042
 30
0.0
 10
150.4417156313
 20
74.2637524934
 30
0.0
 10
150.4090313964
 20
74.2836241573
 30
0.0
 10
150.3781727641
 20
74.3066012179
 30
0.0
 10
150.357107962
 20
74.3254537738
 30
0.0
  0
SPLINE
  5
363
100
AcDbEntity
  8
0
100
AcDbSpline
 62
7
  6
CONTINUOUS
 70
0
 71
3
 72
9
 73
5
 74
0
 42
0.0000001
 43
0.0000001
 44
0.0000000001
 40
0.0
 40
0.0
 40
0.0
 40
0.0
 40
0.2587520975
 40
1.0
 40
1.0
 40
1.0
 40
1.0
 10
39.5855020904
 20
138.2780234419
 30
0.0
 10
39.5751942439
 20
138.2818624009
 30
0.0
 10
39.535645039
 20
138.2974482119
 30
0.0
 10
39.4972726137
 20
138.3161074768
 30
0.0
 10
39.4699837043
 20
138.3318623795
 30
0.0
  0
SPLINE
  5
364
100
AcDbEntity
  8
0
100
AcDbSpline
 62
7
  6
CONTINUOUS
 70
0
 71
3
 72
11
 73
7
 74
0
 42
0.0000001
 43
0.0000001
 44
0.0000000001
 40
0.0
 40
0.0
 40
0.0
 40
0.0
 40
0.2372262367
 40
0.4999146922
 40
0.7626827382
 40
1.0
 40
1.0
 40
1.0
 40
1.0
 10
40.948122025
 20
135.9179095853
 30
0.0
 10
40.7546795737
 20
136.02959111
 30
0.0
 10
40.3886135003
 20
136.3376052755
 30
0.0
 10
39.9614863545
 20
136.9214896168
 30
0.0
 10
39.6692809959
 20
137.583382259
 30
0.0
 10
39.5855020904
 20
138.0545708954
 30
0.0
 10
39.5855020904
 20
138.2780234419
 30
0.0
  0
SPLINE
  5
365
100
AcDbEntity
  8
0
100
AcDbSpline
 62
7
  6
CONTINUOUS
 70
0
 71
3
 72
9
 73
5
 74
0
 42
0.0000001
 43
0.0000001
 44
0.0000000001
 40
0.0
 40
0.0
 40
0.0
 40
0.0
 40
0.2411758082
 40
1.0
 40
1.0
 40
1.0
 40
1.0
 10
40.9369898672
 20
135.7909472757
 30
0.0
 10
40.9369898672
 20
135.8012000084
 30
0.0
 10
40.9379810656
 20
135.8437093215
 30
0.0
 10
40.9427574952
 20
135.8861000504
 30
0.0
 10
40.948122025
 20
135.9179095853
 30
0.0
  0
SPLINE
  5
366
100
AcDbEntity
  8
0
100
AcDbSpline
 62
7
  6
CONTINUOUS
 70
0
 71
3
 72
9
 73
5
 74
0
 42
0.0000001
 43
0.0000001
 44
0.0000000001
 40
0.0
 40
0.0
 40
0.0
 40
0.0
 40
0.2392746181
 40
1.0
 40
1.0
 40
1.0
 40
1.0
 10
40.948122025
 20
214.0196768136
 30
0.0
 10
40.9462457066
 20
214.0286360646
 30
0.0
 10
40.9395061735
 20
214.0663081622
 30
0.0
 10
40.9369898672
 20
214.1046828045
 30
0.0
 10
40.9369898672
 20
214.1337848913
 30
0.0
  0
SPLINE
  5
367
100
AcDbEntity
  8
0
100
AcDbSpline
 62
7
  6
CONTINUOUS
 70
0
 71
3
 72
15
 73
11
 74
0
 42
0.0000001
 43
0.0000001
 44
0.0000000001
 40
0.0
 40
0.0
 40
0.0
 40
0.0
 40
0.1447688302
 40
0.2745370857
 40
0.3910733828
 40
0.4999351246
 40
0.6088004674
 40
0.7253812165
 40
0.855214137
 40
1.0
 40
1.0
 40
1.0
 40
1.0
 10
39.5855020904
 20
213.2329453344
 30
0.0
 10
39.5855020904
 20
213.3305262841
 30
0.0
 10
39.6004171175
 20
213.5161990735
 30
0.0
 10
39.6753915439
 20
213.7712999084
 30
0.0
 10
39.8021333051
 20
213.9784851008
 30
0.0
 10
39.9780220034
 20
214.1262292386
 30
0.0
 10
40.1939110251
 20
214.2047883284
 30
0.0
 10
40.4367919249
 20
214.2110313098
 30
0.0
 10
40.6952881283
 20
214.148390104
 30
0.0
 10
40.8636040229
 20
214.0684722009
 30
0.0
 10
40.948122025
 20
214.0196768136
 30
0.0
  0
SPLINE
  5
368
100
AcDbEntity
  8
0
100
AcDbSpline
 62
7
  6
CONTINUOUS
 70
0
 71
3
 72
9
 73
5
 74
0
 42
0.0000001
 43
0.0000001
 44
0.0000000001
 40
0.0
 40
0.0
 40
0.0
 40
0.0
 40
0.2411754997
 40
1.0
 40
1.0
 40
1.0
 40
1.0
 10
39.4699837043
 20
213.286784272
 30
0.0
 10
39.4788628089
 20
213.2816580346
 30
0.0
 10
39.5161724955
 20
213.2612622879
 30
0.0
 10
39.5552720526
 20
213.2442039301
 30
0.0
 10
39.5855020904
 20
213.2329453344
 30
0.0
  0
SPLINE
  5
369
100
AcDbEntity
  8
0
100
AcDbSpline
 62
7
  6
CONTINUOUS
 70
0
 71
3
 72
8
 73
4
 74
0
 42
0.0000001
 43
0.0000001
 44
0.0000000001
 40
0.0
 40
0.0
 40
0.0
 40
0.0
 40
1.0
 40
1.0
 40
1.0
 40
1.0
 10
183.912621952
 20
92.7714355721
 30
0.0
 10
183.9125145856
 20
96.1278605751
 30
0.0
 10
183.9120544625
 20
99.4842855965
 30
0.0
 10
183.9123963672
 20
102.8407105839
 30
0.0
  0
SPLINE
  5
36A
100
AcDbEntity
  8
0
100
AcDbSpline
 62
7
  6
CONTINUOUS
 70
0
 71
3
 72
11
 73
7
 74
0
 42
0.0000001
 43
0.0000001
 44
0.0000000001
 40
0.0
 40
0.0
 40
0.0
 40
0.0
 40
0.237217774
 40
0.4999989081
 40
0.7627806366
 40
1.0
 40
1.0
 40
1.0
 40
1.0
 10
41.0895427924
 20
136.7564786668
 30
0.0
 10
40.9891623094
 20
136.8144320546
 30
0.0
 10
40.7991844752
 20
136.9743135073
 30
0.0
 10
40.5774497142
 20
137.2773160535
 30
0.0
 10
40.4259073222
 20
137.6208452905
 30
0.0
 10
40.3824330673
 20
137.8653123196
 30
0.0
 10
40.3824330673
 20
137.9812218385
 30
0.0
  0
SPLINE
  5
36B
100
AcDbEntity
  8
0
100
AcDbSpline
 62
7
  6
CONTINUOUS
 70
0
 71
3
 72
9
 73
5
 74
0
 42
0.0000001
 43
0.0000001
 44
0.0000000001
 40
0.0
 40
0.0
 40
0.0
 40
0.0
 40
0.5462408757
 40
1.0
 40
1.0
 40
1.0
 40
1.0
 10
186.5925807111
 20
92.8568338847
 30
0.0
 10
186.6659893347
 20
92.9039041634
 30
0.0
 10
186.7916631099
 20
93.010216282
 30
0.0
 10
186.8493764066
 20
93.1707097738
 30
0.0
 10
186.8493804374
 20
93.2431491517
 30
0.0
  0
SPLINE
  5
36C
100
AcDbEntity
  8
0
100
AcDbSpline
 62
7
  6
CONTINUOUS
 70
0
 71
3
 72
8
 73
4
 74
0
 42
0.0000001
 43
0.0000001
 44
0.0000000001
 40
0.0
 40
0.0
 40
0.0
 40
0.0
 40
1.0
 40
1.0
 40
1.0
 40
1.0
 10
186.1656594195
 20
94.1560234548
 30
0.0
 10
186.2055936678
 20
94.1338956387
 30
0.0
 10
186.2435671094
 20
94.1079183316
 30
0.0
 10
186.2790115372
 20
94.079142005
 30
0.0
  0
SPLINE
  5
36D
100
AcDbEntity
  8
0
100
AcDbSpline
 62
7
  6
CONTINUOUS
 70
0
 71
3
 72
9
 73
5
 74
0
 42
0.0000001
 43
0.0000001
 44
0.0000000001
 40
0.0
 40
0.0
 40
0.0
 40
0.0
 40
0.2397883715
 40
1.0
 40
1.0
 40
1.0
 40
1.0
 10
186.2790115372
 20
94.079142005
 30
0.0
 10
186.3141486363
 20
94.0506151898
 30
0.0
 10
186.4510851068
 20
93.9198773752
 30
0.0
 10
186.5451139421
 20
93.7475162979
 30
0.0
 10
186.5899081269
 20
93.6112002511
 30
0.0
  0
SPLINE
  5
36E
100
AcDbEntity
  8
0
100
AcDbSpline
 62
7
  6
CONTINUOUS
 70
0
 71
3
 72
9
 73
5
 74
0
 42
0.0000001
 43
0.0000001
 44
0.0000000001
 40
0.0
 40
0.0
 40
0.0
 40
0.0
 40
0.7514923259
 40
1.0
 40
1.0
 40
1.0
 40
1.0
 10
186.5899081269
 20
93.6112002511
 30
0.0
 10
186.6494352571
 20
93.4300494363
 30
0.0
 10
186.6700902172
 20
93.1643825265
 30
0.0
 10
186.6120434921
 20
92.9168918953
 30
0.0
 10
186.5926045597
 20
92.8569077102
 30
0.0
  0
SPLINE
  5
36F
100
AcDbEntity
  8
0
100
AcDbSpline
 62
7
  6
CONTINUOUS
 70
0
 71
3
 72
9
 73
5
 74
0
 42
0.0000001
 43
0.0000001
 44
0.0000000001
 40
0.0
 40
0.0
 40
0.0
 40
0.0
 40
0.4562614297
 40
1.0
 40
1.0
 40
1.0
 40
1.0
 10
40.0344913315
 20
228.6519809664
 30
0.0
 10
40.161662796
 20
228.6854101224
 30
0.0
 10
40.461649564
 20
228.6788090341
 30
0.0
 10
40.7305700676
 20
228.5624482362
 30
0.0
 10
40.8662788946
 20
228.4840984809
 30
0.0
  0
SPLINE
  5
370
100
AcDbEntity
  8
0
100
AcDbSpline
 62
7
  6
CONTINUOUS
 70
0
 71
3
 72
11
 73
7
 74
0
 42
0.0000001
 43
0.0000001
 44
0.0000000001
 40
0.0
 40
0.0
 40
0.0
 40
0.0
 40
0.217745073
 40
0.4508830113
 40
0.7104597664
 40
1.0
 40
1.0
 40
1.0
 40
1.0
 10
65.4978259498
 20
201.2041321446
 30
0.0
 10
65.5637862391
 20
201.2422141395
 30
0.0
 10
65.6873227681
 20
201.3458328231
 30
0.0
 10
65.8187355895
 20
201.5607952584
 30
0.0
 10
65.8966418515
 20
201.8256168511
 30
0.0
 10
65.9121058304
 20
202.0183298543
 30
0.0
 10
65.9121058304
 20
202.1196071148
 30
0.0
  0
SPLINE
  5
371
100
AcDbEntity
  8
0
100
AcDbSpline
 62
7
  6
CONTINUOUS
 70
0
 71
3
 72
11
 73
7
 74
0
 42
0.0000001
 43
0.0000001
 44
0.0000000001
 40
0.0
 40
0.0
 40
0.0
 40
0.0
 40
0.2372428334
 40
0.4999989082
 40
0.7627555772
 40
1.0
 40
1.0
 40
1.0
 40
1.0
 10
41.7515734876
 20
137.122369937
 30
0.0
 10
41.6511829252
 20
137.180329144
 30
0.0
 10
41.4612159961
 20
137.3402234758
 30
0.0
 10
41.2394935287
 20
137.6432148981
 30
0.0
 10
41.0879546234
 20
137.9867279268
 30
0.0
 10
41.0444637625
 20
138.2311919512
 30
0.0
 10
41.0444637625
 20
138.3471131087
 30
0.0
  0
SPLINE
  5
372
100
AcDbEntity
  8
0
100
AcDbSpline
 62
7
  6
CONTINUOUS
 70
0
 71
3
 72
11
 73
7
 74
0
 42
0.0000001
 43
0.0000001
 44
0.0000000001
 40
0.0
 40
0.0
 40
0.0
 40
0.0
 40
0.2372444228
 40
0.5000010918
 40
0.7627571666
 40
1.0
 40
1.0
 40
1.0
 40
1.0
 10
41.1151741462
 20
138.3879375241
 30
0.0
 10
41.1151741462
 20
138.2720163666
 30
0.0
 10
41.1586650071
 20
138.0275523422
 30
0.0
 10
41.3102039124
 20
137.6840393135
 30
0.0
 10
41.5319263798
 20
137.3810478912
 30
0.0
 10
41.7218933089
 20
137.2211535594
 30
0.0
 10
41.8222838713
 20
137.1631943524
 30
0.0
  0
SPLINE
  5
373
100
AcDbEntity
  8
0
100
AcDbSpline
 62
7
  6
CONTINUOUS
 70
0
 71
3
 72
9
 73
5
 74
0
 42
0.0000001
 43
0.0000001
 44
0.0000000001
 40
0.0
 40
0.0
 40
0.0
 40
0.0
 40
0.4562614297
 40
1.0
 40
1.0
 40
1.0
 40
1.0
 10
137.9691882644
 20
166.803370754
 30
0.0
 10
138.0963597288
 20
166.83679991
 30
0.0
 10
138.3963464969
 20
166.8301988217
 30
0.0
 10
138.6652670005
 20
166.7138380238
 30
0.0
 10
138.8009758275
 20
166.6354882685
 30
0.0
  0
SPLINE
  5
374
100
AcDbEntity
  8
0
100
AcDbSpline
 62
7
  6
CONTINUOUS
 70
0
 71
3
 72
11
 73
7
 74
0
 42
0.0000001
 43
0.0000001
 44
0.0000000001
 40
0.0
 40
0.0
 40
0.0
 40
0.0
 40
0.217745073
 40
0.4508830113
 40
0.7104597664
 40
1.0
 40
1.0
 40
1.0
 40
1.0
 10
149.9974381048
 20
152.4193619794
 30
0.0
 10
150.0633983941
 20
152.4574439744
 30
0.0
 10
150.1869349231
 20
152.5610626579
 30
0.0
 10
150.3183477446
 20
152.7760250933
 30
0.0
 10
150.3962540065
 20
153.040846686
 30
0.0
 10
150.4117179854
 20
153.2335596891
 30
0.0
 10
150.4117179854
 20
153.3348369496
 30
0.0
  0
SPLINE
  5
375
100
AcDbEntity
  8
0
100
AcDbSpline
 62
7
  6
CONTINUOUS
 70
0
 71
3
 72
9
 73
5
 74
0
 42
0.0000001
 43
0.0000001
 44
0.0000000001
 40
0.0
 40
0.0
 40
0.0
 40
0.0
 40
0.4465904341
 40
1.0
 40
1.0
 40
1.0
 40
1.0
 10
174.8885642609
 20
181.2777060922
 30
0.0
 10
174.8705123747
 20
181.2881416641
 30
0.0
 10
174.820212551
 20
181.2957012928
 30
0.0
 10
174.7770988754
 20
181.2731621173
 30
0.0
 10
174.7555171038
 20
181.2589544754
 30
0.0
  0
SPLINE
  5
376
100
AcDbEntity
  8
0
100
AcDbSpline
 62
7
  6
CONTINUOUS
 70
0
 71
3
 72
9
 73
5
 74
0
 42
0.0000001
 43
0.0000001
 44
0.0000000001
 40
0.0
 40
0.0
 40
0.0
 40
0.0
 40
0.2145617472
 40
1.0
 40
1.0
 40
1.0
 40
1.0
 10
174.7555171038
 20
181.2589544754
 30
0.0
 10
174.744745224
 20
181.2518631664
 30
0.0
 10
174.696798781
 20
181.2153940213
 30
0.0
 10
174.6573921514
 20
181.1687174277
 30
0.0
 10
174.6302193985
 20
181.1301116543
 30
0.0
  0
SPLINE
  5
377
100
AcDbEntity
  8
0
100
AcDbSpline
 62
7
  6
CONTINUOUS
 70
0
 71
3
 72
9
 73
5
 74
0
 42
0.0000001
 43
0.0000001
 44
0.0000000001
 40
0.0
 40
0.0
 40
0.0
 40
0.0
 40
0.3232864876
 40
1.0
 40
1.0
 40
1.0
 40
1.0
 10
174.6766923757
 20
181.3176812286
 30
0.0
 10
174.6736933761
 20
181.3172248088
 30
0.0
 10
174.6681835266
 20
181.3074796339
 30
0.0
 10
174.6652677378
 20
181.2994642258
 30
0.0
 10
174.663318343
 20
181.2934209726
 30
0.0
  0
SPLINE
  5
378
100
AcDbEntity
  8
0
100
AcDbSpline
 62
7
  6
CONTINUOUS
 70
0
 71
3
 72
9
 73
5
 74
0
 42
0.0000001
 43
0.0000001
 44
0.0000000001
 40
0.0
 40
0.0
 40
0.0
 40
0.0
 40
0.1684296978
 40
1.0
 40
1.0
 40
1.0
 40
1.0
 10
174.663318343
 20
181.2934209726
 30
0.0
 10
174.660446833
 20
181.2845191012
 30
0.0
 10
174.6463601439
 20
181.23074629
 30
0.0
 10
174.6374476398
 20
181.1758330956
 30
0.0
 10
174.6302592887
 20
181.1302156907
 30
0.0
  0
SPLINE
  5
379
100
AcDbEntity
  8
0
100
AcDbSpline
 62
7
  6
CONTINUOUS
 70
0
 71
3
 72
11
 73
7
 74
0
 42
0.0000001
 43
0.0000001
 44
0.0000000001
 40
0.0
 40
0.0
 40
0.0
 40
0.0
 40
0.2915385908
 40
0.550133202
 40
0.7815959327
 40
1.0
 40
1.0
 40
1.0
 40
1.0
 10
28.9868296256
 20
242.8656368101
 30
0.0
 10
28.6609750331
 20
243.0537647909
 30
0.0
 10
28.0131631199
 20
243.3575416438
 30
0.0
 10
27.0160956033
 20
243.5714761841
 30
0.0
 10
26.0889397505
 20
243.4951887375
 30
0.0
 10
25.5503578425
 20
243.2392794414
 30
0.0
 10
25.3227357588
 20
243.0730227439
 30
0.0
  0
SPLINE
  5
37A
100
AcDbEntity
  8
0
100
AcDbSpline
 62
7
  6
CONTINUOUS
 70
0
 71
3
 72
11
 73
7
 74
0
 42
0.0000001
 43
0.0000001
 44
0.0000000001
 40
0.0
 40
0.0
 40
0.0
 40
0.0
 40
0.2372413575
 40
0.5000010231
 40
0.762760128
 40
1.0
 40
1.0
 40
1.0
 40
1.0
 10
167.2365573573
 20
157.4037693796
 30
0.0
 10
167.2365573575
 20
158.2052208844
 30
0.0
 10
166.9359370153
 20
159.8954180414
 30
0.0
 10
165.8882161523
 20
162.2704334308
 30
0.0
 10
164.3552466304
 20
164.3652831492
 30
0.0
 10
163.0418007303
 20
165.4707140638
 30
0.0
 10
162.3477237878
 20
165.8714305079
 30
0.0
  0
SPLINE
  5
37B
100
AcDbEntity
  8
0
100
AcDbSpline
 62
7
  6
CONTINUOUS
 70
0
 71
3
 72
11
 73
7
 74
0
 42
0.0000001
 43
0.0000001
 44
0.0000000001
 40
0.0
 40
0.0
 40
0.0
 40
0.0
 40
0.2897035712
 40
0.5490890106
 40
0.7822159725
 40
1.0
 40
1.0
 40
1.0
 40
1.0
 10
24.8111599569
 20
239.3864204249
 30
0.0
 10
24.8111599569
 20
239.7008204491
 30
0.0
 10
24.8588295798
 20
240.2987418755
 30
0.0
 10
25.1009920372
 20
241.1202515061
 30
0.0
 10
25.5087043491
 20
241.7868557614
 30
0.0
 10
25.8916614134
 20
242.1088048597
 30
0.0
 10
26.0963464861
 20
242.2269789787
 30
0.0
  0
SPLINE
  5
37C
100
AcDbEntity
  8
0
100
AcDbSpline
 62
7
  6
CONTINUOUS
 70
0
 71
3
 72
11
 73
7
 74
0
 42
0.0000001
 43
0.0000001
 44
0.0000000001
 40
0.0
 40
0.0
 40
0.0
 40
0.0
 40
0.2882109585
 40
0.5480746298
 40
0.7822320581
 40
1.0
 40
1.0
 40
1.0
 40
1.0
 10
186.5925806276
 20
69.0296880463
 30
0.0
 10
186.5925806276
 20
68.8731938558
 30
0.0
 10
186.5696454492
 20
68.5747232301
 30
0.0
 10
186.455084532
 20
68.1622814696
 30
0.0
 10
186.2621269243
 20
67.822128853
 30
0.0
 10
186.079720221
 20
67.6508304194
 30
0.0
 10
185.9812930355
 20
67.5853025797
 30
0.0
  0
SPLINE
  5
37D
100
AcDbEntity
  8
0
100
AcDbSpline
 62
7
  6
CONTINUOUS
 70
0
 71
3
 72
11
 73
7
 74
0
 42
0.0000001
 43
0.0000001
 44
0.0000000001
 40
0.0
 40
0.0
 40
0.0
 40
0.0
 40
0.2885347726
 40
0.5481840274
 40
0.7822023063
 40
1.0
 40
1.0
 40
1.0
 40
1.0
 10
162.243070634
 20
46.5044146227
 30
0.0
 10
162.5044905392
 20
46.3534871845
 30
0.0
 10
163.024736739
 20
46.104070928
 30
0.0
 10
163.8238312218
 20
45.8996689742
 30
0.0
 10
164.5770659436
 20
45.8966003873
 30
0.0
 10
165.0378469376
 20
46.0384595091
 30
0.0
 10
165.2413956252
 20
46.1408623383
 30
0.0
  0
SPLINE
  5
37E
100
AcDbEntity
  8
0
100
AcDbSpline
 62
7
  6
CONTINUOUS
 70
0
 71
3
 72
9
 73
5
 74
0
 42
0.0000001
 43
0.0000001
 44
0.0000000001
 40
0.0
 40
0.0
 40
0.0
 40
0.0
 40
0.2453315586
 40
1.0
 40
1.0
 40
1.0
 40
1.0
 10
164.6499776675
 20
46.9301522635
 30
0.0
 10
164.6792512323
 20
46.9593885459
 30
0.0
 10
164.7951267561
 20
47.0819833951
 30
0.0
 10
164.8968345346
 20
47.2177905627
 30
0.0
 10
164.9651266607
 20
47.3251830707
 30
0.0
  0
SPLINE
  5
37F
100
AcDbEntity
  8
0
100
AcDbSpline
 62
7
  6
CONTINUOUS
 70
0
 71
3
 72
9
 73
5
 74
0
 42
0.0000001
 43
0.0000001
 44
0.0000000001
 40
0.0
 40
0.0
 40
0.0
 40
0.0
 40
0.2256552676
 40
1.0
 40
1.0
 40
1.0
 40
1.0
 10
164.9651266607
 20
47.3251830707
 30
0.0
 10
165.050094493
 20
47.4587988932
 30
0.0
 10
165.3706120271
 20
48.0869739183
 30
0.0
 10
165.4701434458
 20
48.8083713546
 30
0.0
 10
165.4701434458
 20
49.3517337795
 30
0.0
  0
SPLINE
  5
380
100
AcDbEntity
  8
0
100
AcDbSpline
 62
7
  6
CONTINUOUS
 70
0
 71
3
 72
9
 73
5
 74
0
 42
0.0000001
 43
0.0000001
 44
0.0000000001
 40
0.0
 40
0.0
 40
0.0
 40
0.0
 40
0.2887229041
 40
1.0
 40
1.0
 40
1.0
 40
1.0
 10
186.5925275396
 20
161.877603362
 30
0.0
 10
186.6131652227
 20
161.8835318144
 30
0.0
 10
186.6835397455
 20
161.9068154986
 30
0.0
 10
186.7518019211
 20
161.9424976561
 30
0.0
 10
186.7901135513
 20
161.9789720661
 30
0.0
  0
SPLINE
  5
381
100
AcDbEntity
  8
0
100
AcDbSpline
 62
7
  6
CONTINUOUS
 70
0
 71
3
 72
9
 73
5
 74
0
 42
0.0000001
 43
0.0000001
 44
0.0000000001
 40
0.0
 40
0.0
 40
0.0
 40
0.0
 40
0.5208007528
 40
1.0
 40
1.0
 40
1.0
 40
1.0
 10
186.7901135513
 20
161.9789720661
 30
0.0
 10
186.8080633053
 20
161.9960610462
 30
0.0
 10
186.8384806807
 20
162.0342906923
 30
0.0
 10
186.8496393746
 20
162.0825568301
 30
0.0
 10
186.8494785583
 20
162.1053601533
 30
0.0
  0
SPLINE
  5
382
100
AcDbEntity
  8
0
100
AcDbSpline
 62
7
  6
CONTINUOUS
 70
0
 71
3
 72
11
 73
7
 74
0
 42
0.0000001
 43
0.0000001
 44
0.0000000001
 40
0.0
 40
0.0
 40
0.0
 40
0.0
 40
0.2177720681
 40
0.4519491291
 40
0.7118166694
 40
1.0
 40
1.0
 40
1.0
 40
1.0
 10
55.0456133009
 20
249.4663548161
 30
0.0
 10
55.1515535318
 20
249.5186601505
 30
0.0
 10
55.3909841936
 20
249.5906674563
 30
0.0
 10
55.7817191915
 20
249.5874626172
 30
0.0
 10
56.1958015358
 20
249.4804301094
 30
0.0
 10
56.4655065965
 20
249.3511568955
 30
0.0
 10
56.6009100466
 20
249.2729834455
 30
0.0
  0
SPLINE
  5
383
100
AcDbEntity
  8
0
100
AcDbSpline
 62
7
  6
CONTINUOUS
 70
0
 71
3
 72
11
 73
7
 74
0
 42
0.0000001
 43
0.0000001
 44
0.0000000001
 40
0.0
 40
0.0
 40
0.0
 40
0.0
 40
0.2177836164
 40
0.4509108072
 40
0.7102971141
 40
1.0
 40
1.0
 40
1.0
 40
1.0
 10
165.2382112191
 20
46.1350467679
 30
0.0
 10
165.0335246267
 20
46.0168718917
 30
0.0
 10
164.5632240617
 20
45.846198554
 30
0.0
 10
163.7820631145
 20
45.826423171
 30
0.0
 10
162.9495295295
 20
46.0274768378
 30
0.0
 10
162.407877494
 20
46.2851606002
 30
0.0
 10
162.1355957239
 20
46.4423589972
 30
0.0
  0
SPLINE
  5
384
100
AcDbEntity
  8
0
100
AcDbSpline
 62
7
  6
CONTINUOUS
 70
0
 71
3
 72
10
 73
6
 74
0
 42
0.0000001
 43
0.0000001
 44
0.0000000001
 40
0.0
 40
0.0
 40
0.0
 40
0.0
 40
0.2949352309
 40
0.564376719
 40
1.0
 40
1.0
 40
1.0
 40
1.0
 10
59.6021444279
 20
243.876265623
 30
0.0
 10
59.447046913
 20
244.068901474
 30
0.0
 10
59.1199411155
 20
244.416583065
 30
0.0
 10
58.4521064742
 20
244.9177314718
 30
0.0
 10
57.8494336103
 20
245.1300520627
 30
0.0
 10
57.4855345668
 20
245.0982632508
 30
0.0
  0
SPLINE
  5
385
100
AcDbEntity
  8
0
100
AcDbSpline
 62
7
  6
CONTINUOUS
 70
0
 71
3
 72
11
 73
7
 74
0
 42
0.0000001
 43
0.0000001
 44
0.0000000001
 40
0.0
 40
0.0
 40
0.0
 40
0.0
 40
0.217796715
 40
0.4518146046
 40
0.7114642813
 40
1.0
 40
1.0
 40
1.0
 40
1.0
 10
26.1029688076
 20
242.2268349293
 30
0.0
 10
25.9125062905
 20
242.1017559541
 30
0.0
 10
25.5592534308
 20
241.7736295302
 30
0.0
 10
25.1852874517
 20
241.1197559208
 30
0.0
 10
24.9627578185
 20
240.3254946279
 30
0.0
 10
24.9186396037
 20
239.7502227962
 30
0.0
 10
24.9186396037
 20
239.4483537285
 30
0.0
  0
SPLINE
  5
386
100
AcDbEntity
  8
0
100
AcDbSpline
 62
7
  6
CONTINUOUS
 70
0
 71
3
 72
11
 73
7
 74
0
 42
0.0000001
 43
0.0000001
 44
0.0000000001
 40
0.0
 40
0.0
 40
0.0
 40
0.0
 40
0.2184030386
 40
0.4498653021
 40
0.7084603492
 40
1.0
 40
1.0
 40
1.0
 40
1.0
 10
165.5840949871
 20
45.0420660764
 30
0.0
 10
165.8418943707
 20
45.1560652273
 30
0.0
 10
166.332820782
 20
45.4945433803
 30
0.0
 10
166.8624740775
 20
46.2593614724
 30
0.0
 10
167.1757349453
 20
47.2298429555
 30
0.0
 10
167.2365573574
 20
47.9427733289
 30
0.0
 10
167.2365573573
 20
48.3190464536
 30
0.0
  0
SPLINE
  5
387
100
AcDbEntity
  8
0
100
AcDbSpline
 62
7
  6
CONTINUOUS
 70
0
 71
3
 72
9
 73
5
 74
0
 42
0.0000001
 43
0.0000001
 44
0.0000000001
 40
0.0
 40
0.0
 40
0.0
 40
0.0
 40
0.4872463024
 40
1.0
 40
1.0
 40
1.0
 40
1.0
 10
67.323822004
 20
242.91254601
 30
0.0
 10
67.3206279402
 20
243.0244292739
 30
0.0
 10
67.250932562
 20
243.2557642125
 30
0.0
 10
67.0816934358
 20
243.4231823009
 30
0.0
 10
66.9845264246
 20
243.4897605521
 30
0.0
  0
SPLINE
  5
388
100
AcDbEntity
  8
0
100
AcDbSpline
 62
7
  6
CONTINUOUS
 70
0
 71
3
 72
9
 73
5
 74
0
 42
0.0000001
 43
0.0000001
 44
0.0000000001
 40
0.0
 40
0.0
 40
0.0
 40
0.0
 40
0.2426189488
 40
1.0
 40
1.0
 40
1.0
 40
1.0
 10
66.9314729876
 20
243.5236458839
 30
0.0
 10
66.8841218445
 20
243.5518145593
 30
0.0
 10
66.6796215165
 20
243.6518509836
 30
0.0
 10
66.447239518
 20
243.6913211392
 30
0.0
 10
66.2752901297
 20
243.6874205095
 30
0.0
  0
SPLINE
  5
389
100
AcDbEntity
  8
0
100
AcDbSpline
 62
7
  6
CONTINUOUS
 70
0
 71
3
 72
9
 73
5
 74
0
 42
0.0000001
 43
0.0000001
 44
0.0000000001
 40
0.0
 40
0.0
 40
0.0
 40
0.0
 40
0.1850993157
 40
1.0
 40
1.0
 40
1.0
 40
1.0
 10
65.2196375221
 20
244.5617895817
 30
0.0
 10
65.2198734409
 20
244.553487982
 30
0.0
 10
65.2213316786
 20
244.5086424214
 30
0.0
 10
65.2208670748
 20
244.4637567622
 30
0.0
 10
65.220405344
 20
244.4271970875
 30
0.0
  0
LINE
  5
38A
100
AcDbEntity
  8
0
100
AcDbLine
 62
7
  6
CONTINUOUS
 10
65.220405344
 20
244.4271970875
 11
65.2187584005
 21
244.2975786496
  0
SPLINE
  5
38B
100
AcDbEntity
  8
0
100
AcDbSpline
 62
7
  6
CONTINUOUS
 70
0
 71
3
 72
11
 73
7
 74
0
 42
0.0000001
 43
0.0000001
 44
0.0000000001
 40
0.0
 40
0.0
 40
0.0
 40
0.0
 40
0.249500069
 40
0.4984425051
 40
0.7480627583
 40
1.0
 40
1.0
 40
1.0
 40
1.0
 10
69.541065298
 20
238.7074145808
 30
0.0
 10
69.2031471069
 20
238.9028120773
 30
0.0
 10
68.5266780351
 20
239.2907781266
 30
0.0
 10
67.5152197537
 20
239.879526672
 30
0.0
 10
66.5009297706
 20
240.4711966657
 30
0.0
 10
65.8098465137
 20
240.8432170294
 30
0.0
 10
65.4681850114
 20
241.0397560564
 30
0.0
  0
SPLINE
  5
38C
100
AcDbEntity
  8
0
100
AcDbSpline
 62
7
  6
CONTINUOUS
 70
0
 71
3
 72
9
 73
5
 74
0
 42
0.0000001
 43
0.0000001
 44
0.0000000001
 40
0.0
 40
0.0
 40
0.0
 40
0.0
 40
0.2533396269
 40
1.0
 40
1.0
 40
1.0
 40
1.0
 10
65.4681850114
 20
241.0397560564
 30
0.0
 10
65.4161904168
 20
241.0696656803
 30
0.0
 10
65.2115059578
 20
241.1886672316
 30
0.0
 10
65.0094971453
 20
241.3124063711
 30
0.0
 10
64.861615876
 20
241.4092826346
 30
0.0
  0
SPLINE
  5
38D
100
AcDbEntity
  8
0
100
AcDbSpline
 62
7
  6
CONTINUOUS
 70
0
 71
3
 72
14
 73
10
 74
0
 42
0.0000001
 43
0.0000001
 44
0.0000000001
 40
0.0
 40
0.0
 40
0.0
 40
0.0
 40
0.1267986866
 40
0.2509444402
 40
0.3748303973
 40
0.4996548454
 40
0.6249391752
 40
0.7500945557
 40
1.0
 40
1.0
 40
1.0
 40
1.0
 10
170.3878868585
 20
180.4850336324
 30
0.0
 10
170.1846245487
 20
180.5892205488
 30
0.0
 10
169.7887154363
 20
180.8078726886
 30
0.0
 10
169.2098818493
 20
181.1555050955
 30
0.0
 10
168.634387246
 20
181.5018180465
 30
0.0
 10
168.0509448204
 20
181.8387054631
 30
0.0
 10
167.4637371243
 20
182.1735659676
 30
0.0
 10
166.6821594802
 20
182.62242831
 30
0.0
 10
166.0980114803
 20
182.9618834021
 30
0.0
 10
165.7079846484
 20
183.1866702801
 30
0.0
  0
SPLINE
  5
38E
100
AcDbEntity
  8
0
100
AcDbSpline
 62
7
  6
CONTINUOUS
 70
0
 71
3
 72
8
 73
4
 74
0
 42
0.0000001
 43
0.0000001
 44
0.0000000001
 40
0.0
 40
0.0
 40
0.0
 40
0.0
 40
1.0
 40
1.0
 40
1.0
 40
1.0
 10
60.1378467753
 20
247.1474130107
 30
0.0
 10
60.1221415929
 20
247.0749468284
 30
0.0
 10
60.1009167812
 20
247.0035204946
 30
0.0
 10
60.0752425219
 20
246.9339587756
 30
0.0
  0
SPLINE
  5
38F
100
AcDbEntity
  8
0
100
AcDbSpline
 62
7
  6
CONTINUOUS
 70
0
 71
3
 72
9
 73
5
 74
0
 42
0.0000001
 43
0.0000001
 44
0.0000000001
 40
0.0
 40
0.0
 40
0.0
 40
0.0
 40
0.2362714971
 40
1.0
 40
1.0
 40
1.0
 40
1.0
 10
60.1687623562
 20
247.038104118
 30
0.0
 10
60.1688911359
 20
247.0471135293
 30
0.0
 10
60.1665017747
 20
247.0852892785
 30
0.0
 10
60.1524943004
 20
247.1222391072
 30
0.0
 10
60.1378467753
 20
247.1474130107
 30
0.0
  0
SPLINE
  5
390
100
AcDbEntity
  8
0
100
AcDbSpline
 62
7
  6
CONTINUOUS
 70
0
 71
3
 72
8
 73
4
 74
0
 42
0.0000001
 43
0.0000001
 44
0.0000000001
 40
0.0
 40
0.0
 40
0.0
 40
0.0
 40
1.0
 40
1.0
 40
1.0
 40
1.0
 10
59.8834258708
 20
247.5806432693
 30
0.0
 10
59.9424666617
 20
247.5170206449
 30
0.0
 10
59.9955325712
 20
247.44705331
 30
0.0
 10
60.0395314208
 20
247.3722351668
 30
0.0
  0
SPLINE
  5
391
100
AcDbEntity
  8
0
100
AcDbSpline
 62
7
  6
CONTINUOUS
 70
0
 71
3
 72
9
 73
5
 74
0
 42
0.0000001
 43
0.0000001
 44
0.0000000001
 40
0.0
 40
0.0
 40
0.0
 40
0.0
 40
0.2557036723
 40
1.0
 40
1.0
 40
1.0
 40
1.0
 10
60.0395314208
 20
247.3722351668
 30
0.0
 10
60.0501483882
 20
247.3541814722
 30
0.0
 10
60.0896351107
 20
247.2824184467
 30
0.0
 10
60.1208154508
 20
247.2059494953
 30
0.0
 10
60.1378464721
 20
247.1474130986
 30
0.0
  0
SPLINE
  5
392
100
AcDbEntity
  8
0
100
AcDbSpline
 62
7
  6
CONTINUOUS
 70
0
 71
3
 72
8
 73
4
 74
0
 42
0.0000001
 43
0.0000001
 44
0.0000000001
 40
0.0
 40
0.0
 40
0.0
 40
0.0
 40
1.0
 40
1.0
 40
1.0
 40
1.0
 10
59.6781794966
 20
247.7610792219
 30
0.0
 10
59.5425072327
 20
247.8092903881
 30
0.0
 10
59.4007044886
 20
247.8423118244
 30
0.0
 10
59.2579317744
 20
247.8609459822
 30
0.0
  0
SPLINE
  5
393
100
AcDbEntity
  8
0
100
AcDbSpline
 62
7
  6
CONTINUOUS
 70
0
 71
3
 72
9
 73
5
 74
0
 42
0.0000001
 43
0.0000001
 44
0.0000000001
 40
0.0
 40
0.0
 40
0.0
 40
0.0
 40
0.1824718562
 40
1.0
 40
1.0
 40
1.0
 40
1.0
 10
181.8927421714
 20
177.202065086
 30
0.0
 10
181.8929897284
 20
177.193353959
 30
0.0
 10
181.8930661705
 20
177.1455881619
 30
0.0
 10
181.8929112977
 20
177.097834188
 30
0.0
 10
181.8928273512
 20
177.0587900835
 30
0.0
  0
SPLINE
  5
394
100
AcDbEntity
  8
0
100
AcDbSpline
 62
7
  6
CONTINUOUS
 70
0
 71
3
 72
10
 73
6
 74
0
 42
0.0000001
 43
0.0000001
 44
0.0000000001
 40
0.0
 40
0.0
 40
0.0
 40
0.0
 40
0.2949352309
 40
0.564376719
 40
1.0
 40
1.0
 40
1.0
 40
1.0
 10
176.2752490772
 20
176.5165411272
 30
0.0
 10
176.1201515623
 20
176.7091769782
 30
0.0
 10
175.7930457647
 20
177.0568585692
 30
0.0
 10
175.1252111235
 20
177.558006976
 30
0.0
 10
174.5225382596
 20
177.7703275669
 30
0.0
 10
174.1586392161
 20
177.7385387549
 30
0.0
  0
SPLINE
  5
395
100
AcDbEntity
  8
0
100
AcDbSpline
 62
7
  6
CONTINUOUS
 70
0
 71
3
 72
8
 73
4
 74
0
 42
0.0000001
 43
0.0000001
 44
0.0000000001
 40
0.0
 40
0.0
 40
0.0
 40
0.0
 40
1.0
 40
1.0
 40
1.0
 40
1.0
 10
176.3512853148
 20
180.4013542946
 30
0.0
 10
176.2156128092
 20
180.4495656524
 30
0.0
 10
176.0738097866
 20
180.482587233
 30
0.0
 10
175.9310367849
 20
180.5012214431
 30
0.0
  0
SPLINE
  5
396
100
AcDbEntity
  8
0
100
AcDbSpline
 62
7
  6
CONTINUOUS
 70
0
 71
3
 72
9
 73
5
 74
0
 42
0.0000001
 43
0.0000001
 44
0.0000000001
 40
0.0
 40
0.0
 40
0.0
 40
0.0
 40
0.2362754064
 40
1.0
 40
1.0
 40
1.0
 40
1.0
 10
176.8418665028
 20
179.6783452044
 30
0.0
 10
176.8419961783
 20
179.687357411
 30
0.0
 10
176.8396141077
 20
179.7255448426
 30
0.0
 10
176.825603197
 20
179.7625073116
 30
0.0
 10
176.8109514245
 20
179.7876885148
 30
0.0
  0
SPLINE
  5
397
100
AcDbEntity
  8
0
100
AcDbSpline
 62
7
  6
CONTINUOUS
 70
0
 71
3
 72
8
 73
4
 74
0
 42
0.0000001
 43
0.0000001
 44
0.0000000001
 40
0.0
 40
0.0
 40
0.0
 40
0.0
 40
1.0
 40
1.0
 40
1.0
 40
1.0
 10
176.8109514245
 20
179.7876885148
 30
0.0
 10
176.7952462422
 20
179.7152223326
 30
0.0
 10
176.7740211263
 20
179.6437961113
 30
0.0
 10
176.7483471714
 20
179.5742342802
 30
0.0
  0
SPLINE
  5
398
100
AcDbEntity
  8
0
100
AcDbSpline
 62
7
  6
CONTINUOUS
 70
0
 71
3
 72
8
 73
4
 74
0
 42
0.0000001
 43
0.0000001
 44
0.0000000001
 40
0.0
 40
0.0
 40
0.0
 40
0.0
 40
1.0
 40
1.0
 40
1.0
 40
1.0
 10
176.5565311154
 20
180.2209182283
 30
0.0
 10
176.6155717556
 20
180.1572956376
 30
0.0
 10
176.6686375384
 20
180.0873283746
 30
0.0
 10
176.7126362888
 20
180.0125103206
 30
0.0
  0
SPLINE
  5
399
100
AcDbEntity
  8
0
100
AcDbSpline
 62
7
  6
CONTINUOUS
 70
0
 71
3
 72
9
 73
5
 74
0
 42
0.0000001
 43
0.0000001
 44
0.0000000001
 40
0.0
 40
0.0
 40
0.0
 40
0.0
 40
0.2557036707
 40
1.0
 40
1.0
 40
1.0
 40
1.0
 10
176.7126362888
 20
180.0125103206
 30
0.0
 10
176.72325323
 20
179.9944566514
 30
0.0
 10
176.7627398569
 20
179.9226937293
 30
0.0
 10
176.7939201285
 20
179.8462249018
 30
0.0
 10
176.8109511214
 20
179.7876886027
 30
0.0
  0
ELLIPSE
  5
39A
100
AcDbEntity
  8
0
100
AcDbEllipse
 62
7
  6
CONTINUOUS
 10
206.2493375783
 20
192.9210874111
 30
0.0
 11
40.5215918803
 21
20.8753434017
 31
0.0
 40
0.0452169597
 41
8.6684587253
 42
8.7481154399
  0
ELLIPSE
  5
39B
100
AcDbEntity
  8
0
100
AcDbEllipse
 62
7
  6
CONTINUOUS
 10
89.5762329291
 20
260.2808119069
 30
0.0
 11
40.5215918803
 21
20.8753434017
 31
0.0
 40
0.0452169597
 41
2.385273418
 42
2.4649301565
  0
ELLIPSE
  5
39C
100
AcDbEntity
  8
0
100
AcDbEllipse
 62
7
  6
CONTINUOUS
 10
206.2493375783
 20
192.9210874111
 30
0.0
 11
40.5215918803
 21
20.8753434017
 31
0.0
 40
0.0452169597
 41
-2.4067895809
 42
-2.312637961
  0
ENDSEC
  0
SECTION
  2
OBJECTS
  0
DICTIONARY
  5
C
100
AcDbDictionary
280
0
281
1
  3
ACAD_GROUP
350
D
  3
ACAD_MLINESTYLE
350
17
  3
ACAD_LAYOUT
350
1A
  3
ACAD_PLOTSETTINGS
350
19
  3
ACAD_PLOTSTYLENAME
350
E
  0
DICTIONARY
  5
D
102
{ACAD_REACTORS
330
C
102
}
100
AcDbDictionary
280
0
281
1
  0
ACDBDICTIONARYWDFLT
  5
E
102
{ACAD_REACTORS
330
C
102
}
100
AcDbDictionary
281
1
  3
Normal
350
F
100
AcDbDictionaryWithDefault
340
F
  0
DICTIONARY
  5
17
102
{ACAD_REACTORS
330
C
102
}
100
AcDbDictionary
280
0
281
1
  3
Standard
350
18
  0
DICTIONARY
  5
19
102
{ACAD_REACTORS
330
C
102
}
100
AcDbDictionary
281
1
  0
DICTIONARY
  5
1A
102
{ACAD_REACTORS
330
C
102
}
100
AcDbDictionary
281
1
  3
Model
350
39D
  3
Layout1
350
39E
  0
ACDBPLACEHOLDER
  5
F
102
{ACAD_REACTORS
330
E
102
}
  0
MLINESTYLE
  5
18
102
{ACAD_REACTORS
330
17
102
}
100
AcDbMlineStyle
  2
STANDARD
 70
0
  3

 62
256
 51
90.0
 52
90.0
 71
2
 49
0.5
 62
256
  6
BYLAYER
 49
-0.5
 62
256
  6
BYLAYER
  0
LAYOUT
  5
39D
102
{ACAD_REACTORS
330
1A
102
}
100
AcDbPlotSettings
  1

  2
none_device
  4

  6

 40
0.0
 41
0.0
 42
0.0
 43
0.0
 44
210.0
 45
297.0
 46
0.0
 47
0.0
 48
0.0
 49
0.0
140
0.0
141
0.0
142
1.0
143
1.0
 70
1024
 72
1
 73
0
 74
0
  7

 75
0
147
1.0
148
0.0
149
0.0
100
AcDbLayout
  1
Model
 70
0
 71
0
 10
0.0
 20
0.0
 11
210.0
 21
297.0
 12
0.0
 22
0.0
 32
0.0
 14
0.0
 24
0.0
 34
0.0
 15
0.0
 25
0.0
 35
0.0
146
0.0
 13
0.0
 23
0.0
 33
0.0
 16
1.0
 26
0.0
 36
0.0
 17
0.0
 27
1.0
 37
0.0
 76
0
330
210
345
0
346
0
  0
LAYOUT
  5
39E
102
{ACAD_REACTORS
330
1A
102
}
100
AcDbPlotSettings
  1

  2
none_device
  4

  6

 40
0.0
 41
0.0
 42
0.0
 43
0.0
 44
210.0
 45
297.0
 46
0.0
 47
0.0
 48
0.0
 49
0.0
140
0.0
141
0.0
142
1.0
143
1.0
 70
0
 72
1
 73
0
 74
0
  7

 75
0
147
1.0
148
0.0
149
0.0
100
AcDbLayout
  1
Layout1
 70
0
 71
1
 10
0.0
 20
0.0
 11
210.0
 21
297.0
 12
0.0
 22
0.0
 32
0.0
 14
0.0
 24
0.0
 34
0.0
 15
0.0
 25
0.0
 35
0.0
146
0.0
 13
0.0
 23
0.0
 33
0.0
 16
1.0
 26
0.0
 36
0.0
 17
0.0
 27
1.0
 37
0.0
 76
0
330
211
345
0
346
0
  0
ENDSEC
  0
EOF
