999
DXF file: C:\Users\sesa63760\Dev\_Creo\CAD\MCADID0000483_3D-CAD\drw0001_3.dxf
999
Pro/ENGINEER 2019471 by Parametric Technology Corporation
  0
SECTION
  2
HEADER
  9
$ACADVER
  1
AC1024
  9
$DWGCODEPAGE
  3
ANSI_1252
  9
$EXTMAX
 10
257.3632164092
 20
363.9851203501
 30
0.0
  9
$EXTMIN
 10
0.0
 20
0.0
 30
0.0
  9
$LIMMIN
 10
0.0
 20
0.0
  9
$LIMMAX
 10
257.3632164092
 20
363.9851203501
  9
$VIEWCTR
 10
128.6816082046
 20
181.9925601751
  9
$VIEWSIZE
 40
363.9851203501
  9
$CLAYER
  8
0
  9
$LTSCALE
 40
23.7264374747
  9
$CELTYPE
  6
BYLAYER
  9
$DIMSCALE
 40
1.0
  9
$DIMASZ
 40
3.0638478144
  9
$DIMEXO
 40
1.0
  9
$DIMDLI
 40
16.3928113461
  9
$DIMEXE
 40
1.0
  9
$DIMCEN
 40
3.8825079504
  9
$DIMLFAC
 40
1.0
  9
$DIMBLK
  1
_FILLED
  9
$DIMALT
 70
0
  9
$DIMALTF
 40
0.0393700787
  9
$DIMTXT
 40
4.2893869402
  9
$DIMTOL
 70
1
  9
$DIMLIM
 70
0
  9
$DIMTFAC
 40
1.0
  9
$DIMTP
 40
0.01
  9
$DIMTM
 40
0.01
  9
$DIMGAP
 40
0.625
  9
$DIMDSEP
 70
46
  9
$AUNITS
 70
0
  9
$PDMODE
 70
3
  9
$PDSIZE
 40
0.3125
  9
$HANDSEED
  5
2C6
  9
$TILEMODE
 70
1
  9
$MEASUREMENT
 70
1
  9
$INSUNITS
 70
4
  0
ENDSEC
  0
SECTION
  2
CLASSES
  0
CLASS
  1
ACDBDICTIONARYWDFLT
  2
AcDbDictionaryWithDefault
  3
AutoCAD 2000
 90
0
 91
1
280
0
281
0
  0
CLASS
  1
ACDBPLACEHOLDER
  2
AcDbPlaceHolder
  3
AutoCAD 2000
 90
0
 91
1
280
0
281
0
  0
CLASS
  1
LAYOUT
  2
AcDbLayout
  3
AutoCAD 2000
 90
0
 91
0
280
0
281
0
  0
ENDSEC
  0
SECTION
  2
TABLES
  0
TABLE
  2
VPORT
  5
8
100
AcDbSymbolTable
 70
2
  0
VPORT
  5
1F4
100
AcDbSymbolTableRecord
100
AcDbViewportTableRecord
  2
*ACTIVE
 70
0
 10
0.0
 20
0.0
 11
1.0
 21
1.0
 12
128.6816082046
 22
181.9925601751
 13
0.0
 23
0.0
 14
1.0
 24
1.0
 15
0.0
 25
0.0
 16
0.0
 26
0.0
 36
1.0
 17
0.0
 27
0.0
 37
0.0
 40
363.9851203501
 41
0.7070707071
 42
50.0
 43
0.0
 44
0.0
 50
0.0
 51
0.0
 71
0
 72
100
 73
1
 74
1
 75
0
 76
0
 77
0
 78
0
  0
ENDTAB
  0
TABLE
  2
LTYPE
  5
5
100
AcDbSymbolTable
 70
6
  0
LTYPE
  5
14
100
AcDbSymbolTableRecord
100
AcDbLinetypeTableRecord
  2
BYBLOCK
 70
0
  3

 72
65
 73
0
 40
0.0
  0
LTYPE
  5
15
100
AcDbSymbolTableRecord
100
AcDbLinetypeTableRecord
  2
BYLAYER
 70
0
  3

 72
65
 73
0
 40
0.0
  0
LTYPE
  5
16
100
AcDbSymbolTableRecord
100
AcDbLinetypeTableRecord
  2
CONTINUOUS
 70
64
  3
Solid line
 72
65
 73
0
 40
0.0
  0
LTYPE
  5
1F5
100
AcDbSymbolTableRecord
100
AcDbLinetypeTableRecord
  2
CENTER
 70
64
  3
____ _ ____ _ ____ _ ____ _ ____ _ ____ _ ____
 72
65
 73
4
 40
0.6
 49
0.375
 74
0
 49
-0.075
 74
0
 49
0.075
 74
0
 49
-0.075
 74
0
  0
LTYPE
  5
1F6
100
AcDbSymbolTableRecord
100
AcDbLinetypeTableRecord
  2
HIDDEN
 70
64
  3
- - - - - - - - - - - - - - - - - - - -
 72
65
 73
2
 40
0.2
 49
0.1
 74
0
 49
-0.1
 74
0
  0
LTYPE
  5
1F7
100
AcDbSymbolTableRecord
100
AcDbLinetypeTableRecord
  2
PHANTOM
 70
64
  3
_____ _ _ _____ _ _ _____ _ _ _____
 72
65
 73
6
 40
0.8
 49
0.45
 74
0
 49
-0.05
 74
0
 49
0.1
 74
0
 49
-0.05
 74
0
 49
0.1
 74
0
 49
-0.05
 74
0
  0
LTYPE
  5
1F8
100
AcDbSymbolTableRecord
100
AcDbLinetypeTableRecord
  2
DOT
 70
64
  3
. . . . . . . . . . . . . . . . . . . .
 72
65
 73
2
 40
0.2
 49
0.1
 74
0
 49
-0.1
 74
0
  0
LTYPE
  5
1F9
100
AcDbSymbolTableRecord
100
AcDbLinetypeTableRecord
  2
DASHED
 70
64
  3
- - - - - - - - - - - - - - - - - - - -
 72
65
 73
2
 40
0.2
 49
0.1
 74
0
 49
-0.1
 74
0
  0
ENDTAB
  0
TABLE
  2
LAYER
  5
2
100
AcDbSymbolTable
 70
36
  0
LAYER
  5
10
100
AcDbSymbolTableRecord
100
AcDbLayerTableRecord
  2
0
 70
0
 62
7
  6
CONTINUOUS
370
-3
390
F
  0
LAYER
  5
1FA
100
AcDbSymbolTableRecord
100
AcDbLayerTableRecord
  2
DEFAULT_1
 70
0
 62
7
  6
CENTER
370
-3
390
F
  0
LAYER
  5
1FB
100
AcDbSymbolTableRecord
100
AcDbLayerTableRecord
  2
DEFAULT_2
 70
0
 62
8
  6
HIDDEN
370
-3
390
F
  0
LAYER
  5
1FC
100
AcDbSymbolTableRecord
100
AcDbLayerTableRecord
  2
DEFAULT_3
 70
0
 62
7
  6
PHANTOM
370
-3
390
F
  0
LAYER
  5
1FD
100
AcDbSymbolTableRecord
100
AcDbLayerTableRecord
  2
00_COMPONENTS
 70
0
 62
7
  6
CONTINUOUS
370
-3
390
F
  0
LAYER
  5
1FE
100
AcDbSymbolTableRecord
100
AcDbLayerTableRecord
  2
01_1_DEFAULT_DATUMS
 70
0
 62
7
  6
CONTINUOUS
370
-3
390
F
  0
LAYER
  5
1FF
100
AcDbSymbolTableRecord
100
AcDbLayerTableRecord
  2
01_PLANES
 70
0
 62
7
  6
CONTINUOUS
370
-3
390
F
  0
LAYER
  5
200
100
AcDbSymbolTableRecord
100
AcDbLayerTableRecord
  2
02_COORD_SYS
 70
0
 62
7
  6
CONTINUOUS
370
-3
390
F
  0
LAYER
  5
201
100
AcDbSymbolTableRecord
100
AcDbLayerTableRecord
  2
03_AXES
 70
0
 62
7
  6
CONTINUOUS
370
-3
390
F
  0
LAYER
  5
202
100
AcDbSymbolTableRecord
100
AcDbLayerTableRecord
  2
04_POINTS
 70
0
 62
7
  6
CONTINUOUS
370
-3
390
F
  0
LAYER
  5
203
100
AcDbSymbolTableRecord
100
AcDbLayerTableRecord
  2
05_CURVES
 70
0
 62
7
  6
CONTINUOUS
370
-3
390
F
  0
LAYER
  5
204
100
AcDbSymbolTableRecord
100
AcDbLayerTableRecord
  2
06_SURFS
 70
0
 62
7
  6
CONTINUOUS
370
-3
390
F
  0
LAYER
  5
205
100
AcDbSymbolTableRecord
100
AcDbLayerTableRecord
  2
07_COSMETICS
 70
0
 62
7
  6
CONTINUOUS
370
-3
390
F
  0
LAYER
  5
206
100
AcDbSymbolTableRecord
100
AcDbLayerTableRecord
  2
10_NOTES
 70
0
 62
7
  6
CONTINUOUS
370
-3
390
F
  0
LAYER
  5
207
100
AcDbSymbolTableRecord
100
AcDbLayerTableRecord
  2
11_NOTES_PUB
 70
0
 62
7
  6
CONTINUOUS
370
-3
390
F
  0
LAYER
  5
208
100
AcDbSymbolTableRecord
100
AcDbLayerTableRecord
  2
13_REF_GTOL
 70
0
 62
7
  6
CONTINUOUS
370
-3
390
F
  0
LAYER
  5
209
100
AcDbSymbolTableRecord
100
AcDbLayerTableRecord
  2
16_MISC
 70
0
 62
7
  6
CONTINUOUS
370
-3
390
F
  0
LAYER
  5
20A
100
AcDbSymbolTableRecord
100
AcDbLayerTableRecord
  2
17_NO_PRINT
 70
0
 62
7
  6
CONTINUOUS
370
-3
390
F
  0
LAYER
  5
20B
100
AcDbSymbolTableRecord
100
AcDbLayerTableRecord
  2
18_DATUM_CAMS_JOINTS
 70
0
 62
7
  6
CONTINUOUS
370
-3
390
F
  0
LAYER
  5
20C
100
AcDbSymbolTableRecord
100
AcDbLayerTableRecord
  2
19_DATUM_FUNCTIONAL
 70
0
 62
7
  6
CONTINUOUS
370
-3
390
F
  0
LAYER
  5
20D
100
AcDbSymbolTableRecord
100
AcDbLayerTableRecord
  2
20_DATUM_KINEMATIC_SCHEME
 70
0
 62
7
  6
CONTINUOUS
370
-3
390
F
  0
ENDTAB
  0
TABLE
  2
STYLE
  5
3
100
AcDbSymbolTable
 70
1
  0
STYLE
  5
11
100
AcDbSymbolTableRecord
100
AcDbTextStyleTableRecord
  2
STANDARD
 70
0
 40
0.0
 41
0.8
 50
0.0
 71
0
 42
0.2
  3
txt
  4

  0
STYLE
  5
20E
100
AcDbSymbolTableRecord
100
AcDbTextStyleTableRecord
  2
TEXTSTYLE_1
 70
0
 40
0.0
 41
0.8
 50
0.0
 71
0
 42
0.2
  3
gdt
  4

  0
ENDTAB
  0
TABLE
  2
VIEW
  5
6
100
AcDbSymbolTable
 70
0
  0
ENDTAB
  0
TABLE
  2
UCS
  5
7
100
AcDbSymbolTable
 70
0
  0
ENDTAB
  0
TABLE
  2
APPID
  5
9
100
AcDbSymbolTable
 70
1
  0
APPID
  5
20F
100
AcDbSymbolTableRecord
100
AcDbRegAppTableRecord
  2
ACAD
 70
0
  0
ENDTAB
  0
TABLE
  2
BLOCK_RECORD
  5
1
100
AcDbSymbolTable
 70
0
  0
BLOCK_RECORD
  5
210
100
AcDbSymbolTableRecord
100
AcDbBlockTableRecord
  2
*Model_Space
  0
BLOCK_RECORD
  5
211
100
AcDbSymbolTableRecord
100
AcDbBlockTableRecord
  2
*Paper_Space
  0
BLOCK_RECORD
  5
212
100
AcDbSymbolTableRecord
100
AcDbBlockTableRecord
  2
_FILLED
  0
ENDTAB
  0
TABLE
  2
DIMSTYLE
  5
A
100
AcDbSymbolTable
 70
1
100
AcDbDimStyleTable
 71
0
  0
DIMSTYLE
105
213
100
AcDbSymbolTableRecord
100
AcDbDimStyleTableRecord
  2
STANDARD
 70
0
  3

  4

 40
1.0
 41
3.0638478144
 42
1.0
 43
0.38
 44
1.0
 45
0.0
 46
0.0
 47
0.01
 48
0.01
140
4.2893869402
141
0.09
142
0.0
143
25.4
144
1.0
145
0.0
146
1.0
147
0.625
 71
1
 72
0
 73
0
 74
0
 75
0
 76
0
 77
1
 78
8
 79
2
170
0
171
1
172
0
173
0
174
0
175
0
176
0
177
0
178
0
270
2
179
2
271
2
272
2
273
2
274
2
275
0
280
0
281
0
282
0
283
1
284
8
285
0
286
0
287
3
288
0
340
11
278
46
341
212
342
212
343
212
344
212
  0
ENDTAB
  0
ENDSEC
  0
SECTION
  2
BLOCKS
  0
BLOCK
  5
20
100
AcDbEntity
  8
0
100
AcDbBlockBegin
  2
*Model_Space
 70
0
 10
0.0
 20
0.0
 30
0.0
  3
*Model_Space
  1

  0
ENDBLK
  5
21
100
AcDbEntity
  8
0
100
AcDbBlockEnd
  0
BLOCK
  5
1C
100
AcDbEntity
  8
0
100
AcDbBlockBegin
  2
*Paper_Space
 70
0
 10
0.0
 20
0.0
 30
0.0
  3
*Paper_Space
  1

  0
ENDBLK
  5
1D
100
AcDbEntity
  8
0
100
AcDbBlockEnd
  0
BLOCK
  5
214
100
AcDbEntity
  8
0
100
AcDbBlockBegin
  2
_FILLED
 70
64
 10
0.0
 20
0.0
  3
_FILLED
  1

  0
SOLID
  5
215
100
AcDbEntity
  8
0
  6
BYBLOCK
 62
0
100
AcDbTrace
 10
0.0
 20
0.0
 11
-1.0
 21
0.25
 12
-1.0
 22
-0.25
 13
-1.0
 23
-0.25
  0
ENDBLK
  5
216
100
AcDbEntity
  8
0
  6
BYBLOCK
 62
0
100
AcDbBlockEnd
  0
ENDSEC
  0
SECTION
  2
ENTITIES
  0
LINE
  5
217
100
AcDbEntity
  8
0
100
AcDbLine
 62
7
  6
CONTINUOUS
 10
33.8203733641
 20
205.1935886214
 11
33.8203733641
 21
205.0935886214
  0
LINE
  5
218
100
AcDbEntity
  8
0
100
AcDbLine
 62
7
  6
CONTINUOUS
 10
31.0318960358
 20
205.0935886214
 11
30.4457219901
 21
198.3935886214
  0
LINE
  5
219
100
AcDbEntity
  8
0
100
AcDbLine
 62
7
  6
CONTINUOUS
 10
39.258042569
 20
159.5935886214
 11
38.4457219901
 21
175.0935886214
  0
LINE
  5
21A
100
AcDbEntity
  8
0
100
AcDbLine
 62
7
  6
CONTINUOUS
 10
39.8704048333
 20
169.199793001
 11
39.9187559975
 21
168.0936099594
  0
LINE
  5
21B
100
AcDbEntity
  8
0
100
AcDbLine
 62
7
  6
CONTINUOUS
 10
41.0940497642
 20
196.7852911918
 11
41.644747292
 21
175.0935886214
  0
LINE
  5
21C
100
AcDbEntity
  8
0
100
AcDbLine
 62
7
  6
CONTINUOUS
 10
38.1457219901
 20
175.0935886214
 11
37.5957220068
 21
198.3935879143
  0
LINE
  5
21D
100
AcDbEntity
  8
0
100
AcDbLine
 62
7
  6
CONTINUOUS
 10
37.9457219924
 20
198.3935886214
 11
37.9457219924
 21
205.0935886214
  0
LINE
  5
21E
100
AcDbEntity
  8
0
100
AcDbLine
 62
7
  6
CONTINUOUS
 10
38.7457219901
 20
205.0935886214
 11
38.7457219901
 21
206.0935886214
  0
LINE
  5
21F
100
AcDbEntity
  8
0
100
AcDbLine
 62
7
  6
CONTINUOUS
 10
41.9457219895
 20
169.0935886214
 11
41.9457219901
 21
175.0935886214
  0
LINE
  5
220
100
AcDbEntity
  8
0
100
AcDbLine
 62
7
  6
CONTINUOUS
 10
42.6457219901
 20
168.0936099594
 11
42.6457219901
 21
159.5935886214
  0
LINE
  5
221
100
AcDbEntity
  8
0
100
AcDbLine
 62
7
  6
CONTINUOUS
 10
32.7457219901
 20
205.8778453073
 11
32.8933457953
 21
205.1935886214
  0
LINE
  5
222
100
AcDbEntity
  8
0
100
AcDbLine
 62
7
  6
CONTINUOUS
 10
42.7457219901
 20
170.0935886214
 11
42.7457219901
 21
174.5935886214
  0
LINE
  5
223
100
AcDbEntity
  8
0
100
AcDbLine
 62
7
  6
CONTINUOUS
 10
44.7457219901
 20
174.5935886214
 11
44.7457219901
 21
170.0935886214
  0
LINE
  5
224
100
AcDbEntity
  8
0
100
AcDbLine
 62
7
  6
CONTINUOUS
 10
46.7457219901
 20
169.1935886214
 11
46.7457219901
 21
171.0935886214
  0
LINE
  5
225
100
AcDbEntity
  8
0
100
AcDbLine
 62
7
  6
CONTINUOUS
 10
45.3582943372
 20
170.0412526515
 11
45.3766629299
 21
171.0935886214
  0
LINE
  5
226
100
AcDbEntity
  8
0
100
AcDbLine
 62
7
  6
CONTINUOUS
 10
46.3759017304
 20
171.0935886214
 11
46.3532877723
 21
169.7980358262
  0
LINE
  5
227
100
AcDbEntity
  8
0
100
AcDbLine
 62
7
  6
CONTINUOUS
 10
53.1381561925
 20
169.798036715
 11
53.1155422499
 21
171.0935886214
  0
LINE
  5
228
100
AcDbEntity
  8
0
100
AcDbLine
 62
7
  6
CONTINUOUS
 10
54.1331496428
 20
170.0412526652
 11
54.1147810504
 21
171.0935886214
  0
LINE
  5
229
100
AcDbEntity
  8
0
100
AcDbLine
 62
7
  6
CONTINUOUS
 10
51.3214581272
 20
169.1935886214
 11
51.3214611912
 21
169.0935886216
  0
LINE
  5
22A
100
AcDbEntity
  8
0
100
AcDbLine
 62
7
  6
CONTINUOUS
 10
52.1699860588
 20
169.0935886214
 11
52.1699860588
 21
169.1935886214
  0
LINE
  5
22B
100
AcDbEntity
  8
0
100
AcDbLine
 62
7
  6
CONTINUOUS
 10
52.7457219901
 20
169.1935886214
 11
52.7457219901
 21
171.0935886214
  0
LINE
  5
22C
100
AcDbEntity
  8
0
100
AcDbLine
 62
7
  6
CONTINUOUS
 10
53.7457219901
 20
206.1735886214
 11
53.7457219901
 21
206.0935886214
  0
LINE
  5
22D
100
AcDbEntity
  8
0
100
AcDbLine
 62
7
  6
CONTINUOUS
 10
55.7457219901
 20
206.0935886214
 11
55.7457219901
 21
206.1735886214
  0
LINE
  5
22E
100
AcDbEntity
  8
0
100
AcDbLine
 62
7
  6
CONTINUOUS
 10
56.3457219902
 20
174.0409584144
 11
56.3457219903
 21
169.0935886214
  0
LINE
  5
22F
100
AcDbEntity
  8
0
100
AcDbLine
 62
7
  6
CONTINUOUS
 10
57.3457219901
 20
173.0933490432
 11
57.3457219901
 21
170.0935886196
  0
LINE
  5
230
100
AcDbEntity
  8
0
100
AcDbLine
 62
7
  6
CONTINUOUS
 10
57.3457219901
 20
171.9644090147
 11
57.9103117935
 21
173.0935886214
  0
LINE
  5
231
100
AcDbEntity
  8
0
100
AcDbLine
 62
7
  6
CONTINUOUS
 10
57.3457219901
 20
171.2935886214
 11
58.2457219901
 21
173.0935886214
  0
LINE
  5
232
100
AcDbEntity
  8
0
100
AcDbLine
 62
7
  6
CONTINUOUS
 10
53.2876254734
 20
169.4501376293
 11
53.6505259468
 21
169.0935163273
  0
LINE
  5
233
100
AcDbEntity
  8
0
100
AcDbLine
 62
7
  6
CONTINUOUS
 10
70.7457219901
 20
172.0935886214
 11
70.7457219901
 21
173.0935886214
  0
LINE
  5
234
100
AcDbEntity
  8
0
100
AcDbLine
 62
7
  6
CONTINUOUS
 10
73.7457219901
 20
172.0935886214
 11
73.7457219901
 21
173.0935886214
  0
LINE
  5
235
100
AcDbEntity
  8
0
100
AcDbLine
 62
7
  6
CONTINUOUS
 10
74.2457219828
 20
173.0935886488
 11
74.6476457788
 21
171.5935886214
  0
LINE
  5
236
100
AcDbEntity
  8
0
100
AcDbLine
 62
7
  6
CONTINUOUS
 10
46.2038185724
 20
169.4501376936
 11
45.8409174059
 21
169.0935157105
  0
LINE
  5
237
100
AcDbEntity
  8
0
100
AcDbLine
 62
7
  6
CONTINUOUS
 10
89.2457219901
 20
206.1735886214
 11
89.2457219901
 21
206.0935886214
  0
LINE
  5
238
100
AcDbEntity
  8
0
100
AcDbLine
 62
7
  6
CONTINUOUS
 10
91.2457219901
 20
206.0935886214
 11
91.2457219901
 21
206.1735886214
  0
LINE
  5
239
100
AcDbEntity
  8
0
100
AcDbLine
 62
7
  6
CONTINUOUS
 10
52.7457219901
 20
170.8073828411
 11
53.0319277704
 21
171.0935886214
  0
LINE
  5
23A
100
AcDbEntity
  8
0
100
AcDbLine
 62
7
  6
CONTINUOUS
 10
53.1212066856
 20
170.7690733169
 11
52.7457219901
 21
170.3935886214
  0
LINE
  5
23B
100
AcDbEntity
  8
0
100
AcDbLine
 62
7
  6
CONTINUOUS
 10
53.1284851956
 20
170.3520877582
 11
52.7457219901
 21
169.9693245527
  0
LINE
  5
23C
100
AcDbEntity
  8
0
100
AcDbLine
 62
7
  6
CONTINUOUS
 10
95.9963019901
 20
172.2340686214
 11
95.9963019901
 21
173.0935886214
  0
LINE
  5
23D
100
AcDbEntity
  8
0
100
AcDbLine
 62
7
  6
CONTINUOUS
 10
104.4951419901
 20
172.2340686214
 11
104.4951419901
 21
173.0935886214
  0
LINE
  5
23E
100
AcDbEntity
  8
0
100
AcDbLine
 62
7
  6
CONTINUOUS
 10
77.7457220466
 20
173.0935886779
 11
76.2457219901
 21
171.5935886214
  0
LINE
  5
23F
100
AcDbEntity
  8
0
100
AcDbLine
 62
7
  6
CONTINUOUS
 10
205.7457219901
 20
159.5935886214
 11
201.7457219901
 21
159.5935886214
  0
LINE
  5
240
100
AcDbEntity
  8
0
100
AcDbLine
 62
7
  6
CONTINUOUS
 10
42.6457219901
 20
159.5935886214
 11
39.258042569
 21
159.5935886214
  0
LINE
  5
241
100
AcDbEntity
  8
0
100
AcDbLine
 62
7
  6
CONTINUOUS
 10
119.2457219901
 20
172.0935886214
 11
119.2457219901
 21
173.0935886214
  0
LINE
  5
242
100
AcDbEntity
  8
0
100
AcDbLine
 62
7
  6
CONTINUOUS
 10
38.9521404988
 20
165.4305478359
 11
42.6457219901
 21
165.4305478359
  0
LINE
  5
243
100
AcDbEntity
  8
0
100
AcDbLine
 62
7
  6
CONTINUOUS
 10
201.7457219901
 20
165.4305478359
 11
205.7457219901
 21
165.4305478359
  0
LINE
  5
244
100
AcDbEntity
  8
0
100
AcDbLine
 62
7
  6
CONTINUOUS
 10
39.9187559975
 20
168.0936099594
 11
38.8125753268
 21
168.0936099594
  0
LINE
  5
245
100
AcDbEntity
  8
0
100
AcDbLine
 62
7
  6
CONTINUOUS
 10
217.7457219901
 20
168.8935886214
 11
211.7457219901
 21
168.8935886214
  0
LINE
  5
246
100
AcDbEntity
  8
0
100
AcDbLine
 62
7
  6
CONTINUOUS
 10
224.7823107477
 20
169.0935886214
 11
217.7457219901
 21
169.0935886214
  0
LINE
  5
247
100
AcDbEntity
  8
0
100
AcDbLine
 62
7
  6
CONTINUOUS
 10
211.7457219901
 20
169.0935886214
 11
202.7457219901
 21
169.0935886214
  0
LINE
  5
248
100
AcDbEntity
  8
0
100
AcDbLine
 62
7
  6
CONTINUOUS
 10
51.4398155017
 20
169.0935886214
 11
51.3333381414
 21
169.0935886214
  0
LINE
  5
249
100
AcDbEntity
  8
0
100
AcDbLine
 62
7
  6
CONTINUOUS
 10
51.3214611913
 20
169.0935886214
 11
40.4922662863
 21
169.0935886214
  0
LINE
  5
24A
100
AcDbEntity
  8
0
100
AcDbLine
 62
7
  6
CONTINUOUS
 10
51.8614682184
 20
169.0935886214
 11
56.3457219903
 21
169.0935886214
  0
LINE
  5
24B
100
AcDbEntity
  8
0
100
AcDbLine
 62
7
  6
CONTINUOUS
 10
52.7457219901
 20
169.1935886214
 11
46.7457219901
 21
169.1935886214
  0
LINE
  5
24C
100
AcDbEntity
  8
0
100
AcDbLine
 62
7
  6
CONTINUOUS
 10
183.7457219901
 20
169.2935886214
 11
180.7457219901
 21
169.2935886214
  0
LINE
  5
24D
100
AcDbEntity
  8
0
100
AcDbLine
 62
7
  6
CONTINUOUS
 10
46.7457219901
 20
169.383119343
 11
46.1356202033
 21
169.383119343
  0
LINE
  5
24E
100
AcDbEntity
  8
0
100
AcDbLine
 62
7
  6
CONTINUOUS
 10
53.2876254734
 20
169.3935886214
 11
52.7457219901
 21
169.3935886214
  0
LINE
  5
24F
100
AcDbEntity
  8
0
100
AcDbLine
 62
7
  6
CONTINUOUS
 10
211.2038220392
 20
169.4501712508
 11
211.7457219901
 21
169.4501712508
  0
LINE
  5
250
100
AcDbEntity
  8
0
100
AcDbLine
 62
7
  6
CONTINUOUS
 10
217.7457219901
 20
169.4501712508
 11
218.2876219411
 21
169.4501712508
  0
LINE
  5
251
100
AcDbEntity
  8
0
100
AcDbLine
 62
7
  6
CONTINUOUS
 10
218.1381557882
 20
169.7980598715
 11
218.0007383833
 21
169.7980598715
  0
LINE
  5
252
100
AcDbEntity
  8
0
100
AcDbLine
 62
7
  6
CONTINUOUS
 10
211.4907055974
 20
169.7980598715
 11
211.353288192
 21
169.7980598715
  0
LINE
  5
253
100
AcDbEntity
  8
0
100
AcDbLine
 62
7
  6
CONTINUOUS
 10
122.2457219901
 20
172.0935886214
 11
122.2457219901
 21
173.0935886214
  0
LINE
  5
254
100
AcDbEntity
  8
0
100
AcDbLine
 62
7
  6
CONTINUOUS
 10
225.7809402697
 20
170.0412524179
 11
219.1331496428
 21
170.0412526652
  0
LINE
  5
255
100
AcDbEntity
  8
0
100
AcDbLine
 62
7
  6
CONTINUOUS
 10
210.3582943375
 20
170.0412526652
 11
202.7457219554
 21
170.0412526652
  0
LINE
  5
256
100
AcDbEntity
  8
0
100
AcDbLine
 62
7
  6
CONTINUOUS
 10
56.3457219902
 20
170.0412526652
 11
54.1331496428
 21
170.0412526652
  0
LINE
  5
257
100
AcDbEntity
  8
0
100
AcDbLine
 62
7
  6
CONTINUOUS
 10
45.3582943372
 20
170.0412526515
 11
38.8898401723
 21
170.0412526124
  0
LINE
  5
258
100
AcDbEntity
  8
0
100
AcDbLine
 62
7
  6
CONTINUOUS
 10
42.7457219901
 20
170.0935886214
 11
44.7457219901
 21
170.0935886214
  0
LINE
  5
259
100
AcDbEntity
  8
0
100
AcDbLine
 62
7
  6
CONTINUOUS
 10
219.7457219901
 20
170.0935886214
 11
221.7457219901
 21
170.0935886214
  0
LINE
  5
25A
100
AcDbEntity
  8
0
100
AcDbLine
 62
7
  6
CONTINUOUS
 10
201.7457219901
 20
170.2935886214
 11
148.0457219901
 21
170.2935886214
  0
LINE
  5
25B
100
AcDbEntity
  8
0
100
AcDbLine
 62
7
  6
CONTINUOUS
 10
219.1145758614
 20
171.0935886214
 11
216.8975486406
 21
171.0935886214
  0
LINE
  5
25C
100
AcDbEntity
  8
0
100
AcDbLine
 62
7
  6
CONTINUOUS
 10
212.5938953397
 20
171.0935886214
 11
210.3767020251
 21
171.0935886214
  0
LINE
  5
25D
100
AcDbEntity
  8
0
100
AcDbLine
 62
7
  6
CONTINUOUS
 10
54.1145758615
 20
171.0935886214
 11
51.8975486406
 21
171.0935886214
  0
LINE
  5
25E
100
AcDbEntity
  8
0
100
AcDbLine
 62
7
  6
CONTINUOUS
 10
47.5938953397
 20
171.0935886214
 11
45.3752809484
 21
171.0935886214
  0
LINE
  5
25F
100
AcDbEntity
  8
0
100
AcDbLine
 62
7
  6
CONTINUOUS
 10
76.2457219901
 20
171.5935886214
 11
74.6476457788
 21
171.5935886214
  0
LINE
  5
260
100
AcDbEntity
  8
0
100
AcDbLine
 62
7
  6
CONTINUOUS
 10
133.7457219901
 20
172.0935886214
 11
130.7457219901
 21
172.0935886214
  0
LINE
  5
261
100
AcDbEntity
  8
0
100
AcDbLine
 62
7
  6
CONTINUOUS
 10
122.2457219901
 20
172.0935886214
 11
119.2457219901
 21
172.0935886214
  0
LINE
  5
262
100
AcDbEntity
  8
0
100
AcDbLine
 62
7
  6
CONTINUOUS
 10
73.7457219901
 20
172.0935886214
 11
70.7457219901
 21
172.0935886214
  0
LINE
  5
263
100
AcDbEntity
  8
0
100
AcDbLine
 62
7
  6
CONTINUOUS
 10
104.4951419901
 20
172.2340686214
 11
95.9963019901
 21
172.2340686214
  0
LINE
  5
264
100
AcDbEntity
  8
0
100
AcDbLine
 62
7
  6
CONTINUOUS
 10
42.7457219901
 20
172.395533774
 11
44.7457219901
 21
172.395533774
  0
LINE
  5
265
100
AcDbEntity
  8
0
100
AcDbLine
 62
7
  6
CONTINUOUS
 10
219.7457219901
 20
172.395533774
 11
221.7457219901
 21
172.395533774
  0
LINE
  5
266
100
AcDbEntity
  8
0
100
AcDbLine
 62
7
  6
CONTINUOUS
 10
201.746142872
 20
173.0935886214
 11
57.3452900705
 21
173.0935886214
  0
LINE
  5
267
100
AcDbEntity
  8
0
100
AcDbLine
 62
7
  6
CONTINUOUS
 10
221.7457219901
 20
173.8612365897
 11
219.7457219901
 21
173.8612365897
  0
LINE
  5
268
100
AcDbEntity
  8
0
100
AcDbLine
 62
7
  6
CONTINUOUS
 10
44.7457219901
 20
173.8612365897
 11
42.7457219901
 21
173.8612365897
  0
LINE
  5
269
100
AcDbEntity
  8
0
100
AcDbLine
 62
7
  6
CONTINUOUS
 10
56.3457219902
 20
174.0409584144
 11
202.7457219034
 21
174.0409955158
  0
LINE
  5
26A
100
AcDbEntity
  8
0
100
AcDbLine
 62
7
  6
CONTINUOUS
 10
221.7457219901
 20
174.5935886214
 11
219.7457219901
 21
174.5935886214
  0
LINE
  5
26B
100
AcDbEntity
  8
0
100
AcDbLine
 62
7
  6
CONTINUOUS
 10
44.7457219901
 20
174.5935886214
 11
42.7457219901
 21
174.5935886214
  0
LINE
  5
26C
100
AcDbEntity
  8
0
100
AcDbLine
 62
7
  6
CONTINUOUS
 10
38.1457219901
 20
175.0935886214
 11
226.3457219901
 21
175.0935886214
  0
LINE
  5
26D
100
AcDbEntity
  8
0
100
AcDbLine
 62
7
  6
CONTINUOUS
 10
130.7457219901
 20
172.0935886214
 11
130.7457219901
 21
173.0935886214
  0
LINE
  5
26E
100
AcDbEntity
  8
0
100
AcDbLine
 62
7
  6
CONTINUOUS
 10
133.7457219901
 20
172.0935886214
 11
133.7457219901
 21
173.0935886214
  0
LINE
  5
26F
100
AcDbEntity
  8
0
100
AcDbLine
 62
7
  6
CONTINUOUS
 10
148.0457219901
 20
170.2935886214
 11
145.2457219901
 21
173.0935886214
  0
LINE
  5
270
100
AcDbEntity
  8
0
100
AcDbLine
 62
7
  6
CONTINUOUS
 10
234.0457219901
 20
198.3935886214
 11
30.4457219901
 21
198.3935886214
  0
LINE
  5
271
100
AcDbEntity
  8
0
100
AcDbLine
 62
7
  6
CONTINUOUS
 10
31.0318960358
 20
205.0935886214
 11
233.4595479445
 21
205.0935886214
  0
LINE
  5
272
100
AcDbEntity
  8
0
100
AcDbLine
 62
7
  6
CONTINUOUS
 10
32.8933457953
 20
205.1935886214
 11
231.598098185
 21
205.1935886214
  0
LINE
  5
273
100
AcDbEntity
  8
0
100
AcDbLine
 62
7
  6
CONTINUOUS
 10
32.7457219901
 20
205.8778453073
 11
231.7457219902
 21
205.8778453073
  0
LINE
  5
274
100
AcDbEntity
  8
0
100
AcDbLine
 62
7
  6
CONTINUOUS
 10
33.672749559
 20
206.0778453073
 11
230.8186944213
 21
206.0778453073
  0
LINE
  5
275
100
AcDbEntity
  8
0
100
AcDbLine
 62
7
  6
CONTINUOUS
 10
33.8203733642
 20
206.0935886214
 11
230.6710706161
 21
206.0935886214
  0
LINE
  5
276
100
AcDbEntity
  8
0
100
AcDbLine
 62
7
  6
CONTINUOUS
 10
53.7457219901
 20
206.1735886214
 11
91.2457219901
 21
206.1735886214
  0
LINE
  5
277
100
AcDbEntity
  8
0
100
AcDbLine
 62
7
  6
CONTINUOUS
 10
192.2457219901
 20
206.1735886214
 11
210.7457219901
 21
206.1735886214
  0
LINE
  5
278
100
AcDbEntity
  8
0
100
AcDbLine
 62
7
  6
CONTINUOUS
 10
180.7457219901
 20
169.2935886214
 11
180.7457219901
 21
170.2935886214
  0
LINE
  5
279
100
AcDbEntity
  8
0
100
AcDbLine
 62
7
  6
CONTINUOUS
 10
33.67274956
 20
206.0778453075
 11
32.7457219901
 21
205.8778453073
  0
LINE
  5
27A
100
AcDbEntity
  8
0
100
AcDbLine
 62
7
  6
CONTINUOUS
 10
231.7457219901
 20
205.8778453073
 11
230.8186944213
 21
206.0778453073
  0
LINE
  5
27B
100
AcDbEntity
  8
0
100
AcDbLine
 62
7
  6
CONTINUOUS
 10
183.7457219901
 20
169.2935886214
 11
183.7457219901
 21
170.2935886214
  0
LINE
  5
27C
100
AcDbEntity
  8
0
100
AcDbLine
 62
7
  6
CONTINUOUS
 10
200.2457219901
 20
173.0935886214
 11
197.4457219901
 21
170.2935886214
  0
LINE
  5
27D
100
AcDbEntity
  8
0
100
AcDbLine
 62
7
  6
CONTINUOUS
 10
218.2876254095
 20
169.4501376921
 11
218.6505451732
 21
169.0934974335
  0
LINE
  5
27E
100
AcDbEntity
  8
0
100
AcDbLine
 62
7
  6
CONTINUOUS
 10
192.2457219901
 20
206.1735886214
 11
192.2457219901
 21
206.0935886214
  0
LINE
  5
27F
100
AcDbEntity
  8
0
100
AcDbLine
 62
7
  6
CONTINUOUS
 10
194.2457219901
 20
206.0935886214
 11
194.2457219901
 21
206.1735886214
  0
LINE
  5
280
100
AcDbEntity
  8
0
100
AcDbLine
 62
7
  6
CONTINUOUS
 10
201.7457219901
 20
159.5935886214
 11
201.7457219901
 21
173.0933979026
  0
LINE
  5
281
100
AcDbEntity
  8
0
100
AcDbLine
 62
7
  6
CONTINUOUS
 10
202.7457219901
 20
169.0935886214
 11
202.7457219034
 21
174.0409955158
  0
LINE
  5
282
100
AcDbEntity
  8
0
100
AcDbLine
 62
7
  6
CONTINUOUS
 10
210.8409207334
 20
169.0935189805
 11
211.2038185724
 21
169.4501376937
  0
LINE
  5
283
100
AcDbEntity
  8
0
100
AcDbLine
 62
7
  6
CONTINUOUS
 10
205.7457219901
 20
168.0936058837
 11
205.7457219901
 21
159.5935886214
  0
LINE
  5
284
100
AcDbEntity
  8
0
100
AcDbLine
 62
7
  6
CONTINUOUS
 10
208.7457219901
 20
206.1735886214
 11
208.7457219901
 21
206.0935886214
  0
LINE
  5
285
100
AcDbEntity
  8
0
100
AcDbLine
 62
7
  6
CONTINUOUS
 10
210.7457219901
 20
206.0935886214
 11
210.7457219901
 21
206.1735886214
  0
LINE
  5
286
100
AcDbEntity
  8
0
100
AcDbLine
 62
7
  6
CONTINUOUS
 10
211.7457219901
 20
168.8935886214
 11
211.7457219901
 21
171.0935886214
  0
LINE
  5
287
100
AcDbEntity
  8
0
100
AcDbLine
 62
7
  6
CONTINUOUS
 10
210.3766629299
 20
171.0935886214
 11
210.3582943375
 21
170.0412526652
  0
LINE
  5
288
100
AcDbEntity
  8
0
100
AcDbLine
 62
7
  6
CONTINUOUS
 10
211.3759017304
 20
171.0935886214
 11
211.3532877878
 21
169.798036715
  0
LINE
  5
289
100
AcDbEntity
  8
0
100
AcDbLine
 62
7
  6
CONTINUOUS
 10
218.1381561925
 20
169.798036715
 11
218.1155422499
 21
171.0935886214
  0
LINE
  5
28A
100
AcDbEntity
  8
0
100
AcDbLine
 62
7
  6
CONTINUOUS
 10
219.1331496428
 20
170.0412526652
 11
219.1147810504
 21
171.0935886214
  0
LINE
  5
28B
100
AcDbEntity
  8
0
100
AcDbLine
 62
7
  6
CONTINUOUS
 10
217.7457219901
 20
168.8935886214
 11
217.7457219901
 21
171.0935886214
  0
LINE
  5
28C
100
AcDbEntity
  8
0
100
AcDbLine
 62
7
  6
CONTINUOUS
 10
219.7457219901
 20
170.0935886214
 11
219.7457219901
 21
174.5935886214
  0
LINE
  5
28D
100
AcDbEntity
  8
0
100
AcDbLine
 62
7
  6
CONTINUOUS
 10
221.7457219901
 20
174.5935886218
 11
221.7457219901
 21
170.0935886214
  0
LINE
  5
28E
100
AcDbEntity
  8
0
100
AcDbLine
 62
7
  6
CONTINUOUS
 10
222.5457219824
 20
169.0935886214
 11
222.5457219891
 21
175.0935886214
  0
LINE
  5
28F
100
AcDbEntity
  8
0
100
AcDbLine
 62
7
  6
CONTINUOUS
 10
222.8466966883
 20
175.0935886214
 11
223.3973935669
 21
196.7852930536
  0
LINE
  5
290
100
AcDbEntity
  8
0
100
AcDbLine
 62
7
  6
CONTINUOUS
 10
234.0457219901
 20
198.3935886214
 11
233.4595479445
 21
205.0935886214
  0
LINE
  5
291
100
AcDbEntity
  8
0
100
AcDbLine
 62
7
  6
CONTINUOUS
 10
225.7457219901
 20
206.0935886214
 11
225.7457219901
 21
205.0935886214
  0
LINE
  5
292
100
AcDbEntity
  8
0
100
AcDbLine
 62
7
  6
CONTINUOUS
 10
226.5457219875
 20
205.0935886214
 11
226.5457219867
 21
198.3935886214
  0
LINE
  5
293
100
AcDbEntity
  8
0
100
AcDbLine
 62
7
  6
CONTINUOUS
 10
230.6710706161
 20
205.0935886214
 11
230.6710706161
 21
205.1935886214
  0
LINE
  5
294
100
AcDbEntity
  8
0
100
AcDbLine
 62
7
  6
CONTINUOUS
 10
226.8957219607
 20
198.3935873741
 11
226.3457219901
 21
175.0935886214
  0
LINE
  5
295
100
AcDbEntity
  8
0
100
AcDbLine
 62
7
  6
CONTINUOUS
 10
225.780940263
 20
170.0412522931
 11
226.0457219901
 21
175.0935886214
  0
LINE
  5
296
100
AcDbEntity
  8
0
100
AcDbLine
 62
7
  6
CONTINUOUS
 10
231.598098185
 20
205.1935886214
 11
231.7457219901
 21
205.8778453073
  0
ARC
  5
297
100
AcDbEntity
  8
0
100
AcDbCircle
 62
7
  6
CONTINUOUS
 10
181.432807021
 20
207.1412220761
 40
52.8935115501
100
AcDbArc
 50
315.2653630142
 51
315.4598658953
  0
ARC
  5
298
100
AcDbEntity
  8
0
100
AcDbCircle
 62
7
  6
CONTINUOUS
 10
82.8568106272
 20
206.9405853803
 40
52.6089296505
100
AcDbArc
 50
224.5385626327
 51
224.7341156436
  0
ARC
  5
299
100
AcDbEntity
  8
0
100
AcDbCircle
 62
7
  6
CONTINUOUS
 10
247.8567990463
 20
206.9405772004
 40
52.6089156565
100
AcDbArc
 50
224.538565127
 51
224.7341181481
  0
ARC
  5
29A
100
AcDbEntity
  8
0
100
AcDbCircle
 62
7
  6
CONTINUOUS
 10
16.6346456498
 20
206.9405764914
 40
52.608914649
100
AcDbArc
 50
315.2658818569
 51
315.4614348766
  0
ARC
  5
29B
100
AcDbEntity
  8
0
100
AcDbCircle
 62
7
  6
CONTINUOUS
 10
56.3457219901
 20
170.0935886214
 40
1.0
100
AcDbArc
 50
270.0
 51
359.999999897
  0
ARC
  5
29C
100
AcDbEntity
  8
0
100
AcDbCircle
 62
7
  6
CONTINUOUS
 10
206.7457219901
 20
168.0935886214
 40
1.0
100
AcDbArc
 50
89.998608965
 51
179.9995174689
  0
ARC
  5
29D
100
AcDbEntity
  8
0
100
AcDbCircle
 62
7
  6
CONTINUOUS
 10
202.7457219901
 20
170.0935886214
 40
1.0
100
AcDbArc
 50
180.0
 51
270.0
  0
ARC
  5
29E
100
AcDbEntity
  8
0
100
AcDbCircle
 62
7
  6
CONTINUOUS
 10
224.7823107477
 20
170.0935886214
 40
1.0
100
AcDbArc
 50
270.0000000002
 51
356.9999786516
  0
ARC
  5
29F
100
AcDbEntity
  8
0
100
AcDbCircle
 62
7
  6
CONTINUOUS
 10
43.6457219901
 20
168.0935886214
 40
1.0
100
AcDbArc
 50
90.0012471857
 51
180.0007659039
  0
ARC
  5
2A0
100
AcDbEntity
  8
0
100
AcDbCircle
 62
7
  6
CONTINUOUS
 10
52.9364051297
 20
170.5355999701
 40
0.9702617274
100
AcDbArc
 50
285.516980574
 51
287.0318215629
  0
ARC
  5
2A1
100
AcDbEntity
  8
0
100
AcDbCircle
 62
7
  6
CONTINUOUS
 10
217.936436088
 20
170.5354923622
 40
0.9701497611
100
AcDbArc
 50
285.5169286518
 51
287.0312471333
  0
ARC
  5
2A2
100
AcDbEntity
  8
0
100
AcDbCircle
 62
7
  6
CONTINUOUS
 10
33.8203733642
 20
205.3935886214
 40
0.7
100
AcDbArc
 50
90.0000000003
 51
102.1745809447
  0
ARC
  5
2A3
100
AcDbEntity
  8
0
100
AcDbCircle
 62
7
  6
CONTINUOUS
 10
230.6710706161
 20
205.3935886214
 40
0.7
100
AcDbArc
 50
77.8254189757
 51
89.9999999998
  0
ARC
  5
2A4
100
AcDbEntity
  8
0
100
AcDbCircle
 62
7
  6
CONTINUOUS
 10
218.0382236668
 20
170.1701384424
 40
0.5908820305
100
AcDbArc
 50
284.2800577294
 51
285.4842544536
  0
ARC
  5
2A5
100
AcDbEntity
  8
0
100
AcDbCircle
 62
7
  6
CONTINUOUS
 10
53.0382252049
 20
170.1701323842
 40
0.5908757801
100
AcDbArc
 50
284.280058086
 51
285.4842517309
  0
ARC
  5
2A6
100
AcDbEntity
  8
0
100
AcDbCircle
 62
7
  6
CONTINUOUS
 10
218.6380800401
 20
169.8067629182
 40
0.5
100
AcDbArc
 50
180.998673024
 51
225.4983069975
  0
ARC
  5
2A7
100
AcDbEntity
  8
0
100
AcDbCircle
 62
7
  6
CONTINUOUS
 10
53.6380800401
 20
169.8067629182
 40
0.5
100
AcDbArc
 50
180.9999999999
 51
225.5000105198
  0
ARC
  5
2A8
100
AcDbEntity
  8
0
100
AcDbCircle
 62
7
  6
CONTINUOUS
 10
210.8533639402
 20
169.8067629182
 40
0.5
100
AcDbArc
 50
314.501489306
 51
359.0013269782
  0
ARC
  5
2A9
100
AcDbEntity
  8
0
100
AcDbCircle
 62
7
  6
CONTINUOUS
 10
45.8533639402
 20
169.8067629182
 40
0.5
100
AcDbArc
 50
314.5
 51
358.9998981398
  0
ARC
  5
2AA
100
AcDbEntity
  8
0
100
AcDbCircle
 62
7
  6
CONTINUOUS
 10
51.3214579214
 20
169.3935886214
 40
0.3
100
AcDbArc
 50
270.0
 51
314.9999999993
  0
SPLINE
  5
2AB
100
AcDbEntity
  8
0
100
AcDbSpline
 62
7
  6
CONTINUOUS
 70
0
 71
3
 72
9
 73
5
 74
0
 42
0.0000001
 43
0.0000001
 44
0.0000000001
 40
0.0
 40
0.0
 40
0.0
 40
0.0
 40
0.2450001582
 40
1.0
 40
1.0
 40
1.0
 40
1.0
 10
51.8614610468
 20
169.0935605468
 30
0.0
 10
51.8348419608
 20
169.0935741494
 30
0.0
 10
51.7262132509
 20
169.0957751384
 30
0.0
 10
51.6175282934
 20
169.0970206117
 30
0.0
 10
51.5355204566
 20
169.0951059366
 30
0.0
  0
SPLINE
  5
2AC
100
AcDbEntity
  8
0
100
AcDbSpline
 62
7
  6
CONTINUOUS
 70
0
 71
3
 72
8
 73
4
 74
0
 42
0.0000001
 43
0.0000001
 44
0.0000000001
 40
0.0
 40
0.0
 40
0.0
 40
0.0
 40
1.0
 40
1.0
 40
1.0
 40
1.0
 10
51.5355204566
 20
169.0951059366
 30
0.0
 10
51.5036210188
 20
169.0943611656
 30
0.0
 10
51.4717167543
 20
169.093571199
 30
0.0
 10
51.4398086275
 20
169.0935550993
 30
0.0
  0
SPLINE
  5
2AD
100
AcDbEntity
  8
0
100
AcDbSpline
 62
7
  6
CONTINUOUS
 70
0
 71
3
 72
16
 73
12
 74
0
 42
0.0000001
 43
0.0000001
 44
0.0000000001
 40
0.0
 40
0.0
 40
0.0
 40
0.0
 40
0.008384962
 40
0.0291265956
 40
0.0617081748
 40
0.1051346029
 40
0.2172479883
 40
0.3528124642
 40
0.5034121995
 40
0.6638042584
 40
1.0
 40
1.0
 40
1.0
 40
1.0
 10
57.3453777899
 20
173.0933489227
 30
0.0
 10
57.3415398751
 20
173.093683828
 30
0.0
 10
57.3307252406
 20
173.1033125767
 30
0.0
 10
57.3074687448
 20
173.1180606155
 30
0.0
 10
57.2732505259
 20
173.1472746982
 30
0.0
 10
57.2082101598
 20
173.2037579452
 30
0.0
 10
57.1104071478
 20
173.2953221968
 30
0.0
 10
56.9783768648
 20
173.4218953707
 30
0.0
 10
56.8305682516
 20
173.564234779
 30
0.0
 10
56.616563175
 20
173.770649736
 30
0.0
 10
56.4531685067
 20
173.9299850075
 30
0.0
 10
56.3457219902
 20
174.0409583256
 30
0.0
  0
SPLINE
  5
2AE
100
AcDbEntity
  8
0
100
AcDbSpline
 62
7
  6
CONTINUOUS
 70
0
 71
3
 72
11
 73
7
 74
0
 42
0.0000001
 43
0.0000001
 44
0.0000000001
 40
0.0
 40
0.0
 40
0.0
 40
0.0
 40
0.3362841666
 40
0.6473136834
 40
0.895088161
 40
1.0
 40
1.0
 40
1.0
 40
1.0
 10
202.7457219901
 20
174.0409956008
 30
0.0
 10
202.6487869687
 20
173.9207187914
 30
0.0
 10
202.4198346602
 20
173.7276100982
 30
0.0
 10
202.1314293752
 20
173.4342464635
 30
0.0
 10
201.907591554
 20
173.2293322808
 30
0.0
 10
201.788173195
 20
173.1168388438
 30
0.0
 10
201.7460657398
 20
173.0933977968
 30
0.0
  0
SPLINE
  5
2AF
100
AcDbEntity
  8
0
100
AcDbSpline
 62
7
  6
CONTINUOUS
 70
0
 71
3
 72
9
 73
5
 74
0
 42
0.0000001
 43
0.0000001
 44
0.0000000001
 40
0.0
 40
0.0
 40
0.0
 40
0.0
 40
0.1792566715
 40
1.0
 40
1.0
 40
1.0
 40
1.0
 10
46.3074723336
 20
169.5975136882
 30
0.0
 10
46.2966608245
 20
169.6002573771
 30
0.0
 10
46.2368331528
 20
169.6174364774
 30
0.0
 10
46.1781355349
 20
169.6382485852
 30
0.0
 10
46.13014605
 20
169.6557190604
 30
0.0
  0
SPLINE
  5
2B0
100
AcDbEntity
  8
0
100
AcDbSpline
 62
7
  6
CONTINUOUS
 70
0
 71
3
 72
9
 73
5
 74
0
 42
0.0000001
 43
0.0000001
 44
0.0000000001
 40
0.0
 40
0.0
 40
0.0
 40
0.0
 40
0.2073019294
 40
1.0
 40
1.0
 40
1.0
 40
1.0
 10
46.13014605
 20
169.6557190604
 30
0.0
 10
46.0850003873
 20
169.6721542479
 30
0.0
 10
45.8683529728
 20
169.7545112066
 30
0.0
 10
45.6537257469
 20
169.842086428
 30
0.0
 10
45.4844515199
 20
169.9134837575
 30
0.0
  0
SPLINE
  5
2B1
100
AcDbEntity
  8
0
100
AcDbSpline
 62
7
  6
CONTINUOUS
 70
0
 71
3
 72
15
 73
11
 74
0
 42
0.0000001
 43
0.0000001
 44
0.0000000001
 40
0.0
 40
0.0
 40
0.0
 40
0.0
 40
0.3808641118
 40
0.5530555515
 40
0.7039339421
 40
0.8278695432
 40
0.920355541
 40
0.9777714438
 40
0.9929902008
 40
1.0
 40
1.0
 40
1.0
 40
1.0
 10
202.7457219901
 20
170.0412526652
 30
0.0
 10
202.618153934
 20
170.0412526652
 30
0.0
 10
202.4329268092
 20
170.0430015217
 30
0.0
 10
202.1971669089
 20
170.0494548958
 30
0.0
 10
202.0477206328
 20
170.055631741
 30
0.0
 10
201.9244888583
 20
170.0632677461
 30
0.0
 10
201.8341427423
 20
170.0712261398
 30
0.0
 10
201.7775534548
 20
170.0798306439
 30
0.0
 10
201.7535965978
 20
170.0863849539
 30
0.0
 10
201.7457219901
 20
170.091240733
 30
0.0
 10
201.7457219901
 20
170.0935886214
 30
0.0
  0
SPLINE
  5
2B2
100
AcDbEntity
  8
0
100
AcDbSpline
 62
7
  6
CONTINUOUS
 70
0
 71
3
 72
18
 73
14
 74
0
 42
0.0000001
 43
0.0000001
 44
0.0000000001
 40
0.0
 40
0.0
 40
0.0
 40
0.0
 40
0.0056619091
 40
0.0212125044
 40
0.0463136797
 40
0.0805982386
 40
0.1236269898
 40
0.1748121977
 40
0.2992111597
 40
0.4489230224
 40
0.6191538335
 40
0.804815754
 40
1.0
 40
1.0
 40
1.0
 40
1.0
 10
45.8402114644
 20
169.0935886214
 30
0.0
 10
45.8385240834
 20
169.0935886214
 30
0.0
 10
45.8362601205
 20
169.1017554501
 30
0.0
 10
45.828656193
 20
169.1113225773
 30
0.0
 10
45.8190560062
 20
169.1326167423
 30
0.0
 10
45.805593035
 20
169.1595281987
 30
0.0
 10
45.789678166
 20
169.1945447597
 30
0.0
 10
45.7630489312
 20
169.2539234752
 30
0.0
 10
45.724538397
 20
169.3429469088
 30
0.0
 10
45.6728350069
 20
169.4648395312
 30
0.0
 10
45.6142913891
 20
169.6036906239
 30
0.0
 10
45.550377809
 20
169.7549755523
 30
0.0
 10
45.5066510412
 20
169.8597169955
 30
0.0
 10
45.4844515215
 20
169.9134837816
 30
0.0
  0
SPLINE
  5
2B3
100
AcDbEntity
  8
0
100
AcDbSpline
 62
7
  6
CONTINUOUS
 70
0
 71
3
 72
8
 73
4
 74
0
 42
0.0000001
 43
0.0000001
 44
0.0000000001
 40
0.0
 40
0.0
 40
0.0
 40
0.0
 40
1.0
 40
1.0
 40
1.0
 40
1.0
 10
40.4923365387
 20
169.0935886214
 30
0.0
 10
40.2820250194
 20
169.0935939969
 30
0.0
 10
40.0661977081
 20
169.12300703
 30
0.0
 10
39.8704048333
 20
169.199793001
 30
0.0
  0
LINE
  5
2B4
100
AcDbEntity
  8
0
100
AcDbLine
 62
7
  6
CONTINUOUS
 10
38.9691277766
 20
168.0936030287
 11
38.8898274566
 21
170.041251812
  0
SPLINE
  5
2B5
100
AcDbEntity
  8
0
100
AcDbSpline
 62
7
  6
CONTINUOUS
 70
0
 71
3
 72
9
 73
5
 74
0
 42
0.0000001
 43
0.0000001
 44
0.0000000001
 40
0.0
 40
0.0
 40
0.0
 40
0.0
 40
0.5478812551
 40
1.0
 40
1.0
 40
1.0
 40
1.0
 10
39.8704048341
 20
169.1997934854
 30
0.0
 10
39.6469704644
 20
169.2874159015
 30
0.0
 10
39.2643019433
 20
169.5144770884
 30
0.0
 10
38.9690189523
 20
169.8597211885
 30
0.0
 10
38.8898274566
 20
170.041251812
 30
0.0
  0
SPLINE
  5
2B6
100
AcDbEntity
  8
0
100
AcDbSpline
 62
7
  6
CONTINUOUS
 70
0
 71
3
 72
9
 73
5
 74
0
 42
0.0000001
 43
0.0000001
 44
0.0000000001
 40
0.0
 40
0.0
 40
0.0
 40
0.0
 40
0.1792566715
 40
1.0
 40
1.0
 40
1.0
 40
1.0
 10
211.3074723336
 20
169.5975136882
 30
0.0
 10
211.2966608245
 20
169.6002573771
 30
0.0
 10
211.2368331528
 20
169.6174364774
 30
0.0
 10
211.1781355349
 20
169.6382485852
 30
0.0
 10
211.1301460501
 20
169.6557190604
 30
0.0
  0
SPLINE
  5
2B7
100
AcDbEntity
  8
0
100
AcDbSpline
 62
7
  6
CONTINUOUS
 70
0
 71
3
 72
9
 73
5
 74
0
 42
0.0000001
 43
0.0000001
 44
0.0000000001
 40
0.0
 40
0.0
 40
0.0
 40
0.0
 40
0.2073019294
 40
1.0
 40
1.0
 40
1.0
 40
1.0
 10
211.1301460501
 20
169.6557190604
 30
0.0
 10
211.0850003873
 20
169.6721542479
 30
0.0
 10
210.8683529728
 20
169.7545112066
 30
0.0
 10
210.6537257469
 20
169.842086428
 30
0.0
 10
210.4844515199
 20
169.9134837575
 30
0.0
  0
SPLINE
  5
2B8
100
AcDbEntity
  8
0
100
AcDbSpline
 62
7
  6
CONTINUOUS
 70
0
 71
3
 72
17
 73
13
 74
0
 42
0.0000001
 43
0.0000001
 44
0.0000000001
 40
0.0
 40
0.0
 40
0.0
 40
0.0
 40
0.3822961145
 40
0.5530008475
 40
0.7031665996
 40
0.8278459567
 40
0.8789199255
 40
0.9215621159
 40
0.9551928048
 40
0.9795797091
 40
0.99456025
 40
1.0
 40
1.0
 40
1.0
 40
1.0
 10
210.4844515199
 20
169.9134837575
 30
0.0
 10
210.5279507367
 20
169.8081295371
 30
0.0
 10
210.5920569422
 20
169.6562269904
 30
0.0
 10
210.6734499183
 20
169.4630150656
 30
0.0
 10
210.7253541026
 20
169.3407557933
 30
0.0
 10
210.7639665887
 20
169.2515291433
 30
0.0
 10
210.790655973
 20
169.1922180052
 30
0.0
 10
210.8065553525
 20
169.1575563655
 30
0.0
 10
210.8199595528
 20
169.1311710082
 30
0.0
 10
210.8295176464
 20
169.1105348959
 30
0.0
 10
210.8369456954
 20
169.1012867804
 30
0.0
 10
210.8392791208
 20
169.0935390746
 30
0.0
 10
210.8409009755
 20
169.0935390746
 30
0.0
  0
SPLINE
  5
2B9
100
AcDbEntity
  8
0
100
AcDbSpline
 62
7
  6
CONTINUOUS
 70
0
 71
3
 72
18
 73
14
 74
0
 42
0.0000001
 43
0.0000001
 44
0.0000000001
 40
0.0
 40
0.0
 40
0.0
 40
0.0
 40
0.0054444373
 40
0.0204522861
 40
0.0448745655
 40
0.0785310116
 40
0.1211692861
 40
0.1722098517
 40
0.2967915741
 40
0.4469173803
 40
0.6176539983
 40
0.803974592
 40
1.0
 40
1.0
 40
1.0
 40
1.0
 10
218.6505649306
 20
169.0935175227
 30
0.0
 10
218.6521881364
 20
169.0935175227
 30
0.0
 10
218.6544401532
 20
169.1013425787
 30
0.0
 10
218.6618060625
 20
169.1106306284
 30
0.0
 10
218.6712503564
 20
169.131363276
 30
0.0
 10
218.6845946179
 20
169.1577913077
 30
0.0
 10
218.7005016319
 20
169.1924452006
 30
0.0
 10
218.7272731566
 20
169.2516725862
 30
0.0
 10
218.7660489252
 20
169.3407703174
 30
0.0
 10
218.8179752516
 20
169.4629819747
 30
0.0
 10
218.8766555973
 20
169.6023503238
 30
0.0
 10
218.9407794495
 20
169.7542654449
 30
0.0
 10
218.9846863359
 20
169.8594644536
 30
0.0
 10
219.0069887979
 20
169.9134847417
 30
0.0
  0
SPLINE
  5
2BA
100
AcDbEntity
  8
0
100
AcDbSpline
 62
7
  6
CONTINUOUS
 70
0
 71
3
 72
9
 73
5
 74
0
 42
0.0000001
 43
0.0000001
 44
0.0000000001
 40
0.0
 40
0.0
 40
0.0
 40
0.0
 40
0.5954537655
 40
1.0
 40
1.0
 40
1.0
 40
1.0
 10
219.0069887979
 20
169.9134847417
 30
0.0
 10
218.8526658416
 20
169.84839059
 30
0.0
 10
218.5919157081
 20
169.7432609295
 30
0.0
 10
218.3294295707
 20
169.6410783422
 30
0.0
 10
218.2205863529
 20
169.6078883594
 30
0.0
  0
SPLINE
  5
2BB
100
AcDbEntity
  8
0
100
AcDbSpline
 62
7
  6
CONTINUOUS
 70
0
 71
3
 72
10
 73
6
 74
0
 42
0.0000001
 43
0.0000001
 44
0.0000000001
 40
0.0
 40
0.0
 40
0.0
 40
0.0
 40
0.2500227797
 40
0.6250187594
 40
1.0
 40
1.0
 40
1.0
 40
1.0
 10
41.0940497642
 20
196.7852911918
 30
0.0
 10
41.0867739783
 20
196.9191996938
 30
0.0
 10
41.0697054592
 20
197.2541653213
 30
0.0
 10
41.0818869639
 20
197.7907152998
 30
0.0
 10
41.0644858457
 20
198.1928770646
 30
0.0
 10
41.0514898861
 20
198.3935873983
 30
0.0
  0
SPLINE
  5
2BC
100
AcDbEntity
  8
0
100
AcDbSpline
 62
7
  6
CONTINUOUS
 70
0
 71
3
 72
15
 73
11
 74
0
 42
0.0000001
 43
0.0000001
 44
0.0000000001
 40
0.0
 40
0.0
 40
0.0
 40
0.0
 40
0.0070098067
 40
0.022228576
 40
0.0796445025
 40
0.1721305121
 40
0.2960661139
 40
0.4469444983
 40
0.6191359256
 40
1.0
 40
1.0
 40
1.0
 40
1.0
 10
57.3457219901
 20
170.0935886133
 30
0.0
 10
57.3457219855
 20
170.0912407223
 30
0.0
 10
57.3378473675
 20
170.0863849504
 30
0.0
 10
57.3138904974
 20
170.0798306345
 30
0.0
 10
57.2573011928
 20
170.0712261387
 30
0.0
 10
57.1669550654
 20
170.0632677416
 30
0.0
 10
57.0437232894
 20
170.0556317394
 30
0.0
 10
56.8942770202
 20
170.0494548948
 30
0.0
 10
56.65851714
 20
170.0430015223
 30
0.0
 10
56.473290033
 20
170.041252666
 30
0.0
 10
56.3457219902
 20
170.041252666
 30
0.0
  0
SPLINE
  5
2BD
100
AcDbEntity
  8
0
100
AcDbSpline
 62
7
  6
CONTINUOUS
 70
0
 71
3
 72
18
 73
14
 74
0
 42
0.0000001
 43
0.0000001
 44
0.0000000001
 40
0.0
 40
0.0
 40
0.0
 40
0.0
 40
0.0054443672
 40
0.0204515506
 40
0.0448728572
 40
0.0785283545
 40
0.1211660318
 40
0.1722063881
 40
0.2967884066
 40
0.4469147086
 40
0.6176519314
 40
0.8039734687
 40
1.0
 40
1.0
 40
1.0
 40
1.0
 10
53.650545706
 20
169.0935364225
 30
0.0
 10
53.6521688761
 20
169.0935364225
 30
0.0
 10
53.6544228414
 20
169.1013595666
 30
0.0
 10
53.6617902303
 20
169.1106465137
 30
0.0
 10
53.6712376468
 20
169.1313762337
 30
0.0
 10
53.6845843228
 20
169.1578020677
 30
0.0
 10
53.7004931183
 20
169.1924541454
 30
0.0
 10
53.727266419
 20
169.2516799319
 30
0.0
 10
53.7660436042
 20
169.3407762622
 30
0.0
 10
53.8179733717
 20
169.4629855944
 30
0.0
 10
53.8766565742
 20
169.6023519059
 30
0.0
 10
53.9407806087
 20
169.7542661831
 30
0.0
 10
53.9846886029
 20
169.8594642646
 30
0.0
 10
54.0069924637
 20
169.9134837609
 30
0.0
  0
SPLINE
  5
2BE
100
AcDbEntity
  8
0
100
AcDbSpline
 62
7
  6
CONTINUOUS
 70
0
 71
3
 72
9
 73
5
 74
0
 42
0.0000001
 43
0.0000001
 44
0.0000000001
 40
0.0
 40
0.0
 40
0.0
 40
0.0
 40
0.5954478843
 40
1.0
 40
1.0
 40
1.0
 40
1.0
 10
54.0069924637
 20
169.9134837609
 30
0.0
 10
53.85267151
 20
169.8483934953
 30
0.0
 10
53.5919250795
 20
169.7432622553
 30
0.0
 10
53.3294408833
 20
169.6410828755
 30
0.0
 10
53.2205974896
 20
169.6078917605
 30
0.0
  0
SPLINE
  5
2BF
100
AcDbEntity
  8
0
100
AcDbSpline
 62
7
  6
CONTINUOUS
 70
0
 71
3
 72
10
 73
6
 74
0
 42
0.0000001
 43
0.0000001
 44
0.0000000001
 40
0.0
 40
0.0
 40
0.0
 40
0.0
 40
0.2500280721
 40
0.625014054
 40
1.0
 40
1.0
 40
1.0
 40
1.0
 10
223.4399526023
 20
198.3935877122
 30
0.0
 10
223.4312876445
 20
198.2597587282
 30
0.0
 10
223.4116060643
 20
197.9248982224
 30
0.0
 10
223.4230835712
 20
197.3883030432
 30
0.0
 10
223.4083061003
 20
196.9861304861
 30
0.0
 10
223.3973935669
 20
196.7852930536
 30
0.0
  0
ELLIPSE
  5
2C0
100
AcDbEntity
  8
0
100
AcDbEllipse
 62
7
  6
CONTINUOUS
 10
49.7457219901
 20
131.2069742397
 30
0.0
 11
0.0
 21
57.2434100632
 31
0.0
 40
0.0524077793
 41
-0.7998844048
 42
-0.6971631336
  0
ELLIPSE
  5
2C1
100
AcDbEntity
  8
0
100
AcDbEllipse
 62
7
  6
CONTINUOUS
 10
49.7457219901
 20
131.2069742397
 30
0.0
 11
0.0
 21
57.2434100632
 31
0.0
 40
0.0524077793
 41
0.6971631336
 42
0.7998844048
  0
ELLIPSE
  5
2C2
100
AcDbEntity
  8
0
100
AcDbEllipse
 62
7
  6
CONTINUOUS
 10
214.7457219901
 20
131.2069742397
 30
0.0
 11
-0.0
 21
57.2434100632
 31
0.0
 40
0.0524077793
 41
0.6971631336
 42
0.7998844048
  0
ELLIPSE
  5
2C3
100
AcDbEntity
  8
0
100
AcDbEllipse
 62
7
  6
CONTINUOUS
 10
214.7457219901
 20
131.2069742397
 30
0.0
 11
0.0
 21
57.2434100632
 31
0.0
 40
0.0524077793
 41
-0.7998844048
 42
-0.6971631336
  0
ENDSEC
  0
SECTION
  2
OBJECTS
  0
DICTIONARY
  5
C
100
AcDbDictionary
280
0
281
1
  3
ACAD_GROUP
350
D
  3
ACAD_MLINESTYLE
350
17
  3
ACAD_LAYOUT
350
1A
  3
ACAD_PLOTSETTINGS
350
19
  3
ACAD_PLOTSTYLENAME
350
E
  0
DICTIONARY
  5
D
102
{ACAD_REACTORS
330
C
102
}
100
AcDbDictionary
280
0
281
1
  0
ACDBDICTIONARYWDFLT
  5
E
102
{ACAD_REACTORS
330
C
102
}
100
AcDbDictionary
281
1
  3
Normal
350
F
100
AcDbDictionaryWithDefault
340
F
  0
DICTIONARY
  5
17
102
{ACAD_REACTORS
330
C
102
}
100
AcDbDictionary
280
0
281
1
  3
Standard
350
18
  0
DICTIONARY
  5
19
102
{ACAD_REACTORS
330
C
102
}
100
AcDbDictionary
281
1
  0
DICTIONARY
  5
1A
102
{ACAD_REACTORS
330
C
102
}
100
AcDbDictionary
281
1
  3
Model
350
2C4
  3
Layout1
350
2C5
  0
ACDBPLACEHOLDER
  5
F
102
{ACAD_REACTORS
330
E
102
}
  0
MLINESTYLE
  5
18
102
{ACAD_REACTORS
330
17
102
}
100
AcDbMlineStyle
  2
STANDARD
 70
0
  3

 62
256
 51
90.0
 52
90.0
 71
2
 49
0.5
 62
256
  6
BYLAYER
 49
-0.5
 62
256
  6
BYLAYER
  0
LAYOUT
  5
2C4
102
{ACAD_REACTORS
330
1A
102
}
100
AcDbPlotSettings
  1

  2
none_device
  4

  6

 40
0.0
 41
0.0
 42
0.0
 43
0.0
 44
210.0
 45
297.0
 46
0.0
 47
0.0
 48
0.0
 49
0.0
140
0.0
141
0.0
142
1.0
143
1.0
 70
1024
 72
1
 73
0
 74
0
  7

 75
0
147
1.0
148
0.0
149
0.0
100
AcDbLayout
  1
Model
 70
0
 71
0
 10
0.0
 20
0.0
 11
210.0
 21
297.0
 12
0.0
 22
0.0
 32
0.0
 14
0.0
 24
0.0
 34
0.0
 15
0.0
 25
0.0
 35
0.0
146
0.0
 13
0.0
 23
0.0
 33
0.0
 16
1.0
 26
0.0
 36
0.0
 17
0.0
 27
1.0
 37
0.0
 76
0
330
210
345
0
346
0
  0
LAYOUT
  5
2C5
102
{ACAD_REACTORS
330
1A
102
}
100
AcDbPlotSettings
  1

  2
none_device
  4

  6

 40
0.0
 41
0.0
 42
0.0
 43
0.0
 44
210.0
 45
297.0
 46
0.0
 47
0.0
 48
0.0
 49
0.0
140
0.0
141
0.0
142
1.0
143
1.0
 70
0
 72
1
 73
0
 74
0
  7

 75
0
147
1.0
148
0.0
149
0.0
100
AcDbLayout
  1
Layout1
 70
0
 71
1
 10
0.0
 20
0.0
 11
210.0
 21
297.0
 12
0.0
 22
0.0
 32
0.0
 14
0.0
 24
0.0
 34
0.0
 15
0.0
 25
0.0
 35
0.0
146
0.0
 13
0.0
 23
0.0
 33
0.0
 16
1.0
 26
0.0
 36
0.0
 17
0.0
 27
1.0
 37
0.0
 76
0
330
211
345
0
346
0
  0
ENDSEC
  0
EOF
