999
DXF file: C:\Users\sesa63760\Dev\_Creo\CAD\MCADUE0002387_3D-CAD\drw0001_1.dxf
999
Pro/ENGINEER 2019471 by Parametric Technology Corporation
  0
SECTION
  2
HEADER
  9
$ACADVER
  1
AC1024
  9
$DWGCODEPAGE
  3
ANSI_1252
  9
$EXTMAX
 10
961.8878682494
 20
1360.3842708098
 30
0.0
  9
$EXTMIN
 10
0.0
 20
0.0
 30
0.0
  9
$LIMMIN
 10
0.0
 20
0.0
  9
$LIMMAX
 10
961.8878682494
 20
1360.3842708098
  9
$VIEWCTR
 10
480.9439341247
 20
680.1921354049
  9
$VIEWSIZE
 40
1360.3842708098
  9
$CLAYER
  8
0
  9
$LTSCALE
 40
88.6769006158
  9
$CELTYPE
  6
BYLAYER
  9
$DIMSCALE
 40
1.0
  9
$DIMASZ
 40
11.4510460506
  9
$DIMEXO
 40
1.0
  9
$DIMDLI
 40
61.2676767891
  9
$DIMEXE
 40
1.0
  9
$DIMCEN
 40
14.5107655553
  9
$DIMLFAC
 40
1.0
  9
$DIMBLK
  1
_FILLED
  9
$DIMALT
 70
0
  9
$DIMALTF
 40
0.0393700787
  9
$DIMTXT
 40
16.0314644708
  9
$DIMTOL
 70
1
  9
$DIMLIM
 70
0
  9
$DIMTFAC
 40
1.0
  9
$DIMTP
 40
0.01
  9
$DIMTM
 40
0.01
  9
$DIMGAP
 40
0.625
  9
$DIMDSEP
 70
46
  9
$AUNITS
 70
0
  9
$PDMODE
 70
3
  9
$PDSIZE
 40
0.3125
  9
$HANDSEED
  5
51E
  9
$TILEMODE
 70
1
  9
$MEASUREMENT
 70
1
  9
$INSUNITS
 70
4
  0
ENDSEC
  0
SECTION
  2
CLASSES
  0
CLASS
  1
ACDBDICTIONARYWDFLT
  2
AcDbDictionaryWithDefault
  3
AutoCAD 2000
 90
0
 91
1
280
0
281
0
  0
CLASS
  1
ACDBPLACEHOLDER
  2
AcDbPlaceHolder
  3
AutoCAD 2000
 90
0
 91
1
280
0
281
0
  0
CLASS
  1
LAYOUT
  2
AcDbLayout
  3
AutoCAD 2000
 90
0
 91
0
280
0
281
0
  0
ENDSEC
  0
SECTION
  2
TABLES
  0
TABLE
  2
VPORT
  5
8
100
AcDbSymbolTable
 70
2
  0
VPORT
  5
1F4
100
AcDbSymbolTableRecord
100
AcDbViewportTableRecord
  2
*ACTIVE
 70
0
 10
0.0
 20
0.0
 11
1.0
 21
1.0
 12
480.9439341247
 22
680.1921354049
 13
0.0
 23
0.0
 14
1.0
 24
1.0
 15
0.0
 25
0.0
 16
0.0
 26
0.0
 36
1.0
 17
0.0
 27
0.0
 37
0.0
 40
1360.3842708098
 41
0.7070707071
 42
50.0
 43
0.0
 44
0.0
 50
0.0
 51
0.0
 71
0
 72
100
 73
1
 74
1
 75
0
 76
0
 77
0
 78
0
  0
ENDTAB
  0
TABLE
  2
LTYPE
  5
5
100
AcDbSymbolTable
 70
6
  0
LTYPE
  5
14
100
AcDbSymbolTableRecord
100
AcDbLinetypeTableRecord
  2
BYBLOCK
 70
0
  3

 72
65
 73
0
 40
0.0
  0
LTYPE
  5
15
100
AcDbSymbolTableRecord
100
AcDbLinetypeTableRecord
  2
BYLAYER
 70
0
  3

 72
65
 73
0
 40
0.0
  0
LTYPE
  5
16
100
AcDbSymbolTableRecord
100
AcDbLinetypeTableRecord
  2
CONTINUOUS
 70
64
  3
Solid line
 72
65
 73
0
 40
0.0
  0
LTYPE
  5
1F5
100
AcDbSymbolTableRecord
100
AcDbLinetypeTableRecord
  2
CENTER
 70
64
  3
____ _ ____ _ ____ _ ____ _ ____ _ ____ _ ____
 72
65
 73
4
 40
0.6
 49
0.375
 74
0
 49
-0.075
 74
0
 49
0.075
 74
0
 49
-0.075
 74
0
  0
LTYPE
  5
1F6
100
AcDbSymbolTableRecord
100
AcDbLinetypeTableRecord
  2
HIDDEN
 70
64
  3
- - - - - - - - - - - - - - - - - - - -
 72
65
 73
2
 40
0.2
 49
0.1
 74
0
 49
-0.1
 74
0
  0
LTYPE
  5
1F7
100
AcDbSymbolTableRecord
100
AcDbLinetypeTableRecord
  2
PHANTOM
 70
64
  3
_____ _ _ _____ _ _ _____ _ _ _____
 72
65
 73
6
 40
0.8
 49
0.45
 74
0
 49
-0.05
 74
0
 49
0.1
 74
0
 49
-0.05
 74
0
 49
0.1
 74
0
 49
-0.05
 74
0
  0
LTYPE
  5
1F8
100
AcDbSymbolTableRecord
100
AcDbLinetypeTableRecord
  2
DOT
 70
64
  3
. . . . . . . . . . . . . . . . . . . .
 72
65
 73
2
 40
0.2
 49
0.1
 74
0
 49
-0.1
 74
0
  0
LTYPE
  5
1F9
100
AcDbSymbolTableRecord
100
AcDbLinetypeTableRecord
  2
DASHED
 70
64
  3
- - - - - - - - - - - - - - - - - - - -
 72
65
 73
2
 40
0.2
 49
0.1
 74
0
 49
-0.1
 74
0
  0
ENDTAB
  0
TABLE
  2
LAYER
  5
2
100
AcDbSymbolTable
 70
36
  0
LAYER
  5
10
100
AcDbSymbolTableRecord
100
AcDbLayerTableRecord
  2
0
 70
0
 62
7
  6
CONTINUOUS
370
-3
390
F
  0
LAYER
  5
1FA
100
AcDbSymbolTableRecord
100
AcDbLayerTableRecord
  2
DEFAULT_1
 70
0
 62
7
  6
CENTER
370
-3
390
F
  0
LAYER
  5
1FB
100
AcDbSymbolTableRecord
100
AcDbLayerTableRecord
  2
DEFAULT_2
 70
0
 62
8
  6
HIDDEN
370
-3
390
F
  0
LAYER
  5
1FC
100
AcDbSymbolTableRecord
100
AcDbLayerTableRecord
  2
DEFAULT_3
 70
0
 62
7
  6
PHANTOM
370
-3
390
F
  0
LAYER
  5
1FD
100
AcDbSymbolTableRecord
100
AcDbLayerTableRecord
  2
00_COMPONENTS
 70
0
 62
7
  6
CONTINUOUS
370
-3
390
F
  0
LAYER
  5
1FE
100
AcDbSymbolTableRecord
100
AcDbLayerTableRecord
  2
01_1_DEFAULT_DATUMS
 70
0
 62
7
  6
CONTINUOUS
370
-3
390
F
  0
LAYER
  5
1FF
100
AcDbSymbolTableRecord
100
AcDbLayerTableRecord
  2
01_PLANES
 70
0
 62
7
  6
CONTINUOUS
370
-3
390
F
  0
LAYER
  5
200
100
AcDbSymbolTableRecord
100
AcDbLayerTableRecord
  2
02_COORD_SYS
 70
0
 62
7
  6
CONTINUOUS
370
-3
390
F
  0
LAYER
  5
201
100
AcDbSymbolTableRecord
100
AcDbLayerTableRecord
  2
03_AXES
 70
0
 62
7
  6
CONTINUOUS
370
-3
390
F
  0
LAYER
  5
202
100
AcDbSymbolTableRecord
100
AcDbLayerTableRecord
  2
04_POINTS
 70
0
 62
7
  6
CONTINUOUS
370
-3
390
F
  0
LAYER
  5
203
100
AcDbSymbolTableRecord
100
AcDbLayerTableRecord
  2
05_CURVES
 70
0
 62
7
  6
CONTINUOUS
370
-3
390
F
  0
LAYER
  5
204
100
AcDbSymbolTableRecord
100
AcDbLayerTableRecord
  2
06_SURFS
 70
0
 62
7
  6
CONTINUOUS
370
-3
390
F
  0
LAYER
  5
205
100
AcDbSymbolTableRecord
100
AcDbLayerTableRecord
  2
07_COSMETICS
 70
0
 62
7
  6
CONTINUOUS
370
-3
390
F
  0
LAYER
  5
206
100
AcDbSymbolTableRecord
100
AcDbLayerTableRecord
  2
10_NOTES
 70
0
 62
7
  6
CONTINUOUS
370
-3
390
F
  0
LAYER
  5
207
100
AcDbSymbolTableRecord
100
AcDbLayerTableRecord
  2
11_NOTES_PUB
 70
0
 62
7
  6
CONTINUOUS
370
-3
390
F
  0
LAYER
  5
208
100
AcDbSymbolTableRecord
100
AcDbLayerTableRecord
  2
13_REF_GTOL
 70
0
 62
7
  6
CONTINUOUS
370
-3
390
F
  0
LAYER
  5
209
100
AcDbSymbolTableRecord
100
AcDbLayerTableRecord
  2
16_MISC
 70
0
 62
7
  6
CONTINUOUS
370
-3
390
F
  0
LAYER
  5
20A
100
AcDbSymbolTableRecord
100
AcDbLayerTableRecord
  2
17_NO_PRINT
 70
0
 62
7
  6
CONTINUOUS
370
-3
390
F
  0
LAYER
  5
20B
100
AcDbSymbolTableRecord
100
AcDbLayerTableRecord
  2
18_DATUM_CAMS_JOINTS
 70
0
 62
7
  6
CONTINUOUS
370
-3
390
F
  0
LAYER
  5
20C
100
AcDbSymbolTableRecord
100
AcDbLayerTableRecord
  2
19_DATUM_FUNCTIONAL
 70
0
 62
7
  6
CONTINUOUS
370
-3
390
F
  0
LAYER
  5
20D
100
AcDbSymbolTableRecord
100
AcDbLayerTableRecord
  2
20_DATUM_KINEMATIC_SCHEME
 70
0
 62
7
  6
CONTINUOUS
370
-3
390
F
  0
ENDTAB
  0
TABLE
  2
STYLE
  5
3
100
AcDbSymbolTable
 70
1
  0
STYLE
  5
11
100
AcDbSymbolTableRecord
100
AcDbTextStyleTableRecord
  2
STANDARD
 70
0
 40
0.0
 41
0.8
 50
0.0
 71
0
 42
0.2
  3
txt
  4

  0
STYLE
  5
20E
100
AcDbSymbolTableRecord
100
AcDbTextStyleTableRecord
  2
TEXTSTYLE_1
 70
0
 40
0.0
 41
0.8
 50
0.0
 71
0
 42
0.2
  3
gdt
  4

  0
ENDTAB
  0
TABLE
  2
VIEW
  5
6
100
AcDbSymbolTable
 70
0
  0
ENDTAB
  0
TABLE
  2
UCS
  5
7
100
AcDbSymbolTable
 70
0
  0
ENDTAB
  0
TABLE
  2
APPID
  5
9
100
AcDbSymbolTable
 70
1
  0
APPID
  5
20F
100
AcDbSymbolTableRecord
100
AcDbRegAppTableRecord
  2
ACAD
 70
0
  0
ENDTAB
  0
TABLE
  2
BLOCK_RECORD
  5
1
100
AcDbSymbolTable
 70
0
  0
BLOCK_RECORD
  5
210
100
AcDbSymbolTableRecord
100
AcDbBlockTableRecord
  2
*Model_Space
  0
BLOCK_RECORD
  5
211
100
AcDbSymbolTableRecord
100
AcDbBlockTableRecord
  2
*Paper_Space
  0
BLOCK_RECORD
  5
212
100
AcDbSymbolTableRecord
100
AcDbBlockTableRecord
  2
_FILLED
  0
ENDTAB
  0
TABLE
  2
DIMSTYLE
  5
A
100
AcDbSymbolTable
 70
1
100
AcDbDimStyleTable
 71
0
  0
DIMSTYLE
105
213
100
AcDbSymbolTableRecord
100
AcDbDimStyleTableRecord
  2
STANDARD
 70
0
  3

  4

 40
1.0
 41
11.4510460506
 42
1.0
 43
0.38
 44
1.0
 45
0.0
 46
0.0
 47
0.01
 48
0.01
140
16.0314644708
141
0.09
142
0.0
143
25.4
144
1.0
145
0.0
146
1.0
147
0.625
 71
1
 72
0
 73
0
 74
0
 75
0
 76
0
 77
1
 78
8
 79
2
170
0
171
1
172
0
173
0
174
0
175
0
176
0
177
0
178
0
270
2
179
2
271
2
272
2
273
2
274
2
275
0
280
0
281
0
282
0
283
1
284
8
285
0
286
0
287
3
288
0
340
11
278
46
341
212
342
212
343
212
344
212
  0
ENDTAB
  0
ENDSEC
  0
SECTION
  2
BLOCKS
  0
BLOCK
  5
20
100
AcDbEntity
  8
0
100
AcDbBlockBegin
  2
*Model_Space
 70
0
 10
0.0
 20
0.0
 30
0.0
  3
*Model_Space
  1

  0
ENDBLK
  5
21
100
AcDbEntity
  8
0
100
AcDbBlockEnd
  0
BLOCK
  5
1C
100
AcDbEntity
  8
0
100
AcDbBlockBegin
  2
*Paper_Space
 70
0
 10
0.0
 20
0.0
 30
0.0
  3
*Paper_Space
  1

  0
ENDBLK
  5
1D
100
AcDbEntity
  8
0
100
AcDbBlockEnd
  0
BLOCK
  5
214
100
AcDbEntity
  8
0
100
AcDbBlockBegin
  2
_FILLED
 70
64
 10
0.0
 20
0.0
  3
_FILLED
  1

  0
SOLID
  5
215
100
AcDbEntity
  8
0
  6
BYBLOCK
 62
0
100
AcDbTrace
 10
0.0
 20
0.0
 11
-1.0
 21
0.25
 12
-1.0
 22
-0.25
 13
-1.0
 23
-0.25
  0
ENDBLK
  5
216
100
AcDbEntity
  8
0
  6
BYBLOCK
 62
0
100
AcDbBlockEnd
  0
ENDSEC
  0
SECTION
  2
ENTITIES
  0
LINE
  5
217
100
AcDbEntity
  8
0
100
AcDbLine
 62
7
  6
CONTINUOUS
 10
533.5209122317
 20
139.3476498484
 11
532.1997815425
 21
139.1071540173
  0
LINE
  5
218
100
AcDbEntity
  8
0
100
AcDbLine
 62
7
  6
CONTINUOUS
 10
546.6197754024
 20
146.6483818344
 11
548.119717413
 21
146.7969091279
  0
LINE
  5
219
100
AcDbEntity
  8
0
100
AcDbLine
 62
7
  6
CONTINUOUS
 10
532.1997815425
 20
139.1071540173
 11
524.7566715946
 21
139.8648514155
  0
LINE
  5
21A
100
AcDbEntity
  8
0
100
AcDbLine
 62
7
  6
CONTINUOUS
 10
531.9393154176
 20
139.4790506784
 11
526.6058838716
 21
140.0219859882
  0
LINE
  5
21B
100
AcDbEntity
  8
0
100
AcDbLine
 62
7
  6
CONTINUOUS
 10
526.6058838716
 20
140.0219859882
 11
522.3865270853
 21
140.7120483645
  0
LINE
  5
21C
100
AcDbEntity
  8
0
100
AcDbLine
 62
7
  6
CONTINUOUS
 10
113.4977355006
 20
1032.5950844893
 11
113.0811895432
 21
1031.8323382235
  0
LINE
  5
21D
100
AcDbEntity
  8
0
100
AcDbLine
 62
7
  6
CONTINUOUS
 10
126.3287663629
 20
1040.6566944429
 11
125.4501606171
 21
1039.4319721794
  0
LINE
  5
21E
100
AcDbEntity
  8
0
100
AcDbLine
 62
7
  6
CONTINUOUS
 10
332.4237262244
 20
1162.2990937398
 11
440.3277717832
 21
1224.5971516206
  0
LINE
  5
21F
100
AcDbEntity
  8
0
100
AcDbLine
 62
7
  6
CONTINUOUS
 10
126.6142987883
 20
1042.4545505159
 11
325.3811962611
 21
1157.2120084323
  0
LINE
  5
220
100
AcDbEntity
  8
0
100
AcDbLine
 62
7
  6
CONTINUOUS
 10
128.8036504009
 20
1042.0856102621
 11
129.0891828264
 21
1042.2504615008
  0
LINE
  5
221
100
AcDbEntity
  8
0
100
AcDbLine
 62
7
  6
CONTINUOUS
 10
126.6142987883
 20
1040.8215456816
 11
126.3287663629
 21
1040.6566944429
  0
LINE
  5
222
100
AcDbEntity
  8
0
100
AcDbLine
 62
7
  6
CONTINUOUS
 10
120.4529668573
 20
1036.6106652156
 11
112.4370709129
 21
1031.9826919954
  0
LINE
  5
223
100
AcDbEntity
  8
0
100
AcDbLine
 62
7
  6
CONTINUOUS
 10
332.4237391779
 20
1158.7065216237
 11
332.5414967371
 21
1158.7745085764
  0
LINE
  5
224
100
AcDbEntity
  8
0
100
AcDbLine
 62
7
  6
CONTINUOUS
 10
522.2000310594
 20
140.3263203519
 11
521.9652009097
 21
140.4618965349
  0
LINE
  5
225
100
AcDbEntity
  8
0
100
AcDbLine
 62
7
  6
CONTINUOUS
 10
521.4074847685
 20
140.7838868148
 11
113.9503321074
 21
376.0240617431
  0
LINE
  5
226
100
AcDbEntity
  8
0
100
AcDbLine
 62
7
  6
CONTINUOUS
 10
520.7861478063
 20
142.1572452582
 11
114.1215414361
 21
376.9398537237
  0
LINE
  5
227
100
AcDbEntity
  8
0
100
AcDbLine
 62
7
  6
CONTINUOUS
 10
112.5444283943
 20
379.0750706657
 11
113.2884318577
 21
376.8996004928
  0
LINE
  5
228
100
AcDbEntity
  8
0
100
AcDbLine
 62
7
  6
CONTINUOUS
 10
112.5444283943
 20
379.0750706657
 11
111.6039789982
 21
382.1542802628
  0
LINE
  5
229
100
AcDbEntity
  8
0
100
AcDbLine
 62
7
  6
CONTINUOUS
 10
542.0054326221
 20
149.3123384662
 11
546.6197428636
 21
146.6483254742
  0
LINE
  5
22A
100
AcDbEntity
  8
0
100
AcDbLine
 62
7
  6
CONTINUOUS
 10
545.9984059014
 20
148.0216839176
 11
542.0054326221
 21
150.3269759627
  0
LINE
  5
22B
100
AcDbEntity
  8
0
100
AcDbLine
 62
7
  6
CONTINUOUS
 10
548.4052498385
 20
146.9617603665
 11
549.8194692888
 21
146.1452788575
  0
LINE
  5
22C
100
AcDbEntity
  8
0
100
AcDbLine
 62
7
  6
CONTINUOUS
 10
546.351960764
 20
148.2258147489
 11
546.0054769987
 21
148.4258527186
  0
LINE
  5
22D
100
AcDbEntity
  8
0
100
AcDbLine
 62
7
  6
CONTINUOUS
 10
548.9983238705
 20
147.8441102864
 11
550.8801338766
 21
146.7576713514
  0
LINE
  5
22E
100
AcDbEntity
  8
0
100
AcDbLine
 62
7
  6
CONTINUOUS
 10
111.6039789982
 20
382.1542802628
 11
111.5590428606
 21
382.4550513147
  0
LINE
  5
22F
100
AcDbEntity
  8
0
100
AcDbLine
 62
7
  6
CONTINUOUS
 10
113.9474601452
 20
376.0783547254
 11
113.9503287633
 21
376.0240636737
  0
LINE
  5
230
100
AcDbEntity
  8
0
100
AcDbLine
 62
7
  6
CONTINUOUS
 10
111.5584000883
 20
1030.7579697318
 11
111.5584000883
 21
382.455050531
  0
LINE
  5
231
100
AcDbEntity
  8
0
100
AcDbLine
 62
7
  6
CONTINUOUS
 10
111.6039789982
 20
382.1542802628
 11
111.6039789982
 21
1030.4571994637
  0
LINE
  5
232
100
AcDbEntity
  8
0
100
AcDbLine
 62
7
  6
CONTINUOUS
 10
113.0811895432
 20
1030.6075845978
 11
113.0811895432
 21
1031.8323382235
  0
LINE
  5
233
100
AcDbEntity
  8
0
100
AcDbLine
 62
7
  6
CONTINUOUS
 10
113.2884318576
 20
1024.6814432909
 11
113.2884318577
 21
376.8996004928
  0
LINE
  5
234
100
AcDbEntity
  8
0
100
AcDbLine
 62
7
  6
CONTINUOUS
 10
114.1215414361
 20
376.9398537237
 11
114.1215414361
 21
1022.7932656731
  0
LINE
  5
235
100
AcDbEntity
  8
0
100
AcDbLine
 62
7
  6
CONTINUOUS
 10
125.4500955383
 20
1039.4319721794
 11
125.4500955383
 21
1034.2667434397
  0
LINE
  5
236
100
AcDbEntity
  8
0
100
AcDbLine
 62
7
  6
CONTINUOUS
 10
126.3287840267
 20
1033.759443881
 11
126.3287840267
 21
1038.2072397178
  0
LINE
  5
237
100
AcDbEntity
  8
0
100
AcDbLine
 62
7
  6
CONTINUOUS
 10
126.6142987883
 20
1042.4545505159
 11
126.6142987883
 21
1040.8215456816
  0
LINE
  5
238
100
AcDbEntity
  8
0
100
AcDbLine
 62
7
  6
CONTINUOUS
 10
126.6823388893
 20
1038.0112843647
 11
126.6823388893
 21
1038.4113705491
  0
LINE
  5
239
100
AcDbEntity
  8
0
100
AcDbLine
 62
7
  6
CONTINUOUS
 10
127.6749633761
 20
1040.8940776254
 11
127.6749633761
 21
1043.0669430098
  0
LINE
  5
23A
100
AcDbEntity
  8
0
100
AcDbLine
 62
7
  6
CONTINUOUS
 10
132.3741601499
 20
667.0661867532
 11
132.3741601499
 21
681.781376207
  0
LINE
  5
23B
100
AcDbEntity
  8
0
100
AcDbLine
 62
7
  6
CONTINUOUS
 10
132.3741601499
 20
687.5883968051
 11
132.3741601499
 21
694.4769648287
  0
LINE
  5
23C
100
AcDbEntity
  8
0
100
AcDbLine
 62
7
  6
CONTINUOUS
 10
132.4602617907
 20
667.0165113624
 11
132.4602617907
 21
681.5289191558
  0
LINE
  5
23D
100
AcDbEntity
  8
0
100
AcDbLine
 62
7
  6
CONTINUOUS
 10
132.4602617907
 20
687.7414344944
 11
132.4602617907
 21
694.4272551478
  0
LINE
  5
23E
100
AcDbEntity
  8
0
100
AcDbLine
 62
7
  6
CONTINUOUS
 10
135.9097087756
 20
663.8586043544
 11
135.9097087756
 21
674.1381173127
  0
LINE
  5
23F
100
AcDbEntity
  8
0
100
AcDbLine
 62
7
  6
CONTINUOUS
 10
135.9097087756
 20
691.1492481566
 11
135.9097087756
 21
693.6022091118
  0
LINE
  5
240
100
AcDbEntity
  8
0
100
AcDbLine
 62
7
  6
CONTINUOUS
 10
135.9958104164
 20
663.8088595341
 11
135.9958104164
 21
674.0435154098
  0
LINE
  5
241
100
AcDbEntity
  8
0
100
AcDbLine
 62
7
  6
CONTINUOUS
 10
135.9958104164
 20
691.1444306953
 11
135.9958104164
 21
693.5524994309
  0
LINE
  5
242
100
AcDbEntity
  8
0
100
AcDbLine
 62
7
  6
CONTINUOUS
 10
139.4452574014
 20
691.5610053392
 11
139.4452574014
 21
689.1545715385
  0
LINE
  5
243
100
AcDbEntity
  8
0
100
AcDbLine
 62
7
  6
CONTINUOUS
 10
139.4452574014
 20
672.0503863832
 11
139.4452574014
 21
661.8173654425
  0
LINE
  5
244
100
AcDbEntity
  8
0
100
AcDbLine
 62
7
  6
CONTINUOUS
 10
139.5313590422
 20
691.5112605189
 11
139.5313590422
 21
689.0600674086
  0
LINE
  5
245
100
AcDbEntity
  8
0
100
AcDbLine
 62
7
  6
CONTINUOUS
 10
139.5313590422
 20
672.045471153
 11
139.5313590422
 21
661.7676557615
  0
LINE
  5
246
100
AcDbEntity
  8
0
100
AcDbLine
 62
7
  6
CONTINUOUS
 10
129.0732580287
 20
696.1833429526
 11
129.0727535788
 21
696.1803772877
  0
LINE
  5
247
100
AcDbEntity
  8
0
100
AcDbLine
 62
7
  6
CONTINUOUS
 10
536.2827766896
 20
1139.3563578305
 11
510.4734866313
 21
1124.4554462142
  0
LINE
  5
248
100
AcDbEntity
  8
0
100
AcDbLine
 62
7
  6
CONTINUOUS
 10
536.6363315522
 20
1138.9072867281
 11
510.8270414939
 21
1124.0063751118
  0
LINE
  5
249
100
AcDbEntity
  8
0
100
AcDbLine
 62
7
  6
CONTINUOUS
 10
536.5103310084
 20
1138.1635500209
 11
512.1152486251
 21
1124.0791267126
  0
LINE
  5
24A
100
AcDbEntity
  8
0
100
AcDbLine
 62
7
  6
CONTINUOUS
 10
513.5079829039
 20
1121.9256128715
 11
537.9030652878
 21
1136.0100361801
  0
LINE
  5
24B
100
AcDbEntity
  8
0
100
AcDbLine
 62
7
  6
CONTINUOUS
 10
537.9680179665
 20
1135.5471841115
 11
513.5729355826
 21
1121.4627608029
  0
LINE
  5
24C
100
AcDbEntity
  8
0
100
AcDbLine
 62
7
  6
CONTINUOUS
 10
514.2693027221
 20
1120.3860038825
 11
538.664385106
 21
1134.470427191
  0
LINE
  5
24D
100
AcDbEntity
  8
0
100
AcDbLine
 62
7
  6
CONTINUOUS
 10
548.3036464331
 20
1129.1094433458
 11
523.5550121306
 21
1114.8208979603
  0
LINE
  5
24E
100
AcDbEntity
  8
0
100
AcDbLine
 62
7
  6
CONTINUOUS
 10
548.3036464331
 20
1128.2929409287
 11
523.5550121306
 21
1114.0043955432
  0
LINE
  5
24F
100
AcDbEntity
  8
0
100
AcDbLine
 62
7
  6
CONTINUOUS
 10
465.9468869021
 20
251.7939718775
 11
168.9608023403
 21
423.2550887761
  0
LINE
  5
250
100
AcDbEntity
  8
0
100
AcDbLine
 62
7
  6
CONTINUOUS
 10
465.9468869021
 20
253.0186941411
 11
170.0214580962
 21
423.8674550069
  0
LWPOLYLINE
  5
251
100
AcDbEntity
  8
0
100
AcDbPolyline
 62
7
  6
CONTINUOUS
 90
3
 70
0
 10
129.0561723722
 20
671.2272428795
 10
129.890504477
 20
668.4261057547
 10
130.7283674192
 20
667.0945336761
  0
LINE
  5
252
100
AcDbEntity
  8
0
100
AcDbLine
 62
7
  6
CONTINUOUS
 10
129.0562117358
 20
671.2269927931
 11
129.0561686187
 21
671.2272951677
  0
LINE
  5
253
100
AcDbEntity
  8
0
100
AcDbLine
 62
7
  6
CONTINUOUS
 10
151.4964062256
 20
677.1177143693
 11
151.4882709019
 21
677.2101459154
  0
LINE
  5
254
100
AcDbEntity
  8
0
100
AcDbLine
 62
7
  6
CONTINUOUS
 10
151.5855500263
 20
677.0724903688
 11
151.5808746593
 21
677.1633013577
  0
LINE
  5
255
100
AcDbEntity
  8
0
100
AcDbLine
 62
7
  6
CONTINUOUS
 10
142.9808060271
 20
688.3533535109
 11
142.9808060271
 21
681.6748289918
  0
LINE
  5
256
100
AcDbEntity
  8
0
100
AcDbLine
 62
7
  6
CONTINUOUS
 10
142.9808060271
 20
675.4477213847
 11
142.9808060271
 21
660.9426097255
  0
LINE
  5
257
100
AcDbEntity
  8
0
100
AcDbLine
 62
7
  6
CONTINUOUS
 10
143.0669076679
 20
688.3036781288
 11
143.0669076679
 21
681.4228654844
  0
LINE
  5
258
100
AcDbEntity
  8
0
100
AcDbLine
 62
7
  6
CONTINUOUS
 10
143.0669076679
 20
675.6002720354
 11
143.0669076679
 21
660.8929000446
  0
LINE
  5
259
100
AcDbEntity
  8
0
100
AcDbLine
 62
7
  6
CONTINUOUS
 10
168.9608023403
 20
423.2550887761
 11
168.9608023403
 21
913.1565390538
  0
LINE
  5
25A
100
AcDbEntity
  8
0
100
AcDbLine
 62
7
  6
CONTINUOUS
 10
170.0214580962
 20
423.8674550069
 11
170.0214580962
 21
912.544183021
  0
LINE
  5
25B
100
AcDbEntity
  8
0
100
AcDbLine
 62
7
  6
CONTINUOUS
 10
129.4509813405
 20
670.5700450501
 11
129.0562117358
 21
671.2269927931
  0
LINE
  5
25C
100
AcDbEntity
  8
0
100
AcDbLine
 62
7
  6
CONTINUOUS
 10
111.5590428606
 20
1030.7579705156
 11
111.6039789982
 21
1030.4571994637
  0
LINE
  5
25D
100
AcDbEntity
  8
0
100
AcDbLine
 62
7
  6
CONTINUOUS
 10
113.0811895433
 20
1030.6075845977
 11
113.0587214744
 21
1030.7579701237
  0
LWPOLYLINE
  5
25E
100
AcDbEntity
  8
0
100
AcDbPolyline
 62
7
  6
CONTINUOUS
 90
4
 70
0
 10
132.3417733209
 20
702.4222252699
 10
131.1867480281
 20
701.0683767717
 10
129.8980627253
 20
698.8488007549
 10
129.0727839504
 20
696.1801888145
  0
LINE
  5
25F
100
AcDbEntity
  8
0
100
AcDbLine
 62
7
  6
CONTINUOUS
 10
132.3406066607
 20
702.4210556305
 11
132.3417733209
 21
702.4222252699
  0
LINE
  5
260
100
AcDbEntity
  8
0
100
AcDbLine
 62
7
  6
CONTINUOUS
 10
130.7290183143
 20
667.0932412933
 11
130.7283125134
 21
667.0941254551
  0
LINE
  5
261
100
AcDbEntity
  8
0
100
AcDbLine
 62
7
  6
CONTINUOUS
 10
111.6039789982
 20
1030.4571994637
 11
112.5444283943
 21
1027.3779898666
  0
LINE
  5
262
100
AcDbEntity
  8
0
100
AcDbLine
 62
7
  6
CONTINUOUS
 10
113.2884318576
 20
1024.6814432909
 11
112.5444283943
 21
1027.3779898666
  0
LINE
  5
263
100
AcDbEntity
  8
0
100
AcDbLine
 62
7
  6
CONTINUOUS
 10
114.0216389394
 20
1027.5283750007
 11
114.1951464805
 21
1026.8995188341
  0
LINE
  5
264
100
AcDbEntity
  8
0
100
AcDbLine
 62
7
  6
CONTINUOUS
 10
574.1129909548
 20
1138.9073768109
 11
574.4665428734
 21
1139.356449613
  0
LINE
  5
265
100
AcDbEntity
  8
0
100
AcDbLine
 62
7
  6
CONTINUOUS
 10
754.8117719534
 20
264.4928034903
 11
748.5863667615
 21
268.0869615429
  0
LINE
  5
266
100
AcDbEntity
  8
0
100
AcDbLine
 62
7
  6
CONTINUOUS
 10
753.5782914754
 20
265.9490051631
 11
748.5863667615
 21
268.8310290403
  0
LINE
  5
267
100
AcDbEntity
  8
0
100
AcDbLine
 62
7
  6
CONTINUOUS
 10
142.9808060271
 20
688.3533535109
 11
142.987777573
 21
688.3461861471
  0
LINE
  5
268
100
AcDbEntity
  8
0
100
AcDbLine
 62
7
  6
CONTINUOUS
 10
542.0054326221
 20
155.3377643028
 11
545.9984059014
 21
148.421770102
  0
LINE
  5
269
100
AcDbEntity
  8
0
100
AcDbLine
 62
7
  6
CONTINUOUS
 10
542.0054326221
 20
155.3540943512
 11
546.0054769987
 21
148.4258527186
  0
LINE
  5
26A
100
AcDbEntity
  8
0
100
AcDbLine
 62
7
  6
CONTINUOUS
 10
114.2045282782
 20
1026.9295606363
 11
113.0811895432
 21
1030.6075845978
  0
LINE
  5
26B
100
AcDbEntity
  8
0
100
AcDbLine
 62
7
  6
CONTINUOUS
 10
113.0811895432
 20
1031.8323382235
 11
114.3936406711
 21
1027.5351244391
  0
LINE
  5
26C
100
AcDbEntity
  8
0
100
AcDbLine
 62
7
  6
CONTINUOUS
 10
679.1191516629
 20
1025.0079319658
 11
703.8677859654
 21
1039.2964773513
  0
LINE
  5
26D
100
AcDbEntity
  8
0
100
AcDbLine
 62
7
  6
CONTINUOUS
 10
689.9124715642
 20
1020.9518883514
 11
714.3075539481
 21
1035.03631166
  0
LINE
  5
26E
100
AcDbEntity
  8
0
100
AcDbLine
 62
7
  6
CONTINUOUS
 10
690.9124670876
 20
1020.8528397936
 11
715.3075494709
 21
1034.9372631018
  0
LINE
  5
26F
100
AcDbEntity
  8
0
100
AcDbLine
 62
7
  6
CONTINUOUS
 10
690.7864665438
 20
1020.1091030864
 11
716.5957566021
 21
1035.0100147027
  0
LINE
  5
270
100
AcDbEntity
  8
0
100
AcDbLine
 62
7
  6
CONTINUOUS
 10
691.1400214064
 20
1020.1499334342
 11
716.9493114647
 21
1035.0508450505
  0
LINE
  5
271
100
AcDbEntity
  8
0
100
AcDbLine
 62
7
  6
CONTINUOUS
 10
133.6571723897
 20
679.5037560842
 11
136.7282778046
 21
681.2485824939
  0
LINE
  5
272
100
AcDbEntity
  8
0
100
AcDbLine
 62
7
  6
CONTINUOUS
 10
136.7682417521
 20
681.139888698
 11
133.7020418992
 21
679.3992215281
  0
LINE
  5
273
100
AcDbEntity
  8
0
100
AcDbLine
 62
7
  6
CONTINUOUS
 10
137.1062150404
 20
690.7924638995
 11
137.108875447
 21
690.7939241933
  0
LWPOLYLINE
  5
274
100
AcDbEntity
  8
0
100
AcDbPolyline
 62
7
  6
CONTINUOUS
 90
3
 70
0
 10
137.1055672553
 20
690.7998506803
 10
137.2653570205
 20
690.8838633049
 10
137.3475020747
 20
690.922768684
  0
LINE
  5
275
100
AcDbEntity
  8
0
100
AcDbLine
 62
7
  6
CONTINUOUS
 10
331.7793676197
 20
1160.0945628097
 11
331.7793676197
 21
1153.5181060433
  0
LINE
  5
276
100
AcDbEntity
  8
0
100
AcDbLine
 62
7
  6
CONTINUOUS
 10
332.4237391779
 20
1153.146086367
 11
332.4237391779
 21
1158.7065216237
  0
LINE
  5
277
100
AcDbEntity
  8
0
100
AcDbLine
 62
7
  6
CONTINUOUS
 10
137.3507202107
 20
690.9166342075
 11
137.350323064
 21
690.9164574977
  0
LINE
  5
278
100
AcDbEntity
  8
0
100
AcDbLine
 62
7
  6
CONTINUOUS
 10
130.5271604817
 20
1031.3355649401
 11
126.675267792
 21
1038.0072017481
  0
LINE
  5
279
100
AcDbEntity
  8
0
100
AcDbLine
 62
7
  6
CONTINUOUS
 10
130.5413026762
 20
1031.327400125
 11
126.6823388893
 21
1038.0112843647
  0
LINE
  5
27A
100
AcDbEntity
  8
0
100
AcDbLine
 62
7
  6
CONTINUOUS
 10
545.9984059014
 20
148.0216839176
 11
546.6197754024
 21
146.6483818344
  0
LINE
  5
27B
100
AcDbEntity
  8
0
100
AcDbLine
 62
7
  6
CONTINUOUS
 10
754.279696368
 20
915.9579900241
 11
754.4265447774
 21
916.0256016791
  0
LINE
  5
27C
100
AcDbEntity
  8
0
100
AcDbLine
 62
7
  6
CONTINUOUS
 10
132.4602617907
 20
667.0165113624
 11
132.4478473168
 21
667.0205362691
  0
LINE
  5
27D
100
AcDbEntity
  8
0
100
AcDbLine
 62
7
  6
CONTINUOUS
 10
139.4502897975
 20
691.832588354
 11
139.4129018398
 21
691.8457990319
  0
LINE
  5
27E
100
AcDbEntity
  8
0
100
AcDbLine
 62
7
  6
CONTINUOUS
 10
864.4758541133
 20
327.3352506705
 11
864.5936068714
 21
327.2672676219
  0
LINE
  5
27F
100
AcDbEntity
  8
0
100
AcDbLine
 62
7
  6
CONTINUOUS
 10
125.4501606171
 20
1039.4319721794
 11
126.3287840267
 21
1038.2072397178
  0
LINE
  5
280
100
AcDbEntity
  8
0
100
AcDbLine
 62
7
  6
CONTINUOUS
 10
716.9491524905
 20
1057.0959375771
 11
716.5956005719
 21
1056.646864775
  0
LINE
  5
281
100
AcDbEntity
  8
0
100
AcDbLine
 62
7
  6
CONTINUOUS
 10
522.0846740338
 20
788.8345454066
 11
521.9244836688
 21
788.7026737926
  0
LINE
  5
282
100
AcDbEntity
  8
0
100
AcDbLine
 62
7
  6
CONTINUOUS
 10
521.9244836688
 20
788.7026737926
 11
521.5480808535
 21
788.4505686866
  0
LINE
  5
283
100
AcDbEntity
  8
0
100
AcDbLine
 62
7
  6
CONTINUOUS
 10
540.476082564
 20
794.1156922657
 11
540.9253121856
 21
794.3974418352
  0
LINE
  5
284
100
AcDbEntity
  8
0
100
AcDbLine
 62
7
  6
CONTINUOUS
 10
521.5406138666
 20
788.4462457907
 11
520.7861478062
 21
788.0106572078
  0
LINE
  5
285
100
AcDbEntity
  8
0
100
AcDbLine
 62
7
  6
CONTINUOUS
 10
548.4052498385
 20
800.1636940703
 11
548.1197174131
 21
799.9988428316
  0
LINE
  5
286
100
AcDbEntity
  8
0
100
AcDbLine
 62
7
  6
CONTINUOUS
 10
548.4052498385
 20
798.9389404446
 11
548.1197174131
 21
798.7740892059
  0
LINE
  5
287
100
AcDbEntity
  8
0
100
AcDbLine
 62
7
  6
CONTINUOUS
 10
540.4761435946
 20
794.1156570305
 11
533.5209122317
 21
790.1000763007
  0
LINE
  5
288
100
AcDbEntity
  8
0
100
AcDbLine
 62
7
  6
CONTINUOUS
 10
747.5257021739
 20
913.4922779837
 11
549.8194692888
 21
799.3472125612
  0
LINE
  5
289
100
AcDbEntity
  8
0
100
AcDbLine
 62
7
  6
CONTINUOUS
 10
540.4761435946
 20
792.8909034048
 11
533.5209122317
 21
788.875322675
  0
LINE
  5
28A
100
AcDbEntity
  8
0
100
AcDbLine
 62
7
  6
CONTINUOUS
 10
540.610166911
 20
792.8135267575
 11
547.0590616572
 21
796.536883165
  0
LINE
  5
28B
100
AcDbEntity
  8
0
100
AcDbLine
 62
7
  6
CONTINUOUS
 10
747.5257021739
 20
912.2675243579
 11
549.8194692889
 21
798.1224589354
  0
LINE
  5
28C
100
AcDbEntity
  8
0
100
AcDbLine
 62
7
  6
CONTINUOUS
 10
540.738358521
 20
792.8712102857
 11
547.0661327545
 21
796.5246357332
  0
LINE
  5
28D
100
AcDbEntity
  8
0
100
AcDbLine
 62
7
  6
CONTINUOUS
 10
756.6895613126
 20
917.3546410276
 11
864.5936068714
 21
979.6526989084
  0
LINE
  5
28E
100
AcDbEntity
  8
0
100
AcDbLine
 62
7
  6
CONTINUOUS
 10
754.2853953126
 20
915.9665723852
 11
753.5782914754
 21
915.5583282314
  0
LINE
  5
28F
100
AcDbEntity
  8
0
100
AcDbLine
 62
7
  6
CONTINUOUS
 10
753.5782914754
 20
915.5583282314
 11
747.7021630708
 21
912.1656469164
  0
LINE
  5
290
100
AcDbEntity
  8
0
100
AcDbLine
 62
7
  6
CONTINUOUS
 10
756.6895613126
 20
916.5381386105
 11
864.5936068714
 21
978.8361964913
  0
LINE
  5
291
100
AcDbEntity
  8
0
100
AcDbLine
 62
7
  6
CONTINUOUS
 10
541.5368081823
 20
792.278542273
 11
534.5815768256
 21
788.2629615468
  0
LINE
  5
292
100
AcDbEntity
  8
0
100
AcDbLine
 62
7
  6
CONTINUOUS
 10
550.8801338766
 20
797.5100978037
 11
748.5863667616
 21
911.6551632261
  0
LINE
  5
293
100
AcDbEntity
  8
0
100
AcDbLine
 62
7
  6
CONTINUOUS
 10
549.5339368634
 20
796.3246028625
 11
549.8194692888
 21
796.4894541012
  0
LINE
  5
294
100
AcDbEntity
  8
0
100
AcDbLine
 62
7
  6
CONTINUOUS
 10
550.5946014511
 20
795.7122417307
 11
550.8801338766
 21
795.8770929694
  0
LINE
  5
295
100
AcDbEntity
  8
0
100
AcDbLine
 62
7
  6
CONTINUOUS
 10
754.1444515719
 20
915.8851989643
 11
754.279696368
 21
915.9579900241
  0
LINE
  5
296
100
AcDbEntity
  8
0
100
AcDbLine
 62
7
  6
CONTINUOUS
 10
542.005432622
 20
792.5266000475
 11
541.5368081823
 21
792.2785352718
  0
LINE
  5
297
100
AcDbEntity
  8
0
100
AcDbLine
 62
7
  6
CONTINUOUS
 10
465.9468869021
 20
741.6954221553
 11
465.9468869021
 21
251.7939718775
  0
LINE
  5
298
100
AcDbEntity
  8
0
100
AcDbLine
 62
7
  6
CONTINUOUS
 10
522.6469932016
 20
789.3467481281
 11
522.3865270853
 21
788.4938911625
  0
LINE
  5
299
100
AcDbEntity
  8
0
100
AcDbLine
 62
7
  6
CONTINUOUS
 10
526.8663499879
 20
789.1777621546
 11
526.6058838716
 21
788.3249051891
  0
LINE
  5
29A
100
AcDbEntity
  8
0
100
AcDbLine
 62
7
  6
CONTINUOUS
 10
149.0246709131
 20
656.8472910158
 11
149.0234815694
 21
656.8472561605
  0
LINE
  5
29B
100
AcDbEntity
  8
0
100
AcDbLine
 62
7
  6
CONTINUOUS
 10
149.0234815694
 20
656.8472561605
 11
148.7059354318
 21
656.8420817981
  0
LINE
  5
29C
100
AcDbEntity
  8
0
100
AcDbLine
 62
7
  6
CONTINUOUS
 10
520.7861478063
 20
788.0106572077
 11
520.7861478063
 21
142.1572452582
  0
LINE
  5
29D
100
AcDbEntity
  8
0
100
AcDbLine
 62
7
  6
CONTINUOUS
 10
522.3865270854
 20
140.7120483645
 11
522.3865270854
 21
788.4938911625
  0
LINE
  5
29E
100
AcDbEntity
  8
0
100
AcDbLine
 62
7
  6
CONTINUOUS
 10
523.5550121306
 20
1114.0043955432
 11
523.5550121306
 21
1114.8208979603
  0
LINE
  5
29F
100
AcDbEntity
  8
0
100
AcDbLine
 62
7
  6
CONTINUOUS
 10
524.7566715946
 20
139.8648514155
 11
524.7566715946
 21
140.3244187719
  0
LINE
  5
2A0
100
AcDbEntity
  8
0
100
AcDbLine
 62
7
  6
CONTINUOUS
 10
524.7566715946
 20
789.3925242421
 11
524.7566715946
 21
790.6172778678
  0
LINE
  5
2A1
100
AcDbEntity
  8
0
100
AcDbLine
 62
7
  6
CONTINUOUS
 10
531.9393154176
 20
787.7819698792
 11
531.9393154176
 21
139.4790506784
  0
LINE
  5
2A2
100
AcDbEntity
  8
0
100
AcDbLine
 62
7
  6
CONTINUOUS
 10
532.1997815425
 20
139.4790506784
 11
532.1997815425
 21
139.1071540173
  0
LINE
  5
2A3
100
AcDbEntity
  8
0
100
AcDbLine
 62
7
  6
CONTINUOUS
 10
532.1997815425
 20
788.6348268439
 11
532.1997815425
 21
789.8595804696
  0
LINE
  5
2A4
100
AcDbEntity
  8
0
100
AcDbLine
 62
7
  6
CONTINUOUS
 10
533.5209122317
 20
139.5849775302
 11
533.5209122317
 21
139.3476498484
  0
LINE
  5
2A5
100
AcDbEntity
  8
0
100
AcDbLine
 62
7
  6
CONTINUOUS
 10
533.5209122317
 20
788.875322675
 11
533.5209122317
 21
790.1000763007
  0
LINE
  5
2A6
100
AcDbEntity
  8
0
100
AcDbLine
 62
7
  6
CONTINUOUS
 10
534.5815768256
 20
139.9600423459
 11
534.5815768256
 21
788.2629615468
  0
LINE
  5
2A7
100
AcDbEntity
  8
0
100
AcDbLine
 62
7
  6
CONTINUOUS
 10
540.4761435946
 20
793.3253668758
 11
540.5029992769
 21
793.5771183887
  0
LINE
  5
2A8
100
AcDbEntity
  8
0
100
AcDbLine
 62
7
  6
CONTINUOUS
 10
572.781327405
 20
1135.5472677924
 11
572.8462795428
 21
1136.0101201732
  0
LWPOLYLINE
  5
2A9
100
AcDbEntity
  8
0
100
AcDbPolyline
 62
7
  6
CONTINUOUS
 90
3
 70
0
 10
540.5029992769
 20
793.5771183887
 10
540.5537603405
 20
793.744545826
 10
540.5655022859
 20
793.7714595514
  0
LWPOLYLINE
  5
2AA
100
AcDbEntity
  8
0
100
AcDbPolyline
 62
7
  6
CONTINUOUS
 90
4
 70
0
 10
149.0233779497
 20
656.8472535194
 10
149.7906365575
 20
656.9603087152
 10
150.2579895846
 20
657.099948879
 10
151.0237255008
 20
657.4074022133
  0
LINE
  5
2AB
100
AcDbEntity
  8
0
100
AcDbLine
 62
7
  6
CONTINUOUS
 10
168.9608023403
 20
913.1565390538
 11
465.9468869021
 21
741.6954221553
  0
LINE
  5
2AC
100
AcDbEntity
  8
0
100
AcDbLine
 62
7
  6
CONTINUOUS
 10
753.5782914754
 20
265.9490051631
 11
748.5863667615
 21
274.5952243979
  0
LINE
  5
2AD
100
AcDbEntity
  8
0
100
AcDbLine
 62
7
  6
CONTINUOUS
 10
540.4761435946
 20
792.6740101865
 11
540.4761435946
 21
794.1156570305
  0
LINE
  5
2AE
100
AcDbEntity
  8
0
100
AcDbLine
 62
7
  6
CONTINUOUS
 10
541.5368081823
 20
792.278542273
 11
541.5368081823
 21
143.9756230722
  0
LINE
  5
2AF
100
AcDbEntity
  8
0
100
AcDbLine
 62
7
  6
CONTINUOUS
 10
542.0054326221
 20
792.5265744608
 11
542.0054326221
 21
145.0339612989
  0
LINE
  5
2B0
100
AcDbEntity
  8
0
100
AcDbLine
 62
7
  6
CONTINUOUS
 10
545.9984059014
 20
796.3246031186
 11
545.9984059014
 21
795.9245169342
  0
LINE
  5
2B1
100
AcDbEntity
  8
0
100
AcDbLine
 62
7
  6
CONTINUOUS
 10
545.9984059014
 20
148.421770102
 11
545.9984059014
 21
148.0216839176
  0
LINE
  5
2B2
100
AcDbEntity
  8
0
100
AcDbLine
 62
7
  6
CONTINUOUS
 10
546.351960764
 20
795.7122315327
 11
546.351960764
 21
148.2258147489
  0
LINE
  5
2B3
100
AcDbEntity
  8
0
100
AcDbLine
 62
7
  6
CONTINUOUS
 10
547.0590616572
 20
796.9369693494
 11
547.0590616572
 21
796.536883165
  0
LINE
  5
2B4
100
AcDbEntity
  8
0
100
AcDbLine
 62
7
  6
CONTINUOUS
 10
548.3036464331
 20
1129.1094433458
 11
548.3036464331
 21
1128.2929409287
  0
LINE
  5
2B5
100
AcDbEntity
  8
0
100
AcDbLine
 62
7
  6
CONTINUOUS
 10
548.4052498385
 20
146.9617603665
 11
548.4052498385
 21
147.7348274095
  0
LINE
  5
2B6
100
AcDbEntity
  8
0
100
AcDbLine
 62
7
  6
CONTINUOUS
 10
548.4052498385
 20
798.9389404446
 11
548.4052498385
 21
800.1636940703
  0
LINE
  5
2B7
100
AcDbEntity
  8
0
100
AcDbLine
 62
7
  6
CONTINUOUS
 10
549.8194692888
 20
146.1452788575
 11
549.8194692889
 21
148.0404691456
  0
LINE
  5
2B8
100
AcDbEntity
  8
0
100
AcDbLine
 62
7
  6
CONTINUOUS
 10
549.8194692888
 20
796.4894541012
 11
549.8194692888
 21
799.3472125612
  0
LINE
  5
2B9
100
AcDbEntity
  8
0
100
AcDbLine
 62
7
  6
CONTINUOUS
 10
550.5946014511
 20
148.225824947
 11
550.5946014511
 21
795.7122417307
  0
LINE
  5
2BA
100
AcDbEntity
  8
0
100
AcDbLine
 62
7
  6
CONTINUOUS
 10
550.8801338766
 20
146.7576713514
 11
550.8801338766
 21
148.3906761857
  0
LINE
  5
2BB
100
AcDbEntity
  8
0
100
AcDbLine
 62
7
  6
CONTINUOUS
 10
550.8801338766
 20
795.8770929694
 11
550.8801338766
 21
797.5100978037
  0
LINE
  5
2BC
100
AcDbEntity
  8
0
100
AcDbLine
 62
7
  6
CONTINUOUS
 10
562.4457820567
 20
1128.2929749222
 11
562.4457820567
 21
1129.1094773393
  0
LINE
  5
2BD
100
AcDbEntity
  8
0
100
AcDbLine
 62
7
  6
CONTINUOUS
 10
168.9608023403
 20
423.2550887761
 11
170.0214580962
 21
423.8674550069
  0
LINE
  5
2BE
100
AcDbEntity
  8
0
100
AcDbLine
 62
7
  6
CONTINUOUS
 10
134.9646070243
 20
691.0232779818
 11
135.9097087756
 21
691.1492481566
  0
LINE
  5
2BF
100
AcDbEntity
  8
0
100
AcDbLine
 62
7
  6
CONTINUOUS
 10
513.5729355826
 20
1121.4627608029
 11
513.5079829039
 21
1121.9256128715
  0
LINE
  5
2C0
100
AcDbEntity
  8
0
100
AcDbLine
 62
7
  6
CONTINUOUS
 10
533.5209122317
 20
788.875322675
 11
532.1997815425
 21
788.6348268439
  0
LINE
  5
2C1
100
AcDbEntity
  8
0
100
AcDbLine
 62
7
  6
CONTINUOUS
 10
532.1997815425
 20
789.8595804696
 11
533.5209122317
 21
790.1000763007
  0
LINE
  5
2C2
100
AcDbEntity
  8
0
100
AcDbLine
 62
7
  6
CONTINUOUS
 10
526.6058838716
 20
788.3249051891
 11
522.3865270854
 21
788.4938911625
  0
LINE
  5
2C3
100
AcDbEntity
  8
0
100
AcDbLine
 62
7
  6
CONTINUOUS
 10
526.8663499879
 20
789.1777621546
 11
522.6469932016
 21
789.3467481281
  0
LINE
  5
2C4
100
AcDbEntity
  8
0
100
AcDbLine
 62
7
  6
CONTINUOUS
 10
526.6058838716
 20
788.3249051891
 11
531.9393154176
 21
787.7819698792
  0
LINE
  5
2C5
100
AcDbEntity
  8
0
100
AcDbLine
 62
7
  6
CONTINUOUS
 10
532.1997815425
 20
788.6348268439
 11
524.7566715946
 21
789.3925242421
  0
LINE
  5
2C6
100
AcDbEntity
  8
0
100
AcDbLine
 62
7
  6
CONTINUOUS
 10
524.7566715946
 20
790.6172778678
 11
532.1997815425
 21
789.8595804696
  0
LWPOLYLINE
  5
2C7
100
AcDbEntity
  8
0
100
AcDbPolyline
 62
7
  6
CONTINUOUS
 90
3
 70
0
 10
541.2957164275
 20
792.5264289237
 10
541.2839797858
 20
792.5279645402
 10
541.1275494894
 20
792.5579614467
  0
LINE
  5
2C8
100
AcDbEntity
  8
0
100
AcDbLine
 62
7
  6
CONTINUOUS
 10
522.4371047322
 20
789.1510814706
 11
521.7274987978
 21
789.3151369299
  0
LWPOLYLINE
  5
2C9
100
AcDbEntity
  8
0
100
AcDbPolyline
 62
7
  6
CONTINUOUS
 90
3
 70
0
 10
541.1275494894
 20
792.5579614467
 10
540.9015537127
 20
792.6468323131
 10
540.8518221674
 20
792.6740101865
  0
LINE
  5
2CA
100
AcDbEntity
  8
0
100
AcDbLine
 62
7
  6
CONTINUOUS
 10
114.1215414361
 20
1022.7932656731
 11
520.7861478063
 21
788.0106572077
  0
LINE
  5
2CB
100
AcDbEntity
  8
0
100
AcDbLine
 62
7
  6
CONTINUOUS
 10
524.7566715946
 20
790.6172778678
 11
114.3936406711
 21
1027.5351244391
  0
LINE
  5
2CC
100
AcDbEntity
  8
0
100
AcDbLine
 62
7
  6
CONTINUOUS
 10
540.2880175211
 20
792.9995155868
 11
541.5368081823
 21
792.278542273
  0
LINE
  5
2CD
100
AcDbEntity
  8
0
100
AcDbLine
 62
7
  6
CONTINUOUS
 10
120.4529668573
 20
1036.6106652156
 11
540.4761435946
 21
794.1156570305
  0
LINE
  5
2CE
100
AcDbEntity
  8
0
100
AcDbLine
 62
7
  6
CONTINUOUS
 10
121.6038211515
 20
1036.4873407557
 11
540.9252621531
 21
794.397470721
  0
LINE
  5
2CF
100
AcDbEntity
  8
0
100
AcDbLine
 62
7
  6
CONTINUOUS
 10
126.3287840267
 20
1038.2072397178
 11
126.675267792
 21
1038.007201748
  0
LINE
  5
2D0
100
AcDbEntity
  8
0
100
AcDbLine
 62
7
  6
CONTINUOUS
 10
546.0054769987
 20
795.9122695024
 11
546.351960764
 21
795.7122315327
  0
LINE
  5
2D1
100
AcDbEntity
  8
0
100
AcDbLine
 62
7
  6
CONTINUOUS
 10
126.6823388893
 20
1038.4113705491
 11
545.9984059014
 21
796.3246031186
  0
LINE
  5
2D2
100
AcDbEntity
  8
0
100
AcDbLine
 62
7
  6
CONTINUOUS
 10
547.0661327545
 20
796.5246357332
 11
547.4126165199
 21
796.3245977635
  0
LINE
  5
2D3
100
AcDbEntity
  8
0
100
AcDbLine
 62
7
  6
CONTINUOUS
 10
550.8801338766
 20
795.8770929694
 11
549.8194692888
 21
796.4894541012
  0
LINE
  5
2D4
100
AcDbEntity
  8
0
100
AcDbLine
 62
7
  6
CONTINUOUS
 10
127.283752152
 20
1040.4350453457
 11
126.6142987883
 21
1040.8215456816
  0
LINE
  5
2D5
100
AcDbEntity
  8
0
100
AcDbLine
 62
7
  6
CONTINUOUS
 10
128.2555522335
 20
1041.5069938342
 11
126.6142987883
 21
1042.4545505159
  0
LINE
  5
2D6
100
AcDbEntity
  8
0
100
AcDbLine
 62
7
  6
CONTINUOUS
 10
548.4052498385
 20
798.9389404446
 11
550.8801338766
 21
797.5100978037
  0
LINE
  5
2D7
100
AcDbEntity
  8
0
100
AcDbLine
 62
7
  6
CONTINUOUS
 10
548.1197174131
 20
799.9988428316
 11
128.8036504009
 21
1042.0856102621
  0
LINE
  5
2D8
100
AcDbEntity
  8
0
100
AcDbLine
 62
7
  6
CONTINUOUS
 10
549.8194692888
 20
799.3472125612
 11
548.4052498385
 21
800.1636940703
  0
LINE
  5
2D9
100
AcDbEntity
  8
0
100
AcDbLine
 62
7
  6
CONTINUOUS
 10
129.0891828264
 20
1042.2504615008
 11
127.6749633761
 21
1043.0669430098
  0
LINE
  5
2DA
100
AcDbEntity
  8
0
100
AcDbLine
 62
7
  6
CONTINUOUS
 10
332.4237391779
 20
1158.7065216237
 11
336.9532742933
 21
1150.5310172095
  0
LINE
  5
2DB
100
AcDbEntity
  8
0
100
AcDbLine
 62
7
  6
CONTINUOUS
 10
537.9030652878
 20
1136.0100361801
 11
537.9680179665
 21
1135.5471841115
  0
LINE
  5
2DC
100
AcDbEntity
  8
0
100
AcDbLine
 62
7
  6
CONTINUOUS
 10
713.9146697096
 20
1054.5660896464
 11
713.8497175718
 21
1054.1032372656
  0
LINE
  5
2DD
100
AcDbEntity
  8
0
100
AcDbLine
 62
7
  6
CONTINUOUS
 10
703.8677270861
 20
1047.4613264353
 11
703.8677270861
 21
1046.6448240181
  0
LINE
  5
2DE
100
AcDbEntity
  8
0
100
AcDbLine
 62
7
  6
CONTINUOUS
 10
747.5257021739
 20
912.267524358
 11
747.5257021739
 21
913.4922779837
  0
LINE
  5
2DF
100
AcDbEntity
  8
0
100
AcDbLine
 62
7
  6
CONTINUOUS
 10
748.5863667616
 20
911.6551632261
 11
748.5863667615
 21
260.9027367738
  0
LINE
  5
2E0
100
AcDbEntity
  8
0
100
AcDbLine
 62
7
  6
CONTINUOUS
 10
753.5782914754
 20
915.5583282314
 11
753.5782914754
 21
265.9490051631
  0
LINE
  5
2E1
100
AcDbEntity
  8
0
100
AcDbLine
 62
7
  6
CONTINUOUS
 10
756.6895613126
 20
264.152707324
 11
756.6895613126
 21
917.3546410276
  0
LINE
  5
2E2
100
AcDbEntity
  8
0
100
AcDbLine
 62
7
  6
CONTINUOUS
 10
542.0054326221
 20
145.0339561315
 11
541.5368081823
 21
143.9756318159
  0
LINE
  5
2E3
100
AcDbEntity
  8
0
100
AcDbLine
 62
7
  6
CONTINUOUS
 10
691.1400214064
 20
1020.1499334342
 11
690.7864665438
 21
1020.1091030864
  0
LINE
  5
2E4
100
AcDbEntity
  8
0
100
AcDbLine
 62
7
  6
CONTINUOUS
 10
120.4530293826
 20
1036.6106291174
 11
121.6038124965
 21
1036.4873457525
  0
LINE
  5
2E5
100
AcDbEntity
  8
0
100
AcDbLine
 62
7
  6
CONTINUOUS
 10
510.8270414939
 20
1124.0063751118
 11
510.4734866313
 21
1124.4554462142
  0
LINE
  5
2E6
100
AcDbEntity
  8
0
100
AcDbLine
 62
7
  6
CONTINUOUS
 10
521.9817454778
 20
141.0041226119
 11
521.7274987979
 21
140.6517657002
  0
LINE
  5
2E7
100
AcDbEntity
  8
0
100
AcDbLine
 62
7
  6
CONTINUOUS
 10
716.5957566021
 20
1035.0100147027
 11
716.9493114647
 21
1035.0508450505
  0
LINE
  5
2E8
100
AcDbEntity
  8
0
100
AcDbLine
 62
7
  6
CONTINUOUS
 10
653.3098071412
 20
1020.1090130035
 11
652.9562552226
 21
1020.1498416518
  0
LINE
  5
2E9
100
AcDbEntity
  8
0
100
AcDbLine
 62
7
  6
CONTINUOUS
 10
748.5863667616
 20
911.6551632261
 11
747.5257021739
 21
912.2675243579
  0
LINE
  5
2EA
100
AcDbEntity
  8
0
100
AcDbLine
 62
7
  6
CONTINUOUS
 10
325.3811962611
 20
1157.2120084323
 11
747.5257021738
 21
913.4922779837
  0
LINE
  5
2EB
100
AcDbEntity
  8
0
100
AcDbLine
 62
7
  6
CONTINUOUS
 10
332.4237391779
 20
1158.7065216237
 11
753.5782914754
 21
915.5583282314
  0
LINE
  5
2EC
100
AcDbEntity
  8
0
100
AcDbLine
 62
7
  6
CONTINUOUS
 10
756.6895613126
 20
917.3546410276
 11
332.4237262244
 21
1162.2990937398
  0
LINE
  5
2ED
100
AcDbEntity
  8
0
100
AcDbLine
 62
7
  6
CONTINUOUS
 10
536.2827766896
 20
1139.3563578305
 11
536.6363315522
 21
1138.9072867281
  0
LINE
  5
2EE
100
AcDbEntity
  8
0
100
AcDbLine
 62
7
  6
CONTINUOUS
 10
864.5936068714
 20
327.2672676219
 11
864.5741519418
 21
327.4190430366
  0
LINE
  5
2EF
100
AcDbEntity
  8
0
100
AcDbLine
 62
7
  6
CONTINUOUS
 10
864.5936068714
 20
979.6526989084
 11
864.5936068714
 21
326.4507652048
  0
LINE
  5
2F0
100
AcDbEntity
  8
0
100
AcDbLine
 62
7
  6
CONTINUOUS
 10
865.2379654761
 20
328.6552961348
 11
865.2379654761
 21
979.0008348798
  0
LINE
  5
2F1
100
AcDbEntity
  8
0
100
AcDbLine
 62
7
  6
CONTINUOUS
 10
113.946774107
 20
1024.748464805
 11
113.2884318577
 21
1024.6814432908
  0
LINE
  5
2F2
100
AcDbEntity
  8
0
100
AcDbLine
 62
7
  6
CONTINUOUS
 10
112.5444283943
 20
1027.3779898666
 11
114.0216389394
 21
1027.5283750007
  0
LINE
  5
2F3
100
AcDbEntity
  8
0
100
AcDbLine
 62
7
  6
CONTINUOUS
 10
510.4736456055
 20
1102.4103536876
 11
652.9562552226
 21
1020.1498416518
  0
LINE
  5
2F4
100
AcDbEntity
  8
0
100
AcDbLine
 62
7
  6
CONTINUOUS
 10
510.8271975241
 20
1102.3695250394
 11
653.3098071412
 21
1020.1090130035
  0
LINE
  5
2F5
100
AcDbEntity
  8
0
100
AcDbLine
 62
7
  6
CONTINUOUS
 10
512.1154057045
 20
1102.2967796315
 11
653.1837958708
 21
1020.852749105
  0
LINE
  5
2F6
100
AcDbEntity
  8
0
100
AcDbLine
 62
7
  6
CONTINUOUS
 10
513.1153887372
 20
1102.3958354008
 11
654.1837789041
 21
1020.951804874
  0
LINE
  5
2F7
100
AcDbEntity
  8
0
100
AcDbLine
 62
7
  6
CONTINUOUS
 10
523.5550710099
 20
1106.6560488764
 11
664.9770160393
 21
1025.0078979723
  0
LINE
  5
2F8
100
AcDbEntity
  8
0
100
AcDbLine
 62
7
  6
CONTINUOUS
 10
510.4736456055
 20
1102.4103536876
 11
510.8271975241
 21
1102.3695250394
  0
LINE
  5
2F9
100
AcDbEntity
  8
0
100
AcDbLine
 62
7
  6
CONTINUOUS
 10
703.8677270861
 20
1046.6448240181
 11
562.4457820567
 21
1128.2929749222
  0
LINE
  5
2FA
100
AcDbEntity
  8
0
100
AcDbLine
 62
7
  6
CONTINUOUS
 10
703.8677270861
 20
1047.4613264353
 11
562.4457820567
 21
1129.1094773393
  0
LINE
  5
2FB
100
AcDbEntity
  8
0
100
AcDbLine
 62
7
  6
CONTINUOUS
 10
572.0849660639
 20
1134.4705075242
 11
713.1533562307
 21
1053.0264769974
  0
LINE
  5
2FC
100
AcDbEntity
  8
0
100
AcDbLine
 62
7
  6
CONTINUOUS
 10
713.8497175718
 20
1054.1032372656
 11
572.781327405
 21
1135.5472677924
  0
LINE
  5
2FD
100
AcDbEntity
  8
0
100
AcDbLine
 62
7
  6
CONTINUOUS
 10
572.8462795428
 20
1136.0101201732
 11
713.9146697096
 21
1054.5660896464
  0
LINE
  5
2FE
100
AcDbEntity
  8
0
100
AcDbLine
 62
7
  6
CONTINUOUS
 10
715.3073923917
 20
1056.7196101828
 11
574.2390022249
 21
1138.1636407096
  0
LINE
  5
2FF
100
AcDbEntity
  8
0
100
AcDbLine
 62
7
  6
CONTINUOUS
 10
716.5956005719
 20
1056.646864775
 11
574.1129909548
 21
1138.9073768109
  0
LINE
  5
300
100
AcDbEntity
  8
0
100
AcDbLine
 62
7
  6
CONTINUOUS
 10
716.9491524905
 20
1057.0959375771
 11
574.4665428734
 21
1139.356449613
  0
LINE
  5
301
100
AcDbEntity
  8
0
100
AcDbLine
 62
7
  6
CONTINUOUS
 10
440.3277717832
 20
1224.5971516206
 11
864.5936068714
 21
979.6526989084
  0
LINE
  5
302
100
AcDbEntity
  8
0
100
AcDbLine
 62
7
  6
CONTINUOUS
 10
864.9157801847
 20
980.2107177668
 11
442.2055611425
 21
1224.2570554542
  0
LINE
  5
303
100
AcDbEntity
  8
0
100
AcDbLine
 62
7
  6
CONTINUOUS
 10
546.1787219361
 20
148.5258749918
 11
545.9984059014
 21
148.421770102
  0
LINE
  5
304
100
AcDbEntity
  8
0
100
AcDbLine
 62
7
  6
CONTINUOUS
 10
541.5368081823
 20
143.9756230722
 11
534.5815768256
 21
139.9600423459
  0
LINE
  5
305
100
AcDbEntity
  8
0
100
AcDbLine
 62
7
  6
CONTINUOUS
 10
534.3596817115
 20
139.8319107427
 11
533.5209122317
 21
139.3476498484
  0
LINE
  5
306
100
AcDbEntity
  8
0
100
AcDbLine
 62
7
  6
CONTINUOUS
 10
550.8801338766
 20
148.3906761857
 11
550.5946014511
 21
148.225824947
  0
LINE
  5
307
100
AcDbEntity
  8
0
100
AcDbLine
 62
7
  6
CONTINUOUS
 10
548.119717413
 20
146.7969091279
 11
548.4052498385
 21
146.9617603665
  0
LINE
  5
308
100
AcDbEntity
  8
0
100
AcDbLine
 62
7
  6
CONTINUOUS
 10
549.8194692888
 20
146.1452788575
 11
748.5863667616
 21
260.9027367739
  0
LINE
  5
309
100
AcDbEntity
  8
0
100
AcDbLine
 62
7
  6
CONTINUOUS
 10
756.6895613126
 20
264.9692097411
 11
864.5936068714
 21
327.2672676219
  0
LINE
  5
30A
100
AcDbEntity
  8
0
100
AcDbLine
 62
7
  6
CONTINUOUS
 10
756.6895613126
 20
264.152707324
 11
864.5936068714
 21
326.4507652048
  0
ARC
  5
30B
100
AcDbEntity
  8
0
100
AcDbCircle
 62
7
  6
CONTINUOUS
 10
-253.4927540829
 20
672.6014257887
 40
400.031122899
100
AcDbArc
 50
359.8570631879
 51
0.3387038779
  0
ARC
  5
30C
100
AcDbEntity
  8
0
100
AcDbCircle
 62
7
  6
CONTINUOUS
 10
-214.4150088232
 20
672.6485432767
 40
360.8974159825
100
AcDbArc
 50
359.8401680444
 51
0.3738952027
  0
ARC
  5
30D
100
AcDbEntity
  8
0
100
AcDbCircle
 62
7
  6
CONTINUOUS
 10
-155.848404314
 20
672.3307568681
 40
302.3302528191
100
AcDbArc
 50
359.2423570711
 51
359.8694180043
  0
ARC
  5
30E
100
AcDbEntity
  8
0
100
AcDbCircle
 62
7
  6
CONTINUOUS
 10
66.5225637911
 20
666.8061231496
 40
79.8692642553
100
AcDbArc
 50
355.7734366522
 51
356.4488927212
  0
ARC
  5
30F
100
AcDbEntity
  8
0
100
AcDbCircle
 62
7
  6
CONTINUOUS
 10
70.0783075019
 20
666.2971783422
 40
76.3688367936
100
AcDbArc
 50
355.9241004724
 51
356.6311734057
  0
ARC
  5
310
100
AcDbEntity
  8
0
100
AcDbCircle
 62
7
  6
CONTINUOUS
 10
145.4318266489
 20
668.2179066478
 40
12.0927952573
100
AcDbArc
 50
297.3843515948
 51
299.1190028872
  0
ARC
  5
311
100
AcDbEntity
  8
0
100
AcDbCircle
 62
7
  6
CONTINUOUS
 10
148.6708617857
 20
668.7419371632
 40
11.8999070531
100
AcDbArc
 50
270.1688731511
 51
271.7037744539
  0
ARC
  5
312
100
AcDbEntity
  8
0
100
AcDbCircle
 62
7
  6
CONTINUOUS
 10
113.3289309792
 20
381.6562151092
 40
4.7824989341
100
AcDbArc
 50
276.0127001731
 51
279.539728195
  0
ARC
  5
313
100
AcDbEntity
  8
0
100
AcDbCircle
 62
7
  6
CONTINUOUS
 10
113.4251572792
 20
380.7809416751
 40
3.9019631047
100
AcDbArc
 50
274.575040796
 51
275.9537740028
  0
ARC
  5
314
100
AcDbEntity
  8
0
100
AcDbCircle
 62
7
  6
CONTINUOUS
 10
148.9946320679
 20
660.0808222297
 40
3.2340661945
100
AcDbArc
 50
264.9153516527
 51
269.9565984343
  0
ARC
  5
315
100
AcDbEntity
  8
0
100
AcDbCircle
 62
7
  6
CONTINUOUS
 10
148.936164985
 20
658.9287176575
 40
2.0827141421
100
AcDbArc
 50
271.5413903074
 51
272.2495901889
  0
ARC
  5
316
100
AcDbEntity
  8
0
100
AcDbCircle
 62
7
  6
CONTINUOUS
 10
194.3047591063
 20
687.1848832332
 40
65.204921245
100
AcDbArc
 50
173.4717068278
 51
174.3219267366
  0
ARC
  5
317
100
AcDbEntity
  8
0
100
AcDbCircle
 62
7
  6
CONTINUOUS
 10
190.6633081958
 20
687.6058057295
 40
61.6166419055
100
AcDbArc
 50
173.4324801305
 51
174.3348718901
  0
ARC
  5
318
100
AcDbEntity
  8
0
100
AcDbCircle
 62
7
  6
CONTINUOUS
 10
128.7308114507
 20
698.0171974793
 40
10.9252669936
100
AcDbArc
 50
319.9003614203
 51
320.2018064454
  0
ARC
  5
319
100
AcDbEntity
  8
0
100
AcDbCircle
 62
7
  6
CONTINUOUS
 10
130.3079660815
 20
696.6879286653
 40
8.8626542637
100
AcDbArc
 50
319.5263618355
 51
319.9062871638
  0
ARC
  5
31A
100
AcDbEntity
  8
0
100
AcDbCircle
 62
7
  6
CONTINUOUS
 10
140.9450105738
 20
683.805877647
 40
7.9717460986
100
AcDbArc
 50
118.7868220377
 51
119.230240117
  0
ARC
  5
31B
100
AcDbEntity
  8
0
100
AcDbCircle
 62
7
  6
CONTINUOUS
 10
145.0979184542
 20
683.5557796634
 40
7.7131268397
100
AcDbArc
 50
239.9992529096
 51
240.7209522689
  0
ARC
  5
31C
100
AcDbEntity
  8
0
100
AcDbCircle
 62
7
  6
CONTINUOUS
 10
121.3662123924
 20
1025.0041261538
 40
7.423521256
100
AcDbArc
 50
173.6748416822
 51
181.0748157738
  0
ARC
  5
31D
100
AcDbEntity
  8
0
100
AcDbCircle
 62
7
  6
CONTINUOUS
 10
121.3060064804
 20
1025.0193886362
 40
7.3620053072
100
AcDbArc
 50
166.1876377579
 51
173.7412792619
  0
ARC
  5
31E
100
AcDbEntity
  8
0
100
AcDbCircle
 62
7
  6
CONTINUOUS
 10
120.9788137029
 20
1025.0010650351
 40
7.0361345647
100
AcDbArc
 50
181.1090674627
 51
182.1122963275
  0
ARC
  5
31F
100
AcDbEntity
  8
0
100
AcDbCircle
 62
7
  6
CONTINUOUS
 10
120.8168514946
 20
1025.1343327649
 40
6.8595551562
100
AcDbArc
 50
164.6829397645
 51
166.1445206645
  0
ARC
  5
320
100
AcDbEntity
  8
0
100
AcDbCircle
 62
7
  6
CONTINUOUS
 10
119.6612580319
 20
1024.2007957346
 40
5.7393459377
100
AcDbArc
 50
174.5918771354
 51
181.2230732088
  0
ARC
  5
321
100
AcDbEntity
  8
0
100
AcDbCircle
 62
7
  6
CONTINUOUS
 10
134.473745563
 20
691.140379092
 40
4.9892640613
100
AcDbArc
 50
4.8362364782
 51
8.1282399226
  0
ARC
  5
322
100
AcDbEntity
  8
0
100
AcDbCircle
 62
7
  6
CONTINUOUS
 10
130.8445048906
 20
1038.7616538504
 40
3.9054494269
100
AcDbArc
 50
129.0309743186
 51
132.3367471203
  0
ARC
  5
323
100
AcDbEntity
  8
0
100
AcDbCircle
 62
7
  6
CONTINUOUS
 10
116.9961750228
 20
1025.2700752284
 40
3.754177265
100
AcDbArc
 50
189.0208489879
 51
192.2895496831
  0
ARC
  5
324
100
AcDbEntity
  8
0
100
AcDbCircle
 62
7
  6
CONTINUOUS
 10
130.3721785994
 20
1038.3407162347
 40
3.693363523
100
AcDbArc
 50
170.6940614824
 51
172.0944811656
  0
ARC
  5
325
100
AcDbEntity
  8
0
100
AcDbCircle
 62
7
  6
CONTINUOUS
 10
138.4324123525
 20
688.4961197667
 40
2.6512163337
100
AcDbArc
 50
112.5535918243
 51
114.0791621221
  0
ARC
  5
326
100
AcDbEntity
  8
0
100
AcDbCircle
 62
7
  6
CONTINUOUS
 10
526.1091227177
 20
146.5683063962
 40
6.939270594
100
AcDbArc
 50
233.4976784349
 51
237.5574655783
  0
ARC
  5
327
100
AcDbEntity
  8
0
100
AcDbCircle
 62
7
  6
CONTINUOUS
 10
525.91960315
 20
146.3099827749
 40
6.6188850069
100
AcDbArc
 50
231.5066564043
 51
233.4862246783
  0
ARC
  5
328
100
AcDbEntity
  8
0
100
AcDbCircle
 62
7
  6
CONTINUOUS
 10
859.4380352692
 20
328.3014599187
 40
5.4829542993
100
AcDbArc
 50
349.8912876084
 51
355.1480053435
  0
ARC
  5
329
100
AcDbEntity
  8
0
100
AcDbCircle
 62
7
  6
CONTINUOUS
 10
859.5288824373
 20
328.2868800204
 40
5.3909586202
100
AcDbArc
 50
348.1958735278
 51
349.8743718528
  0
ARC
  5
32A
100
AcDbEntity
  8
0
100
AcDbCircle
 62
7
  6
CONTINUOUS
 10
859.6002862145
 20
328.2717348765
 40
5.3179666578
100
AcDbArc
 50
346.3578887984
 51
348.1982226912
  0
ARC
  5
32B
100
AcDbEntity
  8
0
100
AcDbCircle
 62
7
  6
CONTINUOUS
 10
532.4602206963
 20
144.6522990431
 40
5.199475338
100
AcDbArc
 50
267.1342121996
 51
274.7962016168
  0
ARC
  5
32C
100
AcDbEntity
  8
0
100
AcDbCircle
 62
7
  6
CONTINUOUS
 10
532.4517935952
 20
144.5229943198
 40
5.0699113741
100
AcDbArc
 50
264.198503899
 51
267.1562694054
  0
ARC
  5
32D
100
AcDbEntity
  8
0
100
AcDbCircle
 62
7
  6
CONTINUOUS
 10
756.2956064943
 20
269.1851538937
 40
4.2595346061
100
AcDbArc
 50
254.1733742875
 51
256.427751758
  0
ARC
  5
32E
100
AcDbEntity
  8
0
100
AcDbCircle
 62
7
  6
CONTINUOUS
 10
548.6576617585
 20
151.8990873177
 40
4.1616939059
100
AcDbArc
 50
285.4258961888
 51
287.6776890529
  0
ARC
  5
32F
100
AcDbEntity
  8
0
100
AcDbCircle
 62
7
  6
CONTINUOUS
 10
548.7363796612
 20
151.6553053403
 40
3.9055198423
100
AcDbArc
 50
287.6634075457
 51
290.9689147799
  0
ARC
  5
330
100
AcDbEntity
  8
0
100
AcDbCircle
 62
7
  6
CONTINUOUS
 10
524.0136394688
 20
143.4672762053
 40
3.6267807449
100
AcDbArc
 50
230.9240620079
 51
239.9992543516
  0
ARC
  5
331
100
AcDbEntity
  8
0
100
AcDbCircle
 62
7
  6
CONTINUOUS
 10
523.6086742418
 20
142.8139445468
 40
2.8667441086
100
AcDbArc
 50
217.4051586876
 51
223.3772549847
  0
ARC
  5
332
100
AcDbEntity
  8
0
100
AcDbCircle
 62
7
  6
CONTINUOUS
 10
523.5013435231
 20
142.7128391367
 40
2.7192919703
100
AcDbArc
 50
223.3820259199
 51
229.2833568212
  0
ARC
  5
333
100
AcDbEntity
  8
0
100
AcDbCircle
 62
7
  6
CONTINUOUS
 10
756.1523713761
 20
266.8200732366
 40
2.68592448
100
AcDbArc
 50
242.5715011309
 51
253.584158495
  0
ARC
  5
334
100
AcDbEntity
  8
0
100
AcDbCircle
 62
7
  6
CONTINUOUS
 10
756.1561905688
 20
266.8171344745
 40
2.6852002809
100
AcDbArc
 50
226.4211781231
 51
239.9544401688
  0
ARC
  5
335
100
AcDbEntity
  8
0
100
AcDbCircle
 62
7
  6
CONTINUOUS
 10
756.1411407597
 20
266.7953994418
 40
2.6588514372
100
AcDbArc
 50
240.0006639833
 51
242.5413835544
  0
ARC
  5
336
100
AcDbEntity
  8
0
100
AcDbCircle
 62
7
  6
CONTINUOUS
 10
862.7604429323
 20
329.1416826819
 40
2.6218165163
100
AcDbArc
 50
314.3625442353
 51
317.2834700968
  0
ARC
  5
337
100
AcDbEntity
  8
0
100
AcDbCircle
 62
7
  6
CONTINUOUS
 10
748.4545956076
 20
638.0555837412
 40
1.4639249675
100
AcDbArc
 50
319.5900859039
 51
325.7003869484
  0
ARC
  5
338
100
AcDbEntity
  8
0
100
AcDbCircle
 62
7
  6
CONTINUOUS
 10
748.4545956076
 20
322.069148312
 40
1.4639249675
100
AcDbArc
 50
319.590085904
 51
325.7003869485
  0
ARC
  5
339
100
AcDbEntity
  8
0
100
AcDbCircle
 62
7
  6
CONTINUOUS
 10
327.793391222
 20
682.7743367017
 40
198.869170622
100
AcDbArc
 50
179.7104212223
 51
180.6783257955
  0
ARC
  5
33A
100
AcDbEntity
  8
0
100
AcDbCircle
 62
7
  6
CONTINUOUS
 10
319.3078279671
 20
682.7403670947
 40
190.3180122037
100
AcDbArc
 50
179.6970118547
 51
180.7081536175
  0
ARC
  5
33B
100
AcDbEntity
  8
0
100
AcDbCircle
 62
7
  6
CONTINUOUS
 10
513.6056539357
 20
798.7700319784
 40
13.0596368914
100
AcDbArc
 50
312.0554863829
 51
312.9365951585
  0
ARC
  5
33C
100
AcDbEntity
  8
0
100
AcDbCircle
 62
7
  6
CONTINUOUS
 10
519.3875940691
 20
795.4250143458
 40
7.5520902946
100
AcDbArc
 50
288.6276077778
 51
293.3969933414
  0
ARC
  5
33D
100
AcDbEntity
  8
0
100
AcDbCircle
 62
7
  6
CONTINUOUS
 10
526.1972441911
 20
783.3944062333
 40
7.4184685659
100
AcDbArc
 50
118.7511235059
 51
127.0503002576
  0
ARC
  5
33E
100
AcDbEntity
  8
0
100
AcDbCircle
 62
7
  6
CONTINUOUS
 10
519.5423360328
 20
794.9558411503
 40
7.0580686053
100
AcDbArc
 50
284.076193767
 51
288.6537929206
  0
ARC
  5
33F
100
AcDbEntity
  8
0
100
AcDbCircle
 62
7
  6
CONTINUOUS
 10
526.0533643463
 20
785.0926161285
 40
6.0450636607
100
AcDbArc
 50
135.6926370843
 51
136.9002912592
  0
ARC
  5
340
100
AcDbEntity
  8
0
100
AcDbCircle
 62
7
  6
CONTINUOUS
 10
525.9579779729
 20
785.180412572
 40
5.9154272129
100
AcDbArc
 50
136.8899400467
 51
139.9676451241
  0
ARC
  5
341
100
AcDbEntity
  8
0
100
AcDbCircle
 62
7
  6
CONTINUOUS
 10
525.7612851485
 20
785.346503406
 40
5.6579902643
100
AcDbArc
 50
139.9742868656
 51
141.5300752916
  0
ARC
  5
342
100
AcDbEntity
  8
0
100
AcDbCircle
 62
7
  6
CONTINUOUS
 10
532.4603413368
 20
792.9257775518
 40
5.1701281784
100
AcDbArc
 50
264.2161302011
 51
274.8221488767
  0
ARC
  5
343
100
AcDbEntity
  8
0
100
AcDbCircle
 62
7
  6
CONTINUOUS
 10
525.4160191533
 20
785.527682035
 40
5.1321267467
100
AcDbArc
 50
97.3814499816
 51
100.513414528
  0
ARC
  5
344
100
AcDbEntity
  8
0
100
AcDbCircle
 62
7
  6
CONTINUOUS
 10
549.5300506549
 20
796.2758119856
 40
3.5336645882
100
AcDbArc
 50
172.151713994
 51
173.5731334144
  0
ARC
  5
345
100
AcDbEntity
  8
0
100
AcDbCircle
 62
7
  6
CONTINUOUS
 10
514.5148637262
 20
1114.609234339
 40
12.201399772
100
AcDbArc
 50
211.2386791707
 51
212.0021371776
  0
ARC
  5
346
100
AcDbEntity
  8
0
100
AcDbCircle
 62
7
  6
CONTINUOUS
 10
514.2865664271
 20
1114.4714435905
 40
11.9347434393
100
AcDbArc
 50
209.6943964721
 51
211.2414775295
  0
ARC
  5
347
100
AcDbEntity
  8
0
100
AcDbCircle
 62
7
  6
CONTINUOUS
 10
514.4293222358
 20
1114.1263242201
 40
11.5518582143
100
AcDbArc
 50
209.3348031159
 51
210.1246067531
  0
ARC
  5
348
100
AcDbEntity
  8
0
100
AcDbCircle
 62
7
  6
CONTINUOUS
 10
514.2121730309
 20
1114.0049344558
 40
11.3030833527
100
AcDbArc
 50
207.7383709979
 51
209.337640967
  0
ARC
  5
349
100
AcDbEntity
  8
0
100
AcDbCircle
 62
7
  6
CONTINUOUS
 10
515.0406624555
 20
1113.7631778909
 40
10.8369020313
100
AcDbArc
 50
205.3241481862
 51
206.1296352425
  0
ARC
  5
34A
100
AcDbEntity
  8
0
100
AcDbCircle
 62
7
  6
CONTINUOUS
 10
514.9369570158
 20
1113.7139832186
 40
10.7221199675
100
AcDbArc
 50
204.8383355301
 51
205.3235692874
  0
ARC
  5
34B
100
AcDbEntity
  8
0
100
AcDbCircle
 62
7
  6
CONTINUOUS
 10
514.8199468571
 20
1113.660088536
 40
10.5932946797
100
AcDbArc
 50
203.6234810646
 51
204.8396442705
  0
ARC
  5
34C
100
AcDbEntity
  8
0
100
AcDbCircle
 62
7
  6
CONTINUOUS
 10
514.5977578644
 20
1113.5637285802
 40
10.3511116678
100
AcDbArc
 50
201.2385871399
 51
203.6276420525
  0
ARC
  5
34D
100
AcDbEntity
  8
0
100
AcDbCircle
 62
7
  6
CONTINUOUS
 10
527.9285210685
 20
1107.2323591644
 40
8.758624406
100
AcDbArc
 50
119.9561739158
 51
124.5043246856
  0
ARC
  5
34E
100
AcDbEntity
  8
0
100
AcDbCircle
 62
7
  6
CONTINUOUS
 10
513.6427902248
 20
1111.6228505756
 40
7.3470652082
100
AcDbArc
 50
192.281873694
 51
193.9678769058
  0
ARC
  5
34F
100
AcDbEntity
  8
0
100
AcDbCircle
 62
7
  6
CONTINUOUS
 10
337.5999605773
 20
1160.4461053378
 40
5.5037370207
100
AcDbArc
 50
170.9682524944
 51
175.1424415449
  0
ARC
  5
350
100
AcDbEntity
  8
0
100
AcDbCircle
 62
7
  6
CONTINUOUS
 10
335.8599407905
 20
1160.1416576008
 40
3.7238550987
100
AcDbArc
 50
199.1209691069
 51
202.667945077
  0
ARC
  5
351
100
AcDbEntity
  8
0
100
AcDbCircle
 62
7
  6
CONTINUOUS
 10
524.0929782427
 20
1110.7528957224
 40
3.4672750855
100
AcDbArc
 50
187.0226075518
 51
195.2939940524
  0
ARC
  5
352
100
AcDbEntity
  8
0
100
AcDbCircle
 62
7
  6
CONTINUOUS
 10
524.0929680992
 20
1109.9075843566
 40
3.4672648594
100
AcDbArc
 50
164.7068017778
 51
172.977025209
  0
ARC
  5
353
100
AcDbEntity
  8
0
100
AcDbCircle
 62
7
  6
CONTINUOUS
 10
523.9968378027
 20
1110.739093211
 40
3.370168945
100
AcDbArc
 50
180.0102481134
 51
186.9895452673
  0
ARC
  5
354
100
AcDbEntity
  8
0
100
AcDbCircle
 62
7
  6
CONTINUOUS
 10
440.8761920176
 20
1221.9544584092
 40
2.6588525435
100
AcDbArc
 50
60.0006701166
 51
62.5415131311
  0
ARC
  5
355
100
AcDbEntity
  8
0
100
AcDbCircle
 62
7
  6
CONTINUOUS
 10
539.4474552015
 20
1091.8673118961
 40
0.8922860939
100
AcDbArc
 50
144.7578160883
 51
149.4482756283
  0
ARC
  5
356
100
AcDbEntity
  8
0
100
AcDbCircle
 62
7
  6
CONTINUOUS
 10
586.8214031137
 20
1119.2209160861
 40
0.8899125709
100
AcDbArc
 50
144.8294397091
 51
149.655725156
  0
ARC
  5
357
100
AcDbEntity
  8
0
100
AcDbCircle
 62
7
  6
CONTINUOUS
 10
757.1745593877
 20
910.1096238341
 40
6.5164391761
100
AcDbArc
 50
108.1218021202
 51
110.2638714194
  0
ARC
  5
358
100
AcDbEntity
  8
0
100
AcDbCircle
 62
7
  6
CONTINUOUS
 10
757.4335402967
 20
912.6406132144
 40
4.7809050912
100
AcDbArc
 50
108.5459834137
 51
115.2607826285
  0
ARC
  5
359
100
AcDbEntity
  8
0
100
AcDbCircle
 62
7
  6
CONTINUOUS
 10
757.1647975788
 20
913.6612919218
 40
3.7237987494
100
AcDbArc
 50
97.3321614238
 51
100.8793149174
  0
ARC
  5
35A
100
AcDbEntity
  8
0
100
AcDbCircle
 62
7
  6
CONTINUOUS
 10
754.0413010661
 20
919.2407271353
 40
3.7212360052
100
AcDbArc
 50
273.1353684544
 51
275.5552885178
  0
ARC
  5
35B
100
AcDbEntity
  8
0
100
AcDbCircle
 62
7
  6
CONTINUOUS
 10
753.7479798843
 20
918.9203332055
 40
3.0054371781
100
AcDbArc
 50
290.9651567128
 51
298.1880538337
  0
ARC
  5
35C
100
AcDbEntity
  8
0
100
AcDbCircle
 62
7
  6
CONTINUOUS
 10
753.8341458992
 20
918.7654698285
 40
2.8282396926
100
AcDbArc
 50
298.1314406462
 51
304.70759616
  0
ARC
  5
35D
100
AcDbEntity
  8
0
100
AcDbCircle
 62
7
  6
CONTINUOUS
 10
748.4545956076
 20
862.5937484518
 40
1.4639249675
100
AcDbArc
 50
319.5900859041
 51
325.7003869484
  0
ARC
  5
35E
100
AcDbEntity
  8
0
100
AcDbCircle
 62
7
  6
CONTINUOUS
 10
672.0480418593
 20
1062.3593009094
 40
46.0176556295
100
AcDbArc
 50
265.9470721954
 51
274.0760332391
  0
ARC
  5
35F
100
AcDbEntity
  8
0
100
AcDbCircle
 62
7
  6
CONTINUOUS
 10
669.4584807411
 20
1050.6498987069
 40
33.9894788132
100
AcDbArc
 50
248.6924262106
 51
252.0691984323
  0
ARC
  5
360
100
AcDbEntity
  8
0
100
AcDbCircle
 62
7
  6
CONTINUOUS
 10
674.6409487885
 20
1050.6406540213
 40
33.9796565442
100
AcDbArc
 50
287.9452331275
 51
291.3167776292
  0
ARC
  5
361
100
AcDbEntity
  8
0
100
AcDbCircle
 62
7
  6
CONTINUOUS
 10
668.1015164396
 20
1047.2341540307
 40
30.3141461712
100
AcDbArc
 50
243.4979670753
 51
248.7359212869
  0
ARC
  5
362
100
AcDbEntity
  8
0
100
AcDbCircle
 62
7
  6
CONTINUOUS
 10
675.9963597969
 20
1047.2303079886
 40
30.3099141511
100
AcDbArc
 50
291.2734180371
 51
296.5025433595
  0
ARC
  5
363
100
AcDbEntity
  8
0
100
AcDbCircle
 62
7
  6
CONTINUOUS
 10
666.6548198917
 20
1043.978580197
 40
27.4862876589
100
AcDbArc
 50
241.777328171
 51
243.3845012595
  0
ARC
  5
364
100
AcDbEntity
  8
0
100
AcDbCircle
 62
7
  6
CONTINUOUS
 10
677.4414062562
 20
1043.9783673516
 40
27.4860487694
100
AcDbArc
 50
296.6157860389
 51
298.2230361156
  0
ARC
  5
365
100
AcDbEntity
  8
0
100
AcDbCircle
 62
7
  6
CONTINUOUS
 10
666.7368088277
 20
1044.4315696956
 40
27.19710441
100
AcDbArc
 50
241.8106864495
 51
243.4362540704
  0
ARC
  5
366
100
AcDbEntity
  8
0
100
AcDbCircle
 62
7
  6
CONTINUOUS
 10
677.3594047685
 20
1044.4313579074
 40
27.1968668163
100
AcDbArc
 50
296.5640334865
 51
298.1896789727
  0
ARC
  5
367
100
AcDbEntity
  8
0
100
AcDbCircle
 62
7
  6
CONTINUOUS
 10
666.4929015845
 20
1042.9984387383
 40
26.4146446971
100
AcDbArc
 50
241.1271969662
 51
242.7795703081
  0
ARC
  5
368
100
AcDbEntity
  8
0
100
AcDbCircle
 62
7
  6
CONTINUOUS
 10
677.6033681692
 20
1042.9981576466
 40
26.4143250413
100
AcDbArc
 50
297.220811229
 51
298.8731537901
  0
ARC
  5
369
100
AcDbEntity
  8
0
100
AcDbCircle
 62
7
  6
CONTINUOUS
 10
665.9299532231
 20
1042.6296742359
 40
25.9549554578
100
AcDbArc
 50
240.0096341019
 51
241.7790831589
  0
ARC
  5
36A
100
AcDbEntity
  8
0
100
AcDbCircle
 62
7
  6
CONTINUOUS
 10
678.1662910147
 20
1042.6294480419
 40
25.954696247
100
AcDbArc
 50
298.2212813522
 51
299.9907786981
  0
ARC
  5
36B
100
AcDbEntity
  8
0
100
AcDbCircle
 62
7
  6
CONTINUOUS
 10
666.010152639
 20
1043.0775861665
 40
25.6604522632
100
AcDbArc
 50
240.0099757463
 51
241.8126184444
  0
ARC
  5
36C
100
AcDbEntity
  8
0
100
AcDbCircle
 62
7
  6
CONTINUOUS
 10
678.0860786509
 20
1043.0773618615
 40
25.6601952736
100
AcDbArc
 50
298.1877472229
 51
299.9904370612
  0
ARC
  5
36D
100
AcDbEntity
  8
0
100
AcDbCircle
 62
7
  6
CONTINUOUS
 10
665.9015131859
 20
1041.9221826145
 40
25.1866121102
100
AcDbArc
 50
240.0042027724
 51
241.1230723398
  0
ARC
  5
36E
100
AcDbEntity
  8
0
100
AcDbCircle
 62
7
  6
CONTINUOUS
 10
678.1947701635
 20
1041.9218930613
 40
25.1862784909
100
AcDbArc
 50
298.8772777842
 51
299.9962099455
  0
ARC
  5
36F
100
AcDbEntity
  8
0
100
AcDbCircle
 62
7
  6
CONTINUOUS
 10
677.9199130429
 20
1041.7389585406
 40
23.9984113419
100
AcDbArc
 50
297.5507474767
 51
299.9816766498
  0
ARC
  5
370
100
AcDbEntity
  8
0
100
AcDbCircle
 62
7
  6
CONTINUOUS
 10
666.1758613369
 20
1041.7383878693
 40
23.99775143
100
AcDbArc
 50
240.0187266518
 51
242.4486945717
  0
ARC
  5
371
100
AcDbEntity
  8
0
100
AcDbCircle
 62
7
  6
CONTINUOUS
 10
712.9080702507
 20
1047.2495496081
 40
12.2012397771
100
AcDbArc
 50
327.9986529135
 51
328.7620085238
  0
ARC
  5
372
100
AcDbEntity
  8
0
100
AcDbCircle
 62
7
  6
CONTINUOUS
 10
713.136355005
 20
1047.1117703289
 40
11.9346001114
100
AcDbArc
 50
328.7592096504
 51
330.3063674122
  0
ARC
  5
373
100
AcDbEntity
  8
0
100
AcDbCircle
 62
7
  6
CONTINUOUS
 10
712.9934035073
 20
1046.7667651106
 40
11.5519416093
100
AcDbArc
 50
329.8749286273
 51
330.6647617994
  0
ARC
  5
374
100
AcDbEntity
  8
0
100
AcDbCircle
 62
7
  6
CONTINUOUS
 10
713.2105583645
 20
1046.6453699736
 40
11.3031591923
100
AcDbArc
 50
330.6619240963
 51
332.2611635927
  0
ARC
  5
375
100
AcDbEntity
  8
0
100
AcDbCircle
 62
7
  6
CONTINUOUS
 10
712.3822356466
 20
1046.4035249872
 40
10.83679209
100
AcDbArc
 50
333.8712370366
 51
334.6766156837
  0
ARC
  5
376
100
AcDbEntity
  8
0
100
AcDbCircle
 62
7
  6
CONTINUOUS
 10
712.4861422989
 20
1046.3542375981
 40
10.7217884927
100
AcDbArc
 50
334.6771907194
 51
335.1651492637
  0
ARC
  5
377
100
AcDbEntity
  8
0
100
AcDbCircle
 62
7
  6
CONTINUOUS
 10
712.6031502734
 20
1046.3003500866
 40
10.5929681844
100
AcDbArc
 50
335.1638526242
 51
336.3768743263
  0
ARC
  5
378
100
AcDbEntity
  8
0
100
AcDbCircle
 62
7
  6
CONTINUOUS
 10
712.8251170138
 20
1046.2040905866
 40
10.3510290503
100
AcDbArc
 50
336.3727051416
 51
338.7616985452
  0
ARC
  5
379
100
AcDbEntity
  8
0
100
AcDbCircle
 62
7
  6
CONTINUOUS
 10
699.4942378998
 20
1039.8726952184
 40
8.7586946178
100
AcDbArc
 50
55.4959798952
 51
60.0442399195
  0
ARC
  5
37A
100
AcDbEntity
  8
0
100
AcDbCircle
 62
7
  6
CONTINUOUS
 10
713.7798399226
 20
1044.2632794736
 40
7.3472369957
100
AcDbArc
 50
346.0325804009
 51
347.7181297102
  0
ARC
  5
37B
100
AcDbEntity
  8
0
100
AcDbCircle
 62
7
  6
CONTINUOUS
 10
703.3297309159
 20
1042.5479614285
 40
3.4673651003
100
AcDbArc
 50
7.0227007337
 51
15.2995506731
  0
ARC
  5
37C
100
AcDbEntity
  8
0
100
AcDbCircle
 62
7
  6
CONTINUOUS
 10
703.329741063
 20
1043.3933042804
 40
3.4673548704
100
AcDbArc
 50
344.7012451366
 51
352.9769322323
  0
ARC
  5
37D
100
AcDbEntity
  8
0
100
AcDbCircle
 62
7
  6
CONTINUOUS
 10
703.4259518603
 20
1043.3794894341
 40
3.3701773784
100
AcDbArc
 50
353.0100430537
 51
359.9897224301
  0
ARC
  5
37E
100
AcDbEntity
  8
0
100
AcDbCircle
 62
7
  6
CONTINUOUS
 10
864.257602208
 20
980.7515128086
 40
1.9445656917
100
AcDbArc
 50
279.9501698027
 51
283.7581980761
  0
ARC
  5
37F
100
AcDbEntity
  8
0
100
AcDbCircle
 62
7
  6
CONTINUOUS
 10
638.4428167221
 20
1034.7136062633
 40
0.8922860939
100
AcDbArc
 50
144.7578160883
 51
149.4482756283
  0
ARC
  5
380
100
AcDbEntity
  8
0
100
AcDbCircle
 62
7
  6
CONTINUOUS
 10
685.8167646344
 20
1062.0672104532
 40
0.889912571
100
AcDbArc
 50
144.8294397092
 51
149.6557251556
  0
SPLINE
  5
381
100
AcDbEntity
  8
0
100
AcDbSpline
 62
7
  6
CONTINUOUS
 70
0
 71
3
 72
9
 73
5
 74
0
 42
0.0000001
 43
0.0000001
 44
0.0000000001
 40
0.0
 40
0.0
 40
0.0
 40
0.0
 40
0.438278194
 40
1.0
 40
1.0
 40
1.0
 40
1.0
 10
138.4181554756
 20
662.6416972382
 30
0.0
 10
138.4686665809
 20
662.6753711184
 30
0.0
 10
138.5518261106
 20
662.7985039004
 30
0.0
 10
138.5663868237
 20
662.9391669558
 30
0.0
 10
138.5663868237
 20
663.0169720369
 30
0.0
  0
SPLINE
  5
382
100
AcDbEntity
  8
0
100
AcDbSpline
 62
7
  6
CONTINUOUS
 70
0
 71
3
 72
9
 73
5
 74
0
 42
0.0000001
 43
0.0000001
 44
0.0000000001
 40
0.0
 40
0.0
 40
0.0
 40
0.0
 40
0.5196451086
 40
1.0
 40
1.0
 40
1.0
 40
1.0
 10
129.0562117358
 20
671.2269927931
 30
0.0
 10
128.4433968421
 20
675.5191904704
 30
0.0
 10
127.7817747914
 20
683.8653882003
 30
0.0
 10
128.3978742843
 20
692.232757071
 30
0.0
 10
129.0732580287
 20
696.1833429526
 30
0.0
  0
SPLINE
  5
383
100
AcDbEntity
  8
0
100
AcDbSpline
 62
7
  6
CONTINUOUS
 70
0
 71
3
 72
12
 73
8
 74
0
 42
0.0000001
 43
0.0000001
 44
0.0000000001
 40
0.0
 40
0.0
 40
0.0
 40
0.0
 40
0.2673931544
 40
0.5223001761
 40
0.7647110223
 40
0.8829069568
 40
1.0
 40
1.0
 40
1.0
 40
1.0
 10
130.727386407
 20
667.0953092064
 30
0.0
 10
131.9150846136
 20
665.6075953596
 30
0.0
 10
134.4659779126
 20
662.8743857657
 30
0.0
 10
138.8449204846
 20
659.5891213857
 30
0.0
 10
142.8716036587
 20
657.7426864665
 30
0.0
 10
146.1941665393
 20
656.9722648688
 30
0.0
 10
147.8723154225
 20
656.8395834885
 30
0.0
 10
148.7059354318
 20
656.8420817981
 30
0.0
  0
SPLINE
  5
384
100
AcDbEntity
  8
0
100
AcDbSpline
 62
7
  6
CONTINUOUS
 70
0
 71
3
 72
13
 73
9
 74
0
 42
0.0000001
 43
0.0000001
 44
0.0000000001
 40
0.0
 40
0.0
 40
0.0
 40
0.0
 40
0.2677813722
 40
0.5547415503
 40
0.6869174421
 40
0.8046672204
 40
0.907530116
 40
1.0
 40
1.0
 40
1.0
 40
1.0
 10
138.5663868237
 20
663.0169720369
 30
0.0
 10
138.5663868237
 20
663.169440417
 30
0.0
 10
138.4940799859
 20
663.4845734071
 30
0.0
 10
138.297458801
 20
663.8310319167
 30
0.0
 10
138.0750008473
 20
664.0441054718
 30
0.0
 10
137.8983880398
 20
664.1450784918
 30
0.0
 10
137.7200995184
 20
664.1819509476
 30
0.0
 10
137.6071073955
 20
664.1571908722
 30
0.0
 10
137.5599238277
 20
664.1338295622
 30
0.0
  0
SPLINE
  5
385
100
AcDbEntity
  8
0
100
AcDbSpline
 62
7
  6
CONTINUOUS
 70
0
 71
3
 72
10
 73
6
 74
0
 42
0.0000001
 43
0.0000001
 44
0.0000000001
 40
0.0
 40
0.0
 40
0.0
 40
0.0
 40
0.5056340232
 40
0.7506623827
 40
1.0
 40
1.0
 40
1.0
 40
1.0
 10
142.9808060271
 20
675.4478657163
 30
0.0
 10
142.8973190272
 20
675.2667029118
 30
0.0
 10
142.7417254781
 20
675.0090484554
 30
0.0
 10
142.4638861932
 20
674.7268368093
 30
0.0
 10
142.3053314241
 20
674.611846199
 30
0.0
 10
142.2226228735
 20
674.558602563
 30
0.0
  0
SPLINE
  5
386
100
AcDbEntity
  8
0
100
AcDbSpline
 62
7
  6
CONTINUOUS
 70
0
 71
3
 72
9
 73
5
 74
0
 42
0.0000001
 43
0.0000001
 44
0.0000000001
 40
0.0
 40
0.0
 40
0.0
 40
0.0
 40
0.4300174333
 40
1.0
 40
1.0
 40
1.0
 40
1.0
 10
142.2226228735
 20
674.558602563
 30
0.0
 10
142.2139920137
 20
674.5530152098
 30
0.0
 10
142.1933947801
 20
674.5377456313
 30
0.0
 10
142.1916261474
 20
674.5117457331
 30
0.0
 10
142.1898468082
 20
674.4982343304
 30
0.0
  0
SPLINE
  5
387
100
AcDbEntity
  8
0
100
AcDbSpline
 62
7
  6
CONTINUOUS
 70
0
 71
3
 72
11
 73
7
 74
0
 42
0.0000001
 43
0.0000001
 44
0.0000000001
 40
0.0
 40
0.0
 40
0.0
 40
0.0
 40
0.2764297316
 40
0.5271464117
 40
0.7628437273
 40
1.0
 40
1.0
 40
1.0
 40
1.0
 10
142.1898468082
 20
674.4982343304
 30
0.0
 10
142.1610811591
 20
674.2807084337
 30
0.0
 10
142.0795457182
 20
673.8681759116
 30
0.0
 10
141.8497036818
 20
673.3029029415
 30
0.0
 10
141.5083210636
 20
672.8330716934
 30
0.0
 10
141.2092554528
 20
672.5977012606
 30
0.0
 10
141.0482548467
 20
672.5001548775
 30
0.0
  0
SPLINE
  5
388
100
AcDbEntity
  8
0
100
AcDbSpline
 62
7
  6
CONTINUOUS
 70
0
 71
3
 72
9
 73
5
 74
0
 42
0.0000001
 43
0.0000001
 44
0.0000000001
 40
0.0
 40
0.0
 40
0.0
 40
0.0
 40
0.2795810548
 40
1.0
 40
1.0
 40
1.0
 40
1.0
 10
143.0669076679
 20
675.6000512502
 30
0.0
 10
143.0581407971
 20
675.5862949871
 30
0.0
 10
143.0274212107
 20
675.5367146957
 30
0.0
 10
142.9983984481
 20
675.4858960984
 30
0.0
 10
142.9808060271
 20
675.4477213847
 30
0.0
  0
SPLINE
  5
389
100
AcDbEntity
  8
0
100
AcDbSpline
 62
7
  6
CONTINUOUS
 70
0
 71
3
 72
11
 73
7
 74
0
 42
0.0000001
 43
0.0000001
 44
0.0000000001
 40
0.0
 40
0.0
 40
0.0
 40
0.0
 40
0.2780469307
 40
0.5375938893
 40
0.7760484473
 40
1.0
 40
1.0
 40
1.0
 40
1.0
 10
143.0669076679
 20
681.4228654844
 30
0.0
 10
143.3017460059
 20
680.914560152
 30
0.0
 10
143.6495789992
 20
679.8790654315
 30
0.0
 10
143.834298568
 20
678.3162229051
 30
0.0
 10
143.6768086784
 20
676.8560754068
 30
0.0
 10
143.3092888877
 20
675.980597002
 30
0.0
 10
143.0669076679
 20
675.6002720354
 30
0.0
  0
SPLINE
  5
38A
100
AcDbEntity
  8
0
100
AcDbSpline
 62
7
  6
CONTINUOUS
 70
0
 71
3
 72
9
 73
5
 74
0
 42
0.0000001
 43
0.0000001
 44
0.0000000001
 40
0.0
 40
0.0
 40
0.0
 40
0.0
 40
0.2548920374
 40
1.0
 40
1.0
 40
1.0
 40
1.0
 10
142.9808060271
 20
681.6748289918
 30
0.0
 10
142.9858111019
 20
681.6527600659
 30
0.0
 10
143.0080522603
 20
681.5667874277
 30
0.0
 10
143.0391636476
 20
681.4831314306
 30
0.0
 10
143.0669076679
 20
681.4230797644
 30
0.0
  0
SPLINE
  5
38B
100
AcDbEntity
  8
0
100
AcDbSpline
 62
7
  6
CONTINUOUS
 70
0
 71
3
 72
11
 73
7
 74
0
 42
0.0000001
 43
0.0000001
 44
0.0000000001
 40
0.0
 40
0.0
 40
0.0
 40
0.0
 40
0.2555382183
 40
0.5114937039
 40
0.7626144324
 40
1.0
 40
1.0
 40
1.0
 40
1.0
 10
139.5313590422
 20
689.0600674086
 30
0.0
 10
139.935109719
 20
688.7738894966
 30
0.0
 10
140.6624302548
 20
688.0796891439
 30
0.0
 10
141.448239626
 20
686.8153031013
 30
0.0
 10
141.9549898155
 20
685.4576168785
 30
0.0
 10
142.1379500042
 20
684.5247122652
 30
0.0
 10
142.1891448816
 20
684.0678405898
 30
0.0
  0
SPLINE
  5
38C
100
AcDbEntity
  8
0
100
AcDbSpline
 62
7
  6
CONTINUOUS
 70
0
 71
3
 72
9
 73
5
 74
0
 42
0.0000001
 43
0.0000001
 44
0.0000000001
 40
0.0
 40
0.0
 40
0.0
 40
0.0
 40
0.236263416
 40
1.0
 40
1.0
 40
1.0
 40
1.0
 10
142.1891448816
 20
684.0678405898
 30
0.0
 10
142.1901427348
 20
684.0587774898
 30
0.0
 10
142.1958668698
 20
684.0205938829
 30
0.0
 10
142.2080606535
 20
683.983410504
 30
0.0
 10
142.2204669489
 20
683.9566746553
 30
0.0
  0
SPLINE
  5
38D
100
AcDbEntity
  8
0
100
AcDbSpline
 62
7
  6
CONTINUOUS
 70
0
 71
3
 72
9
 73
5
 74
0
 42
0.0000001
 43
0.0000001
 44
0.0000000001
 40
0.0
 40
0.0
 40
0.0
 40
0.0
 40
0.2509396527
 40
1.0
 40
1.0
 40
1.0
 40
1.0
 10
142.2204669489
 20
683.9566746553
 30
0.0
 10
142.3054826948
 20
683.7740738856
 30
0.0
 10
142.6190919821
 20
683.0347418861
 30
0.0
 10
142.8478242826
 20
682.261036736
 30
0.0
 10
142.9808060273
 20
681.6746790158
 30
0.0
  0
SPLINE
  5
38E
100
AcDbEntity
  8
0
100
AcDbSpline
 62
7
  6
CONTINUOUS
 70
0
 71
3
 72
9
 73
5
 74
0
 42
0.0000001
 43
0.0000001
 44
0.0000000001
 40
0.0
 40
0.0
 40
0.0
 40
0.0
 40
0.2395399795
 40
1.0
 40
1.0
 40
1.0
 40
1.0
 10
139.4452574014
 20
689.1545715385
 30
0.0
 10
139.4501332781
 20
689.1455467985
 30
0.0
 10
139.4730745998
 20
689.1092875446
 30
0.0
 10
139.5047912409
 20
689.0789223131
 30
0.0
 10
139.5313590422
 20
689.0600910929
 30
0.0
  0
SPLINE
  5
38F
100
AcDbEntity
  8
0
100
AcDbSpline
 62
7
  6
CONTINUOUS
 70
0
 71
3
 72
11
 73
7
 74
0
 42
0.0000001
 43
0.0000001
 44
0.0000000001
 40
0.0
 40
0.0
 40
0.0
 40
0.0
 40
0.2453328658
 40
0.488990968
 40
0.7384662437
 40
1.0
 40
1.0
 40
1.0
 40
1.0
 10
135.9958104164
 20
691.1443772317
 30
0.0
 10
136.3397023812
 20
691.1719610656
 30
0.0
 10
137.0377176047
 20
691.136546765
 30
0.0
 10
138.0249675295
 20
690.7607522018
 30
0.0
 10
138.8587421588
 20
690.0776473125
 30
0.0
 10
139.2704378514
 20
689.4780908392
 30
0.0
 10
139.4452574014
 20
689.1545180606
 30
0.0
  0
SPLINE
  5
390
100
AcDbEntity
  8
0
100
AcDbSpline
 62
7
  6
CONTINUOUS
 70
0
 71
3
 72
9
 73
5
 74
0
 42
0.0000001
 43
0.0000001
 44
0.0000000001
 40
0.0
 40
0.0
 40
0.0
 40
0.0
 40
0.1919045003
 40
1.0
 40
1.0
 40
1.0
 40
1.0
 10
135.9097087756
 20
691.1492709166
 30
0.0
 10
135.9149798593
 20
691.1475805887
 30
0.0
 10
135.9433199356
 20
691.1415976346
 30
0.0
 10
135.9725755511
 20
691.1425670092
 30
0.0
 10
135.9958104164
 20
691.1444306953
 30
0.0
  0
SPLINE
  5
391
100
AcDbEntity
  8
0
100
AcDbSpline
 62
7
  6
CONTINUOUS
 70
0
 71
3
 72
9
 73
5
 74
0
 42
0.0000001
 43
0.0000001
 44
0.0000000001
 40
0.0
 40
0.0
 40
0.0
 40
0.0
 40
0.2296910808
 40
1.0
 40
1.0
 40
1.0
 40
1.0
 10
128.9265995701
 20
683.7795610042
 30
0.0
 10
128.931089895
 20
683.7761213786
 30
0.0
 10
128.9511806167
 20
683.7618148757
 30
0.0
 10
128.9743999479
 20
683.7523741297
 30
0.0
 10
128.9925245961
 20
683.7467760787
 30
0.0
  0
SPLINE
  5
392
100
AcDbEntity
  8
0
100
AcDbSpline
 62
7
  6
CONTINUOUS
 70
0
 71
3
 72
9
 73
5
 74
0
 42
0.0000001
 43
0.0000001
 44
0.0000000001
 40
0.0
 40
0.0
 40
0.0
 40
0.0
 40
0.2326391676
 40
1.0
 40
1.0
 40
1.0
 40
1.0
 10
128.9730235897
 20
687.1043974622
 30
0.0
 10
128.9776009212
 20
687.1005855752
 30
0.0
 10
128.998303
 20
687.085443095
 30
0.0
 10
129.0219809116
 20
687.0746488169
 30
0.0
 10
129.0406363014
 20
687.0684820008
 30
0.0
  0
SPLINE
  5
393
100
AcDbEntity
  8
0
100
AcDbSpline
 62
7
  6
CONTINUOUS
 70
0
 71
3
 72
9
 73
5
 74
0
 42
0.0000001
 43
0.0000001
 44
0.0000000001
 40
0.0
 40
0.0
 40
0.0
 40
0.0
 40
0.231059724
 40
1.0
 40
1.0
 40
1.0
 40
1.0
 10
129.0998266281
 20
690.4200109589
 30
0.0
 10
129.1043980326
 20
690.4155016214
 30
0.0
 10
129.1256510696
 20
690.3974939833
 30
0.0
 10
129.1508241711
 20
690.3844799892
 30
0.0
 10
129.1708342195
 20
690.3769810907
 30
0.0
  0
SPLINE
  5
394
100
AcDbEntity
  8
0
100
AcDbSpline
 62
7
  6
CONTINUOUS
 70
0
 71
3
 72
9
 73
5
 74
0
 42
0.0000001
 43
0.0000001
 44
0.0000000001
 40
0.0
 40
0.0
 40
0.0
 40
0.0
 40
0.2276615003
 40
1.0
 40
1.0
 40
1.0
 40
1.0
 10
129.3476029585
 20
693.6882488757
 30
0.0
 10
129.351882978
 20
693.682981085
 30
0.0
 10
129.3726512371
 20
693.6614686509
 30
0.0
 10
129.3987016112
 20
693.6454903989
 30
0.0
 10
129.4197654131
 20
693.6361891478
 30
0.0
  0
SPLINE
  5
395
100
AcDbEntity
  8
0
100
AcDbSpline
 62
7
  6
CONTINUOUS
 70
0
 71
3
 72
9
 73
5
 74
0
 42
0.0000001
 43
0.0000001
 44
0.0000000001
 40
0.0
 40
0.0
 40
0.0
 40
0.0
 40
0.2740335643
 40
1.0
 40
1.0
 40
1.0
 40
1.0
 10
129.5226374105
 20
694.598280778
 30
0.0
 10
129.5151265649
 20
694.601785798
 30
0.0
 10
129.4884463136
 20
694.6159389123
 30
0.0
 10
129.4641807729
 20
694.6356402422
 30
0.0
 10
129.4509799588
 20
694.6531865917
 30
0.0
  0
SPLINE
  5
396
100
AcDbEntity
  8
0
100
AcDbSpline
 62
7
  6
CONTINUOUS
 70
0
 71
3
 72
8
 73
4
 74
0
 42
0.0000001
 43
0.0000001
 44
0.0000000001
 40
0.0
 40
0.0
 40
0.0
 40
0.0
 40
1.0
 40
1.0
 40
1.0
 40
1.0
 10
130.1930248846
 20
696.1243319855
 30
0.0
 10
130.1781656151
 20
696.1450004888
 30
0.0
 10
130.1661575398
 20
696.1680983484
 30
0.0
 10
130.1581025012
 20
696.1922458384
 30
0.0
  0
SPLINE
  5
397
100
AcDbEntity
  8
0
100
AcDbSpline
 62
7
  6
CONTINUOUS
 70
0
 71
3
 72
11
 73
7
 74
0
 42
0.0000001
 43
0.0000001
 44
0.0000000001
 40
0.0
 40
0.0
 40
0.0
 40
0.0
 40
0.2456513811
 40
0.4978131454
 40
0.7515925245
 40
1.0
 40
1.0
 40
1.0
 40
1.0
 10
130.1581025042
 20
696.1922458403
 30
0.0
 10
130.2197776466
 20
696.722209736
 30
0.0
 10
130.4165557459
 20
697.789844978
 30
0.0
 10
130.9525372824
 20
699.3377386488
 30
0.0
 10
131.6966187573
 20
700.8028664108
 30
0.0
 10
132.3265993397
 20
701.6991195346
 30
0.0
 10
132.6702864692
 20
702.1150139619
 30
0.0
  0
SPLINE
  5
398
100
AcDbEntity
  8
0
100
AcDbSpline
 62
7
  6
CONTINUOUS
 70
0
 71
3
 72
10
 73
6
 74
0
 42
0.0000001
 43
0.0000001
 44
0.0000000001
 40
0.0
 40
0.0
 40
0.0
 40
0.0
 40
0.5270305994
 40
0.7708407381
 40
1.0
 40
1.0
 40
1.0
 40
1.0
 10
129.4511109488
 20
694.6534078893
 30
0.0
 10
129.487562803
 20
694.9560349655
 30
0.0
 10
129.5856942164
 20
695.3993954717
 30
0.0
 10
129.8556576366
 20
695.9140329502
 30
0.0
 10
130.0477638457
 20
696.1188194514
 30
0.0
 10
130.1581025126
 20
696.1922458884
 30
0.0
  0
SPLINE
  5
399
100
AcDbEntity
  8
0
100
AcDbSpline
 62
7
  6
CONTINUOUS
 70
0
 71
3
 72
8
 73
4
 74
0
 42
0.0000001
 43
0.0000001
 44
0.0000000001
 40
0.0
 40
0.0
 40
0.0
 40
0.0
 40
1.0
 40
1.0
 40
1.0
 40
1.0
 10
143.0013856296
 20
660.9241284396
 30
0.0
 10
142.9939521395
 20
660.9295829687
 30
0.0
 10
142.9869477192
 20
660.935733078
 30
0.0
 10
142.9808060271
 20
660.9426097255
 30
0.0
  0
SPLINE
  5
39A
100
AcDbEntity
  8
0
100
AcDbSpline
 62
7
  6
CONTINUOUS
 70
0
 71
3
 72
15
 73
11
 74
0
 42
0.0000001
 43
0.0000001
 44
0.0000000001
 40
0.0
 40
0.0
 40
0.0
 40
0.0
 40
0.213469965
 40
0.3893771237
 40
0.5286487632
 40
0.6344300792
 40
0.716127606
 40
0.7931996255
 40
0.8843950257
 40
1.0
 40
1.0
 40
1.0
 40
1.0
 10
132.6703146883
 20
702.1149927168
 30
0.0
 10
132.6264743049
 20
702.118336794
 30
0.0
 10
132.5466826716
 20
702.1276864942
 30
0.0
 10
132.4402063855
 20
702.1516260603
 30
0.0
 10
132.3585942281
 20
702.1817705557
 30
0.0
 10
132.3006553313
 20
702.2176173967
 30
0.0
 10
132.2680615584
 20
702.2645822275
 30
0.0
 10
132.2686238809
 20
702.318784968
 30
0.0
 10
132.295654008
 20
702.3718822449
 30
0.0
 10
132.323834737
 20
702.404127429
 30
0.0
 10
132.3406165355
 20
702.4210189992
 30
0.0
  0
SPLINE
  5
39B
100
AcDbEntity
  8
0
100
AcDbSpline
 62
7
  6
CONTINUOUS
 70
0
 71
3
 72
14
 73
10
 74
0
 42
0.0000001
 43
0.0000001
 44
0.0000000001
 40
0.0
 40
0.0
 40
0.0
 40
0.0
 40
0.107221164
 40
0.2096194425
 40
0.3178368922
 40
0.4399108141
 40
0.5733068756
 40
0.7131144546
 40
1.0
 40
1.0
 40
1.0
 40
1.0
 10
143.0226614235
 20
688.3417924284
 30
0.0
 10
143.0556636732
 20
688.4801978618
 30
0.0
 10
143.1487233893
 20
688.7501516809
 30
0.0
 10
143.4816720246
 20
689.047243546
 30
0.0
 10
143.9443846981
 20
689.1005670109
 30
0.0
 10
144.4061397676
 20
688.9248129359
 30
0.0
 10
144.8260472865
 20
688.6028183513
 30
0.0
 10
145.3149697933
 20
688.0389013808
 30
0.0
 10
145.5943053444
 20
687.5389852729
 30
0.0
 10
145.7490326309
 20
687.1911401112
 30
0.0
  0
SPLINE
  5
39C
100
AcDbEntity
  8
0
100
AcDbSpline
 62
7
  6
CONTINUOUS
 70
0
 71
3
 72
17
 73
13
 74
0
 42
0.0000001
 43
0.0000001
 44
0.0000000001
 40
0.0
 40
0.0
 40
0.0
 40
0.0
 40
0.0535480409
 40
0.1047954537
 40
0.1552589352
 40
0.2069434306
 40
0.3189411715
 40
0.4463064633
 40
0.5841772628
 40
0.7262942848
 40
0.8669982394
 40
1.0
 40
1.0
 40
1.0
 40
1.0
 10
139.4828147228
 20
691.5403486446
 30
0.0
 10
139.5087100797
 20
691.6555161247
 30
0.0
 10
139.5809541097
 20
691.8780630835
 30
0.0
 10
139.7854927906
 20
692.1605326127
 30
0.0
 10
140.071067315
 20
692.354344367
 30
0.0
 10
140.5383729869
 20
692.4713080237
 30
0.0
 10
141.1947768316
 20
692.2942941906
 30
0.0
 10
141.8354972342
 20
691.7408256525
 30
0.0
 10
142.3342594298
 20
690.9846306745
 30
0.0
 10
142.6870254131
 20
690.1229467131
 30
0.0
 10
142.9197887275
 20
689.2335459394
 30
0.0
 10
142.9945453277
 20
688.6336341663
 30
0.0
 10
143.0226614235
 20
688.3417924284
 30
0.0
  0
SPLINE
  5
39D
100
AcDbEntity
  8
0
100
AcDbSpline
 62
7
  6
CONTINUOUS
 70
0
 71
3
 72
9
 73
5
 74
0
 42
0.0000001
 43
0.0000001
 44
0.0000000001
 40
0.0
 40
0.0
 40
0.0
 40
0.0
 40
0.254228696
 40
1.0
 40
1.0
 40
1.0
 40
1.0
 10
139.4502908948
 20
691.8325888827
 30
0.0
 10
139.4536058763
 20
691.8078907615
 30
0.0
 10
139.466205042
 20
691.7106895859
 30
0.0
 10
139.4772961628
 20
691.6132408379
 30
0.0
 10
139.4828147228
 20
691.5403486446
 30
0.0
  0
SPLINE
  5
39E
100
AcDbEntity
  8
0
100
AcDbSpline
 62
7
  6
CONTINUOUS
 70
0
 71
3
 72
9
 73
5
 74
0
 42
0.0000001
 43
0.0000001
 44
0.0000000001
 40
0.0
 40
0.0
 40
0.0
 40
0.0
 40
0.23128121
 40
1.0
 40
1.0
 40
1.0
 40
1.0
 10
149.5734892669
 20
693.0860461779
 30
0.0
 10
149.5269185229
 20
693.0583844813
 30
0.0
 10
149.3276267768
 20
692.9353124215
 30
0.0
 10
149.135808472
 20
692.800330311
 30
0.0
 10
148.992175596
 20
692.6917841132
 30
0.0
  0
SPLINE
  5
39F
100
AcDbEntity
  8
0
100
AcDbSpline
 62
7
  6
CONTINUOUS
 70
0
 71
3
 72
13
 73
9
 74
0
 42
0.0000001
 43
0.0000001
 44
0.0000000001
 40
0.0
 40
0.0
 40
0.0
 40
0.0
 40
0.2058416879
 40
0.3202490551
 40
0.4425368169
 40
0.5724427654
 40
0.7093398896
 40
1.0
 40
1.0
 40
1.0
 40
1.0
 10
132.6702741333
 20
702.1150135944
 30
0.0
 10
134.0016334206
 20
702.1546823586
 30
0.0
 10
136.0917422127
 20
701.8215379147
 30
0.0
 10
138.7784648776
 20
700.8250430884
 30
0.0
 10
140.8956792353
 20
699.7418112389
 30
0.0
 10
143.0085887573
 20
698.3655770946
 30
0.0
 10
145.838253763
 20
696.1222557436
 30
0.0
 10
147.7788968189
 20
694.1288764863
 30
0.0
 10
148.9921905529
 20
692.6917663946
 30
0.0
  0
SPLINE
  5
3A0
100
AcDbEntity
  8
0
100
AcDbSpline
 62
7
  6
CONTINUOUS
 70
0
 71
3
 72
9
 73
5
 74
0
 42
0.0000001
 43
0.0000001
 44
0.0000000001
 40
0.0
 40
0.0
 40
0.0
 40
0.0
 40
0.277373192
 40
1.0
 40
1.0
 40
1.0
 40
1.0
 10
141.3562217506
 20
700.1726343725
 30
0.0
 10
140.6662086711
 20
700.5710045973
 30
0.0
 10
138.1165776235
 20
701.8788338002
 30
0.0
 10
135.2137715869
 20
702.6361352664
 30
0.0
 10
133.1389482397
 20
702.5743145708
 30
0.0
  0
SPLINE
  5
3A1
100
AcDbEntity
  8
0
100
AcDbSpline
 62
7
  6
CONTINUOUS
 70
0
 71
3
 72
9
 73
5
 74
0
 42
0.0000001
 43
0.0000001
 44
0.0000000001
 40
0.0
 40
0.0
 40
0.0
 40
0.0
 40
0.5216716141
 40
1.0
 40
1.0
 40
1.0
 40
1.0
 10
149.5734952615
 20
693.0860390772
 30
0.0
 10
148.3518290765
 20
694.5330658617
 30
0.0
 10
145.8089107672
 20
697.1450168733
 30
0.0
 10
142.8600168367
 20
699.3044375159
 30
0.0
 10
141.3562217506
 20
700.1726343725
 30
0.0
  0
SPLINE
  5
3A2
100
AcDbEntity
  8
0
100
AcDbSpline
 62
7
  6
CONTINUOUS
 70
0
 71
3
 72
9
 73
5
 74
0
 42
0.0000001
 43
0.0000001
 44
0.0000000001
 40
0.0
 40
0.0
 40
0.0
 40
0.0
 40
0.2629663265
 40
1.0
 40
1.0
 40
1.0
 40
1.0
 10
132.6702762866
 20
702.1150136586
 30
0.0
 10
132.7030378431
 20
702.162555201
 30
0.0
 10
132.8356886674
 20
702.3375261732
 30
0.0
 10
133.0021964605
 20
702.4877928209
 30
0.0
 10
133.138946159
 20
702.5743145088
 30
0.0
  0
SPLINE
  5
3A3
100
AcDbEntity
  8
0
100
AcDbSpline
 62
7
  6
CONTINUOUS
 70
0
 71
3
 72
14
 73
10
 74
0
 42
0.0000001
 43
0.0000001
 44
0.0000000001
 40
0.0
 40
0.0
 40
0.0
 40
0.0
 40
0.3318288037
 40
0.4575885769
 40
0.5511532412
 40
0.6239475507
 40
0.7110638995
 40
0.8356693494
 40
1.0
 40
1.0
 40
1.0
 40
1.0
 10
133.121609298
 20
702.9081504659
 30
0.0
 10
133.0717711208
 20
702.866744204
 30
0.0
 10
133.0037874948
 20
702.8072539225
 30
0.0
 10
132.9384342727
 20
702.7221174731
 30
0.0
 10
132.9131670074
 20
702.6686810611
 30
0.0
 10
132.92548355
 20
702.6155697049
 30
0.0
 10
132.9782502351
 20
702.5874670234
 30
0.0
 10
133.0499959956
 20
702.5747039634
 30
0.0
 10
133.1068702419
 20
702.5735142189
 30
0.0
 10
133.1389482397
 20
702.5743145708
 30
0.0
  0
SPLINE
  5
3A4
100
AcDbEntity
  8
0
100
AcDbSpline
 62
7
  6
CONTINUOUS
 70
0
 71
3
 72
10
 73
6
 74
0
 42
0.0000001
 43
0.0000001
 44
0.0000000001
 40
0.0
 40
0.0
 40
0.0
 40
0.0
 40
0.2586796945
 40
0.5181084264
 40
1.0
 40
1.0
 40
1.0
 40
1.0
 10
149.5734952615
 20
693.0860390772
 30
0.0
 10
149.6471329671
 20
692.9994033743
 30
0.0
 10
149.8203720791
 20
692.8458470985
 30
0.0
 10
150.2265996959
 20
692.6612386959
 30
0.0
 10
150.5698295492
 20
692.6701444826
 30
0.0
 10
150.7768088666
 20
692.715146827
 30
0.0
  0
SPLINE
  5
3A5
100
AcDbEntity
  8
0
100
AcDbSpline
 62
7
  6
CONTINUOUS
 70
0
 71
3
 72
14
 73
10
 74
0
 42
0.0000001
 43
0.0000001
 44
0.0000000001
 40
0.0
 40
0.0
 40
0.0
 40
0.0
 40
0.2790077084
 40
0.4195424862
 40
0.5540867674
 40
0.6791503642
 40
0.7938404229
 40
0.8996230675
 40
1.0
 40
1.0
 40
1.0
 40
1.0
 10
139.4502908948
 20
691.8325888827
 30
0.0
 10
139.3912339667
 20
692.2332856048
 30
0.0
 10
139.247184882
 20
692.8318760787
 30
0.0
 10
138.9097325648
 20
693.5645477814
 30
0.0
 10
138.5847264356
 20
694.0501149569
 30
0.0
 10
138.1893500148
 20
694.4302029716
 30
0.0
 10
137.744239283
 20
694.6763557558
 30
0.0
 10
137.2783039189
 20
694.7656677628
 30
0.0
 10
136.9759985659
 20
694.7159678956
 30
0.0
 10
136.8382890175
 20
694.6683388725
 30
0.0
  0
SPLINE
  5
3A6
100
AcDbEntity
  8
0
100
AcDbSpline
 62
7
  6
CONTINUOUS
 70
0
 71
3
 72
13
 73
9
 74
0
 42
0.0000001
 43
0.0000001
 44
0.0000000001
 40
0.0
 40
0.0
 40
0.0
 40
0.0
 40
0.2419434454
 40
0.4863054497
 40
0.7373220152
 40
0.8017311413
 40
0.8673401748
 40
1.0
 40
1.0
 40
1.0
 40
1.0
 10
136.8382890175
 20
694.6683388725
 30
0.0
 10
136.7263150074
 20
694.6296108918
 30
0.0
 10
136.5109945212
 20
694.5193339664
 30
0.0
 10
136.2448569035
 20
694.2690818334
 30
0.0
 10
136.0986369612
 20
694.0337002167
 30
0.0
 10
136.023534075
 20
693.8626493439
 30
0.0
 10
135.9840757537
 20
693.7402962967
 30
0.0
 10
135.9537117854
 20
693.6471812863
 30
0.0
 10
135.9452277929
 20
693.5827727528
 30
0.0
  0
SPLINE
  5
3A7
100
AcDbEntity
  8
0
100
AcDbSpline
 62
7
  6
CONTINUOUS
 70
0
 71
3
 72
9
 73
5
 74
0
 42
0.0000001
 43
0.0000001
 44
0.0000000001
 40
0.0
 40
0.0
 40
0.0
 40
0.0
 40
0.2219113812
 40
1.0
 40
1.0
 40
1.0
 40
1.0
 10
139.4452574014
 20
691.5610053392
 30
0.0
 10
139.4501925423
 20
691.5554796267
 30
0.0
 10
139.4749041031
 20
691.5327823993
 30
0.0
 10
139.5064616297
 20
691.5187074454
 30
0.0
 10
139.5313590422
 20
691.5112956583
 30
0.0
  0
SPLINE
  5
3A8
100
AcDbEntity
  8
0
100
AcDbSpline
 62
7
  6
CONTINUOUS
 70
0
 71
3
 72
10
 73
6
 74
0
 42
0.0000001
 43
0.0000001
 44
0.0000000001
 40
0.0
 40
0.0
 40
0.0
 40
0.0
 40
0.5389271328
 40
0.7862613328
 40
1.0
 40
1.0
 40
1.0
 40
1.0
 10
150.9939959944
 20
657.4802174501
 30
0.0
 10
150.660760351
 20
657.3079876491
 30
0.0
 10
150.158272566
 20
657.0827960468
 30
0.0
 10
149.4860107204
 20
656.8981956754
 30
0.0
 10
149.1665722566
 20
656.8534416803
 30
0.0
 10
149.0179170733
 20
656.8476086277
 30
0.0
  0
SPLINE
  5
3A9
100
AcDbEntity
  8
0
100
AcDbSpline
 62
7
  6
CONTINUOUS
 70
0
 71
3
 72
9
 73
5
 74
0
 42
0.0000001
 43
0.0000001
 44
0.0000000001
 40
0.0
 40
0.0
 40
0.0
 40
0.0
 40
0.2785355231
 40
1.0
 40
1.0
 40
1.0
 40
1.0
 10
139.4829894012
 20
691.540277035
 30
0.0
 10
139.4792432362
 20
691.5416956496
 30
0.0
 10
139.4659677605
 20
691.5471935776
 30
0.0
 10
139.4532872648
 20
691.5544282926
 30
0.0
 10
139.4452578706
 20
691.5609998695
 30
0.0
  0
SPLINE
  5
3AA
100
AcDbEntity
  8
0
100
AcDbSpline
 62
7
  6
CONTINUOUS
 70
0
 71
3
 72
8
 73
4
 74
0
 42
0.0000001
 43
0.0000001
 44
0.0000000001
 40
0.0
 40
0.0
 40
0.0
 40
0.0
 40
1.0
 40
1.0
 40
1.0
 40
1.0
 10
139.4829903465
 20
691.5402658901
 30
0.0
 10
139.4978610082
 20
691.5287739807
 30
0.0
 10
139.5142884478
 20
691.5191566613
 30
0.0
 10
139.5313590422
 20
691.5112956583
 30
0.0
  0
SPLINE
  5
3AB
100
AcDbEntity
  8
0
100
AcDbSpline
 62
7
  6
CONTINUOUS
 70
0
 71
3
 72
9
 73
5
 74
0
 42
0.0000001
 43
0.0000001
 44
0.0000000001
 40
0.0
 40
0.0
 40
0.0
 40
0.0
 40
0.2155341956
 40
1.0
 40
1.0
 40
1.0
 40
1.0
 10
142.9877611952
 20
688.3462016667
 30
0.0
 10
142.9902201784
 20
688.3453140637
 30
0.0
 10
143.0014062753
 20
688.3406570976
 30
0.0
 10
143.0124869533
 20
688.3353070796
 30
0.0
 10
143.0217945788
 20
688.3333313483
 30
0.0
  0
SPLINE
  5
3AC
100
AcDbEntity
  8
0
100
AcDbSpline
 62
7
  6
CONTINUOUS
 70
0
 71
3
 72
18
 73
14
 74
0
 42
0.0000001
 43
0.0000001
 44
0.0000000001
 40
0.0
 40
0.0
 40
0.0
 40
0.0
 40
0.0534885507
 40
0.104536143
 40
0.1547834182
 40
0.2063081923
 40
0.3184534262
 40
0.3809578289
 40
0.4467828586
 40
0.5848903841
 40
0.7269093023
 40
0.8673606056
 40
1.0
 40
1.0
 40
1.0
 40
1.0
 10
139.5313590422
 20
691.5112605189
 30
0.0
 10
139.555503644
 20
691.6240478836
 30
0.0
 10
139.6256984582
 20
691.8414840607
 30
0.0
 10
139.8248930601
 20
692.1171621725
 30
0.0
 10
140.1042106567
 20
692.3051603363
 30
0.0
 10
140.5623463664
 20
692.4139216021
 30
0.0
 10
141.0607670828
 20
692.270086869
 30
0.0
 10
141.4868376589
 20
691.9736533857
 30
0.0
 10
141.8964765932
 20
691.5664776342
 30
0.0
 10
142.305956014
 20
690.9339024835
 30
0.0
 10
142.6499673273
 20
690.0915435175
 30
0.0
 10
142.8782777832
 20
689.2233676835
 30
0.0
 10
142.9549158916
 20
688.6382128752
 30
0.0
 10
142.9807953128
 20
688.3533623632
 30
0.0
  0
SPLINE
  5
3AD
100
AcDbEntity
  8
0
100
AcDbSpline
 62
7
  6
CONTINUOUS
 70
0
 71
3
 72
8
 73
4
 74
0
 42
0.0000001
 43
0.0000001
 44
0.0000000001
 40
0.0
 40
0.0
 40
0.0
 40
0.0
 40
1.0
 40
1.0
 40
1.0
 40
1.0
 10
143.0669076679
 20
688.30364383
 30
0.0
 10
143.050431042
 20
688.3108950885
 30
0.0
 10
143.0327950488
 20
688.3190818006
 30
0.0
 10
143.0217945788
 20
688.3333313483
 30
0.0
  0
SPLINE
  5
3AE
100
AcDbEntity
  8
0
100
AcDbSpline
 62
7
  6
CONTINUOUS
 70
0
 71
3
 72
9
 73
5
 74
0
 42
0.0000001
 43
0.0000001
 44
0.0000000001
 40
0.0
 40
0.0
 40
0.0
 40
0.0
 40
0.2257092835
 40
1.0
 40
1.0
 40
1.0
 40
1.0
 10
142.987777573
 20
688.3461861471
 30
0.0
 10
142.9927100904
 20
688.3415120865
 30
0.0
 10
143.0162279659
 20
688.3225594037
 30
0.0
 10
143.0445654092
 20
688.3102949656
 30
0.0
 10
143.0669076679
 20
688.30364383
 30
0.0
  0
SPLINE
  5
3AF
100
AcDbEntity
  8
0
100
AcDbSpline
 62
7
  6
CONTINUOUS
 70
0
 71
3
 72
15
 73
11
 74
0
 42
0.0000001
 43
0.0000001
 44
0.0000000001
 40
0.0
 40
0.0
 40
0.0
 40
0.0
 40
0.1075273089
 40
0.2095761038
 40
0.3173128602
 40
0.4394785936
 40
0.5731152803
 40
0.7130062033
 40
0.8559233951
 40
1.0
 40
1.0
 40
1.0
 40
1.0
 10
143.0669076679
 20
688.3036781288
 30
0.0
 10
143.0976342679
 20
688.439712128
 30
0.0
 10
143.1807406355
 20
688.7056522322
 30
0.0
 10
143.5008945618
 20
689.0031829296
 30
0.0
 10
143.9540269973
 20
689.0535753534
 30
0.0
 10
144.4026028278
 20
688.8746806042
 30
0.0
 10
144.8087209378
 20
688.5541563403
 30
0.0
 10
145.1608790817
 20
688.1413348328
 30
0.0
 10
145.4596445116
 20
687.6738030608
 30
0.0
 10
145.6266770757
 20
687.340433945
 30
0.0
 10
145.7029802817
 20
687.1698576494
 30
0.0
  0
LINE
  5
3B0
100
AcDbEntity
  8
0
100
AcDbLine
 62
7
  6
CONTINUOUS
 10
145.7490266327
 20
687.1911235911
 11
145.7029803653
 21
687.1698574661
  0
SPLINE
  5
3B1
100
AcDbEntity
  8
0
100
AcDbSpline
 62
7
  6
CONTINUOUS
 70
0
 71
3
 72
9
 73
5
 74
0
 42
0.0000001
 43
0.0000001
 44
0.0000000001
 40
0.0
 40
0.0
 40
0.0
 40
0.0
 40
0.2206204401
 40
1.0
 40
1.0
 40
1.0
 40
1.0
 10
146.1747484383
 20
684.9843988542
 30
0.0
 10
146.1797943221
 20
684.9805927876
 30
0.0
 10
146.2041632102
 20
684.9653410636
 30
0.0
 10
146.2321063858
 20
684.9566190761
 30
0.0
 10
146.2539890972
 20
684.9521831619
 30
0.0
  0
SPLINE
  5
3B2
100
AcDbEntity
  8
0
100
AcDbSpline
 62
7
  6
CONTINUOUS
 70
0
 71
3
 72
11
 73
7
 74
0
 42
0.0000001
 43
0.0000001
 44
0.0000000001
 40
0.0
 40
0.0
 40
0.0
 40
0.0
 40
0.2442666082
 40
0.5128527933
 40
0.7742032997
 40
1.0
 40
1.0
 40
1.0
 40
1.0
 10
146.2541105404
 20
684.952309838
 30
0.0
 10
146.6267193147
 20
684.9040957439
 30
0.0
 10
147.4187771506
 20
684.8728249279
 30
0.0
 10
148.6067520626
 20
684.9989461286
 30
0.0
 10
149.7378955832
 20
685.2826931589
 30
0.0
 10
150.4325570638
 20
685.5749229225
 30
0.0
 10
150.7374018707
 20
685.7413292679
 30
0.0
  0
SPLINE
  5
3B3
100
AcDbEntity
  8
0
100
AcDbSpline
 62
7
  6
CONTINUOUS
 70
0
 71
3
 72
9
 73
5
 74
0
 42
0.0000001
 43
0.0000001
 44
0.0000000001
 40
0.0
 40
0.0
 40
0.0
 40
0.0
 40
0.5187282356
 40
1.0
 40
1.0
 40
1.0
 40
1.0
 10
145.749026544
 20
687.191123794
 30
0.0
 10
145.9178732159
 20
686.8303116944
 30
0.0
 10
146.1332598164
 20
686.0839158993
 30
0.0
 10
146.2281317822
 20
685.3209501135
 30
0.0
 10
146.2543364458
 20
684.952280611
 30
0.0
  0
SPLINE
  5
3B4
100
AcDbEntity
  8
0
100
AcDbSpline
 62
7
  6
CONTINUOUS
 70
0
 71
3
 72
11
 73
7
 74
0
 42
0.0000001
 43
0.0000001
 44
0.0000000001
 40
0.0
 40
0.0
 40
0.0
 40
0.0
 40
0.2543106803
 40
0.5115236303
 40
0.7626700057
 40
1.0
 40
1.0
 40
1.0
 40
1.0
 10
148.9921806645
 20
692.6917781071
 30
0.0
 10
148.6176177537
 20
692.2959476718
 30
0.0
 10
147.9204089373
 20
691.4457033539
 30
0.0
 10
147.030671698
 20
690.0711486636
 30
0.0
 10
146.3057358875
 20
688.6449579158
 30
0.0
 10
145.9092393813
 20
687.6738175688
 30
0.0
 10
145.7490326309
 20
687.1911401112
 30
0.0
  0
SPLINE
  5
3B5
100
AcDbEntity
  8
0
100
AcDbSpline
 62
7
  6
CONTINUOUS
 70
0
 71
3
 72
9
 73
5
 74
0
 42
0.0000001
 43
0.0000001
 44
0.0000000001
 40
0.0
 40
0.0
 40
0.0
 40
0.0
 40
0.4599317827
 40
1.0
 40
1.0
 40
1.0
 40
1.0
 10
137.5599238277
 20
664.1338295622
 30
0.0
 10
137.4934866019
 20
664.10093547
 30
0.0
 10
137.3739980176
 20
663.9744227288
 30
0.0
 10
137.3466278409
 20
663.80823566
 30
0.0
 10
137.3466278409
 20
663.7211842826
 30
0.0
  0
SPLINE
  5
3B6
100
AcDbEntity
  8
0
100
AcDbSpline
 62
7
  6
CONTINUOUS
 70
0
 71
3
 72
11
 73
7
 74
0
 42
0.0000001
 43
0.0000001
 44
0.0000000001
 40
0.0
 40
0.0
 40
0.0
 40
0.0
 40
0.2319486055
 40
0.4800545518
 40
0.7398581345
 40
1.0
 40
1.0
 40
1.0
 40
1.0
 10
151.316487666
 20
691.7830454517
 30
0.0
 10
151.1187599494
 20
691.7776752009
 30
0.0
 10
150.7070514038
 20
691.8015244449
 30
0.0
 10
150.0948699958
 20
691.9713142089
 30
0.0
 10
149.5038829448
 20
692.261513435
 30
0.0
 10
149.1492856731
 20
692.5352098937
 30
0.0
 10
148.9921392234
 20
692.6917966324
 30
0.0
  0
SPLINE
  5
3B7
100
AcDbEntity
  8
0
100
AcDbSpline
 62
7
  6
CONTINUOUS
 70
0
 71
3
 72
19
 73
15
 74
0
 42
0.0000001
 43
0.0000001
 44
0.0000000001
 40
0.0
 40
0.0
 40
0.0
 40
0.0
 40
0.0550414908
 40
0.1031182696
 40
0.1432627203
 40
0.177984997
 40
0.213714994
 40
0.2570830177
 40
0.3104352107
 40
0.3728481611
 40
0.51652912
 40
0.6739863308
 40
0.8366273551
 40
1.0
 40
1.0
 40
1.0
 40
1.0
 10
132.4064503403
 20
667.0211696551
 30
0.0
 10
132.3972134739
 20
666.9572863305
 30
0.0
 10
132.3774907566
 20
666.8378647835
 30
0.0
 10
132.3301391847
 20
666.6758759602
 30
0.0
 10
132.2568070649
 20
666.5490318693
 30
0.0
 10
132.1480654359
 20
666.4687251452
 30
0.0
 10
132.0094682382
 20
666.4571808026
 30
0.0
 10
131.8598308573
 20
666.5063375162
 30
0.0
 10
131.6983808775
 20
666.6013726009
 30
0.0
 10
131.4584723654
 20
666.7894085483
 30
0.0
 10
131.1576167833
 20
667.0932168559
 30
0.0
 10
130.8082142514
 20
667.5103452968
 30
0.0
 10
130.4710582231
 20
667.9665585195
 30
0.0
 10
130.2595582796
 20
668.2852831812
 30
0.0
 10
130.1581797676
 20
668.4478518548
 30
0.0
  0
SPLINE
  5
3B8
100
AcDbEntity
  8
0
100
AcDbSpline
 62
7
  6
CONTINUOUS
 70
0
 71
3
 72
9
 73
5
 74
0
 42
0.0000001
 43
0.0000001
 44
0.0000000001
 40
0.0
 40
0.0
 40
0.0
 40
0.0
 40
0.2253623445
 40
1.0
 40
1.0
 40
1.0
 40
1.0
 10
141.0482548467
 20
672.5001548775
 30
0.0
 10
140.9460221242
 20
672.4382145373
 30
0.0
 10
140.47104237
 20
672.1978884178
 30
0.0
 10
139.939612464
 20
672.0917719593
 30
0.0
 10
139.5313590422
 20
672.045471153
 30
0.0
  0
SPLINE
  5
3B9
100
AcDbEntity
  8
0
100
AcDbSpline
 62
7
  6
CONTINUOUS
 70
0
 71
3
 72
9
 73
5
 74
0
 42
0.0000001
 43
0.0000001
 44
0.0000000001
 40
0.0
 40
0.0
 40
0.0
 40
0.0
 40
0.2538784082
 40
1.0
 40
1.0
 40
1.0
 40
1.0
 10
146.254149991
 20
684.952149992
 30
0.0
 10
146.289250113
 20
684.3932624351
 30
0.0
 10
146.4092197394
 20
682.1907017689
 30
0.0
 10
146.4688112413
 20
679.9852631414
 30
0.0
 10
146.4959501075
 20
678.3397398598
 30
0.0
  0
SPLINE
  5
3BA
100
AcDbEntity
  8
0
100
AcDbSpline
 62
7
  6
CONTINUOUS
 70
0
 71
3
 72
9
 73
5
 74
0
 42
0.0000001
 43
0.0000001
 44
0.0000000001
 40
0.0
 40
0.0
 40
0.0
 40
0.0
 40
0.2455259074
 40
1.0
 40
1.0
 40
1.0
 40
1.0
 10
136.8430573721
 20
691.0278471993
 30
0.0
 10
136.8355932814
 20
690.9973992701
 30
0.0
 10
136.8067248199
 20
690.8730158278
 30
0.0
 10
136.7838864585
 20
690.7472478068
 30
0.0
 10
136.7698023264
 20
690.6519494713
 30
0.0
  0
SPLINE
  5
3BB
100
AcDbEntity
  8
0
100
AcDbSpline
 62
7
  6
CONTINUOUS
 70
0
 71
3
 72
9
 73
5
 74
0
 42
0.0000001
 43
0.0000001
 44
0.0000000001
 40
0.0
 40
0.0
 40
0.0
 40
0.0
 40
0.4843187133
 40
1.0
 40
1.0
 40
1.0
 40
1.0
 10
150.7374024075
 20
660.8699737719
 30
0.0
 10
151.1794548019
 20
663.4557125649
 30
0.0
 10
151.7492256032
 20
668.85644922
 30
0.0
 10
151.7277332799
 20
674.2829872569
 30
0.0
 10
151.5855500263
 20
677.0724903688
 30
0.0
  0
SPLINE
  5
3BC
100
AcDbEntity
  8
0
100
AcDbSpline
 62
7
  6
CONTINUOUS
 70
0
 71
3
 72
9
 73
5
 74
0
 42
0.0000001
 43
0.0000001
 44
0.0000000001
 40
0.0
 40
0.0
 40
0.0
 40
0.0
 40
0.2452696541
 40
1.0
 40
1.0
 40
1.0
 40
1.0
 10
151.5808746593
 20
677.1633013577
 30
0.0
 10
151.5442744403
 20
677.8671774734
 30
0.0
 10
151.3608944798
 20
680.7351443142
 30
0.0
 10
151.0439502276
 20
683.5942470283
 30
0.0
 10
150.7374024075
 20
685.7413290506
 30
0.0
  0
SPLINE
  5
3BD
100
AcDbEntity
  8
0
100
AcDbSpline
 62
7
  6
CONTINUOUS
 70
0
 71
3
 72
9
 73
5
 74
0
 42
0.0000001
 43
0.0000001
 44
0.0000000001
 40
0.0
 40
0.0
 40
0.0
 40
0.0
 40
0.4632577506
 40
1.0
 40
1.0
 40
1.0
 40
1.0
 10
137.34750087
 20
690.922768145
 30
0.0
 10
137.3205888532
 20
690.9107286599
 30
0.0
 10
137.2521094038
 20
690.9055773985
 30
0.0
 10
137.1943444776
 20
690.9402527005
 30
0.0
 10
137.1696031753
 20
690.9638047973
 30
0.0
  0
SPLINE
  5
3BE
100
AcDbEntity
  8
0
100
AcDbSpline
 62
7
  6
CONTINUOUS
 70
0
 71
3
 72
8
 73
4
 74
0
 42
0.0000001
 43
0.0000001
 44
0.0000000001
 40
0.0
 40
0.0
 40
0.0
 40
0.0
 40
1.0
 40
1.0
 40
1.0
 40
1.0
 10
137.1696031753
 20
690.9638047973
 30
0.0
 10
137.1531426721
 20
690.9794741166
 30
0.0
 10
137.1389750268
 20
690.9978598605
 30
0.0
 10
137.1277284056
 20
691.0176080058
 30
0.0
  0
SPLINE
  5
3BF
100
AcDbEntity
  8
0
100
AcDbSpline
 62
7
  6
CONTINUOUS
 70
0
 71
3
 72
9
 73
5
 74
0
 42
0.0000001
 43
0.0000001
 44
0.0000000001
 40
0.0
 40
0.0
 40
0.0
 40
0.0
 40
0.252463075
 40
1.0
 40
1.0
 40
1.0
 40
1.0
 10
146.4513427566
 20
665.0134835347
 30
0.0
 10
146.443593052
 20
664.7437165668
 30
0.0
 10
146.4098635934
 20
663.6752727479
 30
0.0
 10
146.3622473321
 20
662.6072105217
 30
0.0
 10
146.3151826495
 20
661.8094948522
 30
0.0
  0
SPLINE
  5
3C0
100
AcDbEntity
  8
0
100
AcDbSpline
 62
7
  6
CONTINUOUS
 70
0
 71
3
 72
9
 73
5
 74
0
 42
0.0000001
 43
0.0000001
 44
0.0000000001
 40
0.0
 40
0.0
 40
0.0
 40
0.0
 40
0.2516463984
 40
1.0
 40
1.0
 40
1.0
 40
1.0
 10
146.5147156971
 20
668.2923425108
 30
0.0
 10
146.5115628101
 20
668.0172671882
 30
0.0
 10
146.4972229445
 20
666.9241886671
 30
0.0
 10
146.4749124725
 20
665.8311945906
 30
0.0
 10
146.4514231293
 20
665.0134509107
 30
0.0
  0
SPLINE
  5
3C1
100
AcDbEntity
  8
0
100
AcDbSpline
 62
7
  6
CONTINUOUS
 70
0
 71
3
 72
9
 73
5
 74
0
 42
0.0000001
 43
0.0000001
 44
0.0000000001
 40
0.0
 40
0.0
 40
0.0
 40
0.0
 40
0.2509810552
 40
1.0
 40
1.0
 40
1.0
 40
1.0
 10
146.5374837605
 20
671.6033026866
 30
0.0
 10
146.5367383223
 20
671.3262862872
 30
0.0
 10
146.5326655524
 20
670.2225558312
 30
0.0
 10
146.524578753
 20
669.1188353963
 30
0.0
 10
146.5151167714
 20
668.2921686508
 30
0.0
  0
SPLINE
  5
3C2
100
AcDbEntity
  8
0
100
AcDbSpline
 62
7
  6
CONTINUOUS
 70
0
 71
3
 72
9
 73
5
 74
0
 42
0.0000001
 43
0.0000001
 44
0.0000000001
 40
0.0
 40
0.0
 40
0.0
 40
0.0
 40
0.2512343045
 40
1.0
 40
1.0
 40
1.0
 40
1.0
 10
146.496481855
 20
678.3395435484
 30
0.0
 10
146.5011350643
 20
678.0570472685
 30
0.0
 10
146.5177427798
 20
676.9325814536
 30
0.0
 10
146.526920156
 20
675.8080183293
 30
0.0
 10
146.531885114
 20
674.9659814918
 30
0.0
  0
SPLINE
  5
3C3
100
AcDbEntity
  8
0
100
AcDbSpline
 62
7
  6
CONTINUOUS
 70
0
 71
3
 72
9
 73
5
 74
0
 42
0.0000001
 43
0.0000001
 44
0.0000000001
 40
0.0
 40
0.0
 40
0.0
 40
0.0
 40
0.2781487047
 40
1.0
 40
1.0
 40
1.0
 40
1.0
 10
146.4964818267
 20
678.3395452716
 30
0.0
 10
146.490069562
 20
678.3418885324
 30
0.0
 10
146.4673868596
 20
678.3511567634
 30
0.0
 10
146.4460301533
 20
678.3646136393
 30
0.0
 10
146.4335660328
 20
678.3772054376
 30
0.0
  0
SPLINE
  5
3C4
100
AcDbEntity
  8
0
100
AcDbSpline
 62
7
  6
CONTINUOUS
 70
0
 71
3
 72
9
 73
5
 74
0
 42
0.0000001
 43
0.0000001
 44
0.0000000001
 40
0.0
 40
0.0
 40
0.0
 40
0.0
 40
0.2726475673
 40
1.0
 40
1.0
 40
1.0
 40
1.0
 10
146.5313791343
 20
674.9661946377
 30
0.0
 10
146.5256719655
 20
674.9686039828
 30
0.0
 10
146.505132711
 20
674.9782577724
 30
0.0
 10
146.4860303154
 20
674.9915780677
 30
0.0
 10
146.4747254411
 20
675.0036329575
 30
0.0
  0
SPLINE
  5
3C5
100
AcDbEntity
  8
0
100
AcDbSpline
 62
7
  6
CONTINUOUS
 70
0
 71
3
 72
9
 73
5
 74
0
 42
0.0000001
 43
0.0000001
 44
0.0000000001
 40
0.0
 40
0.0
 40
0.0
 40
0.0
 40
0.2724674554
 40
1.0
 40
1.0
 40
1.0
 40
1.0
 10
146.5374837604
 20
671.6033026767
 30
0.0
 10
146.5317914135
 20
671.6058228956
 30
0.0
 10
146.5111083242
 20
671.6154759946
 30
0.0
 10
146.4922419622
 20
671.6294185518
 30
0.0
 10
146.4810633188
 20
671.6417208821
 30
0.0
  0
SPLINE
  5
3C6
100
AcDbEntity
  8
0
100
AcDbSpline
 62
7
  6
CONTINUOUS
 70
0
 71
3
 72
9
 73
5
 74
0
 42
0.0000001
 43
0.0000001
 44
0.0000000001
 40
0.0
 40
0.0
 40
0.0
 40
0.0
 40
0.2731711608
 40
1.0
 40
1.0
 40
1.0
 40
1.0
 10
146.5147156949
 20
668.2923423189
 30
0.0
 10
146.5086868509
 20
668.2949776722
 30
0.0
 10
146.4870894931
 20
668.3055805017
 30
0.0
 10
146.4670868288
 20
668.3200695747
 30
0.0
 10
146.4553826929
 20
668.3330885463
 30
0.0
  0
SPLINE
  5
3C7
100
AcDbEntity
  8
0
100
AcDbSpline
 62
7
  6
CONTINUOUS
 70
0
 71
3
 72
9
 73
5
 74
0
 42
0.0000001
 43
0.0000001
 44
0.0000000001
 40
0.0
 40
0.0
 40
0.0
 40
0.0
 40
0.2723332362
 40
1.0
 40
1.0
 40
1.0
 40
1.0
 10
146.4513427613
 20
665.0134836979
 30
0.0
 10
146.44450034
 20
665.0162889832
 30
0.0
 10
146.4199363645
 20
665.0277788886
 30
0.0
 10
146.3970932191
 20
665.0438550804
 30
0.0
 10
146.3839264722
 20
665.0585887386
 30
0.0
  0
SPLINE
  5
3C8
100
AcDbEntity
  8
0
100
AcDbSpline
 62
7
  6
CONTINUOUS
 70
0
 71
3
 72
9
 73
5
 74
0
 42
0.0000001
 43
0.0000001
 44
0.0000000001
 40
0.0
 40
0.0
 40
0.0
 40
0.0
 40
0.4887590875
 40
1.0
 40
1.0
 40
1.0
 40
1.0
 10
129.0728143747
 20
696.1803668958
 30
0.0
 10
129.0288258963
 20
695.9229703011
 30
0.0
 10
129.0603943237
 20
695.3707389958
 30
0.0
 10
129.29882077
 20
694.879912085
 30
0.0
 10
129.4512221166
 20
694.6532425348
 30
0.0
  0
SPLINE
  5
3C9
100
AcDbEntity
  8
0
100
AcDbSpline
 62
7
  6
CONTINUOUS
 70
0
 71
3
 72
9
 73
5
 74
0
 42
0.0000001
 43
0.0000001
 44
0.0000000001
 40
0.0
 40
0.0
 40
0.0
 40
0.0
 40
0.2675257962
 40
1.0
 40
1.0
 40
1.0
 40
1.0
 10
146.3151749369
 20
661.8094977719
 30
0.0
 10
146.3075200344
 20
661.8123931164
 30
0.0
 10
146.2795702117
 20
661.8247312253
 30
0.0
 10
146.2535054335
 20
661.8424957336
 30
0.0
 10
146.2384748878
 20
661.8591148908
 30
0.0
  0
SPLINE
  5
3CA
100
AcDbEntity
  8
0
100
AcDbSpline
 62
7
  6
CONTINUOUS
 70
0
 71
3
 72
9
 73
5
 74
0
 42
0.0000001
 43
0.0000001
 44
0.0000000001
 40
0.0
 40
0.0
 40
0.0
 40
0.0
 40
0.2345183506
 40
1.0
 40
1.0
 40
1.0
 40
1.0
 10
146.1746168749
 20
660.9197140392
 30
0.0
 10
146.1796439894
 20
660.9142823442
 30
0.0
 10
146.202731314
 20
660.8926425926
 30
0.0
 10
146.231349698
 20
660.8774694767
 30
0.0
 10
146.2539898542
 20
660.8690431767
 30
0.0
  0
SPLINE
  5
3CB
100
AcDbEntity
  8
0
100
AcDbSpline
 62
7
  6
CONTINUOUS
 70
0
 71
3
 72
9
 73
5
 74
0
 42
0.0000001
 43
0.0000001
 44
0.0000000001
 40
0.0
 40
0.0
 40
0.0
 40
0.0
 40
0.4797845241
 40
1.0
 40
1.0
 40
1.0
 40
1.0
 10
130.728210104
 20
667.0942269564
 30
0.0
 10
130.5804947384
 20
667.2792816884
 30
0.0
 10
130.3309899394
 20
667.7139731655
 30
0.0
 10
130.2029756594
 20
668.1950562091
 30
0.0
 10
130.1581797676
 20
668.4478518548
 30
0.0
  0
SPLINE
  5
3CC
100
AcDbEntity
  8
0
100
AcDbSpline
 62
7
  6
CONTINUOUS
 70
0
 71
3
 72
10
 73
6
 74
0
 42
0.0000001
 43
0.0000001
 44
0.0000000001
 40
0.0
 40
0.0
 40
0.0
 40
0.0
 40
0.2340250416
 40
0.5012245389
 40
1.0
 40
1.0
 40
1.0
 40
1.0
 10
136.7674831738
 20
690.653767046
 30
0.0
 10
136.7948747349
 20
690.6686789384
 30
0.0
 10
136.8460077176
 20
690.7130236344
 30
0.0
 10
136.9396592404
 20
690.8073380173
 30
0.0
 10
137.006675266
 20
690.8846396404
 30
0.0
 10
137.049828805
 20
690.9351964783
 30
0.0
  0
SPLINE
  5
3CD
100
AcDbEntity
  8
0
100
AcDbSpline
 62
7
  6
CONTINUOUS
 70
0
 71
3
 72
9
 73
5
 74
0
 42
0.0000001
 43
0.0000001
 44
0.0000000001
 40
0.0
 40
0.0
 40
0.0
 40
0.0
 40
0.2326723364
 40
1.0
 40
1.0
 40
1.0
 40
1.0
 10
143.1759525659
 20
675.86310267
 30
0.0
 10
143.0133508781
 20
675.8876871173
 30
0.0
 10
142.3203837293
 20
676.0323058976
 30
0.0
 10
141.6618570484
 20
676.318131329
 30
0.0
 10
141.1887985478
 20
676.5833576809
 30
0.0
  0
SPLINE
  5
3CE
100
AcDbEntity
  8
0
100
AcDbSpline
 62
7
  6
CONTINUOUS
 70
0
 71
3
 72
9
 73
5
 74
0
 42
0.0000001
 43
0.0000001
 44
0.0000000001
 40
0.0
 40
0.0
 40
0.0
 40
0.0
 40
0.4736685263
 40
1.0
 40
1.0
 40
1.0
 40
1.0
 10
141.1887985478
 20
676.5833576809
 30
0.0
 10
140.3890437439
 20
677.0317505304
 30
0.0
 10
138.8610278372
 20
678.266274848
 30
0.0
 10
137.6654177482
 20
679.8078256189
 30
0.0
 10
137.1260177675
 20
680.6721374343
 30
0.0
  0
SPLINE
  5
3CF
100
AcDbEntity
  8
0
100
AcDbSpline
 62
7
  6
CONTINUOUS
 70
0
 71
3
 72
11
 73
7
 74
0
 42
0.0000001
 43
0.0000001
 44
0.0000000001
 40
0.0
 40
0.0
 40
0.0
 40
0.0
 40
0.2613395682
 40
0.5324675109
 40
0.7858124427
 40
1.0
 40
1.0
 40
1.0
 40
1.0
 10
137.1260177675
 20
680.6721374343
 30
0.0
 10
137.2665058298
 20
679.9523504347
 30
0.0
 10
137.7630668292
 20
678.5240616835
 30
0.0
 10
138.9369638209
 20
676.636830606
 30
0.0
 10
140.4109841767
 20
675.155365537
 30
0.0
 10
141.593735382
 20
674.5087323085
 30
0.0
 10
142.1747803837
 20
674.3549480924
 30
0.0
  0
SPLINE
  5
3D0
100
AcDbEntity
  8
0
100
AcDbSpline
 62
7
  6
CONTINUOUS
 70
0
 71
3
 72
12
 73
8
 74
0
 42
0.0000001
 43
0.0000001
 44
0.0000000001
 40
0.0
 40
0.0
 40
0.0
 40
0.0
 40
0.256329526
 40
0.5282155564
 40
0.6603722613
 40
0.7848946044
 40
1.0
 40
1.0
 40
1.0
 40
1.0
 10
136.7682417521
 20
681.139888698
 30
0.0
 10
136.8659148197
 20
680.3548972687
 30
0.0
 10
137.3330326384
 20
678.7681429152
 30
0.0
 10
138.3626929016
 20
676.9883016613
 30
0.0
 10
139.4281312327
 20
675.7456476259
 30
0.0
 10
140.5161149278
 20
674.778871217
 30
0.0
 10
141.4624287133
 20
674.2510849703
 30
0.0
 10
142.1057096004
 20
674.0872148611
 30
0.0
  0
SPLINE
  5
3D1
100
AcDbEntity
  8
0
100
AcDbSpline
 62
7
  6
CONTINUOUS
 70
0
 71
3
 72
9
 73
5
 74
0
 42
0.0000001
 43
0.0000001
 44
0.0000000001
 40
0.0
 40
0.0
 40
0.0
 40
0.0
 40
0.2325890641
 40
1.0
 40
1.0
 40
1.0
 40
1.0
 10
143.2733075813
 20
676.1236499091
 30
0.0
 10
143.1139964683
 20
676.147470433
 30
0.0
 10
142.4347715623
 20
676.2882453445
 30
0.0
 10
141.7892969854
 20
676.5681025682
 30
0.0
 10
141.325709527
 20
676.8280188581
 30
0.0
  0
SPLINE
  5
3D2
100
AcDbEntity
  8
0
100
AcDbSpline
 62
7
  6
CONTINUOUS
 70
0
 71
3
 72
9
 73
5
 74
0
 42
0.0000001
 43
0.0000001
 44
0.0000000001
 40
0.0
 40
0.0
 40
0.0
 40
0.0
 40
0.4746030828
 40
1.0
 40
1.0
 40
1.0
 40
1.0
 10
141.241267936
 20
676.8760661647
 30
0.0
 10
140.4775491506
 20
677.316989436
 30
0.0
 10
139.0201117239
 20
678.511023852
 30
0.0
 10
137.8754128771
 20
679.9925071108
 30
0.0
 10
137.3585682292
 20
680.8207096524
 30
0.0
  0
SPLINE
  5
3D3
100
AcDbEntity
  8
0
100
AcDbSpline
 62
7
  6
CONTINUOUS
 70
0
 71
3
 72
10
 73
6
 74
0
 42
0.0000001
 43
0.0000001
 44
0.0000000001
 40
0.0
 40
0.0
 40
0.0
 40
0.0
 40
0.2701230052
 40
0.537194862
 40
1.0
 40
1.0
 40
1.0
 40
1.0
 10
137.3585682292
 20
680.8207096524
 30
0.0
 10
137.3203744143
 20
680.8815487143
 30
0.0
 10
137.2354132434
 20
681.000310853
 30
0.0
 10
137.0640272115
 20
681.1842851051
 30
0.0
 10
136.8331221994
 20
681.3130417023
 30
0.0
 10
136.7282778046
 20
681.2485824939
 30
0.0
  0
SPLINE
  5
3D4
100
AcDbEntity
  8
0
100
AcDbSpline
 62
7
  6
CONTINUOUS
 70
0
 71
3
 72
9
 73
5
 74
0
 42
0.0000001
 43
0.0000001
 44
0.0000000001
 40
0.0
 40
0.0
 40
0.0
 40
0.0
 40
0.2611597896
 40
1.0
 40
1.0
 40
1.0
 40
1.0
 10
136.7299430912
 20
681.2494532304
 30
0.0
 10
136.7348321249
 20
681.240630964
 30
0.0
 10
136.7520837585
 20
681.2060910241
 30
0.0
 10
136.7637420672
 20
681.1684958588
 30
0.0
 10
136.767428577
 20
681.1401998891
 30
0.0
  0
SPLINE
  5
3D5
100
AcDbEntity
  8
0
100
AcDbSpline
 62
7
  6
CONTINUOUS
 70
0
 71
3
 72
13
 73
9
 74
0
 42
0.0000001
 43
0.0000001
 44
0.0000000001
 40
0.0
 40
0.0
 40
0.0
 40
0.0
 40
0.0536717228
 40
0.1088840683
 40
0.2264163736
 40
0.3499469866
 40
0.4767388081
 40
1.0
 40
1.0
 40
1.0
 40
1.0
 10
136.7682417049
 20
681.139889077
 30
0.0
 10
136.7782232122
 20
681.1444700449
 30
0.0
 10
136.8016942215
 20
681.1489120414
 30
0.0
 10
136.8450348933
 20
681.1287116757
 30
0.0
 10
136.8902280266
 20
681.0877171787
 30
0.0
 10
136.9373924343
 20
681.0288305054
 30
0.0
 10
137.0249915735
 20
680.8968708769
 30
0.0
 10
137.0831670474
 20
680.7763121496
 30
0.0
 10
137.1249261105
 20
680.6777193204
 30
0.0
  0
SPLINE
  5
3D6
100
AcDbEntity
  8
0
100
AcDbSpline
 62
7
  6
CONTINUOUS
 70
0
 71
3
 72
9
 73
5
 74
0
 42
0.0000001
 43
0.0000001
 44
0.0000000001
 40
0.0
 40
0.0
 40
0.0
 40
0.0
 40
0.4632053673
 40
1.0
 40
1.0
 40
1.0
 40
1.0
 10
137.1260177675
 20
680.6721374343
 30
0.0
 10
137.1602153401
 20
680.6975680856
 30
0.0
 10
137.2379787937
 20
680.7469671391
 30
0.0
 10
137.3161381246
 20
680.795461833
 30
0.0
 10
137.3588409532
 20
680.8202726334
 30
0.0
  0
SPLINE
  5
3D7
100
AcDbEntity
  8
0
100
AcDbSpline
 62
7
  6
CONTINUOUS
 70
0
 71
3
 72
9
 73
5
 74
0
 42
0.0000001
 43
0.0000001
 44
0.0000000001
 40
0.0
 40
0.0
 40
0.0
 40
0.0
 40
0.5146877497
 40
1.0
 40
1.0
 40
1.0
 40
1.0
 10
133.6573839326
 20
679.5035406281
 30
0.0
 10
133.6709407881
 20
679.4893766343
 30
0.0
 10
133.68717653
 20
679.4536093898
 30
0.0
 10
133.6992599121
 20
679.4174854154
 30
0.0
 10
133.7020399435
 20
679.3992083514
 30
0.0
  0
SPLINE
  5
3D8
100
AcDbEntity
  8
0
100
AcDbSpline
 62
7
  6
CONTINUOUS
 70
0
 71
3
 72
13
 73
9
 74
0
 42
0.0000001
 43
0.0000001
 44
0.0000000001
 40
0.0
 40
0.0
 40
0.0
 40
0.0
 40
0.2724261334
 40
0.5687633053
 40
0.704936116
 40
0.822387046
 40
0.918530275
 40
1.0
 40
1.0
 40
1.0
 40
1.0
 10
137.3466278409
 20
663.7211842826
 30
0.0
 10
137.3466278409
 20
663.565856886
 30
0.0
 10
137.445324735
 20
663.2432888689
 30
0.0
 10
137.6870693404
 20
662.9147476102
 30
0.0
 10
137.9301610689
 20
662.7139979475
 30
0.0
 10
138.1080679518
 20
662.6202501431
 30
0.0
 10
138.2767066825
 20
662.5859979667
 30
0.0
 10
138.3795057976
 20
662.6159309317
 30
0.0
 10
138.4181554756
 20
662.6416972382
 30
0.0
  0
SPLINE
  5
3D9
100
AcDbEntity
  8
0
100
AcDbSpline
 62
7
  6
CONTINUOUS
 70
0
 71
3
 72
11
 73
7
 74
0
 42
0.0000001
 43
0.0000001
 44
0.0000000001
 40
0.0
 40
0.0
 40
0.0
 40
0.0
 40
0.1754790969
 40
0.4097488751
 40
0.6909346455
 40
1.0
 40
1.0
 40
1.0
 40
1.0
 10
139.4452574014
 20
672.0504398611
 30
0.0
 10
139.2277517351
 20
672.1349263671
 30
0.0
 10
138.7354430196
 20
672.3709865346
 30
0.0
 10
137.9319818477
 20
672.8165661467
 30
0.0
 10
136.9941863684
 20
673.385145645
 30
0.0
 10
136.3363484881
 20
673.8135024107
 30
0.0
 10
135.9958104164
 20
674.0435688733
 30
0.0
  0
SPLINE
  5
3DA
100
AcDbEntity
  8
0
100
AcDbSpline
 62
7
  6
CONTINUOUS
 70
0
 71
3
 72
19
 73
15
 74
0
 42
0.0000001
 43
0.0000001
 44
0.0000000001
 40
0.0
 40
0.0
 40
0.0
 40
0.0
 40
0.1489832281
 40
0.3100585914
 40
0.4728646009
 40
0.6207842592
 40
0.6836109602
 40
0.7372825538
 40
0.7821476207
 40
0.8206488147
 40
0.8574637037
 40
0.8976234195
 40
0.9447397633
 40
1.0
 40
1.0
 40
1.0
 40
1.0
 10
135.9958104164
 20
663.8088595342
 30
0.0
 10
136.0432209629
 20
663.5440130663
 30
0.0
 10
136.233829471
 20
663.0079373533
 30
0.0
 10
136.7103747393
 20
662.2923226644
 30
0.0
 10
137.3052731463
 20
661.6775259661
 30
0.0
 10
137.848947272
 20
661.2704197407
 30
0.0
 10
138.275738149
 20
661.0534689573
 30
0.0
 10
138.5531529916
 20
660.9600687923
 30
0.0
 10
138.8017867637
 20
660.9308971888
 30
0.0
 10
139.0190638783
 20
660.9771867525
 30
0.0
 10
139.1939760361
 20
661.1004592607
 30
0.0
 10
139.3207526292
 20
661.2897639161
 30
0.0
 10
139.4044942881
 20
661.5350773821
 30
0.0
 10
139.4340864056
 20
661.7181953153
 30
0.0
 10
139.4452574014
 20
661.8173654425
 30
0.0
  0
SPLINE
  5
3DB
100
AcDbEntity
  8
0
100
AcDbSpline
 62
7
  6
CONTINUOUS
 70
0
 71
3
 72
9
 73
5
 74
0
 42
0.0000001
 43
0.0000001
 44
0.0000000001
 40
0.0
 40
0.0
 40
0.0
 40
0.0
 40
0.2591045511
 40
1.0
 40
1.0
 40
1.0
 40
1.0
 10
135.9958104164
 20
674.0435154098
 30
0.0
 10
135.9866056454
 20
674.0497341245
 30
0.0
 10
135.9525311574
 20
674.0757666724
 30
0.0
 10
135.9243899117
 20
674.1099265251
 30
0.0
 10
135.9097087756
 20
674.1380945502
 30
0.0
  0
SPLINE
  5
3DC
100
AcDbEntity
  8
0
100
AcDbSpline
 62
7
  6
CONTINUOUS
 70
0
 71
3
 72
11
 73
7
 74
0
 42
0.0000001
 43
0.0000001
 44
0.0000000001
 40
0.0
 40
0.0
 40
0.0
 40
0.0
 40
0.2486841681
 40
0.5087238935
 40
0.7627199259
 40
1.0
 40
1.0
 40
1.0
 40
1.0
 10
135.9097087756
 20
674.1381173127
 30
0.0
 10
135.6900771116
 20
674.5595145535
 30
0.0
 10
135.2226639272
 20
675.4118363179
 30
0.0
 10
134.5540449311
 20
676.7076246838
 30
0.0
 10
134.0019494593
 20
678.0354315705
 30
0.0
 10
133.7670748213
 20
678.9504897026
 30
0.0
 10
133.7020399435
 20
679.3992083514
 30
0.0
  0
SPLINE
  5
3DD
100
AcDbEntity
  8
0
100
AcDbSpline
 62
7
  6
CONTINUOUS
 70
0
 71
3
 72
9
 73
5
 74
0
 42
0.0000001
 43
0.0000001
 44
0.0000000001
 40
0.0
 40
0.0
 40
0.0
 40
0.0
 40
0.2548695689
 40
1.0
 40
1.0
 40
1.0
 40
1.0
 10
133.6573839326
 20
679.5035406281
 30
0.0
 10
133.5471117488
 20
679.6703297282
 30
0.0
 10
133.1200872423
 20
680.3282656019
 30
0.0
 10
132.7217906217
 20
681.0062744446
 30
0.0
 10
132.4602617905
 20
681.5290661378
 30
0.0
  0
SPLINE
  5
3DE
100
AcDbEntity
  8
0
100
AcDbSpline
 62
7
  6
CONTINUOUS
 70
0
 71
3
 72
8
 73
4
 74
0
 42
0.0000001
 43
0.0000001
 44
0.0000000001
 40
0.0
 40
0.0
 40
0.0
 40
0.0
 40
1.0
 40
1.0
 40
1.0
 40
1.0
 10
132.4602617907
 20
681.5289191558
 30
0.0
 10
132.4204931697
 20
681.6084159539
 30
0.0
 10
132.3924626199
 20
681.694319408
 30
0.0
 10
132.3741601499
 20
681.7813039108
 30
0.0
  0
SPLINE
  5
3DF
100
AcDbEntity
  8
0
100
AcDbSpline
 62
7
  6
CONTINUOUS
 70
0
 71
3
 72
8
 73
4
 74
0
 42
0.0000001
 43
0.0000001
 44
0.0000000001
 40
0.0
 40
0.0
 40
0.0
 40
0.0
 40
1.0
 40
1.0
 40
1.0
 40
1.0
 10
132.3741601499
 20
694.4769648287
 30
0.0
 10
132.3840984783
 20
694.468957056
 30
0.0
 10
132.3956785004
 20
694.4629339995
 30
0.0
 10
132.4075194458
 20
694.4581709323
 30
0.0
  0
SPLINE
  5
3E0
100
AcDbEntity
  8
0
100
AcDbSpline
 62
7
  6
CONTINUOUS
 70
0
 71
3
 72
15
 73
11
 74
0
 42
0.0000001
 43
0.0000001
 44
0.0000000001
 40
0.0
 40
0.0
 40
0.0
 40
0.0
 40
0.1517521886
 40
0.3117909419
 40
0.4627916861
 40
0.590560885
 40
0.699021603
 40
0.7989996108
 40
0.8981989161
 40
1.0
 40
1.0
 40
1.0
 40
1.0
 10
132.4076207121
 20
694.458130137
 30
0.0
 10
132.3892076864
 20
694.6388083484
 30
0.0
 10
132.3367037015
 20
695.0094396204
 30
0.0
 10
132.1694387513
 20
695.5401643198
 30
0.0
 10
131.9167735795
 20
696.0069162277
 30
0.0
 10
131.5744174344
 20
696.3335417876
 30
0.0
 10
131.1918698272
 20
696.4884054607
 30
0.0
 10
130.8164804738
 20
696.4881206403
 30
0.0
 10
130.4678667882
 20
696.3833970249
 30
0.0
 10
130.2582093451
 20
696.2616866767
 30
0.0
 10
130.1581025042
 20
696.1922458403
 30
0.0
  0
SPLINE
  5
3E1
100
AcDbEntity
  8
0
100
AcDbSpline
 62
7
  6
CONTINUOUS
 70
0
 71
3
 72
9
 73
5
 74
0
 42
0.0000001
 43
0.0000001
 44
0.0000000001
 40
0.0
 40
0.0
 40
0.0
 40
0.0
 40
0.4799369628
 40
1.0
 40
1.0
 40
1.0
 40
1.0
 10
129.5223822783
 20
670.5335202452
 30
0.0
 10
129.5583266884
 20
670.1851547305
 30
0.0
 10
129.7086170131
 20
669.4671421734
 30
0.0
 10
129.9934359734
 20
668.7854537639
 30
0.0
 10
130.1928963775
 20
668.4626034882
 30
0.0
  0
SPLINE
  5
3E2
100
AcDbEntity
  8
0
100
AcDbSpline
 62
7
  6
CONTINUOUS
 70
0
 71
3
 72
10
 73
6
 74
0
 42
0.0000001
 43
0.0000001
 44
0.0000000001
 40
0.0
 40
0.0
 40
0.0
 40
0.0
 40
0.5678030813
 40
0.8049747348
 40
1.0
 40
1.0
 40
1.0
 40
1.0
 10
132.3741601499
 20
681.781376207
 30
0.0
 10
132.1451258494
 20
682.8698869233
 30
0.0
 10
131.8861804079
 20
684.4436122307
 30
0.0
 10
132.021227382
 20
686.4059968555
 30
0.0
 10
132.2329137238
 20
687.2334036874
 30
0.0
 10
132.3741601499
 20
687.5883968051
 30
0.0
  0
SPLINE
  5
3E3
100
AcDbEntity
  8
0
100
AcDbSpline
 62
7
  6
CONTINUOUS
 70
0
 71
3
 72
14
 73
10
 74
0
 42
0.0000001
 43
0.0000001
 44
0.0000000001
 40
0.0
 40
0.0
 40
0.0
 40
0.0
 40
0.311916003
 40
0.4634230884
 40
0.5907712773
 40
0.6988054475
 40
0.7986355287
 40
0.89798167
 40
1.0
 40
1.0
 40
1.0
 40
1.0
 10
132.3741601499
 20
694.4769648287
 30
0.0
 10
132.341847765
 20
694.8367134452
 30
0.0
 10
132.2329595426
 20
695.3739772494
 30
0.0
 10
131.8984817236
 20
695.979381542
 30
0.0
 10
131.5620695538
 20
696.2902278195
 30
0.0
 10
131.1889292457
 20
696.4297581368
 30
0.0
 10
130.8265960281
 20
696.4206744146
 30
0.0
 10
130.4910030759
 20
696.3131100088
 30
0.0
 10
130.2898828076
 20
696.1919692652
 30
0.0
 10
130.1930248874
 20
696.1243319876
 30
0.0
  0
SPLINE
  5
3E4
100
AcDbEntity
  8
0
100
AcDbSpline
 62
7
  6
CONTINUOUS
 70
0
 71
3
 72
9
 73
5
 74
0
 42
0.0000001
 43
0.0000001
 44
0.0000000001
 40
0.0
 40
0.0
 40
0.0
 40
0.0
 40
0.4723471639
 40
1.0
 40
1.0
 40
1.0
 40
1.0
 10
130.1930248874
 20
696.1243319876
 30
0.0
 10
129.9773323362
 20
695.9668663403
 30
0.0
 10
129.6758154859
 20
695.4461809981
 30
0.0
 10
129.5580327274
 20
694.8944965749
 30
0.0
 10
129.5226405289
 20
694.5982790764
 30
0.0
  0
SPLINE
  5
3E5
100
AcDbEntity
  8
0
100
AcDbSpline
 62
7
  6
CONTINUOUS
 70
0
 71
3
 72
9
 73
5
 74
0
 42
0.0000001
 43
0.0000001
 44
0.0000000001
 40
0.0
 40
0.0
 40
0.0
 40
0.0
 40
0.2484397119
 40
1.0
 40
1.0
 40
1.0
 40
1.0
 10
129.419643395
 20
693.6362427908
 30
0.0
 10
129.3927635234
 20
693.3668728461
 30
0.0
 10
129.292325405
 20
692.2818611006
 30
0.0
 10
129.2160305595
 20
691.1946566665
 30
0.0
 10
129.1708342119
 20
690.3769809539
 30
0.0
  0
SPLINE
  5
3E6
100
AcDbEntity
  8
0
100
AcDbSpline
 62
7
  6
CONTINUOUS
 70
0
 71
3
 72
9
 73
5
 74
0
 42
0.0000001
 43
0.0000001
 44
0.0000000001
 40
0.0
 40
0.0
 40
0.0
 40
0.0
 40
0.249010454
 40
1.0
 40
1.0
 40
1.0
 40
1.0
 10
129.1709753213
 20
690.37692853
 30
0.0
 10
129.155806147
 20
690.1025144281
 30
0.0
 10
129.0989590803
 20
689.0002669267
 30
0.0
 10
129.0618056573
 20
687.8970671932
 30
0.0
 10
129.0406763875
 20
687.0684687585
 30
0.0
  0
SPLINE
  5
3E7
100
AcDbEntity
  8
0
100
AcDbSpline
 62
7
  6
CONTINUOUS
 70
0
 71
3
 72
9
 73
5
 74
0
 42
0.0000001
 43
0.0000001
 44
0.0000000001
 40
0.0
 40
0.0
 40
0.0
 40
0.0
 40
0.2494122402
 40
1.0
 40
1.0
 40
1.0
 40
1.0
 10
129.0406765867
 20
687.0684686925
 30
0.0
 10
129.0336360936
 20
686.792371087
 30
0.0
 10
129.0098288342
 20
685.6852694569
 30
0.0
 10
128.9964992875
 20
684.5779469198
 30
0.0
 10
128.9924757871
 20
683.7467911566
 30
0.0
  0
SPLINE
  5
3E8
100
AcDbEntity
  8
0
100
AcDbSpline
 62
7
  6
CONTINUOUS
 70
0
 71
3
 72
9
 73
5
 74
0
 42
0.0000001
 43
0.0000001
 44
0.0000000001
 40
0.0
 40
0.0
 40
0.0
 40
0.0
 40
0.2493663084
 40
1.0
 40
1.0
 40
1.0
 40
1.0
 10
129.0041999725
 20
680.3882151803
 30
0.0
 10
129.0075102171
 20
680.1094487785
 30
0.0
 10
129.0240850857
 20
678.9915963221
 30
0.0
 10
129.0509591158
 20
677.8738556795
 30
0.0
 10
129.0807266545
 20
677.0351918194
 30
0.0
  0
SPLINE
  5
3E9
100
AcDbEntity
  8
0
100
AcDbSpline
 62
7
  6
CONTINUOUS
 70
0
 71
3
 72
9
 73
5
 74
0
 42
0.0000001
 43
0.0000001
 44
0.0000000001
 40
0.0
 40
0.0
 40
0.0
 40
0.0
 40
0.2476211687
 40
1.0
 40
1.0
 40
1.0
 40
1.0
 10
129.0808417281
 20
677.035159204
 30
0.0
 10
129.0999249836
 20
676.4975490779
 30
0.0
 10
129.1900331822
 20
674.3269916832
 30
0.0
 10
129.3503948884
 20
672.1588778645
 30
0.0
 10
129.5226172075
 20
670.5334584943
 30
0.0
  0
SPLINE
  5
3EA
100
AcDbEntity
  8
0
100
AcDbSpline
 62
7
  6
CONTINUOUS
 70
0
 71
3
 72
9
 73
5
 74
0
 42
0.0000001
 43
0.0000001
 44
0.0000000001
 40
0.0
 40
0.0
 40
0.0
 40
0.0
 40
0.2830607518
 40
1.0
 40
1.0
 40
1.0
 40
1.0
 10
129.5226408049
 20
670.5334523789
 30
0.0
 10
129.5152449502
 20
670.5353495446
 30
0.0
 10
129.4895559629
 20
670.5432952858
 30
0.0
 10
129.4647363481
 20
670.5564513619
 30
0.0
 10
129.4509813405
 20
670.5700450497
 30
0.0
  0
SPLINE
  5
3EB
100
AcDbEntity
  8
0
100
AcDbSpline
 62
7
  6
CONTINUOUS
 70
0
 71
3
 72
20
 73
16
 74
0
 42
0.0000001
 43
0.0000001
 44
0.0000000001
 40
0.0
 40
0.0
 40
0.0
 40
0.0
 40
0.0553903399
 40
0.1041455944
 40
0.144732679
 40
0.1795424577
 40
0.215180553
 40
0.2586159655
 40
0.3122195479
 40
0.3748928708
 40
0.4444920499
 40
0.5188304387
 40
0.6758299732
 40
0.8376329451
 40
1.0
 40
1.0
 40
1.0
 40
1.0
 10
132.3741601499
 20
667.0661867532
 30
0.0
 10
132.366311264
 20
667.0029304659
 30
0.0
 10
132.3484277169
 20
666.8842824318
 30
0.0
 10
132.3041084589
 20
666.7230385553
 30
0.0
 10
132.2347867686
 20
666.5955753763
 30
0.0
 10
132.1294110879
 20
666.5137952064
 30
0.0
 10
131.9930970569
 20
666.5011785533
 30
0.0
 10
131.8461429813
 20
666.5503964832
 30
0.0
 10
131.6879020301
 20
666.6452022567
 30
0.0
 10
131.520144932
 20
666.7785845219
 30
0.0
 10
131.3470514905
 20
666.941833604
 30
0.0
 10
131.1093818783
 20
667.1939094633
 30
0.0
 10
130.8214943176
 20
667.5435123602
 30
0.0
 10
130.4953070065
 20
667.991193642
 30
0.0
 10
130.2908988767
 20
668.3035024557
 30
0.0
 10
130.1930248907
 20
668.4626638602
 30
0.0
  0
SPLINE
  5
3EC
100
AcDbEntity
  8
0
100
AcDbSpline
 62
7
  6
CONTINUOUS
 70
0
 71
3
 72
9
 73
5
 74
0
 42
0.0000001
 43
0.0000001
 44
0.0000000001
 40
0.0
 40
0.0
 40
0.0
 40
0.0
 40
0.3092780783
 40
1.0
 40
1.0
 40
1.0
 40
1.0
 10
130.1930254445
 20
668.4626629481
 30
0.0
 10
130.1895229326
 20
668.4609357455
 30
0.0
 10
130.1781255503
 20
668.4555188515
 30
0.0
 10
130.1665018368
 20
668.4504515306
 30
0.0
 10
130.1581736864
 20
668.4478612027
 30
0.0
  0
SPLINE
  5
3ED
100
AcDbEntity
  8
0
100
AcDbSpline
 62
7
  6
CONTINUOUS
 70
0
 71
3
 72
9
 73
5
 74
0
 42
0.0000001
 43
0.0000001
 44
0.0000000001
 40
0.0
 40
0.0
 40
0.0
 40
0.0
 40
0.2766641214
 40
1.0
 40
1.0
 40
1.0
 40
1.0
 10
132.4478473168
 20
667.0205362691
 30
0.0
 10
132.440264344
 20
667.0232035698
 30
0.0
 10
132.4133968645
 20
667.0340932358
 30
0.0
 10
132.3881596827
 20
667.0505462339
 30
0.0
 10
132.3741601499
 20
667.0662210433
 30
0.0
  0
SPLINE
  5
3EE
100
AcDbEntity
  8
0
100
AcDbSpline
 62
7
  6
CONTINUOUS
 70
0
 71
3
 72
9
 73
5
 74
0
 42
0.0000001
 43
0.0000001
 44
0.0000000001
 40
0.0
 40
0.0
 40
0.0
 40
0.0
 40
0.7228848716
 40
1.0
 40
1.0
 40
1.0
 40
1.0
 10
132.3741601499
 20
667.0662210433
 30
0.0
 10
132.3810664625
 20
667.0565809915
 30
0.0
 10
132.3927977056
 20
667.0449679954
 30
0.0
 10
132.403784631
 20
667.0327826602
 30
0.0
 10
132.4066151726
 20
667.0292254306
 30
0.0
  0
SPLINE
  5
3EF
100
AcDbEntity
  8
0
100
AcDbSpline
 62
7
  6
CONTINUOUS
 70
0
 71
3
 72
21
 73
17
 74
0
 42
0.0000001
 43
0.0000001
 44
0.0000000001
 40
0.0
 40
0.0
 40
0.0
 40
0.0
 40
0.0510526714
 40
0.091843307
 40
0.1257302033
 40
0.1619452547
 40
0.2080962532
 40
0.2654202902
 40
0.3318272584
 40
0.4044164213
 40
0.4805540688
 40
0.5582192772
 40
0.7127068121
 40
0.7880263974
 40
0.8612582088
 40
1.0
 40
1.0
 40
1.0
 40
1.0
 10
135.9097087756
 20
663.8586043544
 30
0.0
 10
135.8979659931
 20
663.7585907016
 30
0.0
 10
135.8669693045
 20
663.5796151093
 30
0.0
 10
135.7664702722
 20
663.3468493915
 30
0.0
 10
135.5834778231
 20
663.2045067539
 30
0.0
 10
135.3427030918
 20
663.2004666807
 30
0.0
 10
135.0831030608
 20
663.2996135179
 30
0.0
 10
134.7961144894
 20
663.4748353032
 30
0.0
 10
134.4916079996
 20
663.7150382766
 30
0.0
 10
134.1807806171
 20
664.004444011
 30
0.0
 10
133.8746576081
 20
664.3300003143
 30
0.0
 10
133.4856128071
 20
664.7976585332
 30
0.0
 10
133.1400961316
 20
665.2985715447
 30
0.0
 10
132.8530208659
 20
665.8233075275
 30
0.0
 10
132.6190351978
 20
666.340263706
 30
0.0
 10
132.5101507807
 20
666.7474240416
 30
0.0
 10
132.4602825694
 20
667.0165083208
 30
0.0
  0
SPLINE
  5
3F0
100
AcDbEntity
  8
0
100
AcDbSpline
 62
7
  6
CONTINUOUS
 70
0
 71
3
 72
8
 73
4
 74
0
 42
0.0000001
 43
0.0000001
 44
0.0000000001
 40
0.0
 40
0.0
 40
0.0
 40
0.0
 40
1.0
 40
1.0
 40
1.0
 40
1.0
 10
145.7029802864
 20
659.5081895233
 30
0.0
 10
145.7147316529
 20
659.4854351894
 30
0.0
 10
145.7305530889
 20
659.4644075261
 30
0.0
 10
145.7490843784
 20
659.4467313944
 30
0.0
  0
SPLINE
  5
3F1
100
AcDbEntity
  8
0
100
AcDbSpline
 62
7
  6
CONTINUOUS
 70
0
 71
3
 72
11
 73
7
 74
0
 42
0.0000001
 43
0.0000001
 44
0.0000000001
 40
0.0
 40
0.0
 40
0.0
 40
0.0
 40
0.2758372521
 40
0.5272757465
 40
0.7635329842
 40
1.0
 40
1.0
 40
1.0
 40
1.0
 10
145.7490843761
 20
659.4467313928
 30
0.0
 10
145.8874233317
 20
659.0924700825
 30
0.0
 10
146.2185596501
 20
658.4388547505
 30
0.0
 10
146.8931779407
 20
657.616325906
 30
0.0
 10
147.7373889998
 20
657.0521561257
 30
0.0
 10
148.3832682933
 20
656.8885122962
 30
0.0
 10
148.7080051329
 20
656.8594825782
 30
0.0
  0
SPLINE
  5
3F2
100
AcDbEntity
  8
0
100
AcDbSpline
 62
7
  6
CONTINUOUS
 70
0
 71
3
 72
9
 73
5
 74
0
 42
0.0000001
 43
0.0000001
 44
0.0000000001
 40
0.0
 40
0.0
 40
0.0
 40
0.0
 40
0.7749981288
 40
1.0
 40
1.0
 40
1.0
 40
1.0
 10
132.4478741981
 20
667.0205268136
 30
0.0
 10
132.4369807011
 20
667.0204639608
 30
0.0
 10
132.4234680382
 20
667.0258180954
 30
0.0
 10
132.4096494129
 20
667.0283331581
 30
0.0
 10
132.4066151726
 20
667.0292254306
 30
0.0
  0
SPLINE
  5
3F3
100
AcDbEntity
  8
0
100
AcDbSpline
 62
7
  6
CONTINUOUS
 70
0
 71
3
 72
9
 73
5
 74
0
 42
0.0000001
 43
0.0000001
 44
0.0000000001
 40
0.0
 40
0.0
 40
0.0
 40
0.0
 40
0.2789156994
 40
1.0
 40
1.0
 40
1.0
 40
1.0
 10
135.9958104164
 20
663.8088595341
 30
0.0
 10
135.9868950845
 20
663.8115135667
 30
0.0
 10
135.9555458159
 20
663.8225925953
 30
0.0
 10
135.9257281456
 20
663.8406328615
 30
0.0
 10
135.9097087756
 20
663.8585692151
 30
0.0
  0
SPLINE
  5
3F4
100
AcDbEntity
  8
0
100
AcDbSpline
 62
7
  6
CONTINUOUS
 70
0
 71
3
 72
8
 73
4
 74
0
 42
0.0000001
 43
0.0000001
 44
0.0000000001
 40
0.0
 40
0.0
 40
0.0
 40
0.0
 40
1.0
 40
1.0
 40
1.0
 40
1.0
 10
135.9097087756
 20
663.8585692151
 30
0.0
 10
135.9193966988
 20
663.8446628184
 30
0.0
 10
135.9316633955
 20
663.8323994414
 30
0.0
 10
135.9450813765
 20
663.8220456252
 30
0.0
  0
SPLINE
  5
3F5
100
AcDbEntity
  8
0
100
AcDbSpline
 62
7
  6
CONTINUOUS
 70
0
 71
3
 72
8
 73
4
 74
0
 42
0.0000001
 43
0.0000001
 44
0.0000000001
 40
0.0
 40
0.0
 40
0.0
 40
0.0
 40
1.0
 40
1.0
 40
1.0
 40
1.0
 10
135.9450839361
 20
663.8220308949
 30
0.0
 10
135.961251324
 20
663.8154121633
 30
0.0
 10
135.9785144251
 20
663.8113138925
 30
0.0
 10
135.995810685
 20
663.8088579949
 30
0.0
  0
SPLINE
  5
3F6
100
AcDbEntity
  8
0
100
AcDbSpline
 62
7
  6
CONTINUOUS
 70
0
 71
3
 72
19
 73
15
 74
0
 42
0.0000001
 43
0.0000001
 44
0.0000000001
 40
0.0
 40
0.0
 40
0.0
 40
0.0
 40
0.0729254083
 40
0.1494458427
 40
0.3107586629
 40
0.4739995471
 40
0.6223139473
 40
0.6854043873
 40
0.7390679782
 40
0.8211913463
 40
0.8577739037
 40
0.897733156
 40
0.9447336603
 40
1.0
 40
1.0
 40
1.0
 40
1.0
 10
135.9452224971
 20
663.8219756702
 30
0.0
 10
135.9676752904
 20
663.6890654003
 30
0.0
 10
136.0404994494
 20
663.4210957901
 30
0.0
 10
136.2650570389
 20
662.8909722236
 30
0.0
 10
136.6825092416
 20
662.2702106425
 30
0.0
 10
137.2934196311
 20
661.6404994738
 30
0.0
 10
137.8527677862
 20
661.225735386
 30
0.0
 10
138.2910176162
 20
661.0011227927
 30
0.0
 10
138.6367097395
 20
660.8828230224
 30
0.0
 10
138.9823091619
 20
660.8718106334
 30
0.0
 10
139.2278526176
 20
661.0473699319
 30
0.0
 10
139.3580636348
 20
661.2393867194
 30
0.0
 10
139.4402131526
 20
661.4911178195
 30
0.0
 10
139.4733372393
 20
661.6778510162
 30
0.0
 10
139.4828187468
 20
661.7795629061
 30
0.0
  0
SPLINE
  5
3F7
100
AcDbEntity
  8
0
100
AcDbSpline
 62
7
  6
CONTINUOUS
 70
0
 71
3
 72
9
 73
5
 74
0
 42
0.0000001
 43
0.0000001
 44
0.0000000001
 40
0.0
 40
0.0
 40
0.0
 40
0.0
 40
0.2789156994
 40
1.0
 40
1.0
 40
1.0
 40
1.0
 10
139.5313590422
 20
661.7676557615
 30
0.0
 10
139.5224437102
 20
661.7703097941
 30
0.0
 10
139.4910944417
 20
661.7813888227
 30
0.0
 10
139.4612767713
 20
661.7994290889
 30
0.0
 10
139.4452574014
 20
661.8173654425
 30
0.0
  0
SPLINE
  5
3F8
100
AcDbEntity
  8
0
100
AcDbSpline
 62
7
  6
CONTINUOUS
 70
0
 71
3
 72
8
 73
4
 74
0
 42
0.0000001
 43
0.0000001
 44
0.0000000001
 40
0.0
 40
0.0
 40
0.0
 40
0.0
 40
1.0
 40
1.0
 40
1.0
 40
1.0
 10
139.4452575436
 20
661.8173667795
 30
0.0
 10
139.4554783162
 20
661.802838238
 30
0.0
 10
139.4685550836
 20
661.790151363
 30
0.0
 10
139.4828188927
 20
661.7795642735
 30
0.0
  0
SPLINE
  5
3F9
100
AcDbEntity
  8
0
100
AcDbSpline
 62
7
  6
CONTINUOUS
 70
0
 71
3
 72
8
 73
4
 74
0
 42
0.0000001
 43
0.0000001
 44
0.0000000001
 40
0.0
 40
0.0
 40
0.0
 40
0.0
 40
1.0
 40
1.0
 40
1.0
 40
1.0
 10
139.4828186762
 20
661.779563293
 30
0.0
 10
139.4983706375
 20
661.7735895604
 30
0.0
 10
139.514848665
 20
661.7698829495
 30
0.0
 10
139.5313589736
 20
661.7676561376
 30
0.0
  0
SPLINE
  5
3FA
100
AcDbEntity
  8
0
100
AcDbSpline
 62
7
  6
CONTINUOUS
 70
0
 71
3
 72
9
 73
5
 74
0
 42
0.0000001
 43
0.0000001
 44
0.0000000001
 40
0.0
 40
0.0
 40
0.0
 40
0.0
 40
0.3035639813
 40
1.0
 40
1.0
 40
1.0
 40
1.0
 10
139.5313590422
 20
672.0454474669
 30
0.0
 10
139.5226535352
 20
672.0444601586
 30
0.0
 10
139.4940501827
 20
672.0422847687
 30
0.0
 10
139.4639937563
 20
672.0431085536
 30
0.0
 10
139.4452574014
 20
672.0503863832
 30
0.0
  0
SPLINE
  5
3FB
100
AcDbEntity
  8
0
100
AcDbSpline
 62
7
  6
CONTINUOUS
 70
0
 71
3
 72
10
 73
6
 74
0
 42
0.0000001
 43
0.0000001
 44
0.0000000001
 40
0.0
 40
0.0
 40
0.0
 40
0.0
 40
0.5508654613
 40
0.7889353535
 40
1.0
 40
1.0
 40
1.0
 40
1.0
 10
146.2540436186
 20
660.8690077235
 30
0.0
 10
146.2333887644
 20
660.5859232164
 30
0.0
 10
146.1763090402
 20
660.1777560878
 30
0.0
 10
145.9881969287
 20
659.6967575478
 30
0.0
 10
145.8392054874
 20
659.5076185383
 30
0.0
 10
145.7491160901
 20
659.4467006125
 30
0.0
  0
SPLINE
  5
3FC
100
AcDbEntity
  8
0
100
AcDbSpline
 62
7
  6
CONTINUOUS
 70
0
 71
3
 72
20
 73
16
 74
0
 42
0.0000001
 43
0.0000001
 44
0.0000000001
 40
0.0
 40
0.0
 40
0.0
 40
0.0
 40
0.0773132308
 40
0.1595401436
 40
0.245313482
 40
0.3316510329
 40
0.4908125898
 40
0.5585331033
 40
0.6170494952
 40
0.7111684582
 40
0.7524555786
 40
0.7937157594
 40
0.8375272802
 40
0.8857185513
 40
1.0
 40
1.0
 40
1.0
 40
1.0
 10
139.5313590422
 20
661.7676557615
 30
0.0
 10
139.5566256545
 20
661.6329477416
 30
0.0
 10
139.6343605721
 20
661.3589959533
 30
0.0
 10
139.8318971835
 20
660.9688412131
 30
0.0
 10
140.1027844238
 20
660.6059644914
 30
0.0
 10
140.5178520767
 20
660.1887345337
 30
0.0
 10
140.9849144884
 20
659.8740529828
 30
0.0
 10
141.4559650966
 20
659.6840880491
 30
0.0
 10
141.8369359192
 20
659.5962871664
 30
0.0
 10
142.1955315032
 20
659.6138473981
 30
0.0
 10
142.4772366897
 20
659.7599450603
 30
0.0
 10
142.6421150321
 20
659.9152525774
 30
0.0
 10
142.7726058311
 20
660.1142062945
 30
0.0
 10
142.9144866841
 20
660.4529620619
 30
0.0
 10
142.961502817
 20
660.7409388747
 30
0.0
 10
142.9808060271
 20
660.9426097255
 30
0.0
  0
SPLINE
  5
3FD
100
AcDbEntity
  8
0
100
AcDbSpline
 62
7
  6
CONTINUOUS
 70
0
 71
3
 72
8
 73
4
 74
0
 42
0.0000001
 43
0.0000001
 44
0.0000000001
 40
0.0
 40
0.0
 40
0.0
 40
0.0
 40
1.0
 40
1.0
 40
1.0
 40
1.0
 10
143.0669076679
 20
660.8929000446
 30
0.0
 10
143.0511438789
 20
660.8950411579
 30
0.0
 10
143.0354338543
 20
660.8986049196
 30
0.0
 10
143.0205343112
 20
660.9041803143
 30
0.0
  0
SPLINE
  5
3FE
100
AcDbEntity
  8
0
100
AcDbSpline
 62
7
  6
CONTINUOUS
 70
0
 71
3
 72
13
 73
9
 74
0
 42
0.0000001
 43
0.0000001
 44
0.0000000001
 40
0.0
 40
0.0
 40
0.0
 40
0.0
 40
0.1446779328
 40
0.301115952
 40
0.6021313882
 40
0.8266078587
 40
0.916766199
 40
1.0
 40
1.0
 40
1.0
 40
1.0
 10
143.0204300991
 20
660.9042194089
 30
0.0
 10
143.0531844662
 20
660.7339677424
 30
0.0
 10
143.1607960837
 20
660.3844978425
 30
0.0
 10
143.5641148365
 20
659.7765660299
 30
0.0
 10
144.259026111
 20
659.2831984905
 30
0.0
 10
145.0184781315
 20
659.1649044198
 30
0.0
 10
145.4855260673
 20
659.2843767967
 30
0.0
 10
145.6683899932
 20
659.3881053403
 30
0.0
 10
145.7490843761
 20
659.4467313928
 30
0.0
  0
SPLINE
  5
3FF
100
AcDbEntity
  8
0
100
AcDbSpline
 62
7
  6
CONTINUOUS
 70
0
 71
3
 72
10
 73
6
 74
0
 42
0.0000001
 43
0.0000001
 44
0.0000000001
 40
0.0
 40
0.0
 40
0.0
 40
0.0
 40
0.481205024
 40
0.736741892
 40
1.0
 40
1.0
 40
1.0
 40
1.0
 10
146.1749030462
 20
684.9842811374
 30
0.0
 10
146.1520568703
 20
685.343695486
 30
0.0
 10
146.0826362933
 20
685.892823359
 30
0.0
 10
145.9115757985
 20
686.621840548
 30
0.0
 10
145.7837939921
 20
686.9901675106
 30
0.0
 10
145.7030763519
 20
687.1698999362
 30
0.0
  0
SPLINE
  5
400
100
AcDbEntity
  8
0
100
AcDbSpline
 62
7
  6
CONTINUOUS
 70
0
 71
3
 72
13
 73
9
 74
0
 42
0.0000001
 43
0.0000001
 44
0.0000000001
 40
0.0
 40
0.0
 40
0.0
 40
0.0
 40
0.1449239038
 40
0.3018697728
 40
0.6027974018
 40
0.8258333533
 40
0.9161015863
 40
1.0
 40
1.0
 40
1.0
 40
1.0
 10
143.0669076679
 20
660.8929000446
 30
0.0
 10
143.097388987
 20
660.7275117065
 30
0.0
 10
143.1990740546
 20
660.3873552702
 30
0.0
 10
143.5870449027
 20
659.7958104741
 30
0.0
 10
144.2631773173
 20
659.3199007381
 30
0.0
 10
144.9999192525
 20
659.2210430678
 30
0.0
 10
145.4488916737
 20
659.3462964279
 30
0.0
 10
145.6244347812
 20
659.4506638946
 30
0.0
 10
145.7029802843
 20
659.5081895217
 30
0.0
  0
SPLINE
  5
401
100
AcDbEntity
  8
0
100
AcDbSpline
 62
7
  6
CONTINUOUS
 70
0
 71
3
 72
10
 73
6
 74
0
 42
0.0000001
 43
0.0000001
 44
0.0000000001
 40
0.0
 40
0.0
 40
0.0
 40
0.0
 40
0.2214289505
 40
0.4768966936
 40
1.0
 40
1.0
 40
1.0
 40
1.0
 10
150.7374018706
 20
660.8699742202
 30
0.0
 10
150.4374277557
 20
660.7103625947
 30
0.0
 10
149.7382185301
 20
660.4623329957
 30
0.0
 10
148.2045565085
 20
660.2989800117
 30
0.0
 10
146.9891346627
 20
660.5465261896
 30
0.0
 10
146.2541106144
 20
660.8691948465
 30
0.0
  0
SPLINE
  5
402
100
AcDbEntity
  8
0
100
AcDbSpline
 62
7
  6
CONTINUOUS
 70
0
 71
3
 72
20
 73
16
 74
0
 42
0.0000001
 43
0.0000001
 44
0.0000000001
 40
0.0
 40
0.0
 40
0.0
 40
0.0
 40
0.0510650518
 40
0.0918508803
 40
0.1256714592
 40
0.1615721503
 40
0.2072413057
 40
0.2640881739
 40
0.3301674534
 40
0.4026507558
 40
0.4788718077
 40
0.5567474093
 40
0.7118523015
 40
0.8607958189
 40
1.0
 40
1.0
 40
1.0
 40
1.0
 10
135.9452224971
 20
663.8219756702
 30
0.0
 10
135.9317693743
 20
663.7201439781
 30
0.0
 10
135.9010988811
 20
663.5375946035
 30
0.0
 10
135.7992691558
 20
663.3001132189
 30
0.0
 10
135.6147788951
 20
663.15401585
 30
0.0
 10
135.3712394914
 20
663.1465708223
 30
0.0
 10
135.1077538473
 20
663.2440822695
 30
0.0
 10
134.8158396346
 20
663.4189501966
 30
0.0
 10
134.5047622802
 20
663.6602333621
 30
0.0
 10
134.1858968432
 20
663.9522769334
 30
0.0
 10
133.870821151
 20
664.2820170042
 30
0.0
 10
133.468866605
 20
664.7570528593
 30
0.0
 10
133.0271627891
 20
665.3880341474
 30
0.0
 10
132.6155529387
 20
666.1833703828
 30
0.0
 10
132.4550990495
 20
666.7454212811
 30
0.0
 10
132.4064503403
 20
667.0211696551
 30
0.0
  0
SPLINE
  5
403
100
AcDbEntity
  8
0
100
AcDbSpline
 62
7
  6
CONTINUOUS
 70
0
 71
3
 72
10
 73
6
 74
0
 42
0.0000001
 43
0.0000001
 44
0.0000000001
 40
0.0
 40
0.0
 40
0.0
 40
0.0
 40
0.2096887689
 40
0.4476946116
 40
1.0
 40
1.0
 40
1.0
 40
1.0
 10
145.703045139
 20
659.5080654363
 30
0.0
 10
145.7879044345
 20
659.5719085144
 30
0.0
 10
145.9249310199
 20
659.7630660239
 30
0.0
 10
146.0997161158
 20
660.2389875423
 30
0.0
 10
146.1541853236
 20
660.6405171202
 30
0.0
 10
146.1748544841
 20
660.9194583017
 30
0.0
  0
SPLINE
  5
404
100
AcDbEntity
  8
0
100
AcDbSpline
 62
7
  6
CONTINUOUS
 70
0
 71
3
 72
9
 73
5
 74
0
 42
0.0000001
 43
0.0000001
 44
0.0000000001
 40
0.0
 40
0.0
 40
0.0
 40
0.0
 40
0.2474746819
 40
1.0
 40
1.0
 40
1.0
 40
1.0
 10
146.2386340556
 20
661.8589396898
 30
0.0
 10
146.2550027127
 20
662.1226541429
 30
0.0
 10
146.3153883293
 20
663.1886304038
 30
0.0
 10
146.3586873194
 20
664.2555345465
 30
0.0
 10
146.383926473
 20
665.0585887662
 30
0.0
  0
SPLINE
  5
405
100
AcDbEntity
  8
0
100
AcDbSpline
 62
7
  6
CONTINUOUS
 70
0
 71
3
 72
9
 73
5
 74
0
 42
0.0000001
 43
0.0000001
 44
0.0000000001
 40
0.0
 40
0.0
 40
0.0
 40
0.0
 40
0.2482032162
 40
1.0
 40
1.0
 40
1.0
 40
1.0
 10
146.383883698
 20
665.0586364357
 30
0.0
 10
146.3923966636
 20
665.329481905
 30
0.0
 10
146.4240944363
 20
666.4207899358
 30
0.0
 10
146.4440493652
 20
667.5124133117
 30
0.0
 10
146.4553544605
 20
668.3331197708
 30
0.0
  0
SPLINE
  5
406
100
AcDbEntity
  8
0
100
AcDbSpline
 62
7
  6
CONTINUOUS
 70
0
 71
3
 72
9
 73
5
 74
0
 42
0.0000001
 43
0.0000001
 44
0.0000000001
 40
0.0
 40
0.0
 40
0.0
 40
0.0
 40
0.2488629081
 40
1.0
 40
1.0
 40
1.0
 40
1.0
 10
146.4746606583
 20
675.0037022603
 30
0.0
 10
146.4729049723
 20
675.283565022
 30
0.0
 10
146.4640848911
 20
676.4081175839
 30
0.0
 10
146.4497223745
 20
677.5326399099
 30
0.0
 10
146.4335660366
 20
678.3772052369
 30
0.0
  0
SPLINE
  5
407
100
AcDbEntity
  8
0
100
AcDbSpline
 62
7
  6
CONTINUOUS
 70
0
 71
3
 72
9
 73
5
 74
0
 42
0.0000001
 43
0.0000001
 44
0.0000000001
 40
0.0
 40
0.0
 40
0.0
 40
0.0
 40
0.2465735208
 40
1.0
 40
1.0
 40
1.0
 40
1.0
 10
146.433660718
 20
678.3771100867
 30
0.0
 10
146.4232672363
 20
678.9205104256
 30
0.0
 10
146.373493745
 20
681.1241148693
 30
0.0
 10
146.2829039013
 20
683.327198918
 30
0.0
 10
146.1747674484
 20
684.9843844409
 30
0.0
  0
SPLINE
  5
408
100
AcDbEntity
  8
0
100
AcDbSpline
 62
7
  6
CONTINUOUS
 70
0
 71
3
 72
13
 73
9
 74
0
 42
0.0000001
 43
0.0000001
 44
0.0000000001
 40
0.0
 40
0.0
 40
0.0
 40
0.0
 40
0.326767717
 40
0.4668343718
 40
0.5907853297
 40
0.7969123011
 40
0.8940413787
 40
1.0
 40
1.0
 40
1.0
 40
1.0
 10
150.7374013888
 20
660.8699739639
 30
0.0
 10
150.6832821938
 20
660.5534221776
 30
0.0
 10
150.6318946707
 20
660.0944951741
 30
0.0
 10
150.6675344586
 20
659.512495044
 30
0.0
 10
150.7617291244
 20
659.061276877
 30
0.0
 10
150.982002593
 20
658.6696456451
 30
0.0
 10
151.3467926033
 20
658.4775736356
 30
0.0
 10
151.5493021973
 20
658.4542465057
 30
0.0
 10
151.6534172775
 20
658.4562978701
 30
0.0
  0
SPLINE
  5
409
100
AcDbEntity
  8
0
100
AcDbSpline
 62
7
  6
CONTINUOUS
 70
0
 71
3
 72
10
 73
6
 74
0
 42
0.0000001
 43
0.0000001
 44
0.0000000001
 40
0.0
 40
0.0
 40
0.0
 40
0.0
 40
0.2372363541
 40
0.4908556846
 40
1.0
 40
1.0
 40
1.0
 40
1.0
 10
151.6534172818
 20
690.5911559805
 30
0.0
 10
151.41734932
 20
690.2705889351
 30
0.0
 10
151.0377766914
 20
689.525817088
 30
0.0
 10
150.6169579124
 20
687.8946157489
 30
0.0
 10
150.6166358254
 20
686.5871533975
 30
0.0
 10
150.7374013852
 20
685.7413290029
 30
0.0
  0
SPLINE
  5
40A
100
AcDbEntity
  8
0
100
AcDbSpline
 62
7
  6
CONTINUOUS
 70
0
 71
3
 72
9
 73
5
 74
0
 42
0.0000001
 43
0.0000001
 44
0.0000000001
 40
0.0
 40
0.0
 40
0.0
 40
0.0
 40
0.5209508006
 40
1.0
 40
1.0
 40
1.0
 40
1.0
 10
130.1581780282
 20
668.4478636535
 30
0.0
 10
129.9489273719
 20
668.777915818
 30
0.0
 10
129.6459742692
 20
669.4749282811
 30
0.0
 10
129.4905369069
 20
670.2130306157
 30
0.0
 10
129.4511110156
 20
670.5702230096
 30
0.0
  0
SPLINE
  5
40B
100
AcDbEntity
  8
0
100
AcDbSpline
 62
7
  6
CONTINUOUS
 70
0
 71
3
 72
8
 73
4
 74
0
 42
0.0000001
 43
0.0000001
 44
0.0000000001
 40
0.0
 40
0.0
 40
0.0
 40
0.0
 40
1.0
 40
1.0
 40
1.0
 40
1.0
 10
142.9998081674
 20
660.9210302996
 30
0.0
 10
143.0062761529
 20
660.9149112809
 30
0.0
 10
143.0132534612
 20
660.9093053948
 30
0.0
 10
143.0205343112
 20
660.9041803143
 30
0.0
  0
SPLINE
  5
40C
100
AcDbEntity
  8
0
100
AcDbSpline
 62
7
  6
CONTINUOUS
 70
0
 71
3
 72
8
 73
4
 74
0
 42
0.0000001
 43
0.0000001
 44
0.0000000001
 40
0.0
 40
0.0
 40
0.0
 40
0.0
 40
1.0
 40
1.0
 40
1.0
 40
1.0
 10
143.0203692391
 20
660.9120598435
 30
0.0
 10
143.0139953864
 20
660.9155774015
 30
0.0
 10
143.007239195
 20
660.9190151621
 30
0.0
 10
143.0023649897
 20
660.9244226879
 30
0.0
  0
SPLINE
  5
40D
100
AcDbEntity
  8
0
100
AcDbSpline
 62
7
  6
CONTINUOUS
 70
0
 71
3
 72
8
 73
4
 74
0
 42
0.0000001
 43
0.0000001
 44
0.0000000001
 40
0.0
 40
0.0
 40
0.0
 40
0.0
 40
1.0
 40
1.0
 40
1.0
 40
1.0
 10
143.0669076679
 20
660.8929000446
 30
0.0
 10
143.0508289516
 20
660.897686567
 30
0.0
 10
143.0350570501
 20
660.9039540354
 30
0.0
 10
143.0203692391
 20
660.9120598435
 30
0.0
  0
SPLINE
  5
40E
100
AcDbEntity
  8
0
100
AcDbSpline
 62
7
  6
CONTINUOUS
 70
0
 71
3
 72
9
 73
5
 74
0
 42
0.0000001
 43
0.0000001
 44
0.0000000001
 40
0.0
 40
0.0
 40
0.0
 40
0.0
 40
0.2528828038
 40
1.0
 40
1.0
 40
1.0
 40
1.0
 10
129.450868248
 20
670.5701577591
 30
0.0
 10
129.392627287
 20
671.1161667826
 30
0.0
 10
129.1854967554
 20
673.2777939537
 30
0.0
 10
129.0669267767
 20
675.4472811237
 30
0.0
 10
129.0117288912
 20
677.0686223384
 30
0.0
  0
SPLINE
  5
40F
100
AcDbEntity
  8
0
100
AcDbSpline
 62
7
  6
CONTINUOUS
 70
0
 71
3
 72
20
 73
16
 74
0
 42
0.0000001
 43
0.0000001
 44
0.0000000001
 40
0.0
 40
0.0
 40
0.0
 40
0.0
 40
0.0772580641
 40
0.1593752055
 40
0.245011986
 40
0.3313096538
 40
0.4909485239
 40
0.5591972229
 40
0.6181548295
 40
0.7125246043
 40
0.7535349317
 40
0.7943644604
 40
0.8377777797
 40
0.8857264506
 40
1.0
 40
1.0
 40
1.0
 40
1.0
 10
139.4828187468
 20
661.7795629061
 30
0.0
 10
139.5091720813
 20
661.6414825495
 30
0.0
 10
139.5897557298
 20
661.3608125625
 30
0.0
 10
139.7939334401
 20
660.9617730821
 30
0.0
 10
140.0713950399
 20
660.5896774859
 30
0.0
 10
140.4973824229
 20
660.1605319587
 30
0.0
 10
140.9772315706
 20
659.8358173569
 30
0.0
 10
141.461113822
 20
659.6350136378
 30
0.0
 10
141.8528662613
 20
659.5392554552
 30
0.0
 10
142.2220072339
 20
659.5491285994
 30
0.0
 10
142.5129364841
 20
659.6941875129
 30
0.0
 10
142.6820428149
 20
659.8510022726
 30
0.0
 10
142.814784238
 20
660.0537619643
 30
0.0
 10
142.9582208241
 20
660.4012138765
 30
0.0
 10
143.0022695422
 20
660.69709086
 30
0.0
 10
143.0204300991
 20
660.9042194089
 30
0.0
  0
SPLINE
  5
410
100
AcDbEntity
  8
0
100
AcDbSpline
 62
7
  6
CONTINUOUS
 70
0
 71
3
 72
9
 73
5
 74
0
 42
0.0000001
 43
0.0000001
 44
0.0000000001
 40
0.0
 40
0.0
 40
0.0
 40
0.0
 40
0.2514261854
 40
1.0
 40
1.0
 40
1.0
 40
1.0
 10
129.0998266095
 20
690.420010619
 30
0.0
 10
129.1148326706
 20
690.6943110314
 30
0.0
 10
129.1796105646
 20
691.7849953394
 30
0.0
 10
129.2667316182
 20
692.8744236532
 30
0.0
 10
129.3475449414
 20
693.6883201005
 30
0.0
  0
LINE
  5
411
100
AcDbEntity
  8
0
100
AcDbLine
 62
7
  6
CONTINUOUS
 10
133.7010688957
 20
688.9682954875
 11
136.7675578532
 21
690.6537095478
  0
SPLINE
  5
412
100
AcDbEntity
  8
0
100
AcDbSpline
 62
7
  6
CONTINUOUS
 70
0
 71
3
 72
9
 73
5
 74
0
 42
0.0000001
 43
0.0000001
 44
0.0000000001
 40
0.0
 40
0.0
 40
0.0
 40
0.0
 40
0.2508336127
 40
1.0
 40
1.0
 40
1.0
 40
1.0
 10
128.9730235918
 20
687.1043975486
 30
0.0
 10
128.9796760741
 20
687.3817459333
 30
0.0
 10
129.0095768411
 20
688.4873628838
 30
0.0
 10
129.0545979614
 20
689.5926188577
 30
0.0
 10
129.0998597027
 20
690.4199782173
 30
0.0
  0
SPLINE
  5
413
100
AcDbEntity
  8
0
100
AcDbSpline
 62
7
  6
CONTINUOUS
 70
0
 71
3
 72
9
 73
5
 74
0
 42
0.0000001
 43
0.0000001
 44
0.0000000001
 40
0.0
 40
0.0
 40
0.0
 40
0.0
 40
0.2504323312
 40
1.0
 40
1.0
 40
1.0
 40
1.0
 10
128.9265995701
 20
683.7795609973
 30
0.0
 10
128.9280063521
 20
684.0571436025
 30
0.0
 10
128.9359859788
 20
685.1655415623
 30
0.0
 10
128.9529821604
 20
686.2738939591
 30
0.0
 10
128.9729038133
 20
687.1044967653
 30
0.0
  0
SPLINE
  5
414
100
AcDbEntity
  8
0
100
AcDbSpline
 62
7
  6
CONTINUOUS
 70
0
 71
3
 72
9
 73
5
 74
0
 42
0.0000001
 43
0.0000001
 44
0.0000000001
 40
0.0
 40
0.0
 40
0.0
 40
0.0
 40
0.2506590788
 40
1.0
 40
1.0
 40
1.0
 40
1.0
 10
129.0118014268
 20
677.0685643263
 30
0.0
 10
129.0022710723
 20
677.34849957
 30
0.0
 10
128.9681330917
 20
678.4654291436
 30
0.0
 10
128.9480193373
 20
679.5827553351
 30
0.0
 10
128.9380691484
 20
680.4200425595
 30
0.0
  0
SPLINE
  5
415
100
AcDbEntity
  8
0
100
AcDbSpline
 62
7
  6
CONTINUOUS
 70
0
 71
3
 72
13
 73
9
 74
0
 42
0.0000001
 43
0.0000001
 44
0.0000000001
 40
0.0
 40
0.0
 40
0.0
 40
0.0
 40
0.2750307766
 40
0.5481353187
 40
0.6745972833
 40
0.7913619591
 40
0.8990152216
 40
1.0
 40
1.0
 40
1.0
 40
1.0
 10
139.4129002259
 20
691.8457999598
 30
0.0
 10
139.3606053094
 20
692.2112634267
 30
0.0
 10
139.1854739838
 20
692.9305125553
 30
0.0
 10
138.7749125222
 20
693.754205613
 30
0.0
 10
138.3053485702
 20
694.2705058946
 30
0.0
 10
137.9129322657
 20
694.540243692
 30
0.0
 10
137.493153609
 20
694.6818116826
 30
0.0
 10
137.2073182954
 20
694.684443799
 30
0.0
 10
137.0734440003
 20
694.6631554091
 30
0.0
  0
SPLINE
  5
416
100
AcDbEntity
  8
0
100
AcDbSpline
 62
7
  6
CONTINUOUS
 70
0
 71
3
 72
11
 73
7
 74
0
 42
0.0000001
 43
0.0000001
 44
0.0000000001
 40
0.0
 40
0.0
 40
0.0
 40
0.0
 40
0.2437273092
 40
0.4874832526
 40
0.7378963721
 40
1.0
 40
1.0
 40
1.0
 40
1.0
 10
137.0734440003
 20
694.6631554091
 30
0.0
 10
136.9415526066
 20
694.6421823357
 30
0.0
 10
136.6826327248
 20
694.5560374783
 30
0.0
 10
136.3553548125
 20
694.3076921613
 30
0.0
 10
136.1125148527
 20
693.9642993222
 30
0.0
 10
136.0232029442
 20
693.6934813051
 30
0.0
 10
135.9958077037
 20
693.552500659
 30
0.0
  0
SPLINE
  5
417
100
AcDbEntity
  8
0
100
AcDbSpline
 62
7
  6
CONTINUOUS
 70
0
 71
3
 72
9
 73
5
 74
0
 42
0.0000001
 43
0.0000001
 44
0.0000000001
 40
0.0
 40
0.0
 40
0.0
 40
0.0
 40
0.2302490203
 40
1.0
 40
1.0
 40
1.0
 40
1.0
 10
129.0118014323
 20
677.0685641625
 30
0.0
 10
129.0164275971
 20
677.0649021477
 30
0.0
 10
129.0374804213
 20
677.050196307
 30
0.0
 10
129.0617570028
 20
677.0405977995
 30
0.0
 10
129.0807266557
 20
677.0351917839
 30
0.0
  0
LINE
  5
418
100
AcDbEntity
  8
0
100
AcDbLine
 62
7
  6
CONTINUOUS
 10
136.7302009653
 20
690.5880383387
 11
133.6597112154
 21
688.9004899308
  0
SPLINE
  5
419
100
AcDbEntity
  8
0
100
AcDbSpline
 62
7
  6
CONTINUOUS
 70
0
 71
3
 72
9
 73
5
 74
0
 42
0.0000001
 43
0.0000001
 44
0.0000000001
 40
0.0
 40
0.0
 40
0.0
 40
0.0
 40
0.2303098044
 40
1.0
 40
1.0
 40
1.0
 40
1.0
 10
128.9381574204
 20
680.4199761561
 30
0.0
 10
128.9426758124
 20
680.4165785831
 30
0.0
 10
128.9630899775
 20
680.4028805211
 30
0.0
 10
128.9861944686
 20
680.3935044594
 30
0.0
 10
129.0043214803
 20
680.3881790779
 30
0.0
  0
SPLINE
  5
41A
100
AcDbEntity
  8
0
100
AcDbSpline
 62
7
  6
CONTINUOUS
 70
0
 71
3
 72
9
 73
5
 74
0
 42
0.0000001
 43
0.0000001
 44
0.0000000001
 40
0.0
 40
0.0
 40
0.0
 40
0.0
 40
0.221911375
 40
1.0
 40
1.0
 40
1.0
 40
1.0
 10
135.9097087756
 20
693.6022091118
 30
0.0
 10
135.9146439164
 20
693.5966833994
 30
0.0
 10
135.939355477
 20
693.5739861718
 30
0.0
 10
135.9709130037
 20
693.5599112181
 30
0.0
 10
135.9958104164
 20
693.5524994309
 30
0.0
  0
SPLINE
  5
41B
100
AcDbEntity
  8
0
100
AcDbSpline
 62
7
  6
CONTINUOUS
 70
0
 71
3
 72
8
 73
4
 74
0
 42
0.0000001
 43
0.0000001
 44
0.0000000001
 40
0.0
 40
0.0
 40
0.0
 40
0.0
 40
1.0
 40
1.0
 40
1.0
 40
1.0
 10
135.9958103242
 20
693.5524989577
 30
0.0
 10
135.9779124266
 20
693.5606097391
 30
0.0
 10
135.9606890361
 20
693.5706451731
 30
0.0
 10
135.9452276996
 20
693.5827722744
 30
0.0
  0
SPLINE
  5
41C
100
AcDbEntity
  8
0
100
AcDbSpline
 62
7
  6
CONTINUOUS
 70
0
 71
3
 72
8
 73
4
 74
0
 42
0.0000001
 43
0.0000001
 44
0.0000000001
 40
0.0
 40
0.0
 40
0.0
 40
0.0
 40
1.0
 40
1.0
 40
1.0
 40
1.0
 10
135.9452278295
 20
693.582772344
 30
0.0
 10
135.9326163909
 20
693.5875790257
 30
0.0
 10
135.9202261232
 20
693.5937506579
 30
0.0
 10
135.9097088112
 20
693.6022087144
 30
0.0
  0
SPLINE
  5
41D
100
AcDbEntity
  8
0
100
AcDbSpline
 62
7
  6
CONTINUOUS
 70
0
 71
3
 72
8
 73
4
 74
0
 42
0.0000001
 43
0.0000001
 44
0.0000000001
 40
0.0
 40
0.0
 40
0.0
 40
0.0
 40
1.0
 40
1.0
 40
1.0
 40
1.0
 10
132.4282506365
 20
694.4391364627
 30
0.0
 10
132.4386132735
 20
694.4344292408
 30
0.0
 10
132.4493532359
 20
694.430502549
 30
0.0
 10
132.4602617907
 20
694.4272551478
 30
0.0
  0
SPLINE
  5
41E
100
AcDbEntity
  8
0
100
AcDbSpline
 62
7
  6
CONTINUOUS
 70
0
 71
3
 72
16
 73
12
 74
0
 42
0.0000001
 43
0.0000001
 44
0.0000000001
 40
0.0
 40
0.0
 40
0.0
 40
0.0
 40
0.1189793859
 40
0.2309185814
 40
0.3377846337
 40
0.4432179559
 40
0.4984900436
 40
0.5576094285
 40
0.6926159791
 40
0.8477820258
 40
1.0
 40
1.0
 40
1.0
 40
1.0
 10
132.4602617907
 20
694.4272551478
 30
0.0
 10
132.4998681154
 20
694.6541260838
 30
0.0
 10
132.640470172
 20
695.0875724731
 30
0.0
 10
133.0372953082
 20
695.6206927077
 30
0.0
 10
133.5645877064
 20
695.9855501199
 30
0.0
 10
134.0936840732
 20
696.084128001
 30
0.0
 10
134.5158068153
 20
696.0036374278
 30
0.0
 10
134.9565751833
 20
695.7939958661
 30
0.0
 10
135.430449373
 20
695.2798160599
 30
0.0
 10
135.7722177554
 20
694.4847528805
 30
0.0
 10
135.882636128
 20
693.8956030543
 30
0.0
 10
135.9097087756
 20
693.6022091118
 30
0.0
  0
SPLINE
  5
41F
100
AcDbEntity
  8
0
100
AcDbSpline
 62
7
  6
CONTINUOUS
 70
0
 71
3
 72
9
 73
5
 74
0
 42
0.0000001
 43
0.0000001
 44
0.0000000001
 40
0.0
 40
0.0
 40
0.0
 40
0.0
 40
0.2382158174
 40
1.0
 40
1.0
 40
1.0
 40
1.0
 10
135.9452277929
 20
693.5827727528
 30
0.0
 10
135.9390418509
 20
693.6584344998
 30
0.0
 10
135.9023172528
 20
693.9750737216
 30
0.0
 10
135.8318888422
 20
694.2878546502
 30
0.0
 10
135.7591263684
 20
694.5194577751
 30
0.0
  0
SPLINE
  5
420
100
AcDbEntity
  8
0
100
AcDbSpline
 62
7
  6
CONTINUOUS
 70
0
 71
3
 72
15
 73
11
 74
0
 42
0.0000001
 43
0.0000001
 44
0.0000000001
 40
0.0
 40
0.0
 40
0.0
 40
0.0
 40
0.160499808
 40
0.3040751551
 40
0.4267743818
 40
0.5378350943
 40
0.646922085
 40
0.7590431571
 40
0.8761465587
 40
1.0
 40
1.0
 40
1.0
 40
1.0
 10
135.7591263684
 20
694.5194577751
 30
0.0
 10
135.6786416562
 20
694.7756408029
 30
0.0
 10
135.4774927293
 20
695.248514978
 30
0.0
 10
135.0190647571
 20
695.8139938324
 30
0.0
 10
134.4431147467
 20
696.1200539145
 30
0.0
 10
133.8512564929
 20
696.1379648915
 30
0.0
 10
133.3222768026
 20
695.9299055079
 30
0.0
 10
132.8861474126
 20
695.5554725072
 30
0.0
 10
132.5598739937
 20
695.0545018546
 30
0.0
 10
132.4397390044
 20
694.6628421375
 30
0.0
 10
132.4076207121
 20
694.458130137
 30
0.0
  0
SPLINE
  5
421
100
AcDbEntity
  8
0
100
AcDbSpline
 62
7
  6
CONTINUOUS
 70
0
 71
3
 72
8
 73
4
 74
0
 42
0.0000001
 43
0.0000001
 44
0.0000000001
 40
0.0
 40
0.0
 40
0.0
 40
0.0
 40
1.0
 40
1.0
 40
1.0
 40
1.0
 10
132.3741601499
 20
694.4769648287
 30
0.0
 10
132.3836412756
 20
694.4663491289
 30
0.0
 10
132.3951632876
 20
694.4574549238
 30
0.0
 10
132.407346757
 20
694.450096398
 30
0.0
  0
SPLINE
  5
422
100
AcDbEntity
  8
0
100
AcDbSpline
 62
7
  6
CONTINUOUS
 70
0
 71
3
 72
8
 73
4
 74
0
 42
0.0000001
 43
0.0000001
 44
0.0000000001
 40
0.0
 40
0.0
 40
0.0
 40
0.0
 40
1.0
 40
1.0
 40
1.0
 40
1.0
 10
132.407346757
 20
694.450096398
 30
0.0
 10
132.4141384625
 20
694.4459943694
 30
0.0
 10
132.4211614882
 20
694.4419849006
 30
0.0
 10
132.4287602887
 20
694.4397018909
 30
0.0
  0
SPLINE
  5
423
100
AcDbEntity
  8
0
100
AcDbSpline
 62
7
  6
CONTINUOUS
 70
0
 71
3
 72
8
 73
4
 74
0
 42
0.0000001
 43
0.0000001
 44
0.0000000001
 40
0.0
 40
0.0
 40
0.0
 40
0.0
 40
1.0
 40
1.0
 40
1.0
 40
1.0
 10
132.4303983758
 20
694.4425638502
 30
0.0
 10
132.4224762207
 20
694.4473035357
 30
0.0
 10
132.4147921712
 20
694.4524847538
 30
0.0
 10
132.4075194458
 20
694.4581709323
 30
0.0
  0
SPLINE
  5
424
100
AcDbEntity
  8
0
100
AcDbSpline
 62
7
  6
CONTINUOUS
 70
0
 71
3
 72
9
 73
5
 74
0
 42
0.0000001
 43
0.0000001
 44
0.0000000001
 40
0.0
 40
0.0
 40
0.0
 40
0.0
 40
0.2239240553
 40
1.0
 40
1.0
 40
1.0
 40
1.0
 10
132.3741601499
 20
687.5884691013
 30
0.0
 10
132.3790105184
 20
687.60065948
 30
0.0
 10
132.402851057
 20
687.6542278573
 30
0.0
 10
132.4338774023
 20
687.7044011769
 30
0.0
 10
132.4602617907
 20
687.7414344944
 30
0.0
  0
SPLINE
  5
425
100
AcDbEntity
  8
0
100
AcDbSpline
 62
7
  6
CONTINUOUS
 70
0
 71
3
 72
9
 73
5
 74
0
 42
0.0000001
 43
0.0000001
 44
0.0000000001
 40
0.0
 40
0.0
 40
0.0
 40
0.0
 40
0.485227299
 40
1.0
 40
1.0
 40
1.0
 40
1.0
 10
133.661030353
 20
688.8975173162
 30
0.0
 10
133.6722572723
 20
688.9046011433
 30
0.0
 10
133.6867805838
 20
688.9293292961
 30
0.0
 10
133.7001908061
 20
688.9535104242
 30
0.0
 10
133.7024971927
 20
688.967403545
 30
0.0
  0
SPLINE
  5
426
100
AcDbEntity
  8
0
100
AcDbSpline
 62
7
  6
CONTINUOUS
 70
0
 71
3
 72
10
 73
6
 74
0
 42
0.0000001
 43
0.0000001
 44
0.0000000001
 40
0.0
 40
0.0
 40
0.0
 40
0.0
 40
0.2856471762
 40
0.5488030684
 40
1.0
 40
1.0
 40
1.0
 40
1.0
 10
133.7024971927
 20
688.967403545
 30
0.0
 10
133.7418641524
 20
689.1999367748
 30
0.0
 10
133.8584492607
 20
689.6418535858
 30
0.0
 10
134.2140958647
 20
690.3875685021
 30
0.0
 10
134.63824515
 20
690.8436242375
 30
0.0
 10
134.9647716639
 20
691.0229467746
 30
0.0
  0
SPLINE
  5
427
100
AcDbEntity
  8
0
100
AcDbSpline
 62
7
  6
CONTINUOUS
 70
0
 71
3
 72
10
 73
6
 74
0
 42
0.0000001
 43
0.0000001
 44
0.0000000001
 40
0.0
 40
0.0
 40
0.0
 40
0.0
 40
0.5138471863
 40
0.7609404468
 40
1.0
 40
1.0
 40
1.0
 40
1.0
 10
132.4602617907
 20
687.7412820882
 30
0.0
 10
132.6267753414
 20
687.975001707
 30
0.0
 10
132.9062845079
 20
688.2996148741
 30
0.0
 10
133.3274537474
 20
688.6669590096
 30
0.0
 10
133.5478821402
 20
688.8266516486
 30
0.0
 10
133.661030353
 20
688.8975173162
 30
0.0
  0
SPLINE
  5
428
100
AcDbEntity
  8
0
100
AcDbSpline
 62
7
  6
CONTINUOUS
 70
0
 71
3
 72
9
 73
5
 74
0
 42
0.0000001
 43
0.0000001
 44
0.0000000001
 40
0.0
 40
0.0
 40
0.0
 40
0.0
 40
0.7320246567
 40
1.0
 40
1.0
 40
1.0
 40
1.0
 10
136.7302460978
 20
690.5879470776
 30
0.0
 10
136.7460235538
 20
690.5980261688
 30
0.0
 10
136.761059289
 20
690.6220959652
 30
0.0
 10
136.7663947951
 20
690.6469569909
 30
0.0
 10
136.7674211041
 20
690.6537333821
 30
0.0
  0
SPLINE
  5
429
100
AcDbEntity
  8
0
100
AcDbSpline
 62
7
  6
CONTINUOUS
 70
0
 71
3
 72
9
 73
5
 74
0
 42
0.0000001
 43
0.0000001
 44
0.0000000001
 40
0.0
 40
0.0
 40
0.0
 40
0.0
 40
0.2393627572
 40
1.0
 40
1.0
 40
1.0
 40
1.0
 10
136.733430917
 20
690.5820813477
 30
0.0
 10
136.7590597594
 20
690.5961361924
 30
0.0
 10
136.8655183926
 20
690.6559652356
 30
0.0
 10
136.9711786586
 20
690.7171955799
 30
0.0
 10
137.0522450448
 20
690.7625372186
 30
0.0
  0
SPLINE
  5
42A
100
AcDbEntity
  8
0
100
AcDbSpline
 62
7
  6
CONTINUOUS
 70
0
 71
3
 72
9
 73
5
 74
0
 42
0.0000001
 43
0.0000001
 44
0.0000000001
 40
0.0
 40
0.0
 40
0.0
 40
0.0
 40
0.2636159522
 40
1.0
 40
1.0
 40
1.0
 40
1.0
 10
542.0946316648
 20
747.2898716163
 30
0.0
 10
542.2864234846
 20
747.0414605986
 30
0.0
 10
542.938661062
 20
746.0484839085
 30
0.0
 10
543.3436864536
 20
744.8550298841
 30
0.0
 10
543.3466521476
 20
743.9783703157
 30
0.0
  0
SPLINE
  5
42B
100
AcDbEntity
  8
0
100
AcDbSpline
 62
7
  6
CONTINUOUS
 70
0
 71
3
 72
9
 73
5
 74
0
 42
0.0000001
 43
0.0000001
 44
0.0000000001
 40
0.0
 40
0.0
 40
0.0
 40
0.0
 40
0.2704533511
 40
1.0
 40
1.0
 40
1.0
 40
1.0
 10
543.3466521476
 20
743.9783703157
 30
0.0
 10
543.3469682532
 20
743.8849294675
 30
0.0
 10
543.3344080714
 20
743.5399596487
 30
0.0
 10
543.2637190623
 20
743.1938770251
 30
0.0
 10
543.1666064351
 20
742.9612781898
 30
0.0
  0
SPLINE
  5
42C
100
AcDbEntity
  8
0
100
AcDbSpline
 62
7
  6
CONTINUOUS
 70
0
 71
3
 72
8
 73
4
 74
0
 42
0.0000001
 43
0.0000001
 44
0.0000000001
 40
0.0
 40
0.0
 40
0.0
 40
0.0
 40
1.0
 40
1.0
 40
1.0
 40
1.0
 10
543.1666064351
 20
742.9612781898
 30
0.0
 10
543.1338281936
 20
742.8827695447
 30
0.0
 10
543.0955885724
 20
742.8062555085
 30
0.0
 10
543.0516567984
 20
742.7333993509
 30
0.0
  0
SPLINE
  5
42D
100
AcDbEntity
  8
0
100
AcDbSpline
 62
7
  6
CONTINUOUS
 70
0
 71
3
 72
8
 73
4
 74
0
 42
0.0000001
 43
0.0000001
 44
0.0000000001
 40
0.0
 40
0.0
 40
0.0
 40
0.0
 40
1.0
 40
1.0
 40
1.0
 40
1.0
 10
543.0516567984
 20
742.7333993509
 30
0.0
 10
542.9916736255
 20
742.6339236616
 30
0.0
 10
542.9202647633
 20
742.5402245449
 30
0.0
 10
542.8385212856
 20
742.4576933528
 30
0.0
  0
SPLINE
  5
42E
100
AcDbEntity
  8
0
100
AcDbSpline
 62
7
  6
CONTINUOUS
 70
0
 71
3
 72
8
 73
4
 74
0
 42
0.0000001
 43
0.0000001
 44
0.0000000001
 40
0.0
 40
0.0
 40
0.0
 40
0.0
 40
1.0
 40
1.0
 40
1.0
 40
1.0
 10
542.8385212856
 20
742.4576933528
 30
0.0
 10
542.7588573315
 20
742.3772617234
 30
0.0
 10
542.6680580878
 20
742.3063489772
 30
0.0
 10
542.5700443118
 20
742.2497018917
 30
0.0
  0
SPLINE
  5
42F
100
AcDbEntity
  8
0
100
AcDbSpline
 62
7
  6
CONTINUOUS
 70
0
 71
3
 72
9
 73
5
 74
0
 42
0.0000001
 43
0.0000001
 44
0.0000000001
 40
0.0
 40
0.0
 40
0.0
 40
0.0
 40
0.2636159522
 40
1.0
 40
1.0
 40
1.0
 40
1.0
 10
542.0946316649
 20
206.7652714764
 30
0.0
 10
542.2864234846
 20
206.5168604587
 30
0.0
 10
542.938661062
 20
205.5238837687
 30
0.0
 10
543.3436864535
 20
204.3304297442
 30
0.0
 10
543.3466521476
 20
203.4537701759
 30
0.0
  0
SPLINE
  5
430
100
AcDbEntity
  8
0
100
AcDbSpline
 62
7
  6
CONTINUOUS
 70
0
 71
3
 72
9
 73
5
 74
0
 42
0.0000001
 43
0.0000001
 44
0.0000000001
 40
0.0
 40
0.0
 40
0.0
 40
0.0
 40
0.2704533511
 40
1.0
 40
1.0
 40
1.0
 40
1.0
 10
543.3466521476
 20
203.4537701759
 30
0.0
 10
543.3469682531
 20
203.3603293277
 30
0.0
 10
543.3344080714
 20
203.0153595089
 30
0.0
 10
543.2637190622
 20
202.6692768853
 30
0.0
 10
543.166606435
 20
202.43667805
 30
0.0
  0
SPLINE
  5
431
100
AcDbEntity
  8
0
100
AcDbSpline
 62
7
  6
CONTINUOUS
 70
0
 71
3
 72
8
 73
4
 74
0
 42
0.0000001
 43
0.0000001
 44
0.0000000001
 40
0.0
 40
0.0
 40
0.0
 40
0.0
 40
1.0
 40
1.0
 40
1.0
 40
1.0
 10
543.166606435
 20
202.43667805
 30
0.0
 10
543.1338281936
 20
202.3581694049
 30
0.0
 10
543.0955885723
 20
202.2816553687
 30
0.0
 10
543.0516567984
 20
202.2087992111
 30
0.0
  0
SPLINE
  5
432
100
AcDbEntity
  8
0
100
AcDbSpline
 62
7
  6
CONTINUOUS
 70
0
 71
3
 72
8
 73
4
 74
0
 42
0.0000001
 43
0.0000001
 44
0.0000000001
 40
0.0
 40
0.0
 40
0.0
 40
0.0
 40
1.0
 40
1.0
 40
1.0
 40
1.0
 10
543.0516567984
 20
202.2087992111
 30
0.0
 10
542.9916736255
 20
202.1093235217
 30
0.0
 10
542.9202647632
 20
202.0156244051
 30
0.0
 10
542.8385212856
 20
201.933093213
 30
0.0
  0
SPLINE
  5
433
100
AcDbEntity
  8
0
100
AcDbSpline
 62
7
  6
CONTINUOUS
 70
0
 71
3
 72
8
 73
4
 74
0
 42
0.0000001
 43
0.0000001
 44
0.0000000001
 40
0.0
 40
0.0
 40
0.0
 40
0.0
 40
1.0
 40
1.0
 40
1.0
 40
1.0
 10
542.8385212856
 20
201.933093213
 30
0.0
 10
542.7588573314
 20
201.8526615836
 30
0.0
 10
542.6680580878
 20
201.7817488374
 30
0.0
 10
542.5700443117
 20
201.7251017519
 30
0.0
  0
SPLINE
  5
434
100
AcDbEntity
  8
0
100
AcDbSpline
 62
7
  6
CONTINUOUS
 70
0
 71
3
 72
9
 73
5
 74
0
 42
0.0000001
 43
0.0000001
 44
0.0000000001
 40
0.0
 40
0.0
 40
0.0
 40
0.0
 40
0.2691006334
 40
1.0
 40
1.0
 40
1.0
 40
1.0
 10
543.3467444321
 20
519.4281817068
 30
0.0
 10
543.3467444321
 20
519.336582458
 30
0.0
 10
543.333198645
 20
518.9967316624
 30
0.0
 10
543.2631139757
 20
518.6561290926
 30
0.0
 10
543.1679174425
 20
518.426271281
 30
0.0
  0
SPLINE
  5
435
100
AcDbEntity
  8
0
100
AcDbSpline
 62
7
  6
CONTINUOUS
 70
0
 71
3
 72
8
 73
4
 74
0
 42
0.0000001
 43
0.0000001
 44
0.0000000001
 40
0.0
 40
0.0
 40
0.0
 40
0.0
 40
1.0
 40
1.0
 40
1.0
 40
1.0
 10
543.1679174425
 20
518.426271281
 30
0.0
 10
543.1354233862
 20
518.3478124083
 30
0.0
 10
543.0975038809
 20
518.271315198
 30
0.0
 10
543.0538824074
 20
518.1984535109
 30
0.0
  0
SPLINE
  5
436
100
AcDbEntity
  8
0
100
AcDbSpline
 62
7
  6
CONTINUOUS
 70
0
 71
3
 72
8
 73
4
 74
0
 42
0.0000001
 43
0.0000001
 44
0.0000000001
 40
0.0
 40
0.0
 40
0.0
 40
0.0
 40
1.0
 40
1.0
 40
1.0
 40
1.0
 10
543.0538824074
 20
518.1984535109
 30
0.0
 10
542.9363497087
 20
518.0021366508
 30
0.0
 10
542.7682670626
 20
517.8258258234
 30
0.0
 10
542.5700456923
 20
517.7115343837
 30
0.0
  0
SPLINE
  5
437
100
AcDbEntity
  8
0
100
AcDbSpline
 62
7
  6
CONTINUOUS
 70
0
 71
3
 72
9
 73
5
 74
0
 42
0.0000001
 43
0.0000001
 44
0.0000000001
 40
0.0
 40
0.0
 40
0.0
 40
0.0
 40
0.2407186296
 40
1.0
 40
1.0
 40
1.0
 40
1.0
 10
549.5339368634
 20
796.3246028625
 30
0.0
 10
549.3833518847
 20
796.2376631035
 30
0.0
 10
548.7009952626
 20
795.9916311527
 30
0.0
 10
547.8875978087
 20
796.0503733923
 30
0.0
 10
547.4126165198
 20
796.3245977635
 30
0.0
  0
SPLINE
  5
438
100
AcDbEntity
  8
0
100
AcDbSpline
 62
7
  6
CONTINUOUS
 70
0
 71
3
 72
8
 73
4
 74
0
 42
0.0000001
 43
0.0000001
 44
0.0000000001
 40
0.0
 40
0.0
 40
0.0
 40
0.0
 40
1.0
 40
1.0
 40
1.0
 40
1.0
 10
550.5946014511
 20
148.225824947
 30
0.0
 10
550.4475748402
 20
148.1409396003
 30
0.0
 10
550.2925177492
 20
148.0692494221
 30
0.0
 10
550.1340144309
 20
148.0084296516
 30
0.0
  0
SPLINE
  5
439
100
AcDbEntity
  8
0
100
AcDbSpline
 62
7
  6
CONTINUOUS
 70
0
 71
3
 72
8
 73
4
 74
0
 42
0.0000001
 43
0.0000001
 44
0.0000000001
 40
0.0
 40
0.0
 40
0.0
 40
0.0
 40
1.0
 40
1.0
 40
1.0
 40
1.0
 10
549.7646383621
 20
147.8873172638
 30
0.0
 10
548.9686067111
 20
147.6675416199
 30
0.0
 10
548.0886959805
 20
147.6601009921
 30
0.0
 10
547.2873528268
 20
147.8596426496
 30
0.0
  0
SPLINE
  5
43A
100
AcDbEntity
  8
0
100
AcDbSpline
 62
7
  6
CONTINUOUS
 70
0
 71
3
 72
8
 73
4
 74
0
 42
0.0000001
 43
0.0000001
 44
0.0000000001
 40
0.0
 40
0.0
 40
0.0
 40
0.0
 40
1.0
 40
1.0
 40
1.0
 40
1.0
 10
547.2873528268
 20
147.8596426496
 30
0.0
 10
547.1326314774
 20
147.8981696582
 30
0.0
 10
546.9797092376
 20
147.9452119144
 30
0.0
 10
546.8305543927
 20
148.0015666714
 30
0.0
  0
SPLINE
  5
43B
100
AcDbEntity
  8
0
100
AcDbSpline
 62
7
  6
CONTINUOUS
 70
0
 71
3
 72
8
 73
4
 74
0
 42
0.0000001
 43
0.0000001
 44
0.0000000001
 40
0.0
 40
0.0
 40
0.0
 40
0.0
 40
1.0
 40
1.0
 40
1.0
 40
1.0
 10
546.8305543927
 20
148.0015666714
 30
0.0
 10
546.6657501754
 20
148.0638341869
 30
0.0
 10
546.5045337579
 20
148.1377286826
 30
0.0
 10
546.351960764
 20
148.2258147489
 30
0.0
  0
SPLINE
  5
43C
100
AcDbEntity
  8
0
100
AcDbSpline
 62
7
  6
CONTINUOUS
 70
0
 71
3
 72
9
 73
5
 74
0
 42
0.0000001
 43
0.0000001
 44
0.0000000001
 40
0.0
 40
0.0
 40
0.0
 40
0.0
 40
0.2637843088
 40
1.0
 40
1.0
 40
1.0
 40
1.0
 10
542.0927497797
 20
522.7538068888
 30
0.0
 10
542.285547456
 20
522.5043185473
 30
0.0
 10
542.9409207927
 20
521.5077600952
 30
0.0
 10
543.3467444321
 20
520.3081821533
 30
0.0
 10
543.3467444321
 20
519.4281817068
 30
0.0
  0
SPLINE
  5
43D
100
AcDbEntity
  8
0
100
AcDbSpline
 62
7
  6
CONTINUOUS
 70
0
 71
3
 72
8
 73
4
 74
0
 42
0.0000001
 43
0.0000001
 44
0.0000000001
 40
0.0
 40
0.0
 40
0.0
 40
0.0
 40
1.0
 40
1.0
 40
1.0
 40
1.0
 10
542.0144104514
 20
742.9132253706
 30
0.0
 10
542.2351427133
 20
742.8110498722
 30
0.0
 10
542.4716198128
 20
742.7334320245
 30
0.0
 10
542.7127704532
 20
742.701668326
 30
0.0
  0
SPLINE
  5
43E
100
AcDbEntity
  8
0
100
AcDbSpline
 62
7
  6
CONTINUOUS
 70
0
 71
3
 72
8
 73
4
 74
0
 42
0.0000001
 43
0.0000001
 44
0.0000000001
 40
0.0
 40
0.0
 40
0.0
 40
0.0
 40
1.0
 40
1.0
 40
1.0
 40
1.0
 10
542.7127704532
 20
742.701668326
 30
0.0
 10
542.7969638515
 20
742.6905786033
 30
0.0
 10
542.8821711601
 20
742.685168075
 30
0.0
 10
542.967081118
 20
742.6865131875
 30
0.0
  0
SPLINE
  5
43F
100
AcDbEntity
  8
0
100
AcDbSpline
 62
7
  6
CONTINUOUS
 70
0
 71
3
 72
8
 73
4
 74
0
 42
0.0000001
 43
0.0000001
 44
0.0000000001
 40
0.0
 40
0.0
 40
0.0
 40
0.0
 40
1.0
 40
1.0
 40
1.0
 40
1.0
 10
542.0144104514
 20
202.3886252308
 30
0.0
 10
542.2351427133
 20
202.2864497324
 30
0.0
 10
542.4716198128
 20
202.2088318847
 30
0.0
 10
542.7127704531
 20
202.1770681862
 30
0.0
  0
SPLINE
  5
440
100
AcDbEntity
  8
0
100
AcDbSpline
 62
7
  6
CONTINUOUS
 70
0
 71
3
 72
8
 73
4
 74
0
 42
0.0000001
 43
0.0000001
 44
0.0000000001
 40
0.0
 40
0.0
 40
0.0
 40
0.0
 40
1.0
 40
1.0
 40
1.0
 40
1.0
 10
542.7127704531
 20
202.1770681862
 30
0.0
 10
542.7969638515
 20
202.1659784635
 30
0.0
 10
542.8821711601
 20
202.1605679352
 30
0.0
 10
542.9670811179
 20
202.1619130477
 30
0.0
  0
SPLINE
  5
441
100
AcDbEntity
  8
0
100
AcDbSpline
 62
7
  6
CONTINUOUS
 70
0
 71
3
 72
9
 73
5
 74
0
 42
0.0000001
 43
0.0000001
 44
0.0000000001
 40
0.0
 40
0.0
 40
0.0
 40
0.0
 40
0.271415914
 40
1.0
 40
1.0
 40
1.0
 40
1.0
 10
542.0147380288
 20
518.37486977
 30
0.0
 10
542.0957596432
 20
518.3373178837
 30
0.0
 10
542.3996443429
 20
518.2122067888
 30
0.0
 10
542.7313071783
 20
518.1441112406
 30
0.0
 10
542.9709815861
 20
518.1486663748
 30
0.0
  0
SPLINE
  5
442
100
AcDbEntity
  8
0
100
AcDbSpline
 62
7
  6
CONTINUOUS
 70
0
 71
3
 72
8
 73
4
 74
0
 42
0.0000001
 43
0.0000001
 44
0.0000000001
 40
0.0
 40
0.0
 40
0.0
 40
0.0
 40
1.0
 40
1.0
 40
1.0
 40
1.0
 10
546.351960764
 20
795.7122315327
 30
0.0
 10
546.4774937785
 20
795.6397566526
 30
0.0
 10
546.6088881343
 20
795.576946441
 30
0.0
 10
546.7431370557
 20
795.5222804274
 30
0.0
  0
SPLINE
  5
443
100
AcDbEntity
  8
0
100
AcDbSpline
 62
7
  6
CONTINUOUS
 70
0
 71
3
 72
9
 73
5
 74
0
 42
0.0000001
 43
0.0000001
 44
0.0000000001
 40
0.0
 40
0.0
 40
0.0
 40
0.0
 40
0.2436782165
 40
1.0
 40
1.0
 40
1.0
 40
1.0
 10
546.7431370557
 20
795.5222804274
 30
0.0
 10
547.0013202993
 20
795.4171484937
 30
0.0
 10
548.1056999
 20
795.108751194
 30
0.0
 10
549.3262109676
 20
795.1848818126
 30
0.0
 10
550.1340144309
 20
795.4948464353
 30
0.0
  0
SPLINE
  5
444
100
AcDbEntity
  8
0
100
AcDbSpline
 62
7
  6
CONTINUOUS
 70
0
 71
3
 72
8
 73
4
 74
0
 42
0.0000001
 43
0.0000001
 44
0.0000000001
 40
0.0
 40
0.0
 40
0.0
 40
0.0
 40
1.0
 40
1.0
 40
1.0
 40
1.0
 10
550.1340144309
 20
795.4948464353
 30
0.0
 10
550.2925177492
 20
795.5556662058
 30
0.0
 10
550.4475748402
 20
795.627356384
 30
0.0
 10
550.5946014511
 20
795.7122417307
 30
0.0
  0
SPLINE
  5
445
100
AcDbEntity
  8
0
100
AcDbSpline
 62
7
  6
CONTINUOUS
 70
0
 71
3
 72
8
 73
4
 74
0
 42
0.0000001
 43
0.0000001
 44
0.0000000001
 40
0.0
 40
0.0
 40
0.0
 40
0.0
 40
1.0
 40
1.0
 40
1.0
 40
1.0
 10
542.5700443117
 20
201.7251017519
 30
0.0
 10
542.425162025
 20
201.6413669994
 30
0.0
 10
542.2602864264
 20
201.5872966795
 30
0.0
 10
542.0945757179
 20
201.5640083367
 30
0.0
  0
SPLINE
  5
446
100
AcDbEntity
  8
0
100
AcDbSpline
 62
7
  6
CONTINUOUS
 70
0
 71
3
 72
8
 73
4
 74
0
 42
0.0000001
 43
0.0000001
 44
0.0000000001
 40
0.0
 40
0.0
 40
0.0
 40
0.0
 40
1.0
 40
1.0
 40
1.0
 40
1.0
 10
542.5700456923
 20
517.7115343837
 30
0.0
 10
542.4248965219
 20
517.6278435705
 30
0.0
 10
542.2597717374
 20
517.5739074626
 30
0.0
 10
542.0938465732
 20
517.5506421717
 30
0.0
  0
SPLINE
  5
447
100
AcDbEntity
  8
0
100
AcDbSpline
 62
7
  6
CONTINUOUS
 70
0
 71
3
 72
8
 73
4
 74
0
 42
0.0000001
 43
0.0000001
 44
0.0000000001
 40
0.0
 40
0.0
 40
0.0
 40
0.0
 40
1.0
 40
1.0
 40
1.0
 40
1.0
 10
542.5700443118
 20
742.2497018917
 30
0.0
 10
542.4251620251
 20
742.1659671392
 30
0.0
 10
542.2602864264
 20
742.1118968192
 30
0.0
 10
542.0945757179
 20
742.0886084765
 30
0.0
  0
SPLINE
  5
448
100
AcDbEntity
  8
0
100
AcDbSpline
 62
7
  6
CONTINUOUS
 70
0
 71
3
 72
8
 73
4
 74
0
 42
0.0000001
 43
0.0000001
 44
0.0000000001
 40
0.0
 40
0.0
 40
0.0
 40
0.0
 40
1.0
 40
1.0
 40
1.0
 40
1.0
 10
126.6823388893
 20
1038.4113705491
 30
0.0
 10
126.6823388893
 20
1038.5575269653
 30
0.0
 10
126.693825818
 20
1038.7039322129
 30
0.0
 10
126.7139159918
 20
1038.8487012804
 30
0.0
  0
SPLINE
  5
449
100
AcDbEntity
  8
0
100
AcDbSpline
 62
7
  6
CONTINUOUS
 70
0
 71
3
 72
8
 73
4
 74
0
 42
0.0000001
 43
0.0000001
 44
0.0000000001
 40
0.0
 40
0.0
 40
0.0
 40
0.0
 40
1.0
 40
1.0
 40
1.0
 40
1.0
 10
126.7274235763
 20
1038.9379556627
 30
0.0
 10
126.7531933049
 20
1039.0953000767
 30
0.0
 10
126.7889110436
 20
1039.2512511153
 30
0.0
 10
126.8329023781
 20
1039.4045028885
 30
0.0
  0
SPLINE
  5
44A
100
AcDbEntity
  8
0
100
AcDbSpline
 62
7
  6
CONTINUOUS
 70
0
 71
3
 72
8
 73
4
 74
0
 42
0.0000001
 43
0.0000001
 44
0.0000000001
 40
0.0
 40
0.0
 40
0.0
 40
0.0
 40
1.0
 40
1.0
 40
1.0
 40
1.0
 10
126.8329023781
 20
1039.4045028885
 30
0.0
 10
126.9427451392
 20
1039.7871600201
 30
0.0
 10
127.1046348003
 20
1040.1573565607
 30
0.0
 10
127.3036891853
 20
1040.5021307829
 30
0.0
  0
SPLINE
  5
44B
100
AcDbEntity
  8
0
100
AcDbSpline
 62
7
  6
CONTINUOUS
 70
0
 71
3
 72
9
 73
5
 74
0
 42
0.0000001
 43
0.0000001
 44
0.0000000001
 40
0.0
 40
0.0
 40
0.0
 40
0.0
 40
0.7584585111
 40
1.0
 40
1.0
 40
1.0
 40
1.0
 10
127.3036891853
 20
1040.5021307829
 30
0.0
 10
127.489172722
 20
1040.8233994758
 30
0.0
 10
127.7796901163
 20
1041.2240115466
 30
0.0
 10
128.1268757167
 20
1041.5690284293
 30
0.0
 10
128.2142364739
 20
1041.6485593359
 30
0.0
  0
SPLINE
  5
44C
100
AcDbEntity
  8
0
100
AcDbSpline
 62
7
  6
CONTINUOUS
 70
0
 71
3
 72
8
 73
4
 74
0
 42
0.0000001
 43
0.0000001
 44
0.0000000001
 40
0.0
 40
0.0
 40
0.0
 40
0.0
 40
1.0
 40
1.0
 40
1.0
 40
1.0
 10
128.3850855002
 20
1041.7954289719
 30
0.0
 10
128.5170090008
 20
1041.9022868564
 30
0.0
 10
128.6566236087
 20
1042.0007248108
 30
0.0
 10
128.8036504009
 20
1042.0856102621
 30
0.0
  0
SPLINE
  5
44D
100
AcDbEntity
  8
0
100
AcDbSpline
 62
7
  6
CONTINUOUS
 70
0
 71
3
 72
9
 73
5
 74
0
 42
0.0000001
 43
0.0000001
 44
0.0000000001
 40
0.0
 40
0.0
 40
0.0
 40
0.0
 40
0.5000016721
 40
1.0
 40
1.0
 40
1.0
 40
1.0
 10
547.0590616572
 20
796.9369693494
 30
0.0
 10
547.0590616572
 20
797.3004920273
 30
0.0
 10
547.3074907003
 20
798.0182836507
 30
0.0
 10
547.8048991749
 20
798.5923298963
 30
0.0
 10
548.1197174131
 20
798.7740892059
 30
0.0
  0
SPLINE
  5
44E
100
AcDbEntity
  8
0
100
AcDbSpline
 62
7
  6
CONTINUOUS
 70
0
 71
3
 72
8
 73
4
 74
0
 42
0.0000001
 43
0.0000001
 44
0.0000000001
 40
0.0
 40
0.0
 40
0.0
 40
0.0
 40
1.0
 40
1.0
 40
1.0
 40
1.0
 10
548.1197174131
 20
799.9988428316
 30
0.0
 10
547.9726906209
 20
799.9139573802
 30
0.0
 10
547.833076013
 20
799.8155194258
 30
0.0
 10
547.7011525124
 20
799.7086615414
 30
0.0
  0
SPLINE
  5
44F
100
AcDbEntity
  8
0
100
AcDbSpline
 62
7
  6
CONTINUOUS
 70
0
 71
3
 72
9
 73
5
 74
0
 42
0.0000001
 43
0.0000001
 44
0.0000000001
 40
0.0
 40
0.0
 40
0.0
 40
0.0
 40
0.2457297371
 40
1.0
 40
1.0
 40
1.0
 40
1.0
 10
547.7011525124
 20
799.7086615414
 30
0.0
 10
547.4827232132
 20
799.5317340591
 30
0.0
 10
546.6784798241
 20
798.7154082071
 30
0.0
 10
546.1472277002
 20
797.6130901494
 30
0.0
 10
546.0294854987
 20
796.7583355695
 30
0.0
  0
SPLINE
  5
450
100
AcDbEntity
  8
0
100
AcDbSpline
 62
7
  6
CONTINUOUS
 70
0
 71
3
 72
8
 73
4
 74
0
 42
0.0000001
 43
0.0000001
 44
0.0000000001
 40
0.0
 40
0.0
 40
0.0
 40
0.0
 40
1.0
 40
1.0
 40
1.0
 40
1.0
 10
546.0185932371
 20
796.6713524062
 30
0.0
 10
546.0056442444
 20
796.5562999982
 30
0.0
 10
545.9984059014
 20
796.4403819292
 30
0.0
 10
545.9984059014
 20
796.3246031186
 30
0.0
  0
SPLINE
  5
451
100
AcDbEntity
  8
0
100
AcDbSpline
 62
7
  6
CONTINUOUS
 70
0
 71
3
 72
9
 73
5
 74
0
 42
0.0000001
 43
0.0000001
 44
0.0000000001
 40
0.0
 40
0.0
 40
0.0
 40
0.0
 40
0.2288360724
 40
1.0
 40
1.0
 40
1.0
 40
1.0
 10
533.5209122379
 20
788.8753226786
 30
0.0
 10
533.4314128555
 20
788.8236504945
 30
0.0
 10
533.0161454263
 20
788.6408738672
 30
0.0
 10
532.5462568322
 20
788.5995561805
 30
0.0
 10
532.1997815338
 20
788.6348268448
 30
0.0
  0
SPLINE
  5
452
100
AcDbEntity
  8
0
100
AcDbSpline
 62
7
  6
CONTINUOUS
 70
0
 71
3
 72
9
 73
5
 74
0
 42
0.0000001
 43
0.0000001
 44
0.0000000001
 40
0.0
 40
0.0
 40
0.0
 40
0.0
 40
0.6197070921
 40
1.0
 40
1.0
 40
1.0
 40
1.0
 10
540.8154276672
 20
792.742783506
 30
0.0
 10
541.0507291295
 20
792.7852360174
 30
0.0
 10
541.4299122325
 20
792.8089991872
 30
0.0
 10
541.8385284365
 20
792.7298523456
 30
0.0
 10
541.948489562
 20
792.6327052337
 30
0.0
  0
SPLINE
  5
453
100
AcDbEntity
  8
0
100
AcDbSpline
 62
7
  6
CONTINUOUS
 70
0
 71
3
 72
9
 73
5
 74
0
 42
0.0000001
 43
0.0000001
 44
0.0000000001
 40
0.0
 40
0.0
 40
0.0
 40
0.0
 40
0.5453456724
 40
1.0
 40
1.0
 40
1.0
 40
1.0
 10
541.948489562
 20
792.6327052337
 30
0.0
 10
541.965278008
 20
792.6178731825
 30
0.0
 10
541.9933225271
 20
792.5865541644
 30
0.0
 10
542.0053643516
 20
792.545236858
 30
0.0
 10
542.0053830538
 20
792.5265604825
 30
0.0
  0
SPLINE
  5
454
100
AcDbEntity
  8
0
100
AcDbSpline
 62
7
  6
CONTINUOUS
 70
0
 71
3
 72
9
 73
5
 74
0
 42
0.0000001
 43
0.0000001
 44
0.0000000001
 40
0.0
 40
0.0
 40
0.0
 40
0.0
 40
0.2303288428
 40
1.0
 40
1.0
 40
1.0
 40
1.0
 10
534.5815768256
 20
139.9600423459
 30
0.0
 10
534.4642825619
 20
139.8923228754
 30
0.0
 10
533.933872421
 20
139.6353410173
 30
0.0
 10
533.3459473757
 20
139.5090294482
 30
0.0
 10
532.8949580915
 20
139.471030165
 30
0.0
  0
SPLINE
  5
455
100
AcDbEntity
  8
0
100
AcDbSpline
 62
7
  6
CONTINUOUS
 70
0
 71
3
 72
8
 73
4
 74
0
 42
0.0000001
 43
0.0000001
 44
0.0000000001
 40
0.0
 40
0.0
 40
0.0
 40
0.0
 40
1.0
 40
1.0
 40
1.0
 40
1.0
 10
112.4370709129
 20
1031.9826919954
 30
0.0
 10
112.3294397482
 20
1031.9205514844
 30
0.0
 10
112.2255904812
 20
1031.8510117785
 30
0.0
 10
112.1284411449
 20
1031.7735010232
 30
0.0
  0
SPLINE
  5
456
100
AcDbEntity
  8
0
100
AcDbSpline
 62
7
  6
CONTINUOUS
 70
0
 71
3
 72
9
 73
5
 74
0
 42
0.0000001
 43
0.0000001
 44
0.0000000001
 40
0.0
 40
0.0
 40
0.0
 40
0.0
 40
0.2841897282
 40
1.0
 40
1.0
 40
1.0
 40
1.0
 10
112.1284411449
 20
1031.7735010232
 30
0.0
 10
112.0406384338
 20
1031.703447488
 30
0.0
 10
111.7500424602
 20
1031.4384010681
 30
0.0
 10
111.5586292822
 20
1031.0408910071
 30
0.0
 10
111.5586209829
 20
1030.7579705197
 30
0.0
  0
SPLINE
  5
457
100
AcDbEntity
  8
0
100
AcDbSpline
 62
7
  6
CONTINUOUS
 70
0
 71
3
 72
8
 73
4
 74
0
 42
0.0000001
 43
0.0000001
 44
0.0000000001
 40
0.0
 40
0.0
 40
0.0
 40
0.0
 40
1.0
 40
1.0
 40
1.0
 40
1.0
 10
113.9232196961
 20
1024.0782892043
 30
0.0
 10
113.9281097344
 20
1023.8585235539
 30
0.0
 10
113.9463011612
 20
1023.6385362445
 30
0.0
 10
113.9794610801
 20
1023.4212316809
 30
0.0
  0
SPLINE
  5
458
100
AcDbEntity
  8
0
100
AcDbSpline
 62
7
  6
CONTINUOUS
 70
0
 71
3
 72
8
 73
4
 74
0
 42
0.0000001
 43
0.0000001
 44
0.0000000001
 40
0.0
 40
0.0
 40
0.0
 40
0.0
 40
1.0
 40
1.0
 40
1.0
 40
1.0
 10
113.9794610801
 20
1023.4212316809
 30
0.0
 10
114.0118354939
 20
1023.2090747132
 30
0.0
 10
114.0586086427
 20
1022.9984439983
 30
0.0
 10
114.1215414361
 20
1022.7932656731
 30
0.0
  0
SPLINE
  5
459
100
AcDbEntity
  8
0
100
AcDbSpline
 62
7
  6
CONTINUOUS
 70
0
 71
3
 72
8
 73
4
 74
0
 42
0.0000001
 43
0.0000001
 44
0.0000000001
 40
0.0
 40
0.0
 40
0.0
 40
0.0
 40
1.0
 40
1.0
 40
1.0
 40
1.0
 10
114.3936406711
 20
1027.5351244391
 30
0.0
 10
114.3190004953
 20
1027.3425867002
 30
0.0
 10
114.255516715
 20
1027.1455154003
 30
0.0
 10
114.2009559308
 20
1026.9463545167
 30
0.0
  0
SPLINE
  5
45A
100
AcDbEntity
  8
0
100
AcDbSpline
 62
7
  6
CONTINUOUS
 70
0
 71
3
 72
9
 73
5
 74
0
 42
0.0000001
 43
0.0000001
 44
0.0000000001
 40
0.0
 40
0.0
 40
0.0
 40
0.0
 40
0.2997822698
 40
1.0
 40
1.0
 40
1.0
 40
1.0
 10
114.1215414361
 20
376.9398537237
 30
0.0
 10
114.0921042114
 20
376.8778706297
 30
0.0
 10
114.0012480464
 20
376.6684440029
 30
0.0
 10
113.9326083006
 20
376.444477218
 30
0.0
 10
113.9232196961
 20
376.2844772355
 30
0.0
  0
SPLINE
  5
45B
100
AcDbEntity
  8
0
100
AcDbSpline
 62
7
  6
CONTINUOUS
 70
0
 71
3
 72
8
 73
4
 74
0
 42
0.0000001
 43
0.0000001
 44
0.0000000001
 40
0.0
 40
0.0
 40
0.0
 40
0.0
 40
1.0
 40
1.0
 40
1.0
 40
1.0
 10
113.9232196961
 20
376.2844772355
 30
0.0
 10
113.9191672102
 20
376.2154150375
 30
0.0
 10
113.9222706253
 20
376.1427868442
 30
0.0
 10
113.9474601452
 20
376.0783547254
 30
0.0
  0
SPLINE
  5
45C
100
AcDbEntity
  8
0
100
AcDbSpline
 62
7
  6
CONTINUOUS
 70
0
 71
3
 72
9
 73
5
 74
0
 42
0.0000001
 43
0.0000001
 44
0.0000000001
 40
0.0
 40
0.0
 40
0.0
 40
0.0
 40
0.2586866313
 40
1.0
 40
1.0
 40
1.0
 40
1.0
 10
524.7566715946
 20
139.8648514155
 30
0.0
 10
524.5323338111
 20
139.8358617784
 30
0.0
 10
523.6598335422
 20
139.7801496544
 30
0.0
 10
522.7614941266
 20
140.0023514645
 30
0.0
 10
522.2001182751
 20
140.3264717978
 30
0.0
  0
SPLINE
  5
45D
100
AcDbEntity
  8
0
100
AcDbSpline
 62
7
  6
CONTINUOUS
 70
0
 71
3
 72
9
 73
5
 74
0
 42
0.0000001
 43
0.0000001
 44
0.0000000001
 40
0.0
 40
0.0
 40
0.0
 40
0.0
 40
0.1540286137
 40
1.0
 40
1.0
 40
1.0
 40
1.0
 10
113.2884318576
 20
376.8996004928
 30
0.0
 10
113.3108197922
 20
376.8941311414
 30
0.0
 10
113.4595191571
 20
376.8737164118
 30
0.0
 10
113.6102193119
 20
376.8813502084
 30
0.0
 10
113.7363961942
 20
376.8914113168
 30
0.0
  0
SPLINE
  5
45E
100
AcDbEntity
  8
0
100
AcDbSpline
 62
7
  6
CONTINUOUS
 70
0
 71
3
 72
8
 73
4
 74
0
 42
0.0000001
 43
0.0000001
 44
0.0000000001
 40
0.0
 40
0.0
 40
0.0
 40
0.0
 40
1.0
 40
1.0
 40
1.0
 40
1.0
 10
540.5042535291
 20
792.5787834994
 30
0.0
 10
540.5016180041
 20
792.6832113
 30
0.0
 10
540.4914701433
 20
792.7875728264
 30
0.0
 10
540.4761435946
 20
792.8909034048
 30
0.0
  0
SPLINE
  5
45F
100
AcDbEntity
  8
0
100
AcDbSpline
 62
7
  6
CONTINUOUS
 70
0
 71
3
 72
8
 73
4
 74
0
 42
0.0000001
 43
0.0000001
 44
0.0000000001
 40
0.0
 40
0.0
 40
0.0
 40
0.0
 40
1.0
 40
1.0
 40
1.0
 40
1.0
 10
520.7861478063
 20
142.1572452582
 30
0.0
 10
521.0765155935
 20
141.7735477869
 30
0.0
 10
521.4232726288
 20
141.429052122
 30
0.0
 10
521.7998521746
 20
141.1295107274
 30
0.0
  0
SPLINE
  5
460
100
AcDbEntity
  8
0
100
AcDbSpline
 62
7
  6
CONTINUOUS
 70
0
 71
3
 72
8
 73
4
 74
0
 42
0.0000001
 43
0.0000001
 44
0.0000000001
 40
0.0
 40
0.0
 40
0.0
 40
0.0
 40
1.0
 40
1.0
 40
1.0
 40
1.0
 10
522.0846443154
 20
788.8345791643
 30
0.0
 10
522.1746622964
 20
788.9137569612
 30
0.0
 10
522.2646628635
 20
788.9929644161
 30
0.0
 10
522.3536513006
 20
789.0732975879
 30
0.0
  0
SPLINE
  5
461
100
AcDbEntity
  8
0
100
AcDbSpline
 62
7
  6
CONTINUOUS
 70
0
 71
3
 72
8
 73
4
 74
0
 42
0.0000001
 43
0.0000001
 44
0.0000000001
 40
0.0
 40
0.0
 40
0.0
 40
0.0
 40
1.0
 40
1.0
 40
1.0
 40
1.0
 10
524.7566715946
 20
789.3925242421
 30
0.0
 10
524.3305653853
 20
789.4216365428
 30
0.0
 10
523.8984747755
 20
789.3927098663
 30
0.0
 10
523.47733781
 20
789.321592471
 30
0.0
  0
SPLINE
  5
462
100
AcDbEntity
  8
0
100
AcDbSpline
 62
7
  6
CONTINUOUS
 70
0
 71
3
 72
8
 73
4
 74
0
 42
0.0000001
 43
0.0000001
 44
0.0000000001
 40
0.0
 40
0.0
 40
0.0
 40
0.0
 40
1.0
 40
1.0
 40
1.0
 40
1.0
 10
523.47733781
 20
789.321592471
 30
0.0
 10
523.1798002719
 20
789.2713473097
 30
0.0
 10
522.8855226657
 20
789.1997887358
 30
0.0
 10
522.5961605091
 20
789.1142159297
 30
0.0
  0
SPLINE
  5
463
100
AcDbEntity
  8
0
100
AcDbSpline
 62
7
  6
CONTINUOUS
 70
0
 71
3
 72
9
 73
5
 74
0
 42
0.0000001
 43
0.0000001
 44
0.0000000001
 40
0.0
 40
0.0
 40
0.0
 40
0.0
 40
0.3184450678
 40
1.0
 40
1.0
 40
1.0
 40
1.0
 10
540.9252569571
 20
794.397403771
 30
0.0
 10
541.0411643629
 20
794.3303176022
 30
0.0
 10
540.9191630675
 20
793.7613642252
 30
0.0
 10
540.7010593855
 20
793.4753345649
 30
0.0
 10
540.5157790915
 20
793.2566416442
 30
0.0
  0
SPLINE
  5
464
100
AcDbEntity
  8
0
100
AcDbSpline
 62
7
  6
CONTINUOUS
 70
0
 71
3
 72
9
 73
5
 74
0
 42
0.0000001
 43
0.0000001
 44
0.0000000001
 40
0.0
 40
0.0
 40
0.0
 40
0.0
 40
0.4969370061
 40
1.0
 40
1.0
 40
1.0
 40
1.0
 10
113.0585105356
 20
1030.7579701258
 30
0.0
 10
113.0585112168
 20
1030.7811910227
 30
0.0
 10
113.0617517423
 20
1030.8279744741
 30
0.0
 10
113.0713773712
 20
1030.8738650237
 30
0.0
 10
113.0777158635
 20
1030.8965014927
 30
0.0
  0
SPLINE
  5
465
100
AcDbEntity
  8
0
100
AcDbSpline
 62
7
  6
CONTINUOUS
 70
0
 71
3
 72
9
 73
5
 74
0
 42
0.0000001
 43
0.0000001
 44
0.0000000001
 40
0.0
 40
0.0
 40
0.0
 40
0.0
 40
0.2232125714
 40
1.0
 40
1.0
 40
1.0
 40
1.0
 10
520.7861478063
 20
788.0106572077
 30
0.0
 10
520.8185747188
 20
788.0789353957
 30
0.0
 10
520.9745286716
 20
788.3797166267
 30
0.0
 10
521.1678250119
 20
788.6603973371
 30
0.0
 10
521.3314475879
 20
788.8663603657
 30
0.0
  0
SPLINE
  5
466
100
AcDbEntity
  8
0
100
AcDbSpline
 62
7
  6
CONTINUOUS
 70
0
 71
3
 72
8
 73
4
 74
0
 42
0.0000001
 43
0.0000001
 44
0.0000000001
 40
0.0
 40
0.0
 40
0.0
 40
0.0
 40
1.0
 40
1.0
 40
1.0
 40
1.0
 10
522.6289165934
 20
789.8983061417
 30
0.0
 10
522.9584591844
 20
790.0788135065
 30
0.0
 10
523.3036140955
 20
790.234039728
 30
0.0
 10
523.6589233202
 20
790.3562550415
 30
0.0
  0
SPLINE
  5
467
100
AcDbEntity
  8
0
100
AcDbSpline
 62
7
  6
CONTINUOUS
 70
0
 71
3
 72
8
 73
4
 74
0
 42
0.0000001
 43
0.0000001
 44
0.0000000001
 40
0.0
 40
0.0
 40
0.0
 40
0.0
 40
1.0
 40
1.0
 40
1.0
 40
1.0
 10
523.6589233202
 20
790.3562550415
 30
0.0
 10
523.926523635
 20
790.4483012202
 30
0.0
 10
524.2013283103
 20
790.5221021425
 30
0.0
 10
524.4795819119
 20
790.5736517373
 30
0.0
  0
SPLINE
  5
468
100
AcDbEntity
  8
0
100
AcDbSpline
 62
7
  6
CONTINUOUS
 70
0
 71
3
 72
8
 73
4
 74
0
 42
0.0000001
 43
0.0000001
 44
0.0000000001
 40
0.0
 40
0.0
 40
0.0
 40
0.0
 40
1.0
 40
1.0
 40
1.0
 40
1.0
 10
521.3314475879
 20
141.0725483969
 30
0.0
 10
521.2104025813
 20
141.2306995647
 30
0.0
 10
521.1050747126
 20
141.4018172525
 30
0.0
 10
521.0158782111
 20
141.5798837278
 30
0.0
  0
SPLINE
  5
469
100
AcDbEntity
  8
0
100
AcDbSpline
 62
7
  6
CONTINUOUS
 70
0
 71
3
 72
8
 73
4
 74
0
 42
0.0000001
 43
0.0000001
 44
0.0000000001
 40
0.0
 40
0.0
 40
0.0
 40
0.0
 40
1.0
 40
1.0
 40
1.0
 40
1.0
 10
521.0158782111
 20
141.5798837278
 30
0.0
 10
520.9231114211
 20
141.7650777101
 30
0.0
 10
520.8468860878
 20
141.9592216496
 30
0.0
 10
520.7861478063
 20
142.1572452582
 30
0.0
  0
SPLINE
  5
46A
100
AcDbEntity
  8
0
100
AcDbSpline
 62
7
  6
CONTINUOUS
 70
0
 71
3
 72
8
 73
4
 74
0
 42
0.0000001
 43
0.0000001
 44
0.0000000001
 40
0.0
 40
0.0
 40
0.0
 40
0.0
 40
1.0
 40
1.0
 40
1.0
 40
1.0
 10
114.1215414361
 20
1022.7932656731
 30
0.0
 10
113.9790791543
 20
1022.9815180197
 30
0.0
 10
113.8493669136
 20
1023.1803365056
 30
0.0
 10
113.7363961942
 20
1023.3876335491
 30
0.0
  0
SPLINE
  5
46B
100
AcDbEntity
  8
0
100
AcDbSpline
 62
7
  6
CONTINUOUS
 70
0
 71
3
 72
8
 73
4
 74
0
 42
0.0000001
 43
0.0000001
 44
0.0000000001
 40
0.0
 40
0.0
 40
0.0
 40
0.0
 40
1.0
 40
1.0
 40
1.0
 40
1.0
 10
113.7363961942
 20
1023.3876335491
 30
0.0
 10
113.551722743
 20
1023.7265024227
 30
0.0
 10
113.4101279824
 20
1024.0939018214
 30
0.0
 10
113.3280269324
 20
1024.4709904247
 30
0.0
  0
SPLINE
  5
46C
100
AcDbEntity
  8
0
100
AcDbSpline
 62
7
  6
CONTINUOUS
 70
0
 71
3
 72
8
 73
4
 74
0
 42
0.0000001
 43
0.0000001
 44
0.0000000001
 40
0.0
 40
0.0
 40
0.0
 40
0.0
 40
1.0
 40
1.0
 40
1.0
 40
1.0
 10
532.8949580915
 20
787.7739493659
 30
0.0
 10
533.2359641349
 20
787.8026817231
 30
0.0
 10
533.5766771469
 20
787.8656645114
 30
0.0
 10
533.902878908
 20
787.9691202074
 30
0.0
  0
SPLINE
  5
46D
100
AcDbEntity
  8
0
100
AcDbSpline
 62
7
  6
CONTINUOUS
 70
0
 71
3
 72
8
 73
4
 74
0
 42
0.0000001
 43
0.0000001
 44
0.0000000001
 40
0.0
 40
0.0
 40
0.0
 40
0.0
 40
1.0
 40
1.0
 40
1.0
 40
1.0
 10
533.902878908
 20
787.9691202074
 30
0.0
 10
534.1378692401
 20
788.0436479729
 30
0.0
 10
534.3680791229
 20
788.1396993264
 30
0.0
 10
534.5815768256
 20
788.2629615468
 30
0.0
  0
SPLINE
  5
46E
100
AcDbEntity
  8
0
100
AcDbSpline
 62
7
  6
CONTINUOUS
 70
0
 71
3
 72
8
 73
4
 74
0
 42
0.0000001
 43
0.0000001
 44
0.0000000001
 40
0.0
 40
0.0
 40
0.0
 40
0.0
 40
1.0
 40
1.0
 40
1.0
 40
1.0
 10
521.2589430971
 20
788.1097040918
 30
0.0
 10
521.1027309638
 20
788.0706519942
 30
0.0
 10
520.9449745132
 20
788.037140676
 30
0.0
 10
520.7861478063
 20
788.0106572077
 30
0.0
  0
SPLINE
  5
46F
100
AcDbEntity
  8
0
100
AcDbSpline
 62
7
  6
CONTINUOUS
 70
0
 71
3
 72
8
 73
4
 74
0
 42
0.0000001
 43
0.0000001
 44
0.0000000001
 40
0.0
 40
0.0
 40
0.0
 40
0.0
 40
1.0
 40
1.0
 40
1.0
 40
1.0
 10
331.7793676197
 20
1160.0945628088
 30
0.0
 10
331.7793676334
 20
1160.2270724337
 30
0.0
 10
331.7959756225
 20
1160.360460371
 30
0.0
 10
331.8274877973
 20
1160.4891685041
 30
0.0
  0
SPLINE
  5
470
100
AcDbEntity
  8
0
100
AcDbSpline
 62
7
  6
CONTINUOUS
 70
0
 71
3
 72
8
 73
4
 74
0
 42
0.0000001
 43
0.0000001
 44
0.0000000001
 40
0.0
 40
0.0
 40
0.0
 40
0.0
 40
1.0
 40
1.0
 40
1.0
 40
1.0
 10
331.8274877973
 20
1160.4891685041
 30
0.0
 10
331.8650834544
 20
1160.6427239747
 30
0.0
 10
331.9245479942
 20
1160.7920597945
 30
0.0
 10
332.0001937108
 20
1160.9308778103
 30
0.0
  0
SPLINE
  5
471
100
AcDbEntity
  8
0
100
AcDbSpline
 62
7
  6
CONTINUOUS
 70
0
 71
3
 72
9
 73
5
 74
0
 42
0.0000001
 43
0.0000001
 44
0.0000000001
 40
0.0
 40
0.0
 40
0.0
 40
0.0
 40
0.2188848254
 40
1.0
 40
1.0
 40
1.0
 40
1.0
 10
542.3539581095
 20
1091.5339207572
 30
0.0
 10
542.3156334624
 20
1091.5936882036
 30
0.0
 10
542.1079879931
 20
1091.8460958331
 30
0.0
 10
541.8080661417
 20
1092.0064216357
 30
0.0
 10
541.5701403911
 20
1092.0935279881
 30
0.0
  0
SPLINE
  5
472
100
AcDbEntity
  8
0
100
AcDbSpline
 62
7
  6
CONTINUOUS
 70
0
 71
3
 72
8
 73
4
 74
0
 42
0.0000001
 43
0.0000001
 44
0.0000000001
 40
0.0
 40
0.0
 40
0.0
 40
0.0
 40
1.0
 40
1.0
 40
1.0
 40
1.0
 10
541.5701403911
 20
1092.0935279881
 30
0.0
 10
541.045973225
 20
1092.2854294103
 30
0.0
 10
540.4472812907
 20
1092.3166098137
 30
0.0
 10
539.899555009
 20
1092.2090305679
 30
0.0
  0
SPLINE
  5
473
100
AcDbEntity
  8
0
100
AcDbSpline
 62
7
  6
CONTINUOUS
 70
0
 71
3
 72
8
 73
4
 74
0
 42
0.0000001
 43
0.0000001
 44
0.0000000001
 40
0.0
 40
0.0
 40
0.0
 40
0.0
 40
1.0
 40
1.0
 40
1.0
 40
1.0
 10
539.899555009
 20
1092.2090305679
 30
0.0
 10
539.6379938412
 20
1092.1576571828
 30
0.0
 10
539.3777226114
 20
1092.0722070581
 30
0.0
 10
539.146875777
 20
1091.9389283717
 30
0.0
  0
SPLINE
  5
474
100
AcDbEntity
  8
0
100
AcDbSpline
 62
7
  6
CONTINUOUS
 70
0
 71
3
 72
8
 73
4
 74
0
 42
0.0000001
 43
0.0000001
 44
0.0000000001
 40
0.0
 40
0.0
 40
0.0
 40
0.0
 40
1.0
 40
1.0
 40
1.0
 40
1.0
 10
542.4756688699
 20
1091.9593647694
 30
0.0
 10
542.4756249006
 20
1091.8013578806
 30
0.0
 10
542.4106507745
 20
1091.6394618475
 30
0.0
 10
542.3157359812
 20
1091.5131393995
 30
0.0
  0
SPLINE
  5
475
100
AcDbEntity
  8
0
100
AcDbSpline
 62
7
  6
CONTINUOUS
 70
0
 71
3
 72
9
 73
5
 74
0
 42
0.0000001
 43
0.0000001
 44
0.0000000001
 40
0.0
 40
0.0
 40
0.0
 40
0.0
 40
0.493903865
 40
1.0
 40
1.0
 40
1.0
 40
1.0
 10
542.3157359812
 20
1091.5131393995
 30
0.0
 10
542.3043780875
 20
1091.498023137
 30
0.0
 10
542.2804966321
 20
1091.4680745474
 30
0.0
 10
542.2550426202
 20
1091.4394546506
 30
0.0
 10
542.2418071882
 20
1091.4253056352
 30
0.0
  0
SPLINE
  5
476
100
AcDbEntity
  8
0
100
AcDbSpline
 62
7
  6
CONTINUOUS
 70
0
 71
3
 72
8
 73
4
 74
0
 42
0.0000001
 43
0.0000001
 44
0.0000000001
 40
0.0
 40
0.0
 40
0.0
 40
0.0
 40
1.0
 40
1.0
 40
1.0
 40
1.0
 10
542.2418071882
 20
1091.4253056352
 30
0.0
 10
542.1445664944
 20
1091.3213528458
 30
0.0
 10
542.0278777761
 20
1091.2344637395
 30
0.0
 10
541.9046037051
 20
1091.1632918462
 30
0.0
  0
SPLINE
  5
477
100
AcDbEntity
  8
0
100
AcDbSpline
 62
7
  6
CONTINUOUS
 70
0
 71
3
 72
9
 73
5
 74
0
 42
0.0000001
 43
0.0000001
 44
0.0000000001
 40
0.0
 40
0.0
 40
0.0
 40
0.0
 40
0.2188848254
 40
1.0
 40
1.0
 40
1.0
 40
1.0
 10
641.3493196301
 20
1034.3802151244
 30
0.0
 10
641.3109949829
 20
1034.4399825707
 30
0.0
 10
641.1033495137
 20
1034.6923902003
 30
0.0
 10
640.8034276623
 20
1034.8527160029
 30
0.0
 10
640.5655019117
 20
1034.9398223553
 30
0.0
  0
SPLINE
  5
478
100
AcDbEntity
  8
0
100
AcDbSpline
 62
7
  6
CONTINUOUS
 70
0
 71
3
 72
8
 73
4
 74
0
 42
0.0000001
 43
0.0000001
 44
0.0000000001
 40
0.0
 40
0.0
 40
0.0
 40
0.0
 40
1.0
 40
1.0
 40
1.0
 40
1.0
 10
640.5655019117
 20
1034.9398223553
 30
0.0
 10
640.0413347455
 20
1035.1317237774
 30
0.0
 10
639.4426428113
 20
1035.1629041809
 30
0.0
 10
638.8949165295
 20
1035.055324935
 30
0.0
  0
SPLINE
  5
479
100
AcDbEntity
  8
0
100
AcDbSpline
 62
7
  6
CONTINUOUS
 70
0
 71
3
 72
8
 73
4
 74
0
 42
0.0000001
 43
0.0000001
 44
0.0000000001
 40
0.0
 40
0.0
 40
0.0
 40
0.0
 40
1.0
 40
1.0
 40
1.0
 40
1.0
 10
638.8949165295
 20
1035.055324935
 30
0.0
 10
638.6333553618
 20
1035.00395155
 30
0.0
 10
638.3730841319
 20
1034.9185014253
 30
0.0
 10
638.1422372976
 20
1034.7852227389
 30
0.0
  0
SPLINE
  5
47A
100
AcDbEntity
  8
0
100
AcDbSpline
 62
7
  6
CONTINUOUS
 70
0
 71
3
 72
8
 73
4
 74
0
 42
0.0000001
 43
0.0000001
 44
0.0000000001
 40
0.0
 40
0.0
 40
0.0
 40
0.0
 40
1.0
 40
1.0
 40
1.0
 40
1.0
 10
641.4710303905
 20
1034.8056591366
 30
0.0
 10
641.4709864212
 20
1034.6476522478
 30
0.0
 10
641.4060122951
 20
1034.4857562146
 30
0.0
 10
641.3110975018
 20
1034.3594337667
 30
0.0
  0
SPLINE
  5
47B
100
AcDbEntity
  8
0
100
AcDbSpline
 62
7
  6
CONTINUOUS
 70
0
 71
3
 72
9
 73
5
 74
0
 42
0.0000001
 43
0.0000001
 44
0.0000000001
 40
0.0
 40
0.0
 40
0.0
 40
0.0
 40
0.493903865
 40
1.0
 40
1.0
 40
1.0
 40
1.0
 10
641.3110975018
 20
1034.3594337667
 30
0.0
 10
641.2997396081
 20
1034.3443175041
 30
0.0
 10
641.2758581526
 20
1034.3143689146
 30
0.0
 10
641.2504041407
 20
1034.2857490177
 30
0.0
 10
641.2371687088
 20
1034.2716000024
 30
0.0
  0
SPLINE
  5
47C
100
AcDbEntity
  8
0
100
AcDbSpline
 62
7
  6
CONTINUOUS
 70
0
 71
3
 72
8
 73
4
 74
0
 42
0.0000001
 43
0.0000001
 44
0.0000000001
 40
0.0
 40
0.0
 40
0.0
 40
0.0
 40
1.0
 40
1.0
 40
1.0
 40
1.0
 10
641.2371687088
 20
1034.2716000024
 30
0.0
 10
641.139928015
 20
1034.167647213
 30
0.0
 10
641.0232392967
 20
1034.0807581066
 30
0.0
 10
640.8999652257
 20
1034.0095862134
 30
0.0
  0
SPLINE
  5
47D
100
AcDbEntity
  8
0
100
AcDbSpline
 62
7
  6
CONTINUOUS
 70
0
 71
3
 72
9
 73
5
 74
0
 42
0.0000001
 43
0.0000001
 44
0.0000000001
 40
0.0
 40
0.0
 40
0.0
 40
0.0
 40
0.2188848254
 40
1.0
 40
1.0
 40
1.0
 40
1.0
 10
688.7252767234
 20
1061.7325734338
 30
0.0
 10
688.6869520763
 20
1061.7923408801
 30
0.0
 10
688.479306607
 20
1062.0447485097
 30
0.0
 10
688.1793847556
 20
1062.2050743123
 30
0.0
 10
687.941459005
 20
1062.2921806647
 30
0.0
  0
SPLINE
  5
47E
100
AcDbEntity
  8
0
100
AcDbSpline
 62
7
  6
CONTINUOUS
 70
0
 71
3
 72
8
 73
4
 74
0
 42
0.0000001
 43
0.0000001
 44
0.0000000001
 40
0.0
 40
0.0
 40
0.0
 40
0.0
 40
1.0
 40
1.0
 40
1.0
 40
1.0
 10
687.941459005
 20
1062.2921806647
 30
0.0
 10
687.4172918389
 20
1062.4840820868
 30
0.0
 10
686.8185999046
 20
1062.5152624903
 30
0.0
 10
686.2708736229
 20
1062.4076832444
 30
0.0
  0
SPLINE
  5
47F
100
AcDbEntity
  8
0
100
AcDbSpline
 62
7
  6
CONTINUOUS
 70
0
 71
3
 72
8
 73
4
 74
0
 42
0.0000001
 43
0.0000001
 44
0.0000000001
 40
0.0
 40
0.0
 40
0.0
 40
0.0
 40
1.0
 40
1.0
 40
1.0
 40
1.0
 10
686.2708736229
 20
1062.4076832444
 30
0.0
 10
686.0093124551
 20
1062.3563098593
 30
0.0
 10
685.7490412253
 20
1062.2708597347
 30
0.0
 10
685.5181943909
 20
1062.1375810483
 30
0.0
  0
SPLINE
  5
480
100
AcDbEntity
  8
0
100
AcDbSpline
 62
7
  6
CONTINUOUS
 70
0
 71
3
 72
8
 73
4
 74
0
 42
0.0000001
 43
0.0000001
 44
0.0000000001
 40
0.0
 40
0.0
 40
0.0
 40
0.0
 40
1.0
 40
1.0
 40
1.0
 40
1.0
 10
688.8469874838
 20
1062.158017446
 30
0.0
 10
688.8469435145
 20
1062.0000105572
 30
0.0
 10
688.7819693885
 20
1061.838114524
 30
0.0
 10
688.6870545951
 20
1061.7117920761
 30
0.0
  0
SPLINE
  5
481
100
AcDbEntity
  8
0
100
AcDbSpline
 62
7
  6
CONTINUOUS
 70
0
 71
3
 72
9
 73
5
 74
0
 42
0.0000001
 43
0.0000001
 44
0.0000000001
 40
0.0
 40
0.0
 40
0.0
 40
0.0
 40
0.493903865
 40
1.0
 40
1.0
 40
1.0
 40
1.0
 10
688.6870545951
 20
1061.7117920761
 30
0.0
 10
688.6756967014
 20
1061.6966758135
 30
0.0
 10
688.651815246
 20
1061.666727224
 30
0.0
 10
688.6263612341
 20
1061.6381073271
 30
0.0
 10
688.6131258022
 20
1061.6239583118
 30
0.0
  0
SPLINE
  5
482
100
AcDbEntity
  8
0
100
AcDbSpline
 62
7
  6
CONTINUOUS
 70
0
 71
3
 72
8
 73
4
 74
0
 42
0.0000001
 43
0.0000001
 44
0.0000000001
 40
0.0
 40
0.0
 40
0.0
 40
0.0
 40
1.0
 40
1.0
 40
1.0
 40
1.0
 10
688.6131258022
 20
1061.6239583118
 30
0.0
 10
688.5158851083
 20
1061.5200055224
 30
0.0
 10
688.39919639
 20
1061.433116416
 30
0.0
 10
688.275922319
 20
1061.3619445228
 30
0.0
  0
SPLINE
  5
483
100
AcDbEntity
  8
0
100
AcDbSpline
 62
7
  6
CONTINUOUS
 70
0
 71
3
 72
9
 73
5
 74
0
 42
0.0000001
 43
0.0000001
 44
0.0000000001
 40
0.0
 40
0.0
 40
0.0
 40
0.0
 40
0.2188848254
 40
1.0
 40
1.0
 40
1.0
 40
1.0
 10
589.7299152028
 20
1118.8862790666
 30
0.0
 10
589.6915905557
 20
1118.946046513
 30
0.0
 10
589.4839450864
 20
1119.1984541425
 30
0.0
 10
589.1840232351
 20
1119.3587799451
 30
0.0
 10
588.9460974844
 20
1119.4458862975
 30
0.0
  0
SPLINE
  5
484
100
AcDbEntity
  8
0
100
AcDbSpline
 62
7
  6
CONTINUOUS
 70
0
 71
3
 72
8
 73
4
 74
0
 42
0.0000001
 43
0.0000001
 44
0.0000000001
 40
0.0
 40
0.0
 40
0.0
 40
0.0
 40
1.0
 40
1.0
 40
1.0
 40
1.0
 10
588.9460974844
 20
1119.4458862975
 30
0.0
 10
588.4219303183
 20
1119.6377877197
 30
0.0
 10
587.8232383841
 20
1119.6689681231
 30
0.0
 10
587.2755121023
 20
1119.5613888772
 30
0.0
  0
SPLINE
  5
485
100
AcDbEntity
  8
0
100
AcDbSpline
 62
7
  6
CONTINUOUS
 70
0
 71
3
 72
8
 73
4
 74
0
 42
0.0000001
 43
0.0000001
 44
0.0000000001
 40
0.0
 40
0.0
 40
0.0
 40
0.0
 40
1.0
 40
1.0
 40
1.0
 40
1.0
 10
587.2755121023
 20
1119.5613888772
 30
0.0
 10
587.0139509345
 20
1119.5100154922
 30
0.0
 10
586.7536797047
 20
1119.4245653675
 30
0.0
 10
586.5228328704
 20
1119.2912866811
 30
0.0
  0
SPLINE
  5
486
100
AcDbEntity
  8
0
100
AcDbSpline
 62
7
  6
CONTINUOUS
 70
0
 71
3
 72
8
 73
4
 74
0
 42
0.0000001
 43
0.0000001
 44
0.0000000001
 40
0.0
 40
0.0
 40
0.0
 40
0.0
 40
1.0
 40
1.0
 40
1.0
 40
1.0
 10
589.8516259632
 20
1119.3117230788
 30
0.0
 10
589.8515819939
 20
1119.15371619
 30
0.0
 10
589.7866078679
 20
1118.9918201569
 30
0.0
 10
589.6916930746
 20
1118.8654977089
 30
0.0
  0
SPLINE
  5
487
100
AcDbEntity
  8
0
100
AcDbSpline
 62
7
  6
CONTINUOUS
 70
0
 71
3
 72
9
 73
5
 74
0
 42
0.0000001
 43
0.0000001
 44
0.0000000001
 40
0.0
 40
0.0
 40
0.0
 40
0.0
 40
0.493903865
 40
1.0
 40
1.0
 40
1.0
 40
1.0
 10
589.6916930746
 20
1118.8654977089
 30
0.0
 10
589.6803351809
 20
1118.8503814464
 30
0.0
 10
589.6564537254
 20
1118.8204328568
 30
0.0
 10
589.6309997135
 20
1118.7918129599
 30
0.0
 10
589.6177642816
 20
1118.7776639446
 30
0.0
  0
SPLINE
  5
488
100
AcDbEntity
  8
0
100
AcDbSpline
 62
7
  6
CONTINUOUS
 70
0
 71
3
 72
8
 73
4
 74
0
 42
0.0000001
 43
0.0000001
 44
0.0000000001
 40
0.0
 40
0.0
 40
0.0
 40
0.0
 40
1.0
 40
1.0
 40
1.0
 40
1.0
 10
589.6177642816
 20
1118.7776639446
 30
0.0
 10
589.5205235877
 20
1118.6737111552
 30
0.0
 10
589.4038348694
 20
1118.5868220489
 30
0.0
 10
589.2805607984
 20
1118.5156501556
 30
0.0
  0
SPLINE
  5
489
100
AcDbEntity
  8
0
100
AcDbSpline
 62
7
  6
CONTINUOUS
 70
0
 71
3
 72
9
 73
5
 74
0
 42
0.0000001
 43
0.0000001
 44
0.0000000001
 40
0.0
 40
0.0
 40
0.0
 40
0.0
 40
0.2629720626
 40
1.0
 40
1.0
 40
1.0
 40
1.0
 10
748.6752825377
 20
641.9640134389
 30
0.0
 10
748.8793347577
 20
641.7108647958
 30
0.0
 10
749.5746418115
 20
640.6916932768
 30
0.0
 10
750.0073873634
 20
639.4507067791
 30
0.0
 10
750.0073873634
 20
638.5394178668
 30
0.0
  0
SPLINE
  5
48A
100
AcDbEntity
  8
0
100
AcDbSpline
 62
7
  6
CONTINUOUS
 70
0
 71
3
 72
9
 73
5
 74
0
 42
0.0000001
 43
0.0000001
 44
0.0000000001
 40
0.0
 40
0.0
 40
0.0
 40
0.0
 40
0.2629720626
 40
1.0
 40
1.0
 40
1.0
 40
1.0
 10
748.6752825376
 20
325.9775780097
 30
0.0
 10
748.8793347577
 20
325.7244293667
 30
0.0
 10
749.5746418115
 20
324.7052578477
 30
0.0
 10
750.0073873634
 20
323.46427135
 30
0.0
 10
750.0073873634
 20
322.5529824377
 30
0.0
  0
SPLINE
  5
48B
100
AcDbEntity
  8
0
100
AcDbSpline
 62
7
  6
CONTINUOUS
 70
0
 71
3
 72
9
 73
5
 74
0
 42
0.0000001
 43
0.0000001
 44
0.0000000001
 40
0.0
 40
0.0
 40
0.0
 40
0.0
 40
0.2629720626
 40
1.0
 40
1.0
 40
1.0
 40
1.0
 10
748.6752825377
 20
866.5021781495
 30
0.0
 10
748.8793347578
 20
866.2490295064
 30
0.0
 10
749.5746418115
 20
865.2298579875
 30
0.0
 10
750.0073873634
 20
863.9888714897
 30
0.0
 10
750.0073873634
 20
863.0775825774
 30
0.0
  0
SPLINE
  5
48C
100
AcDbEntity
  8
0
100
AcDbSpline
 62
7
  6
CONTINUOUS
 70
0
 71
3
 72
9
 73
5
 74
0
 42
0.0000001
 43
0.0000001
 44
0.0000000001
 40
0.0
 40
0.0
 40
0.0
 40
0.0
 40
0.2141953672
 40
1.0
 40
1.0
 40
1.0
 40
1.0
 10
332.4237262244
 20
1162.2990937398
 30
0.0
 10
332.3974992015
 20
1162.2308948656
 30
0.0
 10
332.2845473086
 20
1161.9089129109
 30
0.0
 10
332.2065907435
 20
1161.5748202467
 30
0.0
 10
332.1644615912
 20
1161.3100914286
 30
0.0
  0
SPLINE
  5
48D
100
AcDbEntity
  8
0
100
AcDbSpline
 62
7
  6
CONTINUOUS
 70
0
 71
3
 72
8
 73
4
 74
0
 42
0.0000001
 43
0.0000001
 44
0.0000000001
 40
0.0
 40
0.0
 40
0.0
 40
0.0
 40
1.0
 40
1.0
 40
1.0
 40
1.0
 10
332.1159913566
 20
1160.9121555269
 30
0.0
 10
332.0908813573
 20
1160.6172458863
 30
0.0
 10
332.0890080941
 20
1160.3191792578
 30
0.0
 10
332.1136311047
 20
1160.0242285576
 30
0.0
  0
SPLINE
  5
48E
100
AcDbEntity
  8
0
100
AcDbSpline
 62
7
  6
CONTINUOUS
 70
0
 71
3
 72
8
 73
4
 74
0
 42
0.0000001
 43
0.0000001
 44
0.0000000001
 40
0.0
 40
0.0
 40
0.0
 40
0.0
 40
1.0
 40
1.0
 40
1.0
 40
1.0
 10
332.1136311047
 20
1160.0242285576
 30
0.0
 10
332.1448471787
 20
1159.6503017864
 30
0.0
 10
332.2184599991
 20
1159.2763270289
 30
0.0
 10
332.3415341527
 20
1158.9218578113
 30
0.0
  0
SPLINE
  5
48F
100
AcDbEntity
  8
0
100
AcDbSpline
 62
7
  6
CONTINUOUS
 70
0
 71
3
 72
9
 73
5
 74
0
 42
0.0000001
 43
0.0000001
 44
0.0000000001
 40
0.0
 40
0.0
 40
0.0
 40
0.0
 40
0.2860329354
 40
1.0
 40
1.0
 40
1.0
 40
1.0
 10
523.5550710099
 20
1106.6560488764
 30
0.0
 10
523.200196099
 20
1106.8609313667
 30
0.0
 10
522.0132200395
 20
1107.6469540602
 30
0.0
 10
521.0178425088
 20
1108.851594789
 30
0.0
 10
520.7484964503
 20
1109.838325846
 30
0.0
  0
SPLINE
  5
490
100
AcDbEntity
  8
0
100
AcDbSpline
 62
7
  6
CONTINUOUS
 70
0
 71
3
 72
9
 73
5
 74
0
 42
0.0000001
 43
0.0000001
 44
0.0000000001
 40
0.0
 40
0.0
 40
0.0
 40
0.0
 40
0.4999996218
 40
1.0
 40
1.0
 40
1.0
 40
1.0
 10
679.1191516629
 20
1025.0079319658
 30
0.0
 10
677.0203732179
 20
1023.7962088987
 30
0.0
 10
672.0480898092
 20
1022.8382862401
 30
0.0
 10
667.0758063976
 20
1023.7961882065
 30
0.0
 10
664.9770160393
 20
1025.0078979723
 30
0.0
  0
SPLINE
  5
491
100
AcDbEntity
  8
0
100
AcDbSpline
 62
7
  6
CONTINUOUS
 70
0
 71
3
 72
8
 73
4
 74
0
 42
0.0000001
 43
0.0000001
 44
0.0000000001
 40
0.0
 40
0.0
 40
0.0
 40
0.0
 40
1.0
 40
1.0
 40
1.0
 40
1.0
 10
541.9046037051
 20
1091.1632918462
 30
0.0
 10
541.6752608117
 20
1091.0308814554
 30
0.0
 10
541.4168632751
 20
1090.9456975167
 30
0.0
 10
541.1570957903
 20
1090.8942045245
 30
0.0
  0
SPLINE
  5
492
100
AcDbEntity
  8
0
100
AcDbSpline
 62
7
  6
CONTINUOUS
 70
0
 71
3
 72
8
 73
4
 74
0
 42
0.0000001
 43
0.0000001
 44
0.0000000001
 40
0.0
 40
0.0
 40
0.0
 40
0.0
 40
1.0
 40
1.0
 40
1.0
 40
1.0
 10
541.1570957903
 20
1090.8942045245
 30
0.0
 10
540.6123776561
 20
1090.7862265509
 30
0.0
 10
540.0173184762
 20
1090.8159270836
 30
0.0
 10
539.4947546678
 20
1091.0038210824
 30
0.0
  0
SPLINE
  5
493
100
AcDbEntity
  8
0
100
AcDbSpline
 62
7
  6
CONTINUOUS
 70
0
 71
3
 72
9
 73
5
 74
0
 42
0.0000001
 43
0.0000001
 44
0.0000000001
 40
0.0
 40
0.0
 40
0.0
 40
0.0
 40
0.284356311
 40
1.0
 40
1.0
 40
1.0
 40
1.0
 10
539.4947546678
 20
1091.0038210824
 30
0.0
 10
539.4066437671
 20
1091.035502399
 30
0.0
 10
539.105089142
 20
1091.1635440996
 30
0.0
 10
538.8228392859
 20
1091.3717153389
 30
0.0
 10
538.6961693867
 20
1091.5704239716
 30
0.0
  0
SPLINE
  5
494
100
AcDbEntity
  8
0
100
AcDbSpline
 62
7
  6
CONTINUOUS
 70
0
 71
3
 72
9
 73
5
 74
0
 42
0.0000001
 43
0.0000001
 44
0.0000000001
 40
0.0
 40
0.0
 40
0.0
 40
0.0
 40
0.5073240209
 40
1.0
 40
1.0
 40
1.0
 40
1.0
 10
538.6961693867
 20
1091.5704239716
 30
0.0
 10
538.68237288
 20
1091.5920667219
 30
0.0
 10
538.6569786603
 20
1091.6359085345
 30
0.0
 10
538.6357208294
 20
1091.6819128375
 30
0.0
 10
538.6263972752
 20
1091.7050284652
 30
0.0
  0
SPLINE
  5
495
100
AcDbEntity
  8
0
100
AcDbSpline
 62
7
  6
CONTINUOUS
 70
0
 71
3
 72
8
 73
4
 74
0
 42
0.0000001
 43
0.0000001
 44
0.0000000001
 40
0.0
 40
0.0
 40
0.0
 40
0.0
 40
1.0
 40
1.0
 40
1.0
 40
1.0
 10
538.6263972752
 20
1091.7050284652
 30
0.0
 10
538.5940643491
 20
1091.7851905866
 30
0.0
 10
538.575786559
 20
1091.8729207021
 30
0.0
 10
538.5758106122
 20
1091.9593578657
 30
0.0
  0
SPLINE
  5
496
100
AcDbEntity
  8
0
100
AcDbSpline
 62
7
  6
CONTINUOUS
 70
0
 71
3
 72
8
 73
4
 74
0
 42
0.0000001
 43
0.0000001
 44
0.0000000001
 40
0.0
 40
0.0
 40
0.0
 40
0.0
 40
1.0
 40
1.0
 40
1.0
 40
1.0
 10
640.8999652257
 20
1034.0095862134
 30
0.0
 10
640.6706223323
 20
1033.8771758225
 30
0.0
 10
640.4122247957
 20
1033.7919918839
 30
0.0
 10
640.1524573109
 20
1033.7404988917
 30
0.0
  0
SPLINE
  5
497
100
AcDbEntity
  8
0
100
AcDbSpline
 62
7
  6
CONTINUOUS
 70
0
 71
3
 72
8
 73
4
 74
0
 42
0.0000001
 43
0.0000001
 44
0.0000000001
 40
0.0
 40
0.0
 40
0.0
 40
0.0
 40
1.0
 40
1.0
 40
1.0
 40
1.0
 10
640.1524573109
 20
1033.7404988917
 30
0.0
 10
639.6077391766
 20
1033.632520918
 30
0.0
 10
639.0126799968
 20
1033.6622214508
 30
0.0
 10
638.4901161884
 20
1033.8501154496
 30
0.0
  0
SPLINE
  5
498
100
AcDbEntity
  8
0
100
AcDbSpline
 62
7
  6
CONTINUOUS
 70
0
 71
3
 72
9
 73
5
 74
0
 42
0.0000001
 43
0.0000001
 44
0.0000000001
 40
0.0
 40
0.0
 40
0.0
 40
0.0
 40
0.284356311
 40
1.0
 40
1.0
 40
1.0
 40
1.0
 10
638.4901161884
 20
1033.8501154496
 30
0.0
 10
638.4020052877
 20
1033.8817967662
 30
0.0
 10
638.1004506626
 20
1034.0098384667
 30
0.0
 10
637.8182008065
 20
1034.2180097061
 30
0.0
 10
637.6915309073
 20
1034.4167183388
 30
0.0
  0
SPLINE
  5
499
100
AcDbEntity
  8
0
100
AcDbSpline
 62
7
  6
CONTINUOUS
 70
0
 71
3
 72
9
 73
5
 74
0
 42
0.0000001
 43
0.0000001
 44
0.0000000001
 40
0.0
 40
0.0
 40
0.0
 40
0.0
 40
0.5073240209
 40
1.0
 40
1.0
 40
1.0
 40
1.0
 10
637.6915309073
 20
1034.4167183388
 30
0.0
 10
637.6777344005
 20
1034.438361089
 30
0.0
 10
637.6523401809
 20
1034.4822029016
 30
0.0
 10
637.63108235
 20
1034.5282072047
 30
0.0
 10
637.6217587958
 20
1034.5513228324
 30
0.0
  0
SPLINE
  5
49A
100
AcDbEntity
  8
0
100
AcDbSpline
 62
7
  6
CONTINUOUS
 70
0
 71
3
 72
8
 73
4
 74
0
 42
0.0000001
 43
0.0000001
 44
0.0000000001
 40
0.0
 40
0.0
 40
0.0
 40
0.0
 40
1.0
 40
1.0
 40
1.0
 40
1.0
 10
637.6217587958
 20
1034.5513228324
 30
0.0
 10
637.5894258696
 20
1034.6314849538
 30
0.0
 10
637.5711480796
 20
1034.7192150693
 30
0.0
 10
637.5711721328
 20
1034.8056522328
 30
0.0
  0
SPLINE
  5
49B
100
AcDbEntity
  8
0
100
AcDbSpline
 62
7
  6
CONTINUOUS
 70
0
 71
3
 72
8
 73
4
 74
0
 42
0.0000001
 43
0.0000001
 44
0.0000000001
 40
0.0
 40
0.0
 40
0.0
 40
0.0
 40
1.0
 40
1.0
 40
1.0
 40
1.0
 10
688.275922319
 20
1061.3619445228
 30
0.0
 10
688.0476568697
 20
1061.2301561909
 30
0.0
 10
687.7906030547
 20
1061.1451516379
 30
0.0
 10
687.5321177528
 20
1061.093589748
 30
0.0
  0
SPLINE
  5
49C
100
AcDbEntity
  8
0
100
AcDbSpline
 62
7
  6
CONTINUOUS
 70
0
 71
3
 72
8
 73
4
 74
0
 42
0.0000001
 43
0.0000001
 44
0.0000000001
 40
0.0
 40
0.0
 40
0.0
 40
0.0
 40
1.0
 40
1.0
 40
1.0
 40
1.0
 10
687.5321177528
 20
1061.093589748
 30
0.0
 10
686.9861288719
 20
1060.9846774874
 30
0.0
 10
686.3893119382
 20
1061.0141975895
 30
0.0
 10
685.8654483575
 20
1061.2026987498
 30
0.0
  0
SPLINE
  5
49D
100
AcDbEntity
  8
0
100
AcDbSpline
 62
7
  6
CONTINUOUS
 70
0
 71
3
 72
9
 73
5
 74
0
 42
0.0000001
 43
0.0000001
 44
0.0000000001
 40
0.0
 40
0.0
 40
0.0
 40
0.0
 40
0.2843958287
 40
1.0
 40
1.0
 40
1.0
 40
1.0
 10
685.8654483575
 20
1061.2026987498
 30
0.0
 10
685.7772951983
 20
1061.234418788
 30
0.0
 10
685.4756401156
 20
1061.3625747763
 30
0.0
 10
685.1933905169
 20
1061.5710976732
 30
0.0
 10
685.0669031507
 20
1061.7700259826
 30
0.0
  0
SPLINE
  5
49E
100
AcDbEntity
  8
0
100
AcDbSpline
 62
7
  6
CONTINUOUS
 70
0
 71
3
 72
9
 73
5
 74
0
 42
0.0000001
 43
0.0000001
 44
0.0000000001
 40
0.0
 40
0.0
 40
0.0
 40
0.0
 40
0.5071943817
 40
1.0
 40
1.0
 40
1.0
 40
1.0
 10
685.0669031507
 20
1061.7700259826
 30
0.0
 10
685.053383803
 20
1061.7912880348
 30
0.0
 10
685.0284672784
 20
1061.8343460711
 30
0.0
 10
685.0075364462
 20
1061.8794896534
 30
0.0
 10
684.9983281363
 20
1061.9021732421
 30
0.0
  0
SPLINE
  5
49F
100
AcDbEntity
  8
0
100
AcDbSpline
 62
7
  6
CONTINUOUS
 70
0
 71
3
 72
8
 73
4
 74
0
 42
0.0000001
 43
0.0000001
 44
0.0000000001
 40
0.0
 40
0.0
 40
0.0
 40
0.0
 40
1.0
 40
1.0
 40
1.0
 40
1.0
 10
684.9983281363
 20
1061.9021732421
 30
0.0
 10
684.9656158346
 20
1061.9827561513
 30
0.0
 10
684.9471103747
 20
1062.0710404185
 30
0.0
 10
684.9471336209
 20
1062.1580099499
 30
0.0
  0
SPLINE
  5
4A0
100
AcDbEntity
  8
0
100
AcDbSpline
 62
7
  6
CONTINUOUS
 70
0
 71
3
 72
8
 73
4
 74
0
 42
0.0000001
 43
0.0000001
 44
0.0000000001
 40
0.0
 40
0.0
 40
0.0
 40
0.0
 40
1.0
 40
1.0
 40
1.0
 40
1.0
 10
589.2805607984
 20
1118.5156501556
 30
0.0
 10
589.0522953492
 20
1118.3838618237
 30
0.0
 10
588.7952415341
 20
1118.2988572707
 30
0.0
 10
588.5367562323
 20
1118.2472953808
 30
0.0
  0
SPLINE
  5
4A1
100
AcDbEntity
  8
0
100
AcDbSpline
 62
7
  6
CONTINUOUS
 70
0
 71
3
 72
8
 73
4
 74
0
 42
0.0000001
 43
0.0000001
 44
0.0000000001
 40
0.0
 40
0.0
 40
0.0
 40
0.0
 40
1.0
 40
1.0
 40
1.0
 40
1.0
 10
588.5367562323
 20
1118.2472953808
 30
0.0
 10
587.9907673513
 20
1118.1383831202
 30
0.0
 10
587.3939504176
 20
1118.1679032223
 30
0.0
 10
586.8700868369
 20
1118.3564043826
 30
0.0
  0
SPLINE
  5
4A2
100
AcDbEntity
  8
0
100
AcDbSpline
 62
7
  6
CONTINUOUS
 70
0
 71
3
 72
9
 73
5
 74
0
 42
0.0000001
 43
0.0000001
 44
0.0000000001
 40
0.0
 40
0.0
 40
0.0
 40
0.0
 40
0.2843958287
 40
1.0
 40
1.0
 40
1.0
 40
1.0
 10
586.8700868369
 20
1118.3564043826
 30
0.0
 10
586.7819336777
 20
1118.3881244209
 30
0.0
 10
586.480278595
 20
1118.5162804091
 30
0.0
 10
586.1980289964
 20
1118.724803306
 30
0.0
 10
586.0715416302
 20
1118.9237316154
 30
0.0
  0
SPLINE
  5
4A3
100
AcDbEntity
  8
0
100
AcDbSpline
 62
7
  6
CONTINUOUS
 70
0
 71
3
 72
9
 73
5
 74
0
 42
0.0000001
 43
0.0000001
 44
0.0000000001
 40
0.0
 40
0.0
 40
0.0
 40
0.0
 40
0.5071943817
 40
1.0
 40
1.0
 40
1.0
 40
1.0
 10
586.0715416302
 20
1118.9237316154
 30
0.0
 10
586.0580222824
 20
1118.9449936677
 30
0.0
 10
586.0331057579
 20
1118.988051704
 30
0.0
 10
586.0121749256
 20
1119.0331952863
 30
0.0
 10
586.0029666157
 20
1119.055878875
 30
0.0
  0
SPLINE
  5
4A4
100
AcDbEntity
  8
0
100
AcDbSpline
 62
7
  6
CONTINUOUS
 70
0
 71
3
 72
8
 73
4
 74
0
 42
0.0000001
 43
0.0000001
 44
0.0000000001
 40
0.0
 40
0.0
 40
0.0
 40
0.0
 40
1.0
 40
1.0
 40
1.0
 40
1.0
 10
586.0029666157
 20
1119.055878875
 30
0.0
 10
585.970254314
 20
1119.1364617842
 30
0.0
 10
585.9517488541
 20
1119.2247460513
 30
0.0
 10
585.9517721004
 20
1119.3117155827
 30
0.0
  0
SPLINE
  5
4A5
100
AcDbEntity
  8
0
100
AcDbSpline
 62
7
  6
CONTINUOUS
 70
0
 71
3
 72
9
 73
5
 74
0
 42
0.0000001
 43
0.0000001
 44
0.0000000001
 40
0.0
 40
0.0
 40
0.0
 40
0.0
 40
0.5000007091
 40
1.0
 40
1.0
 40
1.0
 40
1.0
 10
562.4457820567
 20
1128.2929749222
 30
0.0
 10
560.3469903097
 20
1129.5046854898
 30
0.0
 10
555.3747063631
 20
1130.4625866545
 30
0.0
 10
550.4024234893
 20
1129.5046631941
 30
0.0
 10
548.3036464331
 20
1128.2929409287
 30
0.0
  0
SPLINE
  5
4A6
100
AcDbEntity
  8
0
100
AcDbSpline
 62
7
  6
CONTINUOUS
 70
0
 71
3
 72
9
 73
5
 74
0
 42
0.0000001
 43
0.0000001
 44
0.0000000001
 40
0.0
 40
0.0
 40
0.0
 40
0.0
 40
0.2860329541
 40
1.0
 40
1.0
 40
1.0
 40
1.0
 10
523.5550121306
 20
1114.0043955432
 30
0.0
 10
523.2001402807
 20
1113.7995114081
 30
0.0
 10
522.0131755366
 20
1113.0134833707
 30
0.0
 10
521.0178147265
 20
1111.8088353501
 30
0.0
 10
520.7484834678
 20
1110.8221050814
 30
0.0
  0
SPLINE
  5
4A7
100
AcDbEntity
  8
0
100
AcDbSpline
 62
7
  6
CONTINUOUS
 70
0
 71
3
 72
8
 73
4
 74
0
 42
0.0000001
 43
0.0000001
 44
0.0000000001
 40
0.0
 40
0.0
 40
0.0
 40
0.0
 40
1.0
 40
1.0
 40
1.0
 40
1.0
 10
586.5228328704
 20
1119.2912866811
 30
0.0
 10
586.3684482121
 20
1119.2021531892
 30
0.0
 10
586.2226298297
 20
1119.08752199
 30
0.0
 10
586.1148017892
 20
1118.9455624332
 30
0.0
  0
SPLINE
  5
4A8
100
AcDbEntity
  8
0
100
AcDbSpline
 62
7
  6
CONTINUOUS
 70
0
 71
3
 72
8
 73
4
 74
0
 42
0.0000001
 43
0.0000001
 44
0.0000000001
 40
0.0
 40
0.0
 40
0.0
 40
0.0
 40
1.0
 40
1.0
 40
1.0
 40
1.0
 10
685.5181943909
 20
1062.1375810483
 30
0.0
 10
685.3638097327
 20
1062.0484475563
 30
0.0
 10
685.2179913503
 20
1061.9338163571
 30
0.0
 10
685.1101633098
 20
1061.7918568003
 30
0.0
  0
SPLINE
  5
4A9
100
AcDbEntity
  8
0
100
AcDbSpline
 62
7
  6
CONTINUOUS
 70
0
 71
3
 72
8
 73
4
 74
0
 42
0.0000001
 43
0.0000001
 44
0.0000000001
 40
0.0
 40
0.0
 40
0.0
 40
0.0
 40
1.0
 40
1.0
 40
1.0
 40
1.0
 10
638.1422372976
 20
1034.7852227389
 30
0.0
 10
637.9873371995
 20
1034.6957916594
 30
0.0
 10
637.8410259065
 20
1034.5806739933
 30
0.0
 10
637.7331011695
 20
1034.4380408642
 30
0.0
  0
SPLINE
  5
4AA
100
AcDbEntity
  8
0
100
AcDbSpline
 62
7
  6
CONTINUOUS
 70
0
 71
3
 72
8
 73
4
 74
0
 42
0.0000001
 43
0.0000001
 44
0.0000000001
 40
0.0
 40
0.0
 40
0.0
 40
0.0
 40
1.0
 40
1.0
 40
1.0
 40
1.0
 10
539.146875777
 20
1091.9389283717
 30
0.0
 10
538.9919756789
 20
1091.8494972922
 30
0.0
 10
538.8456643859
 20
1091.7343796262
 30
0.0
 10
538.7377396489
 20
1091.591746497
 30
0.0
  0
SPLINE
  5
4AB
100
AcDbEntity
  8
0
100
AcDbSpline
 62
7
  6
CONTINUOUS
 70
0
 71
3
 72
9
 73
5
 74
0
 42
0.0000001
 43
0.0000001
 44
0.0000000001
 40
0.0
 40
0.0
 40
0.0
 40
0.0
 40
0.2214949284
 40
1.0
 40
1.0
 40
1.0
 40
1.0
 10
706.674210821
 20
1043.4628794047
 30
0.0
 10
706.5904173913
 20
1043.7697347064
 30
0.0
 10
706.0223765476
 20
1045.1062015882
 30
0.0
 10
704.8359633319
 20
1046.0858252072
 30
0.0
 10
703.8677270861
 20
1046.6448240181
 30
0.0
  0
SPLINE
  5
4AC
100
AcDbEntity
  8
0
100
AcDbSpline
 62
7
  6
CONTINUOUS
 70
0
 71
3
 72
9
 73
5
 74
0
 42
0.0000001
 43
0.0000001
 44
0.0000000001
 40
0.0
 40
0.0
 40
0.0
 40
0.0
 40
0.221495169
 40
1.0
 40
1.0
 40
1.0
 40
1.0
 10
706.6742238082
 20
1042.4784354566
 30
0.0
 10
706.5904348846
 20
1042.1715800469
 30
0.0
 10
706.0224141657
 20
1040.8351114266
 30
0.0
 10
704.8360135334
 20
1039.8554804616
 30
0.0
 10
703.8677859654
 20
1039.2964773513
 30
0.0
  0
SPLINE
  5
4AD
100
AcDbEntity
  8
0
100
AcDbSpline
 62
7
  6
CONTINUOUS
 70
0
 71
3
 72
9
 73
5
 74
0
 42
0.0000001
 43
0.0000001
 44
0.0000000001
 40
0.0
 40
0.0
 40
0.0
 40
0.0
 40
0.2810698335
 40
1.0
 40
1.0
 40
1.0
 40
1.0
 10
513.1153887373
 20
1102.3958354008
 30
0.0
 10
512.5201008411
 20
1102.7395172528
 30
0.0
 10
510.4622754853
 20
1104.0527413401
 30
0.0
 10
508.6202769934
 20
1105.7783724076
 30
0.0
 10
507.6654015318
 20
1107.2546697655
 30
0.0
  0
SPLINE
  5
4AE
100
AcDbEntity
  8
0
100
AcDbSpline
 62
7
  6
CONTINUOUS
 70
0
 71
3
 72
9
 73
5
 74
0
 42
0.0000001
 43
0.0000001
 44
0.0000000001
 40
0.0
 40
0.0
 40
0.0
 40
0.0
 40
0.2651419731
 40
1.0
 40
1.0
 40
1.0
 40
1.0
 10
507.6654015318
 20
1107.2546697655
 30
0.0
 10
507.5287783811
 20
1107.465897726
 30
0.0
 10
507.0428179004
 20
1108.2807298959
 30
0.0
 10
506.6812297725
 20
1109.1728210269
 30
0.0
 10
506.5129688581
 20
1109.8494317155
 30
0.0
  0
SPLINE
  5
4AF
100
AcDbEntity
  8
0
100
AcDbSpline
 62
7
  6
CONTINUOUS
 70
0
 71
3
 72
9
 73
5
 74
0
 42
0.0000001
 43
0.0000001
 44
0.0000000001
 40
0.0
 40
0.0
 40
0.0
 40
0.0
 40
0.2369549498
 40
1.0
 40
1.0
 40
1.0
 40
1.0
 10
720.9098421519
 20
1042.489876056
 30
0.0
 10
720.8555643091
 20
1042.2716066427
 30
0.0
 10
720.584763721
 20
1041.3609439105
 30
0.0
 10
720.1502946639
 20
1040.5023838551
 30
0.0
 10
719.7568813897
 20
1039.8942657865
 30
0.0
  0
SPLINE
  5
4B0
100
AcDbEntity
  8
0
100
AcDbSpline
 62
7
  6
CONTINUOUS
 70
0
 71
3
 72
9
 73
5
 74
0
 42
0.0000001
 43
0.0000001
 44
0.0000000001
 40
0.0
 40
0.0
 40
0.0
 40
0.0
 40
0.2206761251
 40
1.0
 40
1.0
 40
1.0
 40
1.0
 10
719.7568813897
 20
1039.8942657865
 30
0.0
 10
719.463615389
 20
1039.4409502388
 30
0.0
 10
717.9727311759
 20
1037.4910085368
 30
0.0
 10
715.9588051293
 20
1035.9896562833
 30
0.0
 10
714.3075539481
 20
1035.03631166
 30
0.0
  0
SPLINE
  5
4B1
100
AcDbEntity
  8
0
100
AcDbSpline
 62
7
  6
CONTINUOUS
 70
0
 71
3
 72
11
 73
7
 74
0
 42
0.0000001
 43
0.0000001
 44
0.0000000001
 40
0.0
 40
0.0
 40
0.0
 40
0.0
 40
0.2374553408
 40
0.4999991329
 40
0.7625434642
 40
1.0
 40
1.0
 40
1.0
 40
1.0
 10
689.0199958394
 20
1020.4619308148
 30
0.0
 10
686.5640396207
 20
1019.179698567
 30
0.0
 10
680.9572169835
 20
1017.3028614688
 30
0.0
 10
672.0479452811
 20
1016.3965700273
 30
0.0
 10
663.1386633439
 20
1017.3029055754
 30
0.0
 10
657.5318328861
 20
1019.179791106
 30
0.0
 10
655.0758765808
 20
1020.462053314
 30
0.0
  0
SPLINE
  5
4B2
100
AcDbEntity
  8
0
100
AcDbSpline
 62
7
  6
CONTINUOUS
 70
0
 71
3
 72
8
 73
4
 74
0
 42
0.0000001
 43
0.0000001
 44
0.0000000001
 40
0.0
 40
0.0
 40
0.0
 40
0.0
 40
1.0
 40
1.0
 40
1.0
 40
1.0
 10
756.6895613126
 20
916.5381386105
 30
0.0
 10
756.3745581682
 20
916.5521638054
 30
0.0
 10
756.0560592524
 20
916.522499992
 30
0.0
 10
755.7467425475
 20
916.4612883655
 30
0.0
  0
SPLINE
  5
4B3
100
AcDbEntity
  8
0
100
AcDbSpline
 62
7
  6
CONTINUOUS
 70
0
 71
3
 72
8
 73
4
 74
0
 42
0.0000001
 43
0.0000001
 44
0.0000000001
 40
0.0
 40
0.0
 40
0.0
 40
0.0
 40
1.0
 40
1.0
 40
1.0
 40
1.0
 10
755.7467425475
 20
916.4612883655
 30
0.0
 10
755.5441228949
 20
916.4211913442
 30
0.0
 10
755.3440335673
 20
916.366979682
 30
0.0
 10
755.1476985523
 20
916.3028309749
 30
0.0
  0
SPLINE
  5
4B4
100
AcDbEntity
  8
0
100
AcDbSpline
 62
7
  6
CONTINUOUS
 70
0
 71
3
 72
8
 73
4
 74
0
 42
0.0000001
 43
0.0000001
 44
0.0000000001
 40
0.0
 40
0.0
 40
0.0
 40
0.0
 40
1.0
 40
1.0
 40
1.0
 40
1.0
 10
754.917628573
 20
916.222744382
 30
0.0
 10
754.7521746967
 20
916.1617509241
 30
0.0
 10
754.5892166856
 20
916.0940877419
 30
0.0
 10
754.4266949489
 20
916.0256635345
 30
0.0
  0
SPLINE
  5
4B5
100
AcDbEntity
  8
0
100
AcDbSpline
 62
7
  6
CONTINUOUS
 70
0
 71
3
 72
8
 73
4
 74
0
 42
0.0000001
 43
0.0000001
 44
0.0000000001
 40
0.0
 40
0.0
 40
0.0
 40
0.0
 40
1.0
 40
1.0
 40
1.0
 40
1.0
 10
756.6895613126
 20
264.152707324
 30
0.0
 10
756.2599317315
 20
264.0976329735
 30
0.0
 10
755.8087894246
 20
264.121193934
 30
0.0
 10
755.3933111672
 20
264.2436381198
 30
0.0
  0
SPLINE
  5
4B6
100
AcDbEntity
  8
0
100
AcDbSpline
 62
7
  6
CONTINUOUS
 70
0
 71
3
 72
8
 73
4
 74
0
 42
0.0000001
 43
0.0000001
 44
0.0000000001
 40
0.0
 40
0.0
 40
0.0
 40
0.0
 40
1.0
 40
1.0
 40
1.0
 40
1.0
 10
442.1022043907
 20
1224.3137783343
 30
0.0
 10
441.5707099999
 20
1224.5899696751
 30
0.0
 10
440.9218826414
 20
1224.6733108775
 30
0.0
 10
440.3277717832
 20
1224.5971516206
 30
0.0
  0
SPLINE
  5
4B7
100
AcDbEntity
  8
0
100
AcDbSpline
 62
7
  6
CONTINUOUS
 70
0
 71
3
 72
8
 73
4
 74
0
 42
0.0000001
 43
0.0000001
 44
0.0000000001
 40
0.0
 40
0.0
 40
0.0
 40
0.0
 40
1.0
 40
1.0
 40
1.0
 40
1.0
 10
864.768221937
 20
327.0174582959
 30
0.0
 10
864.7215905102
 20
326.8253758278
 30
0.0
 10
864.6645554937
 20
326.6352549268
 30
0.0
 10
864.5936068714
 20
326.4507652048
 30
0.0
  0
SPLINE
  5
4B8
100
AcDbEntity
  8
0
100
AcDbSpline
 62
7
  6
CONTINUOUS
 70
0
 71
3
 72
9
 73
5
 74
0
 42
0.0000001
 43
0.0000001
 44
0.0000000001
 40
0.0
 40
0.0
 40
0.0
 40
0.0
 40
0.0890982768
 40
1.0
 40
1.0
 40
1.0
 40
1.0
 10
864.9158103923
 20
980.2107701227
 30
0.0
 10
864.9209622907
 20
980.2077957269
 30
0.0
 10
864.9237800464
 20
980.127463883
 30
0.0
 10
864.8812947779
 20
980.0781243488
 30
0.0
 10
864.8517338849
 20
980.024973019
 30
0.0
  0
SPLINE
  5
4B9
100
AcDbEntity
  8
0
100
AcDbSpline
 62
7
  6
CONTINUOUS
 70
0
 71
3
 72
9
 73
5
 74
0
 42
0.0000001
 43
0.0000001
 44
0.0000000001
 40
0.0
 40
0.0
 40
0.0
 40
0.0
 40
0.4763174162
 40
1.0
 40
1.0
 40
1.0
 40
1.0
 10
864.8517338849
 20
980.024973019
 30
0.0
 10
864.8441422479
 20
980.0113230388
 30
0.0
 10
864.8277619659
 20
979.9829104409
 30
0.0
 10
864.8106382856
 20
979.9549408584
 30
0.0
 10
864.8015012504
 20
979.9404012662
 30
0.0
  0
SPLINE
  5
4BA
100
AcDbEntity
  8
0
100
AcDbSpline
 62
7
  6
CONTINUOUS
 70
0
 71
3
 72
8
 73
4
 74
0
 42
0.0000001
 43
0.0000001
 44
0.0000000001
 40
0.0
 40
0.0
 40
0.0
 40
0.0
 40
1.0
 40
1.0
 40
1.0
 40
1.0
 10
864.8015012504
 20
979.9404012662
 30
0.0
 10
864.738539355
 20
979.8402111864
 30
0.0
 10
864.6680049348
 20
979.7446671983
 30
0.0
 10
864.593593918
 20
979.6526603892
 30
0.0
  0
SPLINE
  5
4BB
100
AcDbEntity
  8
0
100
AcDbSpline
 62
7
  6
CONTINUOUS
 70
0
 71
3
 72
8
 73
4
 74
0
 42
0.0000001
 43
0.0000001
 44
0.0000000001
 40
0.0
 40
0.0
 40
0.0
 40
0.0
 40
1.0
 40
1.0
 40
1.0
 40
1.0
 10
864.6867411176
 20
327.3631166454
 30
0.0
 10
864.8140254753
 20
327.5010218309
 30
0.0
 10
864.9273397837
 20
327.6541896655
 30
0.0
 10
865.0171380728
 20
327.8189786677
 30
0.0
  0
SPLINE
  5
4BC
100
AcDbEntity
  8
0
100
AcDbSpline
 62
7
  6
CONTINUOUS
 70
0
 71
3
 72
8
 73
4
 74
0
 42
0.0000001
 43
0.0000001
 44
0.0000000001
 40
0.0
 40
0.0
 40
0.0
 40
0.0
 40
1.0
 40
1.0
 40
1.0
 40
1.0
 10
865.0171380728
 20
327.8189786677
 30
0.0
 10
865.0927844088
 20
327.9577973954
 30
0.0
 10
865.1522493986
 20
328.1071340711
 30
0.0
 10
865.1898452857
 20
328.2606904341
 30
0.0
  0
SPLINE
  5
4BD
100
AcDbEntity
  8
0
100
AcDbSpline
 62
7
  6
CONTINUOUS
 70
0
 71
3
 72
8
 73
4
 74
0
 42
0.0000001
 43
0.0000001
 44
0.0000000001
 40
0.0
 40
0.0
 40
0.0
 40
0.0
 40
1.0
 40
1.0
 40
1.0
 40
1.0
 10
865.1898452857
 20
328.2606904341
 30
0.0
 10
865.2213574702
 20
328.3893985672
 30
0.0
 10
865.2379654778
 20
328.5227865075
 30
0.0
 10
865.2379654761
 20
328.6552961346
 30
0.0
  0
SPLINE
  5
4BE
100
AcDbEntity
  8
0
100
AcDbSpline
 62
7
  6
CONTINUOUS
 70
0
 71
3
 72
8
 73
4
 74
0
 42
0.0000001
 43
0.0000001
 44
0.0000000001
 40
0.0
 40
0.0
 40
0.0
 40
0.0
 40
1.0
 40
1.0
 40
1.0
 40
1.0
 10
864.593593918
 20
979.6526603892
 30
0.0
 10
864.6502755184
 20
979.6426634813
 30
0.0
 10
864.706626602
 20
979.6303605709
 30
0.0
 10
864.7621518743
 20
979.6152051713
 30
0.0
  0
SPLINE
  5
4BF
100
AcDbEntity
  8
0
100
AcDbSpline
 62
7
  6
CONTINUOUS
 70
0
 71
3
 72
8
 73
4
 74
0
 42
0.0000001
 43
0.0000001
 44
0.0000000001
 40
0.0
 40
0.0
 40
0.0
 40
0.0
 40
1.0
 40
1.0
 40
1.0
 40
1.0
 10
864.7621518743
 20
979.6152051713
 30
0.0
 10
864.8581960992
 20
979.5889902867
 30
0.0
 10
864.9534810604
 20
979.5545555319
 30
0.0
 10
865.0395720611
 20
979.5045550027
 30
0.0
  0
SPLINE
  5
4C0
100
AcDbEntity
  8
0
100
AcDbSpline
 62
7
  6
CONTINUOUS
 70
0
 71
3
 72
9
 73
5
 74
0
 42
0.0000001
 43
0.0000001
 44
0.0000000001
 40
0.0
 40
0.0
 40
0.0
 40
0.0
 40
0.5174651809
 40
1.0
 40
1.0
 40
1.0
 40
1.0
 10
865.0395720611
 20
979.5045550027
 30
0.0
 10
865.0535930868
 20
979.496411774
 30
0.0
 10
865.0801976959
 20
979.4798059108
 30
0.0
 10
865.1054937418
 20
979.4612494824
 30
0.0
 10
865.1172842126
 20
979.4517842348
 30
0.0
  0
SPLINE
  5
4C1
100
AcDbEntity
  8
0
100
AcDbSpline
 62
7
  6
CONTINUOUS
 70
0
 71
3
 72
8
 73
4
 74
0
 42
0.0000001
 43
0.0000001
 44
0.0000000001
 40
0.0
 40
0.0
 40
0.0
 40
0.0
 40
1.0
 40
1.0
 40
1.0
 40
1.0
 10
865.1172842126
 20
979.4517842348
 30
0.0
 10
865.1796475916
 20
979.4017196678
 30
0.0
 10
865.2379655003
 20
979.3244001164
 30
0.0
 10
865.2379654761
 20
979.2444272966
 30
0.0
  0
SPLINE
  5
4C2
100
AcDbEntity
  8
0
100
AcDbSpline
 62
7
  6
CONTINUOUS
 70
0
 71
3
 72
8
 73
4
 74
0
 42
0.0000001
 43
0.0000001
 44
0.0000000001
 40
0.0
 40
0.0
 40
0.0
 40
0.0
 40
1.0
 40
1.0
 40
1.0
 40
1.0
 10
753.5782914754
 20
265.9490051631
 30
0.0
 10
753.6726387596
 20
265.8567047551
 30
0.0
 10
753.7739529613
 20
265.7711880303
 30
0.0
 10
753.8797763135
 20
265.6923071487
 30
0.0
  0
SPLINE
  5
4C3
100
AcDbEntity
  8
0
100
AcDbSpline
 62
7
  6
CONTINUOUS
 70
0
 71
3
 72
8
 73
4
 74
0
 42
0.0000001
 43
0.0000001
 44
0.0000000001
 40
0.0
 40
0.0
 40
0.0
 40
0.0
 40
1.0
 40
1.0
 40
1.0
 40
1.0
 10
753.8797763135
 20
265.6923071487
 30
0.0
 10
754.2519383143
 20
265.4148970485
 30
0.0
 10
754.6873366338
 20
265.2136974517
 30
0.0
 10
755.1339148389
 20
265.0870924546
 30
0.0
  0
SPLINE
  5
4C4
100
AcDbEntity
  8
0
100
AcDbSpline
 62
7
  6
CONTINUOUS
 70
0
 71
3
 72
9
 73
5
 74
0
 42
0.0000001
 43
0.0000001
 44
0.0000000001
 40
0.0
 40
0.0
 40
0.0
 40
0.0
 40
0.2803815029
 40
1.0
 40
1.0
 40
1.0
 40
1.0
 10
755.2960159413
 20
265.044567729
 30
0.0
 10
755.4232656276
 20
265.0138452077
 30
0.0
 10
755.8812720258
 20
264.9257095488
 30
0.0
 10
756.3586893039
 20
264.9108519199
 30
0.0
 10
756.6895613126
 20
264.9692097411
 30
0.0
  0
SPLINE
  5
4C5
100
AcDbEntity
  8
0
100
AcDbSpline
 62
7
  6
CONTINUOUS
 70
0
 71
3
 72
9
 73
5
 74
0
 42
0.0000001
 43
0.0000001
 44
0.0000000001
 40
0.0
 40
0.0
 40
0.0
 40
0.0
 40
0.2782565973
 40
1.0
 40
1.0
 40
1.0
 40
1.0
 10
750.0073873634
 20
638.5394178668
 30
0.0
 10
750.0073873634
 20
638.412960166
 30
0.0
 10
749.9830392174
 20
637.9605865311
 30
0.0
 10
749.8489822698
 20
637.5014647354
 30
0.0
 10
749.6639470979
 20
637.2306320557
 30
0.0
  0
SPLINE
  5
4C6
100
AcDbEntity
  8
0
100
AcDbSpline
 62
7
  6
CONTINUOUS
 70
0
 71
3
 72
8
 73
4
 74
0
 42
0.0000001
 43
0.0000001
 44
0.0000000001
 40
0.0
 40
0.0
 40
0.0
 40
0.0
 40
1.0
 40
1.0
 40
1.0
 40
1.0
 10
749.569266359
 20
637.1065919464
 30
0.0
 10
749.4737210116
 20
636.9945258692
 30
0.0
 10
749.3582682904
 20
636.8963310472
 30
0.0
 10
749.2306886236
 20
636.8227705437
 30
0.0
  0
SPLINE
  5
4C7
100
AcDbEntity
  8
0
100
AcDbSpline
 62
7
  6
CONTINUOUS
 70
0
 71
3
 72
9
 73
5
 74
0
 42
0.0000001
 43
0.0000001
 44
0.0000000001
 40
0.0
 40
0.0
 40
0.0
 40
0.0
 40
0.2782565973
 40
1.0
 40
1.0
 40
1.0
 40
1.0
 10
750.0073873634
 20
863.0775825774
 30
0.0
 10
750.0073873634
 20
862.9511248767
 30
0.0
 10
749.9830392174
 20
862.4987512417
 30
0.0
 10
749.8489822698
 20
862.039629446
 30
0.0
 10
749.6639470979
 20
861.7687967663
 30
0.0
  0
SPLINE
  5
4C8
100
AcDbEntity
  8
0
100
AcDbSpline
 62
7
  6
CONTINUOUS
 70
0
 71
3
 72
8
 73
4
 74
0
 42
0.0000001
 43
0.0000001
 44
0.0000000001
 40
0.0
 40
0.0
 40
0.0
 40
0.0
 40
1.0
 40
1.0
 40
1.0
 40
1.0
 10
749.569266359
 20
861.644756657
 30
0.0
 10
749.4737210116
 20
861.5326905799
 30
0.0
 10
749.3582682904
 20
861.4344957579
 30
0.0
 10
749.2306886236
 20
861.3609352544
 30
0.0
  0
SPLINE
  5
4C9
100
AcDbEntity
  8
0
100
AcDbSpline
 62
7
  6
CONTINUOUS
 70
0
 71
3
 72
9
 73
5
 74
0
 42
0.0000001
 43
0.0000001
 44
0.0000000001
 40
0.0
 40
0.0
 40
0.0
 40
0.0
 40
0.2782565973
 40
1.0
 40
1.0
 40
1.0
 40
1.0
 10
750.0073873634
 20
322.5529824377
 30
0.0
 10
750.0073873634
 20
322.4265247369
 30
0.0
 10
749.9830392174
 20
321.974151102
 30
0.0
 10
749.8489822698
 20
321.5150293062
 30
0.0
 10
749.6639470979
 20
321.2441966265
 30
0.0
  0
SPLINE
  5
4CA
100
AcDbEntity
  8
0
100
AcDbSpline
 62
7
  6
CONTINUOUS
 70
0
 71
3
 72
8
 73
4
 74
0
 42
0.0000001
 43
0.0000001
 44
0.0000000001
 40
0.0
 40
0.0
 40
0.0
 40
0.0
 40
1.0
 40
1.0
 40
1.0
 40
1.0
 10
749.569266359
 20
321.1201565172
 30
0.0
 10
749.4737210116
 20
321.0080904401
 30
0.0
 10
749.3582682904
 20
320.9098956181
 30
0.0
 10
749.2306886236
 20
320.8363351146
 30
0.0
  0
SPLINE
  5
4CB
100
AcDbEntity
  8
0
100
AcDbSpline
 62
7
  6
CONTINUOUS
 70
0
 71
3
 72
8
 73
4
 74
0
 42
0.0000001
 43
0.0000001
 44
0.0000000001
 40
0.0
 40
0.0
 40
0.0
 40
0.0
 40
1.0
 40
1.0
 40
1.0
 40
1.0
 10
748.6208754302
 20
637.1633356635
 30
0.0
 10
748.8603355151
 20
637.0845711625
 30
0.0
 10
749.1187318147
 20
637.0406580994
 30
0.0
 10
749.3700541557
 20
637.0602044497
 30
0.0
  0
SPLINE
  5
4CC
100
AcDbEntity
  8
0
100
AcDbSpline
 62
7
  6
CONTINUOUS
 70
0
 71
3
 72
8
 73
4
 74
0
 42
0.0000001
 43
0.0000001
 44
0.0000000001
 40
0.0
 40
0.0
 40
0.0
 40
0.0
 40
1.0
 40
1.0
 40
1.0
 40
1.0
 10
748.6208754302
 20
321.1769002344
 30
0.0
 10
748.8603355151
 20
321.0981357333
 30
0.0
 10
749.1187318147
 20
321.0542226702
 30
0.0
 10
749.3700541557
 20
321.0737690205
 30
0.0
  0
SPLINE
  5
4CD
100
AcDbEntity
  8
0
100
AcDbSpline
 62
7
  6
CONTINUOUS
 70
0
 71
3
 72
8
 73
4
 74
0
 42
0.0000001
 43
0.0000001
 44
0.0000000001
 40
0.0
 40
0.0
 40
0.0
 40
0.0
 40
1.0
 40
1.0
 40
1.0
 40
1.0
 10
748.6208754303
 20
861.7015003742
 30
0.0
 10
748.8603355151
 20
861.6227358731
 30
0.0
 10
749.1187318147
 20
861.57882281
 30
0.0
 10
749.3700541557
 20
861.5983691603
 30
0.0
  0
SPLINE
  5
4CE
100
AcDbEntity
  8
0
100
AcDbSpline
 62
7
  6
CONTINUOUS
 70
0
 71
3
 72
9
 73
5
 74
0
 42
0.0000001
 43
0.0000001
 44
0.0000000001
 40
0.0
 40
0.0
 40
0.0
 40
0.0
 40
0.2141948081
 40
1.0
 40
1.0
 40
1.0
 40
1.0
 10
754.2853953126
 20
915.9665723852
 30
0.0
 10
754.3247668526
 20
915.9727840402
 30
0.0
 10
754.5076831115
 20
916.0072510782
 30
0.0
 10
754.6867729598
 20
916.0615580179
 30
0.0
 10
754.8233257424
 20
916.1138614139
 30
0.0
  0
SPLINE
  5
4CF
100
AcDbEntity
  8
0
100
AcDbSpline
 62
7
  6
CONTINUOUS
 70
0
 71
3
 72
8
 73
4
 74
0
 42
0.0000001
 43
0.0000001
 44
0.0000000001
 40
0.0
 40
0.0
 40
0.0
 40
0.0
 40
1.0
 40
1.0
 40
1.0
 40
1.0
 10
684.9471336209
 20
1062.1580099499
 30
0.0
 10
684.947166845
 20
1062.2823087678
 30
0.0
 10
684.9860566123
 20
1062.4094684073
 30
0.0
 10
685.0487652594
 20
1062.5167895275
 30
0.0
  0
SPLINE
  5
4D0
100
AcDbEntity
  8
0
100
AcDbSpline
 62
7
  6
CONTINUOUS
 70
0
 71
3
 72
8
 73
4
 74
0
 42
0.0000001
 43
0.0000001
 44
0.0000000001
 40
0.0
 40
0.0
 40
0.0
 40
0.0
 40
1.0
 40
1.0
 40
1.0
 40
1.0
 10
685.0893136366
 20
1062.5798111066
 30
0.0
 10
685.198484788
 20
1062.7350003951
 30
0.0
 10
685.3538726874
 20
1062.8592128519
 30
0.0
 10
685.5181943909
 20
1062.9540834654
 30
0.0
  0
SPLINE
  5
4D1
100
AcDbEntity
  8
0
100
AcDbSpline
 62
7
  6
CONTINUOUS
 70
0
 71
3
 72
8
 73
4
 74
0
 42
0.0000001
 43
0.0000001
 44
0.0000000001
 40
0.0
 40
0.0
 40
0.0
 40
0.0
 40
1.0
 40
1.0
 40
1.0
 40
1.0
 10
749.2306886236
 20
636.8227705437
 30
0.0
 10
749.0631879605
 20
636.7261921984
 30
0.0
 10
748.8686701611
 20
636.6696650732
 30
0.0
 10
748.6760400363
 20
636.653007223
 30
0.0
  0
SPLINE
  5
4D2
100
AcDbEntity
  8
0
100
AcDbSpline
 62
7
  6
CONTINUOUS
 70
0
 71
3
 72
8
 73
4
 74
0
 42
0.0000001
 43
0.0000001
 44
0.0000000001
 40
0.0
 40
0.0
 40
0.0
 40
0.0
 40
1.0
 40
1.0
 40
1.0
 40
1.0
 10
754.3051428615
 20
264.8719036568
 30
0.0
 10
753.9913749565
 20
265.170494404
 30
0.0
 10
753.7454076296
 20
265.5494067103
 30
0.0
 10
753.5782914754
 20
265.9490051631
 30
0.0
  0
SPLINE
  5
4D3
100
AcDbEntity
  8
0
100
AcDbSpline
 62
7
  6
CONTINUOUS
 70
0
 71
3
 72
8
 73
4
 74
0
 42
0.0000001
 43
0.0000001
 44
0.0000000001
 40
0.0
 40
0.0
 40
0.0
 40
0.0
 40
1.0
 40
1.0
 40
1.0
 40
1.0
 10
749.2306886236
 20
320.8363351146
 30
0.0
 10
749.0631879605
 20
320.7397567692
 30
0.0
 10
748.868670161
 20
320.683229644
 30
0.0
 10
748.6760400362
 20
320.6665717938
 30
0.0
  0
SPLINE
  5
4D4
100
AcDbEntity
  8
0
100
AcDbSpline
 62
7
  6
CONTINUOUS
 70
0
 71
3
 72
8
 73
4
 74
0
 42
0.0000001
 43
0.0000001
 44
0.0000000001
 40
0.0
 40
0.0
 40
0.0
 40
0.0
 40
1.0
 40
1.0
 40
1.0
 40
1.0
 10
865.2379654761
 20
979.2444272966
 30
0.0
 10
865.2379654519
 20
979.1644522643
 30
0.0
 10
865.1796444802
 20
979.0871309794
 30
0.0
 10
865.1172786734
 20
979.0370659023
 30
0.0
  0
SPLINE
  5
4D5
100
AcDbEntity
  8
0
100
AcDbSpline
 62
7
  6
CONTINUOUS
 70
0
 71
3
 72
9
 73
5
 74
0
 42
0.0000001
 43
0.0000001
 44
0.0000000001
 40
0.0
 40
0.0
 40
0.0
 40
0.0
 40
0.207804107
 40
1.0
 40
1.0
 40
1.0
 40
1.0
 10
865.1172786734
 20
979.0370659023
 30
0.0
 10
865.0937416993
 20
979.0181712471
 30
0.0
 10
864.972457494
 20
978.9372651418
 30
0.0
 10
864.8318030387
 20
978.8902162865
 30
0.0
 10
864.7200682963
 20
978.8627404967
 30
0.0
  0
SPLINE
  5
4D6
100
AcDbEntity
  8
0
100
AcDbSpline
 62
7
  6
CONTINUOUS
 70
0
 71
3
 72
8
 73
4
 74
0
 42
0.0000001
 43
0.0000001
 44
0.0000000001
 40
0.0
 40
0.0
 40
0.0
 40
0.0
 40
1.0
 40
1.0
 40
1.0
 40
1.0
 10
749.2306886236
 20
861.3609352544
 30
0.0
 10
749.0631879605
 20
861.264356909
 30
0.0
 10
748.8686701611
 20
861.2078297838
 30
0.0
 10
748.6760400363
 20
861.1911719336
 30
0.0
  0
SPLINE
  5
4D7
100
AcDbEntity
  8
0
100
AcDbSpline
 62
7
  6
CONTINUOUS
 70
0
 71
3
 72
8
 73
4
 74
0
 42
0.0000001
 43
0.0000001
 44
0.0000000001
 40
0.0
 40
0.0
 40
0.0
 40
0.0
 40
1.0
 40
1.0
 40
1.0
 40
1.0
 10
520.6266689116
 20
1110.7384904113
 30
0.0
 10
520.626668979
 20
1111.041378385
 30
0.0
 10
520.6687896037
 20
1111.3467489435
 30
0.0
 10
520.7485742878
 20
1111.638939855
 30
0.0
  0
SPLINE
  5
4D8
100
AcDbEntity
  8
0
100
AcDbSpline
 62
7
  6
CONTINUOUS
 70
0
 71
3
 72
9
 73
5
 74
0
 42
0.0000001
 43
0.0000001
 44
0.0000000001
 40
0.0
 40
0.0
 40
0.0
 40
0.0
 40
0.2257225737
 40
1.0
 40
1.0
 40
1.0
 40
1.0
 10
520.7485742878
 20
1111.638939855
 30
0.0
 10
520.8204329337
 20
1111.9021036872
 30
0.0
 10
521.2745366436
 20
1113.0327260707
 30
0.0
 10
522.1963157645
 20
1113.9195077357
 30
0.0
 10
522.9670367615
 20
1114.4501964415
 30
0.0
  0
SPLINE
  5
4D9
100
AcDbEntity
  8
0
100
AcDbSpline
 62
7
  6
CONTINUOUS
 70
0
 71
3
 72
9
 73
5
 74
0
 42
0.0000001
 43
0.0000001
 44
0.0000000001
 40
0.0
 40
0.0
 40
0.0
 40
0.0
 40
0.2742159185
 40
1.0
 40
1.0
 40
1.0
 40
1.0
 10
510.4736456055
 20
1102.4103536876
 30
0.0
 10
509.7955441979
 20
1102.8018468611
 30
0.0
 10
507.3948754457
 20
1104.3389751473
 30
0.0
 10
505.2659792356
 20
1106.3856084119
 30
0.0
 10
504.1677310641
 20
1108.1430915885
 30
0.0
  0
SPLINE
  5
4DA
100
AcDbEntity
  8
0
100
AcDbSpline
 62
7
  6
CONTINUOUS
 70
0
 71
3
 72
11
 73
7
 74
0
 42
0.0000001
 43
0.0000001
 44
0.0000000001
 40
0.0
 40
0.0
 40
0.0
 40
0.0
 40
0.230288363
 40
0.4555792307
 40
0.7065372379
 40
1.0
 40
1.0
 40
1.0
 40
1.0
 10
503.9190939003
 20
1108.5592854087
 30
0.0
 10
503.1891038138
 20
1109.8395832746
 30
0.0
 10
502.2138019545
 20
1112.7184648289
 30
0.0
 10
503.0475995446
 20
1117.3410263056
 30
0.0
 10
505.9948427441
 20
1121.4358887036
 30
0.0
 10
508.8470130539
 20
1123.5164068617
 30
0.0
 10
510.4734866313
 20
1124.4554462142
 30
0.0
  0
SPLINE
  5
4DB
100
AcDbEntity
  8
0
100
AcDbSpline
 62
7
  6
CONTINUOUS
 70
0
 71
3
 72
11
 73
7
 74
0
 42
0.0000001
 43
0.0000001
 44
0.0000000001
 40
0.0
 40
0.0
 40
0.0
 40
0.0
 40
0.2191471622
 40
0.4496764824
 40
0.7076408937
 40
1.0
 40
1.0
 40
1.0
 40
1.0
 10
720.9437757912
 20
1042.6769269206
 30
0.0
 10
721.1174039477
 20
1043.7055857509
 30
0.0
 10
721.0633384418
 20
1045.9088941637
 30
0.0
 10
719.6993689634
 20
1049.0621047044
 30
0.0
 10
717.2176522233
 20
1051.8901246365
 30
0.0
 10
715.0549902972
 20
1053.4073884754
 30
0.0
 10
713.8497175718
 20
1054.1032372656
 30
0.0
  0
SPLINE
  5
4DC
100
AcDbEntity
  8
0
100
AcDbSpline
 62
7
  6
CONTINUOUS
 70
0
 71
3
 72
11
 73
7
 74
0
 42
0.0000001
 43
0.0000001
 44
0.0000000001
 40
0.0
 40
0.0
 40
0.0
 40
0.0
 40
0.2394378333
 40
0.4999995748
 40
0.7605615334
 40
1.0
 40
1.0
 40
1.0
 40
1.0
 10
689.7553052647
 20
1019.4049921629
 30
0.0
 10
687.1536501481
 20
1018.1008783553
 30
0.0
 10
681.3049249943
 20
1016.1902491781
 30
0.0
 10
672.0481419176
 20
1015.2684991754
 30
0.0
 10
662.7913478387
 20
1016.1902170268
 30
0.0
 10
656.94260563
 20
1018.1008255022
 30
0.0
 10
654.340937079
 20
1019.404929688
 30
0.0
  0
SPLINE
  5
4DD
100
AcDbEntity
  8
0
100
AcDbSpline
 62
7
  6
CONTINUOUS
 70
0
 71
3
 72
11
 73
7
 74
0
 42
0.0000001
 43
0.0000001
 44
0.0000000001
 40
0.0
 40
0.0
 40
0.0
 40
0.0
 40
0.2199481815
 40
0.4497428017
 40
0.707108916
 40
1.0
 40
1.0
 40
1.0
 40
1.0
 10
506.4642601242
 20
1110.0600012461
 30
0.0
 10
506.2344767047
 20
1111.1153781119
 30
0.0
 10
506.1885891795
 20
1113.3932781475
 30
0.0
 10
507.5086254355
 20
1116.6873779689
 30
0.0
 10
510.0342192952
 20
1119.6350917686
 30
0.0
 10
512.2623734276
 20
1121.2064641977
 30
0.0
 10
513.5079829039
 20
1121.9256128715
 30
0.0
  0
SPLINE
  5
4DE
100
AcDbEntity
  8
0
100
AcDbSpline
 62
7
  6
CONTINUOUS
 70
0
 71
3
 72
11
 73
7
 74
0
 42
0.0000001
 43
0.0000001
 44
0.0000000001
 40
0.0
 40
0.0
 40
0.0
 40
0.0
 40
0.2934634317
 40
0.5444220203
 40
0.7697127912
 40
1.0
 40
1.0
 40
1.0
 40
1.0
 10
716.9491524905
 20
1057.0959375771
 30
0.0
 10
718.575638865
 20
1056.1569064747
 30
0.0
 10
721.4278358913
 20
1054.0764042761
 30
0.0
 10
724.3751345094
 20
1049.9815673154
 30
0.0
 10
725.2090075232
 20
1045.3590188179
 30
0.0
 10
724.2337522387
 20
1042.4801243757
 30
0.0
 10
723.5037818465
 20
1041.199821369
 30
0.0
  0
SPLINE
  5
4DF
100
AcDbEntity
  8
0
100
AcDbSpline
 62
7
  6
CONTINUOUS
 70
0
 71
3
 72
9
 73
5
 74
0
 42
0.0000001
 43
0.0000001
 44
0.0000000001
 40
0.0
 40
0.0
 40
0.0
 40
0.0
 40
0.227921406
 40
1.0
 40
1.0
 40
1.0
 40
1.0
 10
723.2551563965
 20
1040.7836343296
 30
0.0
 10
722.9100315567
 20
1040.2313277373
 30
0.0
 10
721.2021639593
 20
1037.9282108917
 30
0.0
 10
718.8599094692
 20
1036.1539227383
 30
0.0
 10
716.9493114647
 20
1035.0508450505
 30
0.0
  0
SPLINE
  5
4E0
100
AcDbEntity
  8
0
100
AcDbSpline
 62
7
  6
CONTINUOUS
 70
0
 71
3
 72
11
 73
7
 74
0
 42
0.0000001
 43
0.0000001
 44
0.0000000001
 40
0.0
 40
0.0
 40
0.0
 40
0.0
 40
0.2372398078
 40
0.4999994051
 40
0.7627593222
 40
1.0
 40
1.0
 40
1.0
 40
1.0
 10
536.2827766896
 20
1139.3563578305
 30
0.0
 10
538.9932819443
 20
1140.9212594277
 30
0.0
 10
545.2965270198
 20
1143.2048208577
 30
0.0
 10
555.3746274468
 20
1144.2989008218
 30
0.0
 10
565.4527445434
 20
1143.2048677119
 30
0.0
 10
571.7560163946
 20
1140.9213374027
 30
0.0
 10
574.4665428734
 20
1139.356449613
 30
0.0
  0
SPLINE
  5
4E1
100
AcDbEntity
  8
0
100
AcDbSpline
 62
7
  6
CONTINUOUS
 70
0
 71
3
 72
9
 73
5
 74
0
 42
0.0000001
 43
0.0000001
 44
0.0000000001
 40
0.0
 40
0.0
 40
0.0
 40
0.0
 40
0.2208527466
 40
1.0
 40
1.0
 40
1.0
 40
1.0
 10
714.3074668942
 20
1035.0364624263
 30
0.0
 10
714.3734048049
 20
1035.0745438649
 30
0.0
 10
714.7048274253
 20
1035.1948356494
 30
0.0
 10
715.0749069564
 20
1035.071576282
 30
0.0
 10
715.3075494712
 20
1034.937263102
 30
0.0
  0
SPLINE
  5
4E2
100
AcDbEntity
  8
0
100
AcDbSpline
 62
7
  6
CONTINUOUS
 70
0
 71
3
 72
9
 73
5
 74
0
 42
0.0000001
 43
0.0000001
 44
0.0000000001
 40
0.0
 40
0.0
 40
0.0
 40
0.0
 40
0.214196821
 40
1.0
 40
1.0
 40
1.0
 40
1.0
 10
753.5782914754
 20
915.5583282314
 30
0.0
 10
753.6242405211
 20
915.6151427362
 30
0.0
 10
753.84661057
 20
915.8739595579
 30
0.0
 10
754.096967066
 20
916.1085248774
 30
0.0
 10
754.3051661137
 20
916.2773787233
 30
0.0
  0
SPLINE
  5
4E3
100
AcDbEntity
  8
0
100
AcDbSpline
 62
7
  6
CONTINUOUS
 70
0
 71
3
 72
8
 73
4
 74
0
 42
0.0000001
 43
0.0000001
 44
0.0000000001
 40
0.0
 40
0.0
 40
0.0
 40
0.0
 40
1.0
 40
1.0
 40
1.0
 40
1.0
 10
754.3051661137
 20
916.2773787233
 30
0.0
 10
754.6383276656
 20
916.547579812
 30
0.0
 10
755.005298993
 20
916.7815104446
 30
0.0
 10
755.3933419072
 20
916.9643435508
 30
0.0
  0
SPLINE
  5
4E4
100
AcDbEntity
  8
0
100
AcDbSpline
 62
7
  6
CONTINUOUS
 70
0
 71
3
 72
8
 73
4
 74
0
 42
0.0000001
 43
0.0000001
 44
0.0000000001
 40
0.0
 40
0.0
 40
0.0
 40
0.0
 40
1.0
 40
1.0
 40
1.0
 40
1.0
 10
755.9128986465
 20
917.1732396563
 30
0.0
 10
756.0923986082
 20
917.2333263374
 30
0.0
 10
756.2760602159
 20
917.2825213964
 30
0.0
 10
756.4619643725
 20
917.3181625253
 30
0.0
  0
SPLINE
  5
4E5
100
AcDbEntity
  8
0
100
AcDbSpline
 62
7
  6
CONTINUOUS
 70
0
 71
3
 72
9
 73
5
 74
0
 42
0.0000001
 43
0.0000001
 44
0.0000000001
 40
0.0
 40
0.0
 40
0.0
 40
0.0
 40
0.2208523428
 40
1.0
 40
1.0
 40
1.0
 40
1.0
 10
654.1838659572
 20
1020.9519556415
 30
0.0
 10
654.1179286597
 20
1020.9900360902
 30
0.0
 10
653.7865088894
 20
1021.1103238551
 30
0.0
 10
653.4164348286
 20
1020.9870624679
 30
0.0
 10
653.1837958711
 20
1020.8527491048
 30
0.0
  0
SPLINE
  5
4E6
100
AcDbEntity
  8
0
100
AcDbSpline
 62
7
  6
CONTINUOUS
 70
0
 71
3
 72
8
 73
4
 74
0
 42
0.0000001
 43
0.0000001
 44
0.0000000001
 40
0.0
 40
0.0
 40
0.0
 40
0.0
 40
1.0
 40
1.0
 40
1.0
 40
1.0
 10
585.9517721004
 20
1119.3117155827
 30
0.0
 10
585.9518053244
 20
1119.4360144007
 30
0.0
 10
585.9906950918
 20
1119.5631740401
 30
0.0
 10
586.0534037388
 20
1119.6704951603
 30
0.0
  0
SPLINE
  5
4E7
100
AcDbEntity
  8
0
100
AcDbSpline
 62
7
  6
CONTINUOUS
 70
0
 71
3
 72
8
 73
4
 74
0
 42
0.0000001
 43
0.0000001
 44
0.0000000001
 40
0.0
 40
0.0
 40
0.0
 40
0.0
 40
1.0
 40
1.0
 40
1.0
 40
1.0
 10
586.093952116
 20
1119.7335167395
 30
0.0
 10
586.2031232674
 20
1119.8887060279
 30
0.0
 10
586.3585111668
 20
1120.0129184848
 30
0.0
 10
586.5228328704
 20
1120.1077890983
 30
0.0
  0
SPLINE
  5
4E8
100
AcDbEntity
  8
0
100
AcDbSpline
 62
7
  6
CONTINUOUS
 70
0
 71
3
 72
11
 73
7
 74
0
 42
0.0000001
 43
0.0000001
 44
0.0000000001
 40
0.0
 40
0.0
 40
0.0
 40
0.0
 40
0.2936852749
 40
0.545617202
 40
0.7713726579
 40
1.0
 40
1.0
 40
1.0
 40
1.0
 10
510.8270414939
 20
1124.0063751118
 30
0.0
 10
509.2616496975
 20
1123.1026011315
 30
0.0
 10
506.5104548456
 20
1121.1033892632
 30
0.0
 10
503.6331643351
 20
1117.1932725901
 30
0.0
 10
502.7188328059
 20
1112.7804987053
 30
0.0
 10
503.5531676849
 20
1109.9895652608
 30
0.0
 10
504.2080160275
 20
1108.7440851014
 30
0.0
  0
SPLINE
  5
4E9
100
AcDbEntity
  8
0
100
AcDbSpline
 62
7
  6
CONTINUOUS
 70
0
 71
3
 72
9
 73
5
 74
0
 42
0.0000001
 43
0.0000001
 44
0.0000000001
 40
0.0
 40
0.0
 40
0.0
 40
0.0
 40
0.2269133109
 40
1.0
 40
1.0
 40
1.0
 40
1.0
 10
504.4377046898
 20
1108.3286516684
 30
0.0
 10
504.7715906523
 20
1107.7532154844
 30
0.0
 10
506.461858187
 20
1105.343050268
 30
0.0
 10
508.8642428467
 20
1103.5028118124
 30
0.0
 10
510.8271975241
 20
1102.3695250394
 30
0.0
  0
SPLINE
  5
4EA
100
AcDbEntity
  8
0
100
AcDbSpline
 62
7
  6
CONTINUOUS
 70
0
 71
3
 72
11
 73
7
 74
0
 42
0.0000001
 43
0.0000001
 44
0.0000000001
 40
0.0
 40
0.0
 40
0.0
 40
0.0
 40
0.2372405738
 40
0.5000004574
 40
0.7627600882
 40
1.0
 40
1.0
 40
1.0
 40
1.0
 10
574.1129909548
 20
1138.9073768109
 30
0.0
 10
571.452660577
 20
1140.4432845238
 30
0.0
 10
565.2661179308
 20
1142.684527061
 30
0.0
 10
555.3746340671
 20
1143.7583011455
 30
0.0
 10
545.4831636947
 20
1142.6844827685
 30
0.0
 10
539.2966434313
 20
1140.4432093394
 30
0.0
 10
536.6363315522
 20
1138.9072867281
 30
0.0
  0
SPLINE
  5
4EB
100
AcDbEntity
  8
0
100
AcDbSpline
 62
7
  6
CONTINUOUS
 70
0
 71
3
 72
9
 73
5
 74
0
 42
0.0000001
 43
0.0000001
 44
0.0000000001
 40
0.0
 40
0.0
 40
0.0
 40
0.0
 40
0.2756762959
 40
1.0
 40
1.0
 40
1.0
 40
1.0
 10
716.5957566021
 20
1035.0100147027
 30
0.0
 10
717.2951130572
 20
1035.4137859301
 30
0.0
 10
719.753643779
 20
1036.995366699
 30
0.0
 10
721.9201779924
 20
1039.1337555511
 30
0.0
 10
722.9850461698
 20
1040.9689696805
 30
0.0
  0
SPLINE
  5
4EC
100
AcDbEntity
  8
0
100
AcDbSpline
 62
7
  6
CONTINUOUS
 70
0
 71
3
 72
11
 73
7
 74
0
 42
0.0000001
 43
0.0000001
 44
0.0000000001
 40
0.0
 40
0.0
 40
0.0
 40
0.0
 40
0.228627147
 40
0.4543821643
 40
0.7063141034
 40
1.0
 40
1.0
 40
1.0
 40
1.0
 10
723.2147397581
 20
1041.3844040574
 30
0.0
 10
723.8696071415
 20
1042.6298958668
 30
0.0
 10
724.7039735897
 20
1045.4208624211
 30
0.0
 10
723.7896302202
 20
1049.8337008838
 30
0.0
 10
720.9122765875
 20
1053.7438625241
 30
0.0
 10
718.1610248637
 20
1055.743087085
 30
0.0
 10
716.5956005719
 20
1056.646864775
 30
0.0
  0
SPLINE
  5
4ED
100
AcDbEntity
  8
0
100
AcDbSpline
 62
7
  6
CONTINUOUS
 70
0
 71
3
 72
9
 73
5
 74
0
 42
0.0000001
 43
0.0000001
 44
0.0000000001
 40
0.0
 40
0.0
 40
0.0
 40
0.0
 40
0.2418841646
 40
1.0
 40
1.0
 40
1.0
 40
1.0
 10
685.1103451387
 20
1018.3140581763
 30
0.0
 10
684.3449524447
 20
1018.0658514272
 30
0.0
 10
681.1461494952
 20
1017.1476605486
 30
0.0
 10
677.8344770463
 20
1016.6375268017
 30
0.0
 10
675.3189864723
 20
1016.4580422014
 30
0.0
  0
SPLINE
  5
4EE
100
AcDbEntity
  8
0
100
AcDbSpline
 62
7
  6
CONTINUOUS
 70
0
 71
3
 72
9
 73
5
 74
0
 42
0.0000001
 43
0.0000001
 44
0.0000000001
 40
0.0
 40
0.0
 40
0.0
 40
0.0
 40
0.2571789264
 40
1.0
 40
1.0
 40
1.0
 40
1.0
 10
668.7956079246
 20
1016.4567268733
 30
0.0
 10
667.941466214
 20
1016.5173228702
 30
0.0
 10
664.6281841611
 20
1016.846197783
 30
0.0
 10
661.34703698
 20
1017.5489804562
 30
0.0
 10
658.9942031251
 20
1018.3113216824
 30
0.0
  0
SPLINE
  5
4EF
100
AcDbEntity
  8
0
100
AcDbSpline
 62
7
  6
CONTINUOUS
 70
0
 71
3
 72
11
 73
7
 74
0
 42
0.0000001
 43
0.0000001
 44
0.0000000001
 40
0.0
 40
0.0
 40
0.0
 40
0.0
 40
0.29386397
 40
0.5485340918
 40
0.7759296263
 40
1.0
 40
1.0
 40
1.0
 40
1.0
 10
715.3073923917
 20
1056.7196101828
 30
0.0
 10
716.7835915893
 20
1055.8673454595
 30
0.0
 10
719.3973709067
 20
1053.9918714836
 30
0.0
 10
722.2322081527
 20
1050.392607311
 30
0.0
 10
723.4139210281
 20
1046.3427828656
 30
0.0
 10
722.9438155317
 20
1043.6659496417
 30
0.0
 10
722.4731233388
 20
1042.4544537571
 30
0.0
  0
SPLINE
  5
4F0
100
AcDbEntity
  8
0
100
AcDbSpline
 62
7
  6
CONTINUOUS
 70
0
 71
3
 72
9
 73
5
 74
0
 42
0.0000001
 43
0.0000001
 44
0.0000000001
 40
0.0
 40
0.0
 40
0.0
 40
0.0
 40
0.2250149758
 40
1.0
 40
1.0
 40
1.0
 40
1.0
 10
722.1115792103
 20
1041.6311108578
 30
0.0
 10
721.7935781282
 20
1040.9827880896
 30
0.0
 10
720.0917631209
 20
1038.2408960327
 30
0.0
 10
717.461413557
 20
1036.1807896889
 30
0.0
 10
715.3075494709
 20
1034.9372631018
 30
0.0
  0
SPLINE
  5
4F1
100
AcDbEntity
  8
0
100
AcDbSpline
 62
7
  6
CONTINUOUS
 70
0
 71
3
 72
11
 73
7
 74
0
 42
0.0000001
 43
0.0000001
 44
0.0000000001
 40
0.0
 40
0.0
 40
0.0
 40
0.0
 40
0.2372398078
 40
0.4999994051
 40
0.7627593222
 40
1.0
 40
1.0
 40
1.0
 40
1.0
 10
536.5103310084
 20
1138.1635500209
 30
0.0
 10
539.188530982
 20
1139.7098002667
 30
0.0
 10
545.4166505421
 20
1141.9661449652
 30
0.0
 10
555.3746346673
 20
1143.0471850871
 30
0.0
 10
565.3326352634
 20
1141.9661912611
 30
0.0
 10
571.5607812802
 20
1139.7098773124
 30
0.0
 10
574.2390022249
 20
1138.1636407096
 30
0.0
  0
SPLINE
  5
4F2
100
AcDbEntity
  8
0
100
AcDbSpline
 62
7
  6
CONTINUOUS
 70
0
 71
3
 72
9
 73
5
 74
0
 42
0.0000001
 43
0.0000001
 44
0.0000000001
 40
0.0
 40
0.0
 40
0.0
 40
0.0
 40
0.2786855321
 40
1.0
 40
1.0
 40
1.0
 40
1.0
 10
512.1154057045
 20
1102.2967796315
 30
0.0
 10
511.3417886901
 20
1102.7434175187
 30
0.0
 10
508.6612913837
 20
1104.4836050165
 30
0.0
 10
506.3295092482
 20
1106.9147646374
 30
0.0
 10
505.3112928437
 20
1108.9905672226
 30
0.0
  0
SPLINE
  5
4F3
100
AcDbEntity
  8
0
100
AcDbSpline
 62
7
  6
CONTINUOUS
 70
0
 71
3
 72
11
 73
7
 74
0
 42
0.0000001
 43
0.0000001
 44
0.0000000001
 40
0.0
 40
0.0
 40
0.0
 40
0.0
 40
0.2240710033
 40
0.451466693
 40
0.7061365506
 40
1.0
 40
1.0
 40
1.0
 40
1.0
 10
504.9496932296
 20
1109.814013716
 30
0.0
 10
504.4789971982
 20
1111.0255016239
 30
0.0
 10
504.0088765278
 20
1113.7023149856
 30
0.0
 10
505.1905439773
 20
1117.7521226012
 30
0.0
 10
508.0253272485
 20
1121.3513818197
 30
0.0
 10
510.6390692016
 20
1123.2268592124
 30
0.0
 10
512.1152486251
 20
1124.0791267126
 30
0.0
  0
SPLINE
  5
4F4
100
AcDbEntity
  8
0
100
AcDbSpline
 62
7
  6
CONTINUOUS
 70
0
 71
3
 72
9
 73
5
 74
0
 42
0.0000001
 43
0.0000001
 44
0.0000000001
 40
0.0
 40
0.0
 40
0.0
 40
0.0
 40
0.2944512413
 40
1.0
 40
1.0
 40
1.0
 40
1.0
 10
690.9124670873
 20
1020.8528397934
 30
0.0
 10
690.8250368208
 20
1020.9033165394
 30
0.0
 10
690.5205562222
 20
1021.0523051499
 30
0.0
 10
690.1218624445
 20
1021.0730199163
 30
0.0
 10
689.9123845103
 20
1020.9520391177
 30
0.0
  0
SPLINE
  5
4F5
100
AcDbEntity
  8
0
100
AcDbSpline
 62
7
  6
CONTINUOUS
 70
0
 71
3
 72
9
 73
5
 74
0
 42
0.0000001
 43
0.0000001
 44
0.0000000001
 40
0.0
 40
0.0
 40
0.0
 40
0.0
 40
0.2351022598
 40
1.0
 40
1.0
 40
1.0
 40
1.0
 10
715.3073923917
 20
1056.7196101828
 30
0.0
 10
715.1303575855
 20
1056.6173996999
 30
0.0
 10
714.4517130357
 20
1056.0656237813
 30
0.0
 10
714.0070948842
 20
1055.2247163456
 30
0.0
 10
713.9146697096
 20
1054.5660896464
 30
0.0
  0
SPLINE
  5
4F6
100
AcDbEntity
  8
0
100
AcDbSpline
 62
7
  6
CONTINUOUS
 70
0
 71
3
 72
11
 73
7
 74
0
 42
0.0000001
 43
0.0000001
 44
0.0000000001
 40
0.0
 40
0.0
 40
0.0
 40
0.0
 40
0.292891614
 40
0.5502579163
 40
0.7800523081
 40
1.0
 40
1.0
 40
1.0
 40
1.0
 10
713.9146697096
 20
1054.5660896464
 30
0.0
 10
715.1603007124
 20
1053.8469405209
 30
0.0
 10
717.3884942827
 20
1052.2755642744
 30
0.0
 10
719.9141386367
 20
1049.3278324322
 30
0.0
 10
721.2342071888
 20
1046.0337040269
 30
0.0
 10
721.1883234213
 20
1043.7557804908
 30
0.0
 10
720.9585379633
 20
1042.7003940285
 30
0.0
  0
SPLINE
  5
4F7
100
AcDbEntity
  8
0
100
AcDbSpline
 62
7
  6
CONTINUOUS
 70
0
 71
3
 72
9
 73
5
 74
0
 42
0.0000001
 43
0.0000001
 44
0.0000000001
 40
0.0
 40
0.0
 40
0.0
 40
0.0
 40
0.2351028095
 40
1.0
 40
1.0
 40
1.0
 40
1.0
 10
536.5103310087
 20
1138.163550021
 30
0.0
 10
536.6873670542
 20
1138.0613405248
 30
0.0
 10
537.3660159693
 20
1137.5095693788
 30
0.0
 10
537.8106393176
 20
1136.6686626197
 30
0.0
 10
537.9030652878
 20
1136.0100361801
 30
0.0
  0
SPLINE
  5
4F8
100
AcDbEntity
  8
0
100
AcDbSpline
 62
7
  6
CONTINUOUS
 70
0
 71
3
 72
9
 73
5
 74
0
 42
0.0000001
 43
0.0000001
 44
0.0000000001
 40
0.0
 40
0.0
 40
0.0
 40
0.0
 40
0.7648977402
 40
1.0
 40
1.0
 40
1.0
 40
1.0
 10
572.8462795428
 20
1136.0101201732
 30
0.0
 10
572.9387047174
 20
1136.6687468724
 30
0.0
 10
573.3833228689
 20
1137.5096543081
 30
0.0
 10
574.0619674187
 20
1138.0614302267
 30
0.0
 10
574.2390022249
 20
1138.1636407096
 30
0.0
  0
SPLINE
  5
4F9
100
AcDbEntity
  8
0
100
AcDbSpline
 62
7
  6
CONTINUOUS
 70
0
 71
3
 72
11
 73
7
 74
0
 42
0.0000001
 43
0.0000001
 44
0.0000000001
 40
0.0
 40
0.0
 40
0.0
 40
0.0
 40
0.2372367819
 40
0.4999994738
 40
0.7627624522
 40
1.0
 40
1.0
 40
1.0
 40
1.0
 10
537.9030652878
 20
1136.01003618
 30
0.0
 10
540.3835082752
 20
1137.4421120582
 30
0.0
 10
546.1517940439
 20
1139.5319316739
 30
0.0
 10
555.3746449454
 20
1140.5332103346
 30
0.0
 10
564.5975097641
 20
1139.531973762
 30
0.0
 10
570.36581822
 20
1137.442182788
 30
0.0
 10
572.8462795428
 20
1136.0101201732
 30
0.0
  0
SPLINE
  5
4FA
100
AcDbEntity
  8
0
100
AcDbSpline
 62
7
  6
CONTINUOUS
 70
0
 71
3
 72
9
 73
5
 74
0
 42
0.0000001
 43
0.0000001
 44
0.0000000001
 40
0.0
 40
0.0
 40
0.0
 40
0.0
 40
0.2944517274
 40
1.0
 40
1.0
 40
1.0
 40
1.0
 10
512.1154057043
 20
1102.2967796316
 30
0.0
 10
512.2028347276
 20
1102.3472565005
 30
0.0
 10
512.507310541
 20
1102.4962456777
 30
0.0
 10
512.9059995782
 20
1102.5169639527
 30
0.0
 10
513.1154757904
 20
1102.3959861683
 30
0.0
  0
SPLINE
  5
4FB
100
AcDbEntity
  8
0
100
AcDbSpline
 62
7
  6
CONTINUOUS
 70
0
 71
3
 72
9
 73
5
 74
0
 42
0.0000001
 43
0.0000001
 44
0.0000000001
 40
0.0
 40
0.0
 40
0.0
 40
0.0
 40
0.7648971905
 40
1.0
 40
1.0
 40
1.0
 40
1.0
 10
513.5079829039
 20
1121.9256128715
 30
0.0
 10
513.4155569337
 20
1122.5842393111
 30
0.0
 10
512.9709335854
 20
1123.4251460703
 30
0.0
 10
512.2922846703
 20
1123.9769172162
 30
0.0
 10
512.1152486248
 20
1124.0791267125
 30
0.0
  0
SPLINE
  5
4FC
100
AcDbEntity
  8
0
100
AcDbSpline
 62
7
  6
CONTINUOUS
 70
0
 71
3
 72
9
 73
5
 74
0
 42
0.0000001
 43
0.0000001
 44
0.0000000001
 40
0.0
 40
0.0
 40
0.0
 40
0.0
 40
0.3329169905
 40
1.0
 40
1.0
 40
1.0
 40
1.0
 10
864.5936068714
 20
979.6526989084
 30
0.0
 10
864.6163505351
 20
979.7118399045
 30
0.0
 10
864.6900784525
 20
979.8867985493
 30
0.0
 10
864.7744058265
 20
980.0606427384
 30
0.0
 10
864.8528715046
 20
980.1604584331
 30
0.0
  0
SPLINE
  5
4FD
100
AcDbEntity
  8
0
100
AcDbSpline
 62
7
  6
CONTINUOUS
 70
0
 71
3
 72
9
 73
5
 74
0
 42
0.0000001
 43
0.0000001
 44
0.0000000001
 40
0.0
 40
0.0
 40
0.0
 40
0.0
 40
0.7002502899
 40
1.0
 40
1.0
 40
1.0
 40
1.0
 10
864.8528715046
 20
980.1604584331
 30
0.0
 10
864.8647807075
 20
980.175608055
 30
0.0
 10
864.8794400939
 20
980.1939983028
 30
0.0
 10
864.9086666786
 20
980.2148944726
 30
0.0
 10
864.9158103923
 20
980.2107701227
 30
0.0
  0
SPLINE
  5
4FE
100
AcDbEntity
  8
0
100
AcDbSpline
 62
7
  6
CONTINUOUS
 70
0
 71
3
 72
9
 73
5
 74
0
 42
0.0000001
 43
0.0000001
 44
0.0000000001
 40
0.0
 40
0.0
 40
0.0
 40
0.0
 40
0.2351028095
 40
1.0
 40
1.0
 40
1.0
 40
1.0
 10
514.2693027221
 20
1120.3860038825
 30
0.0
 10
514.1807846994
 20
1120.4371086306
 30
0.0
 10
513.8414602418
 20
1120.7129942036
 30
0.0
 10
513.6191485677
 20
1121.1334475831
 30
0.0
 10
513.5729355826
 20
1121.4627608029
 30
0.0
  0
SPLINE
  5
4FF
100
AcDbEntity
  8
0
100
AcDbSpline
 62
7
  6
CONTINUOUS
 70
0
 71
3
 72
8
 73
4
 74
0
 42
0.0000001
 43
0.0000001
 44
0.0000000001
 40
0.0
 40
0.0
 40
0.0
 40
0.0
 40
1.0
 40
1.0
 40
1.0
 40
1.0
 10
332.4237391779
 20
1158.7065216237
 30
0.0
 10
332.1476692663
 20
1158.9766021637
 30
0.0
 10
331.919334033
 20
1159.3248240979
 30
0.0
 10
331.8274885552
 20
1159.6999540786
 30
0.0
  0
SPLINE
  5
500
100
AcDbEntity
  8
0
100
AcDbSpline
 62
7
  6
CONTINUOUS
 70
0
 71
3
 72
8
 73
4
 74
0
 42
0.0000001
 43
0.0000001
 44
0.0000000001
 40
0.0
 40
0.0
 40
0.0
 40
0.0
 40
1.0
 40
1.0
 40
1.0
 40
1.0
 10
331.8274885552
 20
1159.6999540786
 30
0.0
 10
331.7959758867
 20
1159.8286631562
 30
0.0
 10
331.7793676061
 20
1159.9620521491
 30
0.0
 10
331.7793676197
 20
1160.0945628088
 30
0.0
  0
SPLINE
  5
501
100
AcDbEntity
  8
0
100
AcDbSpline
 62
7
  6
CONTINUOUS
 70
0
 71
3
 72
11
 73
7
 74
0
 42
0.0000001
 43
0.0000001
 44
0.0000000001
 40
0.0
 40
0.0
 40
0.0
 40
0.0
 40
0.2923585859
 40
0.550322815
 40
0.7808523575
 40
1.0
 40
1.0
 40
1.0
 40
1.0
 10
513.5729355826
 20
1121.4627608029
 30
0.0
 10
512.3676841614
 20
1120.7669127241
 30
0.0
 10
510.2050612795
 20
1119.2496531716
 30
0.0
 10
507.7233943241
 20
1116.4216516812
 30
0.0
 10
506.3594568111
 20
1113.2684695466
 30
0.0
 10
506.3053956761
 20
1111.0651846586
 30
0.0
 10
506.4790220296
 20
1110.0365356176
 30
0.0
  0
SPLINE
  5
502
100
AcDbEntity
  8
0
100
AcDbSpline
 62
7
  6
CONTINUOUS
 70
0
 71
3
 72
9
 73
5
 74
0
 42
0.0000001
 43
0.0000001
 44
0.0000000001
 40
0.0
 40
0.0
 40
0.0
 40
0.0
 40
0.2351022598
 40
1.0
 40
1.0
 40
1.0
 40
1.0
 10
572.0849660639
 20
1134.4705075242
 30
0.0
 10
572.173483467
 20
1134.5216127657
 30
0.0
 10
572.5128057419
 20
1134.797500725
 30
0.0
 10
572.7351148176
 20
1135.2179544428
 30
0.0
 10
572.781327405
 20
1135.5472677924
 30
0.0
  0
SPLINE
  5
503
100
AcDbEntity
  8
0
100
AcDbSpline
 62
7
  6
CONTINUOUS
 70
0
 71
3
 72
9
 73
5
 74
0
 42
0.0000001
 43
0.0000001
 44
0.0000000001
 40
0.0
 40
0.0
 40
0.0
 40
0.0
 40
0.7648971905
 40
1.0
 40
1.0
 40
1.0
 40
1.0
 10
537.9680179665
 20
1135.5471841115
 30
0.0
 10
538.0142309516
 20
1135.2178708917
 30
0.0
 10
538.2365426257
 20
1134.7974175121
 30
0.0
 10
538.5758670833
 20
1134.5215319392
 30
0.0
 10
538.664385106
 20
1134.470427191
 30
0.0
  0
SPLINE
  5
504
100
AcDbEntity
  8
0
100
AcDbSpline
 62
7
  6
CONTINUOUS
 70
0
 71
3
 72
11
 73
7
 74
0
 42
0.0000001
 43
0.0000001
 44
0.0000000001
 40
0.0
 40
0.0
 40
0.0
 40
0.0
 40
0.2372375478
 40
0.5000005262
 40
0.7627632181
 40
1.0
 40
1.0
 40
1.0
 40
1.0
 10
572.781327405
 20
1135.5472677924
 30
0.0
 10
570.3100874397
 20
1136.9740065744
 30
0.0
 10
564.5632232347
 20
1139.0560285461
 30
0.0
 10
555.3746453179
 20
1140.0535429238
 30
0.0
 10
546.1860812666
 20
1139.0559866144
 30
0.0
 10
540.4392396644
 20
1136.9739361075
 30
0.0
 10
537.9680179665
 20
1135.5471841115
 30
0.0
  0
SPLINE
  5
505
100
AcDbEntity
  8
0
100
AcDbSpline
 62
7
  6
CONTINUOUS
 70
0
 71
3
 72
8
 73
4
 74
0
 42
0.0000001
 43
0.0000001
 44
0.0000000001
 40
0.0
 40
0.0
 40
0.0
 40
0.0
 40
1.0
 40
1.0
 40
1.0
 40
1.0
 10
756.6895613126
 20
916.5381386105
 30
0.0
 10
756.5952139732
 20
916.4458369264
 30
0.0
 10
756.493899518
 20
916.3603190257
 30
0.0
 10
756.3880757966
 20
916.2814370801
 30
0.0
  0
SPLINE
  5
506
100
AcDbEntity
  8
0
100
AcDbSpline
 62
7
  6
CONTINUOUS
 70
0
 71
3
 72
8
 73
4
 74
0
 42
0.0000001
 43
0.0000001
 44
0.0000000001
 40
0.0
 40
0.0
 40
0.0
 40
0.0
 40
1.0
 40
1.0
 40
1.0
 40
1.0
 10
756.3880757966
 20
916.2814370801
 30
0.0
 10
756.0159161192
 20
916.0040259381
 30
0.0
 10
755.5805197631
 20
915.8028250696
 30
0.0
 10
755.1339433146
 20
915.6762184235
 30
0.0
  0
SPLINE
  5
507
100
AcDbEntity
  8
0
100
AcDbSpline
 62
7
  6
CONTINUOUS
 70
0
 71
3
 72
8
 73
4
 74
0
 42
0.0000001
 43
0.0000001
 44
0.0000000001
 40
0.0
 40
0.0
 40
0.0
 40
0.0
 40
1.0
 40
1.0
 40
1.0
 40
1.0
 10
755.1339433146
 20
915.6762184235
 30
0.0
 10
754.8948580717
 20
915.6084365671
 30
0.0
 10
754.6488863569
 20
915.560966035
 30
0.0
 10
754.4015399018
 20
915.5369688565
 30
0.0
  0
SPLINE
  5
508
100
AcDbEntity
  8
0
100
AcDbSpline
 62
7
  6
CONTINUOUS
 70
0
 71
3
 72
8
 73
4
 74
0
 42
0.0000001
 43
0.0000001
 44
0.0000000001
 40
0.0
 40
0.0
 40
0.0
 40
0.0
 40
1.0
 40
1.0
 40
1.0
 40
1.0
 10
754.2448347962
 20
915.5250614578
 30
0.0
 10
754.0227074498
 20
915.5129432687
 30
0.0
 10
753.7973679046
 20
915.5196898219
 30
0.0
 10
753.5782914754
 20
915.5583282314
 30
0.0
  0
SPLINE
  5
509
100
AcDbEntity
  8
0
100
AcDbSpline
 62
7
  6
CONTINUOUS
 70
0
 71
3
 72
9
 73
5
 74
0
 42
0.0000001
 43
0.0000001
 44
0.0000000001
 40
0.0
 40
0.0
 40
0.0
 40
0.0
 40
0.7648977402
 40
1.0
 40
1.0
 40
1.0
 40
1.0
 10
713.8497175718
 20
1054.1032372656
 30
0.0
 10
713.8035049845
 20
1053.773923916
 30
0.0
 10
713.5811959087
 20
1053.3534701982
 30
0.0
 10
713.2418736338
 20
1053.0775822389
 30
0.0
 10
713.1533562307
 20
1053.0264769974
 30
0.0
  0
SPLINE
  5
50A
100
AcDbEntity
  8
0
100
AcDbSpline
 62
7
  6
CONTINUOUS
 70
0
 71
3
 72
8
 73
4
 74
0
 42
0.0000001
 43
0.0000001
 44
0.0000000001
 40
0.0
 40
0.0
 40
0.0
 40
0.0
 40
1.0
 40
1.0
 40
1.0
 40
1.0
 10
538.5758106122
 20
1091.9593578657
 30
0.0
 10
538.5758454864
 20
1092.0846805739
 30
0.0
 10
538.6154235131
 20
1092.2129023467
 30
0.0
 10
538.6790446294
 20
1092.320875195
 30
0.0
  0
SPLINE
  5
50B
100
AcDbEntity
  8
0
100
AcDbSpline
 62
7
  6
CONTINUOUS
 70
0
 71
3
 72
8
 73
4
 74
0
 42
0.0000001
 43
0.0000001
 44
0.0000000001
 40
0.0
 40
0.0
 40
0.0
 40
0.0
 40
1.0
 40
1.0
 40
1.0
 40
1.0
 10
538.7187070533
 20
1092.3821911149
 30
0.0
 10
538.8278449775
 20
1092.5369082517
 30
0.0
 10
538.9829049277
 20
1092.66076274
 30
0.0
 10
539.146875777
 20
1092.7554307889
 30
0.0
  0
SPLINE
  5
50C
100
AcDbEntity
  8
0
100
AcDbSpline
 62
7
  6
CONTINUOUS
 70
0
 71
3
 72
12
 73
8
 74
0
 42
0.0000001
 43
0.0000001
 44
0.0000000001
 40
0.0
 40
0.0
 40
0.0
 40
0.0
 40
0.2602881847
 40
0.3747221873
 40
0.4850564775
 40
0.7177352193
 40
1.0
 40
1.0
 40
1.0
 40
1.0
 10
715.3417972377
 20
1035.1880298156
 30
0.0
 10
716.8597488544
 20
1036.3554373721
 30
0.0
 10
718.8448363444
 20
1038.4489075578
 30
0.0
 10
720.0571759785
 20
1041.8542323008
 30
0.0
 10
720.178241963
 20
1045.2768170933
 30
0.0
 10
718.0477140578
 20
1049.6448340809
 30
0.0
 10
714.9517791073
 20
1051.9881805549
 30
0.0
 10
713.1533562307
 20
1053.0264769974
 30
0.0
  0
SPLINE
  5
50D
100
AcDbEntity
  8
0
100
AcDbSpline
 62
7
  6
CONTINUOUS
 70
0
 71
3
 72
12
 73
8
 74
0
 42
0.0000001
 43
0.0000001
 44
0.0000000001
 40
0.0
 40
0.0
 40
0.0
 40
0.0
 40
0.2822630784
 40
0.5149405882
 40
0.6252749023
 40
0.7397094493
 40
1.0
 40
1.0
 40
1.0
 40
1.0
 10
514.2693027221
 20
1120.3860038825
 30
0.0
 10
512.4708869752
 20
1119.3476942647
 30
0.0
 10
509.3749668477
 20
1117.0043178355
 30
0.0
 10
507.2445103851
 20
1112.6362488878
 30
0.0
 10
507.3656577486
 20
1109.2136499034
 30
0.0
 10
508.5780903032
 20
1105.8083117631
 30
0.0
 10
510.5632452858
 20
1103.714853436
 30
0.0
 10
512.0812397867
 20
1102.5474535182
 30
0.0
  0
SPLINE
  5
50E
100
AcDbEntity
  8
0
100
AcDbSpline
 62
7
  6
CONTINUOUS
 70
0
 71
3
 72
11
 73
7
 74
0
 42
0.0000001
 43
0.0000001
 44
0.0000000001
 40
0.0
 40
0.0
 40
0.0
 40
0.0
 40
0.2372405738
 40
0.5000004574
 40
0.7627600882
 40
1.0
 40
1.0
 40
1.0
 40
1.0
 10
572.0849660639
 20
1134.4705075242
 30
0.0
 10
569.7125617946
 20
1135.8401847815
 30
0.0
 10
564.195585291
 20
1137.8388588591
 30
0.0
 10
555.3746513409
 20
1138.7964189589
 30
0.0
 10
546.553729422
 20
1137.8388193603
 30
0.0
 10
541.0367728787
 20
1135.8401177343
 30
0.0
 10
538.664385106
 20
1134.470427191
 30
0.0
  0
SPLINE
  5
50F
100
AcDbEntity
  8
0
100
AcDbSpline
 62
7
  6
CONTINUOUS
 70
0
 71
3
 72
9
 73
5
 74
0
 42
0.0000001
 43
0.0000001
 44
0.0000000001
 40
0.0
 40
0.0
 40
0.0
 40
0.0
 40
0.2810970699
 40
1.0
 40
1.0
 40
1.0
 40
1.0
 10
704.4557236096
 20
1047.0906167308
 30
0.0
 10
704.735074459
 20
1046.8982687105
 30
0.0
 10
705.6838758554
 20
1046.1607296049
 30
0.0
 10
706.4458814135
 20
1045.115851528
 30
0.0
 10
706.6743016458
 20
1044.2790494657
 30
0.0
  0
SPLINE
  5
510
100
AcDbEntity
  8
0
100
AcDbSpline
 62
7
  6
CONTINUOUS
 70
0
 71
3
 72
8
 73
4
 74
0
 42
0.0000001
 43
0.0000001
 44
0.0000000001
 40
0.0
 40
0.0
 40
0.0
 40
0.0
 40
1.0
 40
1.0
 40
1.0
 40
1.0
 10
706.6743016458
 20
1044.2790494657
 30
0.0
 10
706.7540365306
 20
1043.9869461112
 30
0.0
 10
706.7961292518
 20
1043.6816752924
 30
0.0
 10
706.7961291844
 20
1043.3788849003
 30
0.0
  0
SPLINE
  5
511
100
AcDbEntity
  8
0
100
AcDbSpline
 62
7
  6
CONTINUOUS
 70
0
 71
3
 72
9
 73
5
 74
0
 42
0.0000001
 43
0.0000001
 44
0.0000000001
 40
0.0
 40
0.0
 40
0.0
 40
0.0
 40
0.4999996218
 40
1.0
 40
1.0
 40
1.0
 40
1.0
 10
548.3036464331
 20
1129.1094433458
 30
0.0
 10
550.4024248781
 20
1130.321166413
 30
0.0
 10
555.3747082868
 20
1131.2790890716
 30
0.0
 10
560.3469916984
 20
1130.3211871051
 30
0.0
 10
562.4457820567
 20
1129.1094773393
 30
0.0
  0
SPLINE
  5
512
100
AcDbEntity
  8
0
100
AcDbSpline
 62
7
  6
CONTINUOUS
 70
0
 71
3
 72
9
 73
5
 74
0
 42
0.0000001
 43
0.0000001
 44
0.0000000001
 40
0.0
 40
0.0
 40
0.0
 40
0.0
 40
0.2338298986
 40
1.0
 40
1.0
 40
1.0
 40
1.0
 10
539.146875777
 20
1092.7554307889
 30
0.0
 10
539.3124936588
 20
1092.8510497468
 30
0.0
 10
540.079472488
 20
1093.1490568968
 30
0.0
 10
540.9670679192
 20
1093.1269196645
 30
0.0
 10
541.5567248143
 20
1092.9149015527
 30
0.0
  0
SPLINE
  5
513
100
AcDbEntity
  8
0
100
AcDbSpline
 62
7
  6
CONTINUOUS
 70
0
 71
3
 72
9
 73
5
 74
0
 42
0.0000001
 43
0.0000001
 44
0.0000000001
 40
0.0
 40
0.0
 40
0.0
 40
0.0
 40
0.3091633815
 40
1.0
 40
1.0
 40
1.0
 40
1.0
 10
541.5567248143
 20
1092.9149015527
 30
0.0
 10
541.6891548903
 20
1092.8672847524
 30
0.0
 10
542.0972941073
 20
1092.6904577329
 30
0.0
 10
542.4757563782
 20
1092.273832174
 30
0.0
 10
542.4756688699
 20
1091.9593647694
 30
0.0
  0
SPLINE
  5
514
100
AcDbEntity
  8
0
100
AcDbSpline
 62
7
  6
CONTINUOUS
 70
0
 71
3
 72
8
 73
4
 74
0
 42
0.0000001
 43
0.0000001
 44
0.0000000001
 40
0.0
 40
0.0
 40
0.0
 40
0.0
 40
1.0
 40
1.0
 40
1.0
 40
1.0
 10
637.5711721328
 20
1034.8056522328
 30
0.0
 10
637.5712070069
 20
1034.9309749411
 30
0.0
 10
637.6107850337
 20
1035.0591967139
 30
0.0
 10
637.67440615
 20
1035.1671695622
 30
0.0
  0
SPLINE
  5
515
100
AcDbEntity
  8
0
100
AcDbSpline
 62
7
  6
CONTINUOUS
 70
0
 71
3
 72
8
 73
4
 74
0
 42
0.0000001
 43
0.0000001
 44
0.0000000001
 40
0.0
 40
0.0
 40
0.0
 40
0.0
 40
1.0
 40
1.0
 40
1.0
 40
1.0
 10
637.7140685739
 20
1035.2284854821
 30
0.0
 10
637.8232064981
 20
1035.3832026188
 30
0.0
 10
637.9782664483
 20
1035.5070571071
 30
0.0
 10
638.1422372976
 20
1035.601725156
 30
0.0
  0
SPLINE
  5
516
100
AcDbEntity
  8
0
100
AcDbSpline
 62
7
  6
CONTINUOUS
 70
0
 71
3
 72
9
 73
5
 74
0
 42
0.0000001
 43
0.0000001
 44
0.0000000001
 40
0.0
 40
0.0
 40
0.0
 40
0.0
 40
0.2338298986
 40
1.0
 40
1.0
 40
1.0
 40
1.0
 10
638.1422372976
 20
1035.601725156
 30
0.0
 10
638.3078551794
 20
1035.6973441139
 30
0.0
 10
639.0748340085
 20
1035.9953512639
 30
0.0
 10
639.9624294398
 20
1035.9732140316
 30
0.0
 10
640.5520863349
 20
1035.7611959199
 30
0.0
  0
SPLINE
  5
517
100
AcDbEntity
  8
0
100
AcDbSpline
 62
7
  6
CONTINUOUS
 70
0
 71
3
 72
9
 73
5
 74
0
 42
0.0000001
 43
0.0000001
 44
0.0000000001
 40
0.0
 40
0.0
 40
0.0
 40
0.0
 40
0.3091633815
 40
1.0
 40
1.0
 40
1.0
 40
1.0
 10
640.5520863349
 20
1035.7611959199
 30
0.0
 10
640.6845164109
 20
1035.7135791195
 30
0.0
 10
641.0926556279
 20
1035.5367521
 30
0.0
 10
641.4711178987
 20
1035.1201265411
 30
0.0
 10
641.4710303905
 20
1034.8056591366
 30
0.0
  0
SPLINE
  5
518
100
AcDbEntity
  8
0
100
AcDbSpline
 62
7
  6
CONTINUOUS
 70
0
 71
3
 72
9
 73
5
 74
0
 42
0.0000001
 43
0.0000001
 44
0.0000000001
 40
0.0
 40
0.0
 40
0.0
 40
0.0
 40
0.2338298986
 40
1.0
 40
1.0
 40
1.0
 40
1.0
 10
685.5181943909
 20
1062.9540834654
 30
0.0
 10
685.6838122728
 20
1063.0497024233
 30
0.0
 10
686.4507911019
 20
1063.3477095733
 30
0.0
 10
687.3383865331
 20
1063.325572341
 30
0.0
 10
687.9280434282
 20
1063.1135542293
 30
0.0
  0
SPLINE
  5
519
100
AcDbEntity
  8
0
100
AcDbSpline
 62
7
  6
CONTINUOUS
 70
0
 71
3
 72
9
 73
5
 74
0
 42
0.0000001
 43
0.0000001
 44
0.0000000001
 40
0.0
 40
0.0
 40
0.0
 40
0.0
 40
0.3091633815
 40
1.0
 40
1.0
 40
1.0
 40
1.0
 10
687.9280434282
 20
1063.1135542293
 30
0.0
 10
688.0604735042
 20
1063.0659374289
 30
0.0
 10
688.4686127212
 20
1062.8891104094
 30
0.0
 10
688.8470749921
 20
1062.4724848505
 30
0.0
 10
688.8469874838
 20
1062.158017446
 30
0.0
  0
SPLINE
  5
51A
100
AcDbEntity
  8
0
100
AcDbSpline
 62
7
  6
CONTINUOUS
 70
0
 71
3
 72
9
 73
5
 74
0
 42
0.0000001
 43
0.0000001
 44
0.0000000001
 40
0.0
 40
0.0
 40
0.0
 40
0.0
 40
0.2338298986
 40
1.0
 40
1.0
 40
1.0
 40
1.0
 10
586.5228328704
 20
1120.1077890983
 30
0.0
 10
586.6884507522
 20
1120.2034080561
 30
0.0
 10
587.4554295813
 20
1120.5014152062
 30
0.0
 10
588.3430250126
 20
1120.4792779738
 30
0.0
 10
588.9326819076
 20
1120.2672598621
 30
0.0
  0
SPLINE
  5
51B
100
AcDbEntity
  8
0
100
AcDbSpline
 62
7
  6
CONTINUOUS
 70
0
 71
3
 72
9
 73
5
 74
0
 42
0.0000001
 43
0.0000001
 44
0.0000000001
 40
0.0
 40
0.0
 40
0.0
 40
0.0
 40
0.3091633815
 40
1.0
 40
1.0
 40
1.0
 40
1.0
 10
588.9326819076
 20
1120.2672598621
 30
0.0
 10
589.0651119836
 20
1120.2196430617
 30
0.0
 10
589.4732512006
 20
1120.0428160423
 30
0.0
 10
589.8517134715
 20
1119.6261904834
 30
0.0
 10
589.8516259632
 20
1119.3117230788
 30
0.0
  0
ENDSEC
  0
SECTION
  2
OBJECTS
  0
DICTIONARY
  5
C
100
AcDbDictionary
280
0
281
1
  3
ACAD_GROUP
350
D
  3
ACAD_MLINESTYLE
350
17
  3
ACAD_LAYOUT
350
1A
  3
ACAD_PLOTSETTINGS
350
19
  3
ACAD_PLOTSTYLENAME
350
E
  0
DICTIONARY
  5
D
102
{ACAD_REACTORS
330
C
102
}
100
AcDbDictionary
280
0
281
1
  0
ACDBDICTIONARYWDFLT
  5
E
102
{ACAD_REACTORS
330
C
102
}
100
AcDbDictionary
281
1
  3
Normal
350
F
100
AcDbDictionaryWithDefault
340
F
  0
DICTIONARY
  5
17
102
{ACAD_REACTORS
330
C
102
}
100
AcDbDictionary
280
0
281
1
  3
Standard
350
18
  0
DICTIONARY
  5
19
102
{ACAD_REACTORS
330
C
102
}
100
AcDbDictionary
281
1
  0
DICTIONARY
  5
1A
102
{ACAD_REACTORS
330
C
102
}
100
AcDbDictionary
281
1
  3
Model
350
51C
  3
Layout1
350
51D
  0
ACDBPLACEHOLDER
  5
F
102
{ACAD_REACTORS
330
E
102
}
  0
MLINESTYLE
  5
18
102
{ACAD_REACTORS
330
17
102
}
100
AcDbMlineStyle
  2
STANDARD
 70
0
  3

 62
256
 51
90.0
 52
90.0
 71
2
 49
0.5
 62
256
  6
BYLAYER
 49
-0.5
 62
256
  6
BYLAYER
  0
LAYOUT
  5
51C
102
{ACAD_REACTORS
330
1A
102
}
100
AcDbPlotSettings
  1

  2
none_device
  4

  6

 40
0.0
 41
0.0
 42
0.0
 43
0.0
 44
210.0
 45
297.0
 46
0.0
 47
0.0
 48
0.0
 49
0.0
140
0.0
141
0.0
142
1.0
143
1.0
 70
1024
 72
1
 73
0
 74
0
  7

 75
0
147
1.0
148
0.0
149
0.0
100
AcDbLayout
  1
Model
 70
0
 71
0
 10
0.0
 20
0.0
 11
210.0
 21
297.0
 12
0.0
 22
0.0
 32
0.0
 14
0.0
 24
0.0
 34
0.0
 15
0.0
 25
0.0
 35
0.0
146
0.0
 13
0.0
 23
0.0
 33
0.0
 16
1.0
 26
0.0
 36
0.0
 17
0.0
 27
1.0
 37
0.0
 76
0
330
210
345
0
346
0
  0
LAYOUT
  5
51D
102
{ACAD_REACTORS
330
1A
102
}
100
AcDbPlotSettings
  1

  2
none_device
  4

  6

 40
0.0
 41
0.0
 42
0.0
 43
0.0
 44
210.0
 45
297.0
 46
0.0
 47
0.0
 48
0.0
 49
0.0
140
0.0
141
0.0
142
1.0
143
1.0
 70
0
 72
1
 73
0
 74
0
  7

 75
0
147
1.0
148
0.0
149
0.0
100
AcDbLayout
  1
Layout1
 70
0
 71
1
 10
0.0
 20
0.0
 11
210.0
 21
297.0
 12
0.0
 22
0.0
 32
0.0
 14
0.0
 24
0.0
 34
0.0
 15
0.0
 25
0.0
 35
0.0
146
0.0
 13
0.0
 23
0.0
 33
0.0
 16
1.0
 26
0.0
 36
0.0
 17
0.0
 27
1.0
 37
0.0
 76
0
330
211
345
0
346
0
  0
ENDSEC
  0
EOF
