999
DXF file: C:\Users\sesa63760\Dev\_Creo\CAD\MCADUE0003103_3D-CAD\drw0001_7.dxf
999
Pro/ENGINEER 2019471 by Parametric Technology Corporation
  0
SECTION
  2
HEADER
  9
$ACADVER
  1
AC1024
  9
$DWGCODEPAGE
  3
ANSI_1252
  9
$EXTMAX
 10
758.4377693787
 20
1072.647702407
 30
0.0
  9
$EXTMIN
 10
0.0
 20
0.0
 30
0.0
  9
$LIMMIN
 10
0.0
 20
0.0
  9
$LIMMAX
 10
758.4377693787
 20
1072.647702407
  9
$VIEWCTR
 10
379.2188846893
 20
536.3238512035
  9
$VIEWSIZE
 40
1072.647702407
  9
$CLAYER
  8
0
  9
$LTSCALE
 40
69.9207391199
  9
$CELTYPE
  6
BYLAYER
  9
$DIMSCALE
 40
1.0
  9
$DIMASZ
 40
9.029021064
  9
$DIMEXO
 40
1.0
  9
$DIMDLI
 40
48.308874301
  9
$DIMEXE
 40
1.0
  9
$DIMCEN
 40
11.4415754923
  9
$DIMLFAC
 40
1.0
  9
$DIMBLK
  1
_FILLED
  9
$DIMALT
 70
0
  9
$DIMALTF
 40
0.0393700787
  9
$DIMTXT
 40
12.6406294896
  9
$DIMTOL
 70
1
  9
$DIMLIM
 70
0
  9
$DIMTFAC
 40
1.0
  9
$DIMTP
 40
0.01
  9
$DIMTM
 40
0.01
  9
$DIMGAP
 40
0.625
  9
$DIMDSEP
 70
46
  9
$AUNITS
 70
0
  9
$PDMODE
 70
3
  9
$PDSIZE
 40
0.3125
  9
$HANDSEED
  5
4FC
  9
$TILEMODE
 70
1
  9
$MEASUREMENT
 70
1
  9
$INSUNITS
 70
4
  0
ENDSEC
  0
SECTION
  2
CLASSES
  0
CLASS
  1
ACDBDICTIONARYWDFLT
  2
AcDbDictionaryWithDefault
  3
AutoCAD 2000
 90
0
 91
1
280
0
281
0
  0
CLASS
  1
ACDBPLACEHOLDER
  2
AcDbPlaceHolder
  3
AutoCAD 2000
 90
0
 91
1
280
0
281
0
  0
CLASS
  1
LAYOUT
  2
AcDbLayout
  3
AutoCAD 2000
 90
0
 91
0
280
0
281
0
  0
ENDSEC
  0
SECTION
  2
TABLES
  0
TABLE
  2
VPORT
  5
8
100
AcDbSymbolTable
 70
2
  0
VPORT
  5
1F4
100
AcDbSymbolTableRecord
100
AcDbViewportTableRecord
  2
*ACTIVE
 70
0
 10
0.0
 20
0.0
 11
1.0
 21
1.0
 12
379.2188846893
 22
536.3238512035
 13
0.0
 23
0.0
 14
1.0
 24
1.0
 15
0.0
 25
0.0
 16
0.0
 26
0.0
 36
1.0
 17
0.0
 27
0.0
 37
0.0
 40
1072.647702407
 41
0.7070707071
 42
50.0
 43
0.0
 44
0.0
 50
0.0
 51
0.0
 71
0
 72
100
 73
1
 74
1
 75
0
 76
0
 77
0
 78
0
  0
ENDTAB
  0
TABLE
  2
LTYPE
  5
5
100
AcDbSymbolTable
 70
6
  0
LTYPE
  5
14
100
AcDbSymbolTableRecord
100
AcDbLinetypeTableRecord
  2
BYBLOCK
 70
0
  3

 72
65
 73
0
 40
0.0
  0
LTYPE
  5
15
100
AcDbSymbolTableRecord
100
AcDbLinetypeTableRecord
  2
BYLAYER
 70
0
  3

 72
65
 73
0
 40
0.0
  0
LTYPE
  5
16
100
AcDbSymbolTableRecord
100
AcDbLinetypeTableRecord
  2
CONTINUOUS
 70
64
  3
Solid line
 72
65
 73
0
 40
0.0
  0
LTYPE
  5
1F5
100
AcDbSymbolTableRecord
100
AcDbLinetypeTableRecord
  2
CENTER
 70
64
  3
____ _ ____ _ ____ _ ____ _ ____ _ ____ _ ____
 72
65
 73
4
 40
0.6
 49
0.375
 74
0
 49
-0.075
 74
0
 49
0.075
 74
0
 49
-0.075
 74
0
  0
LTYPE
  5
1F6
100
AcDbSymbolTableRecord
100
AcDbLinetypeTableRecord
  2
HIDDEN
 70
64
  3
- - - - - - - - - - - - - - - - - - - -
 72
65
 73
2
 40
0.2
 49
0.1
 74
0
 49
-0.1
 74
0
  0
LTYPE
  5
1F7
100
AcDbSymbolTableRecord
100
AcDbLinetypeTableRecord
  2
PHANTOM
 70
64
  3
_____ _ _ _____ _ _ _____ _ _ _____
 72
65
 73
6
 40
0.8
 49
0.45
 74
0
 49
-0.05
 74
0
 49
0.1
 74
0
 49
-0.05
 74
0
 49
0.1
 74
0
 49
-0.05
 74
0
  0
LTYPE
  5
1F8
100
AcDbSymbolTableRecord
100
AcDbLinetypeTableRecord
  2
DOT
 70
64
  3
. . . . . . . . . . . . . . . . . . . .
 72
65
 73
2
 40
0.2
 49
0.1
 74
0
 49
-0.1
 74
0
  0
LTYPE
  5
1F9
100
AcDbSymbolTableRecord
100
AcDbLinetypeTableRecord
  2
DASHED
 70
64
  3
- - - - - - - - - - - - - - - - - - - -
 72
65
 73
2
 40
0.2
 49
0.1
 74
0
 49
-0.1
 74
0
  0
ENDTAB
  0
TABLE
  2
LAYER
  5
2
100
AcDbSymbolTable
 70
36
  0
LAYER
  5
10
100
AcDbSymbolTableRecord
100
AcDbLayerTableRecord
  2
0
 70
0
 62
7
  6
CONTINUOUS
370
-3
390
F
  0
LAYER
  5
1FA
100
AcDbSymbolTableRecord
100
AcDbLayerTableRecord
  2
DEFAULT_1
 70
0
 62
7
  6
CENTER
370
-3
390
F
  0
LAYER
  5
1FB
100
AcDbSymbolTableRecord
100
AcDbLayerTableRecord
  2
DEFAULT_2
 70
0
 62
8
  6
HIDDEN
370
-3
390
F
  0
LAYER
  5
1FC
100
AcDbSymbolTableRecord
100
AcDbLayerTableRecord
  2
DEFAULT_3
 70
0
 62
7
  6
PHANTOM
370
-3
390
F
  0
LAYER
  5
1FD
100
AcDbSymbolTableRecord
100
AcDbLayerTableRecord
  2
00_COMPONENTS
 70
0
 62
7
  6
CONTINUOUS
370
-3
390
F
  0
LAYER
  5
1FE
100
AcDbSymbolTableRecord
100
AcDbLayerTableRecord
  2
01_1_DEFAULT_DATUMS
 70
0
 62
7
  6
CONTINUOUS
370
-3
390
F
  0
LAYER
  5
1FF
100
AcDbSymbolTableRecord
100
AcDbLayerTableRecord
  2
01_PLANES
 70
0
 62
7
  6
CONTINUOUS
370
-3
390
F
  0
LAYER
  5
200
100
AcDbSymbolTableRecord
100
AcDbLayerTableRecord
  2
02_COORD_SYS
 70
0
 62
7
  6
CONTINUOUS
370
-3
390
F
  0
LAYER
  5
201
100
AcDbSymbolTableRecord
100
AcDbLayerTableRecord
  2
03_AXES
 70
0
 62
7
  6
CONTINUOUS
370
-3
390
F
  0
LAYER
  5
202
100
AcDbSymbolTableRecord
100
AcDbLayerTableRecord
  2
04_POINTS
 70
0
 62
7
  6
CONTINUOUS
370
-3
390
F
  0
LAYER
  5
203
100
AcDbSymbolTableRecord
100
AcDbLayerTableRecord
  2
05_CURVES
 70
0
 62
7
  6
CONTINUOUS
370
-3
390
F
  0
LAYER
  5
204
100
AcDbSymbolTableRecord
100
AcDbLayerTableRecord
  2
06_SURFS
 70
0
 62
7
  6
CONTINUOUS
370
-3
390
F
  0
LAYER
  5
205
100
AcDbSymbolTableRecord
100
AcDbLayerTableRecord
  2
07_COSMETICS
 70
0
 62
7
  6
CONTINUOUS
370
-3
390
F
  0
LAYER
  5
206
100
AcDbSymbolTableRecord
100
AcDbLayerTableRecord
  2
10_NOTES
 70
0
 62
7
  6
CONTINUOUS
370
-3
390
F
  0
LAYER
  5
207
100
AcDbSymbolTableRecord
100
AcDbLayerTableRecord
  2
11_NOTES_PUB
 70
0
 62
7
  6
CONTINUOUS
370
-3
390
F
  0
LAYER
  5
208
100
AcDbSymbolTableRecord
100
AcDbLayerTableRecord
  2
13_REF_GTOL
 70
0
 62
7
  6
CONTINUOUS
370
-3
390
F
  0
LAYER
  5
209
100
AcDbSymbolTableRecord
100
AcDbLayerTableRecord
  2
16_MISC
 70
0
 62
7
  6
CONTINUOUS
370
-3
390
F
  0
LAYER
  5
20A
100
AcDbSymbolTableRecord
100
AcDbLayerTableRecord
  2
17_NO_PRINT
 70
0
 62
7
  6
CONTINUOUS
370
-3
390
F
  0
LAYER
  5
20B
100
AcDbSymbolTableRecord
100
AcDbLayerTableRecord
  2
18_DATUM_CAMS_JOINTS
 70
0
 62
7
  6
CONTINUOUS
370
-3
390
F
  0
LAYER
  5
20C
100
AcDbSymbolTableRecord
100
AcDbLayerTableRecord
  2
19_DATUM_FUNCTIONAL
 70
0
 62
7
  6
CONTINUOUS
370
-3
390
F
  0
LAYER
  5
20D
100
AcDbSymbolTableRecord
100
AcDbLayerTableRecord
  2
20_DATUM_KINEMATIC_SCHEME
 70
0
 62
7
  6
CONTINUOUS
370
-3
390
F
  0
ENDTAB
  0
TABLE
  2
STYLE
  5
3
100
AcDbSymbolTable
 70
1
  0
STYLE
  5
11
100
AcDbSymbolTableRecord
100
AcDbTextStyleTableRecord
  2
STANDARD
 70
0
 40
0.0
 41
0.8
 50
0.0
 71
0
 42
0.2
  3
txt
  4

  0
STYLE
  5
20E
100
AcDbSymbolTableRecord
100
AcDbTextStyleTableRecord
  2
TEXTSTYLE_1
 70
0
 40
0.0
 41
0.8
 50
0.0
 71
0
 42
0.2
  3
gdt
  4

  0
ENDTAB
  0
TABLE
  2
VIEW
  5
6
100
AcDbSymbolTable
 70
0
  0
ENDTAB
  0
TABLE
  2
UCS
  5
7
100
AcDbSymbolTable
 70
0
  0
ENDTAB
  0
TABLE
  2
APPID
  5
9
100
AcDbSymbolTable
 70
1
  0
APPID
  5
20F
100
AcDbSymbolTableRecord
100
AcDbRegAppTableRecord
  2
ACAD
 70
0
  0
ENDTAB
  0
TABLE
  2
BLOCK_RECORD
  5
1
100
AcDbSymbolTable
 70
0
  0
BLOCK_RECORD
  5
210
100
AcDbSymbolTableRecord
100
AcDbBlockTableRecord
  2
*Model_Space
  0
BLOCK_RECORD
  5
211
100
AcDbSymbolTableRecord
100
AcDbBlockTableRecord
  2
*Paper_Space
  0
BLOCK_RECORD
  5
212
100
AcDbSymbolTableRecord
100
AcDbBlockTableRecord
  2
_FILLED
  0
ENDTAB
  0
TABLE
  2
DIMSTYLE
  5
A
100
AcDbSymbolTable
 70
1
100
AcDbDimStyleTable
 71
0
  0
DIMSTYLE
105
213
100
AcDbSymbolTableRecord
100
AcDbDimStyleTableRecord
  2
STANDARD
 70
0
  3

  4

 40
1.0
 41
9.029021064
 42
1.0
 43
0.38
 44
1.0
 45
0.0
 46
0.0
 47
0.01
 48
0.01
140
12.6406294896
141
0.09
142
0.0
143
25.4
144
1.0
145
0.0
146
1.0
147
0.625
 71
1
 72
0
 73
0
 74
0
 75
0
 76
0
 77
1
 78
8
 79
2
170
0
171
1
172
0
173
0
174
0
175
0
176
0
177
0
178
0
270
2
179
2
271
2
272
2
273
2
274
2
275
0
280
0
281
0
282
0
283
1
284
8
285
0
286
0
287
3
288
0
340
11
278
46
341
212
342
212
343
212
344
212
  0
ENDTAB
  0
ENDSEC
  0
SECTION
  2
BLOCKS
  0
BLOCK
  5
20
100
AcDbEntity
  8
0
100
AcDbBlockBegin
  2
*Model_Space
 70
0
 10
0.0
 20
0.0
 30
0.0
  3
*Model_Space
  1

  0
ENDBLK
  5
21
100
AcDbEntity
  8
0
100
AcDbBlockEnd
  0
BLOCK
  5
1C
100
AcDbEntity
  8
0
100
AcDbBlockBegin
  2
*Paper_Space
 70
0
 10
0.0
 20
0.0
 30
0.0
  3
*Paper_Space
  1

  0
ENDBLK
  5
1D
100
AcDbEntity
  8
0
100
AcDbBlockEnd
  0
BLOCK
  5
214
100
AcDbEntity
  8
0
100
AcDbBlockBegin
  2
_FILLED
 70
64
 10
0.0
 20
0.0
  3
_FILLED
  1

  0
SOLID
  5
215
100
AcDbEntity
  8
0
  6
BYBLOCK
 62
0
100
AcDbTrace
 10
0.0
 20
0.0
 11
-1.0
 21
0.25
 12
-1.0
 22
-0.25
 13
-1.0
 23
-0.25
  0
ENDBLK
  5
216
100
AcDbEntity
  8
0
  6
BYBLOCK
 62
0
100
AcDbBlockEnd
  0
ENDSEC
  0
SECTION
  2
ENTITIES
  0
LINE
  5
217
100
AcDbEntity
  8
0
100
AcDbLine
 62
7
  6
CONTINUOUS
 10
83.6883611721
 20
348.8649256336
 11
84.4132812303
 21
347.4723671583
  0
LINE
  5
218
100
AcDbEntity
  8
0
100
AcDbLine
 62
7
  6
CONTINUOUS
 10
83.5529165758
 20
346.2436390919
 11
91.3618727002
 21
340.775749148
  0
LINE
  5
219
100
AcDbEntity
  8
0
100
AcDbLine
 62
7
  6
CONTINUOUS
 10
84.4132812303
 20
347.4723671583
 11
90.233457744
 21
343.3970356897
  0
LINE
  5
21A
100
AcDbEntity
  8
0
100
AcDbLine
 62
7
  6
CONTINUOUS
 10
118.1402684261
 20
347.7333673593
 11
117.9412442075
 21
347.9323915775
  0
LINE
  5
21B
100
AcDbEntity
  8
0
100
AcDbLine
 62
7
  6
CONTINUOUS
 10
118.2410121792
 20
348.2322088846
 11
118.4400363978
 21
348.0331846664
  0
LINE
  5
21C
100
AcDbEntity
  8
0
100
AcDbLine
 62
7
  6
CONTINUOUS
 10
80.5317949738
 20
740.5073323012
 11
80.5317949738
 21
369.9073323011
  0
LINE
  5
21D
100
AcDbEntity
  8
0
100
AcDbLine
 62
7
  6
CONTINUOUS
 10
82.0317949738
 20
369.9073323012
 11
82.0317949738
 21
740.5073323012
  0
LINE
  5
21E
100
AcDbEntity
  8
0
100
AcDbLine
 62
7
  6
CONTINUOUS
 10
82.1883611721
 20
358.4970356898
 11
82.1883611721
 21
348.8649256336
  0
LINE
  5
21F
100
AcDbEntity
  8
0
100
AcDbLine
 62
7
  6
CONTINUOUS
 10
83.6883611721
 20
348.8649256336
 11
83.6883611721
 21
358.4970356897
  0
LINE
  5
220
100
AcDbEntity
  8
0
100
AcDbLine
 62
7
  6
CONTINUOUS
 10
86.5317949738
 20
366.5073323011
 11
86.5317949738
 21
366.7073323011
  0
LINE
  5
221
100
AcDbEntity
  8
0
100
AcDbLine
 62
7
  6
CONTINUOUS
 10
126.1869926799
 20
346.5887281128
 11
125.9803090365
 21
346.7204001154
  0
LINE
  5
222
100
AcDbEntity
  8
0
100
AcDbLine
 62
7
  6
CONTINUOUS
 10
126.5578788743
 20
347.6263940012
 11
126.7640103034
 21
347.4950737978
  0
LINE
  5
223
100
AcDbEntity
  8
0
100
AcDbLine
 62
7
  6
CONTINUOUS
 10
134.7692348325
 20
352.668848639
 11
136.1594334262
 21
351.5311244168
  0
LINE
  5
224
100
AcDbEntity
  8
0
100
AcDbLine
 62
7
  6
CONTINUOUS
 10
135.0431048101
 20
344.7365559775
 11
138.1883611721
 21
342.0970356898
  0
LINE
  5
225
100
AcDbEntity
  8
0
100
AcDbLine
 62
7
  6
CONTINUOUS
 10
134.9830379396
 20
345.5949813262
 11
135.1413890703
 21
345.4609702964
  0
LINE
  5
226
100
AcDbEntity
  8
0
100
AcDbLine
 62
7
  6
CONTINUOUS
 10
138.9335949884
 20
348.5323811477
 11
139.9462098264
 21
347.460291324
  0
LINE
  5
227
100
AcDbEntity
  8
0
100
AcDbLine
 62
7
  6
CONTINUOUS
 10
135.8632847888
 20
346.1774334749
 11
137.6661418911
 21
344.1760722985
  0
LINE
  5
228
100
AcDbEntity
  8
0
100
AcDbLine
 62
7
  6
CONTINUOUS
 10
137.874526458
 20
343.6332497219
 11
135.8885786367
 21
345.8398698268
  0
LINE
  5
229
100
AcDbEntity
  8
0
100
AcDbLine
 62
7
  6
CONTINUOUS
 10
136.1587604402
 20
351.5319024601
 11
137.0783233279
 21
350.007730368
  0
LINE
  5
22A
100
AcDbEntity
  8
0
100
AcDbLine
 62
7
  6
CONTINUOUS
 10
136.1594317103
 20
351.531126401
 11
137.0783233864
 21
350.0077302183
  0
LINE
  5
22B
100
AcDbEntity
  8
0
100
AcDbLine
 62
7
  6
CONTINUOUS
 10
130.0383611721
 20
372.8029928211
 11
131.036800168
 21
370.8970356897
  0
LINE
  5
22C
100
AcDbEntity
  8
0
100
AcDbLine
 62
7
  6
CONTINUOUS
 10
123.8094293636
 20
345.8742997085
 11
124.1376293384
 21
345.0520446131
  0
LINE
  5
22D
100
AcDbEntity
  8
0
100
AcDbLine
 62
7
  6
CONTINUOUS
 10
137.8744900898
 20
343.6332901238
 11
137.6661308149
 21
344.1760845941
  0
LINE
  5
22E
100
AcDbEntity
  8
0
100
AcDbLine
 62
7
  6
CONTINUOUS
 10
138.1890557443
 20
344.3766340004
 11
138.397292682
 21
343.8341582294
  0
LINE
  5
22F
100
AcDbEntity
  8
0
100
AcDbLine
 62
7
  6
CONTINUOUS
 10
130.2151517229
 20
362.4067826858
 11
130.3986381898
 21
361.9018440415
  0
LINE
  5
230
100
AcDbEntity
  8
0
100
AcDbLine
 62
7
  6
CONTINUOUS
 10
134.1607831435
 20
361.688698809
 11
133.9782651749
 21
362.1910392029
  0
LINE
  5
231
100
AcDbEntity
  8
0
100
AcDbLine
 62
7
  6
CONTINUOUS
 10
130.2164048942
 20
360.6046141021
 11
130.3997475685
 21
360.0998343652
  0
LINE
  5
232
100
AcDbEntity
  8
0
100
AcDbLine
 62
7
  6
CONTINUOUS
 10
130.2164963601
 20
364.2052268814
 11
130.3997892265
 21
363.7005386256
  0
LINE
  5
233
100
AcDbEntity
  8
0
100
AcDbLine
 62
7
  6
CONTINUOUS
 10
134.1598732669
 20
359.8904264101
 11
133.9776669994
 21
360.3920897416
  0
LINE
  5
234
100
AcDbEntity
  8
0
100
AcDbLine
 62
7
  6
CONTINUOUS
 10
134.160104047
 20
363.4908120249
 11
133.9775679369
 21
363.9933067406
  0
LINE
  5
235
100
AcDbEntity
  8
0
100
AcDbLine
 62
7
  6
CONTINUOUS
 10
134.1602343089
 20
365.2891358733
 11
133.9777878837
 21
365.7914034133
  0
LWPOLYLINE
  5
236
100
AcDbEntity
  8
0
100
AcDbPolyline
 62
7
  6
CONTINUOUS
 90
4
 70
0
 10
139.9462051116
 20
347.4603171282
 10
140.5695500185
 20
345.7289191315
 10
140.9603140275
 20
343.9314337766
 10
141.112062315
 20
342.0970349968
  0
LWPOLYLINE
  5
237
100
AcDbEntity
  8
0
100
AcDbPolyline
 62
7
  6
CONTINUOUS
 90
4
 70
0
 10
139.9462062063
 20
347.4603146124
 10
140.5697467078
 20
345.7282346285
 10
140.9604190025
 20
343.930730947
 10
141.1120623189
 20
342.0970350651
  0
LINE
  5
238
100
AcDbEntity
  8
0
100
AcDbLine
 62
7
  6
CONTINUOUS
 10
134.1087319439
 20
359.8940067901
 11
133.9266440383
 21
360.4020489645
  0
LINE
  5
239
100
AcDbEntity
  8
0
100
AcDbLine
 62
7
  6
CONTINUOUS
 10
128.9528725259
 20
350.2040564298
 11
129.0276135847
 21
349.9246432631
  0
LINE
  5
23A
100
AcDbEntity
  8
0
100
AcDbLine
 62
7
  6
CONTINUOUS
 10
129.1803146649
 20
350.1788991583
 11
129.250513134
 21
349.9080049483
  0
LINE
  5
23B
100
AcDbEntity
  8
0
100
AcDbLine
 62
7
  6
CONTINUOUS
 10
129.1149236606
 20
349.8754476465
 11
129.0485488436
 21
350.1474996571
  0
LINE
  5
23C
100
AcDbEntity
  8
0
100
AcDbLine
 62
7
  6
CONTINUOUS
 10
115.4446701783
 20
345.0266228865
 11
115.1577876361
 21
348.2374444834
  0
LINE
  5
23D
100
AcDbEntity
  8
0
100
AcDbLine
 62
7
  6
CONTINUOUS
 10
115.4018836816
 20
347.3022714117
 11
115.5903034857
 21
345.1934558259
  0
LINE
  5
23E
100
AcDbEntity
  8
0
100
AcDbLine
 62
7
  6
CONTINUOUS
 10
115.6379579442
 20
345.2480472756
 11
115.8179771321
 21
343.0970356897
  0
LINE
  5
23F
100
AcDbEntity
  8
0
100
AcDbLine
 62
7
  6
CONTINUOUS
 10
115.8928391126
 20
343.0970356897
 11
115.6623730846
 21
345.8996278358
  0
LINE
  5
240
100
AcDbEntity
  8
0
100
AcDbLine
 62
7
  6
CONTINUOUS
 10
116.1655015609
 20
345.8523846609
 11
116.392082633
 21
343.0970356898
  0
LINE
  5
241
100
AcDbEntity
  8
0
100
AcDbLine
 62
7
  6
CONTINUOUS
 10
116.1671575009
 20
345.8532441843
 11
116.393738573
 21
343.0978952131
  0
LWPOLYLINE
  5
242
100
AcDbEntity
  8
0
100
AcDbPolyline
 62
7
  6
CONTINUOUS
 90
4
 70
0
 10
123.5519030263
 20
354.7434489582
 10
123.5529538636
 20
354.7276969932
 10
123.5533356823
 20
354.7120640286
 10
123.5530518331
 20
354.6966252784
  0
LINE
  5
243
100
AcDbEntity
  8
0
100
AcDbLine
 62
7
  6
CONTINUOUS
 10
123.4779559729
 20
356.2122620532
 11
123.5530498196
 21
354.7918097189
  0
LINE
  5
244
100
AcDbEntity
  8
0
100
AcDbLine
 62
7
  6
CONTINUOUS
 10
123.5530252201
 20
354.7437645882
 11
123.4779560154
 21
356.212261651
  0
LINE
  5
245
100
AcDbEntity
  8
0
100
AcDbLine
 62
7
  6
CONTINUOUS
 10
124.2070038504
 20
343.0970356898
 11
124.1376298456
 21
345.0520446402
  0
LINE
  5
246
100
AcDbEntity
  8
0
100
AcDbLine
 62
7
  6
CONTINUOUS
 10
116.2630775802
 20
338.0574377029
 11
116.1883611721
 21
340.1970356897
  0
LINE
  5
247
100
AcDbEntity
  8
0
100
AcDbLine
 62
7
  6
CONTINUOUS
 10
122.9991272714
 20
343.0970356897
 11
122.9206550001
 21
345.3441875259
  0
LINE
  5
248
100
AcDbEntity
  8
0
100
AcDbLine
 62
7
  6
CONTINUOUS
 10
124.0235579144
 20
343.0970468609
 11
123.9376554432
 21
345.5528369434
  0
LINE
  5
249
100
AcDbEntity
  8
0
100
AcDbLine
 62
7
  6
CONTINUOUS
 10
123.9386428684
 20
345.5470323756
 11
124.0241969909
 21
343.0970828565
  0
LINE
  5
24A
100
AcDbEntity
  8
0
100
AcDbLine
 62
7
  6
CONTINUOUS
 10
123.9628991032
 20
343.0970356897
 11
123.8895255793
 21
345.2205899624
  0
LINE
  5
24B
100
AcDbEntity
  8
0
100
AcDbLine
 62
7
  6
CONTINUOUS
 10
123.6051573339
 20
343.0970358087
 11
123.509669123
 21
345.8742977521
  0
LINE
  5
24C
100
AcDbEntity
  8
0
100
AcDbLine
 62
7
  6
CONTINUOUS
 10
123.8094291326
 20
345.8742997084
 11
123.9049293753
 21
343.0970356932
  0
LINE
  5
24D
100
AcDbEntity
  8
0
100
AcDbLine
 62
7
  6
CONTINUOUS
 10
96.5317949738
 20
366.7073323011
 11
96.5317949738
 21
366.5073323011
  0
LINE
  5
24E
100
AcDbEntity
  8
0
100
AcDbLine
 62
7
  6
CONTINUOUS
 10
109.072360058
 20
342.0970356897
 11
109.072360058
 21
341.8970356897
  0
LINE
  5
24F
100
AcDbEntity
  8
0
100
AcDbLine
 62
7
  6
CONTINUOUS
 10
109.125551243
 20
342.0970356897
 11
109.125551243
 21
341.8970356897
  0
LINE
  5
250
100
AcDbEntity
  8
0
100
AcDbLine
 62
7
  6
CONTINUOUS
 10
109.2319345666
 20
342.0970356897
 11
109.2319345666
 21
341.8970356897
  0
LINE
  5
251
100
AcDbEntity
  8
0
100
AcDbLine
 62
7
  6
CONTINUOUS
 10
109.2851257516
 20
342.0970356897
 11
109.2851257516
 21
341.8970356897
  0
LINE
  5
252
100
AcDbEntity
  8
0
100
AcDbLine
 62
7
  6
CONTINUOUS
 10
109.3383178903
 20
342.0970356897
 11
109.3383178903
 21
341.8970356897
  0
LINE
  5
253
100
AcDbEntity
  8
0
100
AcDbLine
 62
7
  6
CONTINUOUS
 10
109.3915090753
 20
342.0970356897
 11
109.3915090753
 21
341.8970356897
  0
LINE
  5
254
100
AcDbEntity
  8
0
100
AcDbLine
 62
7
  6
CONTINUOUS
 10
109.4447002603
 20
342.0970356897
 11
109.4447002603
 21
341.8970356897
  0
LINE
  5
255
100
AcDbEntity
  8
0
100
AcDbLine
 62
7
  6
CONTINUOUS
 10
109.497892399
 20
342.0970356897
 11
109.497892399
 21
341.8970356897
  0
LINE
  5
256
100
AcDbEntity
  8
0
100
AcDbLine
 62
7
  6
CONTINUOUS
 10
109.551083584
 20
342.0970356897
 11
109.551083584
 21
341.8970356897
  0
LINE
  5
257
100
AcDbEntity
  8
0
100
AcDbLine
 62
7
  6
CONTINUOUS
 10
109.6042747689
 20
342.0970356897
 11
109.6042747689
 21
341.8970356897
  0
LINE
  5
258
100
AcDbEntity
  8
0
100
AcDbLine
 62
7
  6
CONTINUOUS
 10
109.6574669076
 20
342.0970356897
 11
109.6574669076
 21
341.8970356897
  0
LINE
  5
259
100
AcDbEntity
  8
0
100
AcDbLine
 62
7
  6
CONTINUOUS
 10
109.7106580926
 20
342.0970356897
 11
109.7106580926
 21
341.8970356897
  0
LINE
  5
25A
100
AcDbEntity
  8
0
100
AcDbLine
 62
7
  6
CONTINUOUS
 10
109.7409688765
 20
345.0970356897
 11
109.7409688765
 21
345.3917992734
  0
LINE
  5
25B
100
AcDbEntity
  8
0
100
AcDbLine
 62
7
  6
CONTINUOUS
 10
109.7409738037
 20
345.391807207
 11
109.7409608473
 21
345.0970357627
  0
LINE
  5
25C
100
AcDbEntity
  8
0
100
AcDbLine
 62
7
  6
CONTINUOUS
 10
109.7638492776
 20
342.0970356897
 11
109.7638492776
 21
341.8970356897
  0
LINE
  5
25D
100
AcDbEntity
  8
0
100
AcDbLine
 62
7
  6
CONTINUOUS
 10
109.8170414163
 20
342.0970356897
 11
109.8170414163
 21
341.8970356897
  0
LINE
  5
25E
100
AcDbEntity
  8
0
100
AcDbLine
 62
7
  6
CONTINUOUS
 10
109.8702326013
 20
342.0970356897
 11
109.8702326013
 21
341.8970356897
  0
LINE
  5
25F
100
AcDbEntity
  8
0
100
AcDbLine
 62
7
  6
CONTINUOUS
 10
109.9234237863
 20
342.0970356897
 11
109.9234237863
 21
341.8970356897
  0
LINE
  5
260
100
AcDbEntity
  8
0
100
AcDbLine
 62
7
  6
CONTINUOUS
 10
109.9766149713
 20
342.0970356897
 11
109.9766149713
 21
341.8970356897
  0
LINE
  5
261
100
AcDbEntity
  8
0
100
AcDbLine
 62
7
  6
CONTINUOUS
 10
110.02980711
 20
342.0970356897
 11
110.02980711
 21
341.8970356897
  0
LINE
  5
262
100
AcDbEntity
  8
0
100
AcDbLine
 62
7
  6
CONTINUOUS
 10
110.082998295
 20
342.0970356897
 11
110.082998295
 21
341.8970356897
  0
LINE
  5
263
100
AcDbEntity
  8
0
100
AcDbLine
 62
7
  6
CONTINUOUS
 10
110.13618948
 20
342.0970356897
 11
110.13618948
 21
341.8970356897
  0
LINE
  5
264
100
AcDbEntity
  8
0
100
AcDbLine
 62
7
  6
CONTINUOUS
 10
110.1893816186
 20
342.0970356897
 11
110.1893816186
 21
341.8970356897
  0
LINE
  5
265
100
AcDbEntity
  8
0
100
AcDbLine
 62
7
  6
CONTINUOUS
 10
110.2425728036
 20
342.0970356897
 11
110.2425728036
 21
341.8970356897
  0
LINE
  5
266
100
AcDbEntity
  8
0
100
AcDbLine
 62
7
  6
CONTINUOUS
 10
110.3489561273
 20
342.0970356897
 11
110.3489561273
 21
341.8970356897
  0
LINE
  5
267
100
AcDbEntity
  8
0
100
AcDbLine
 62
7
  6
CONTINUOUS
 10
110.4021473123
 20
342.0970356897
 11
110.4021473123
 21
341.8970356897
  0
LINE
  5
268
100
AcDbEntity
  8
0
100
AcDbLine
 62
7
  6
CONTINUOUS
 10
110.4553384973
 20
342.0970356897
 11
110.4553384973
 21
341.8970356897
  0
LINE
  5
269
100
AcDbEntity
  8
0
100
AcDbLine
 62
7
  6
CONTINUOUS
 10
110.508530636
 20
342.0970356897
 11
110.508530636
 21
341.8970356897
  0
LINE
  5
26A
100
AcDbEntity
  8
0
100
AcDbLine
 62
7
  6
CONTINUOUS
 10
110.561721821
 20
342.0970356897
 11
110.561721821
 21
341.8970356897
  0
LINE
  5
26B
100
AcDbEntity
  8
0
100
AcDbLine
 62
7
  6
CONTINUOUS
 10
110.6149130059
 20
342.0970356897
 11
110.6149130059
 21
341.8970356897
  0
LINE
  5
26C
100
AcDbEntity
  8
0
100
AcDbLine
 62
7
  6
CONTINUOUS
 10
110.6681051446
 20
342.0970356897
 11
110.6681051446
 21
341.8970356897
  0
LINE
  5
26D
100
AcDbEntity
  8
0
100
AcDbLine
 62
7
  6
CONTINUOUS
 10
110.7744875146
 20
342.0970356897
 11
110.7744875146
 21
341.8970356897
  0
LINE
  5
26E
100
AcDbEntity
  8
0
100
AcDbLine
 62
7
  6
CONTINUOUS
 10
110.8276796533
 20
342.0970356897
 11
110.8276796533
 21
341.8970356897
  0
LINE
  5
26F
100
AcDbEntity
  8
0
100
AcDbLine
 62
7
  6
CONTINUOUS
 10
110.8808708383
 20
342.0970356897
 11
110.8808708383
 21
341.8970356897
  0
LINE
  5
270
100
AcDbEntity
  8
0
100
AcDbLine
 62
7
  6
CONTINUOUS
 10
110.9340620233
 20
342.0970356897
 11
110.9340620233
 21
341.8970356897
  0
LINE
  5
271
100
AcDbEntity
  8
0
100
AcDbLine
 62
7
  6
CONTINUOUS
 10
110.987254162
 20
342.0970356897
 11
110.987254162
 21
341.8970356897
  0
LINE
  5
272
100
AcDbEntity
  8
0
100
AcDbLine
 62
7
  6
CONTINUOUS
 10
111.093636532
 20
342.0970356897
 11
111.093636532
 21
341.8970356897
  0
LINE
  5
273
100
AcDbEntity
  8
0
100
AcDbLine
 62
7
  6
CONTINUOUS
 10
111.146827717
 20
342.0970356897
 11
111.146827717
 21
341.8970356897
  0
LINE
  5
274
100
AcDbEntity
  8
0
100
AcDbLine
 62
7
  6
CONTINUOUS
 10
111.2000198556
 20
342.0970356897
 11
111.2000198556
 21
341.8970356897
  0
LINE
  5
275
100
AcDbEntity
  8
0
100
AcDbLine
 62
7
  6
CONTINUOUS
 10
111.2532110406
 20
342.0970356897
 11
111.2532110406
 21
341.8970356897
  0
LINE
  5
276
100
AcDbEntity
  8
0
100
AcDbLine
 62
7
  6
CONTINUOUS
 10
111.3064022256
 20
342.0970356897
 11
111.3064022256
 21
341.8970356897
  0
LINE
  5
277
100
AcDbEntity
  8
0
100
AcDbLine
 62
7
  6
CONTINUOUS
 10
111.3595943643
 20
342.0970356897
 11
111.3595943643
 21
341.8970356897
  0
LINE
  5
278
100
AcDbEntity
  8
0
100
AcDbLine
 62
7
  6
CONTINUOUS
 10
111.4127855493
 20
342.0970356897
 11
111.4127855493
 21
341.8970356897
  0
LINE
  5
279
100
AcDbEntity
  8
0
100
AcDbLine
 62
7
  6
CONTINUOUS
 10
111.519168873
 20
342.0970356897
 11
111.519168873
 21
341.8970356897
  0
LINE
  5
27A
100
AcDbEntity
  8
0
100
AcDbLine
 62
7
  6
CONTINUOUS
 10
111.572360058
 20
342.0970356897
 11
111.572360058
 21
341.8970356897
  0
LINE
  5
27B
100
AcDbEntity
  8
0
100
AcDbLine
 62
7
  6
CONTINUOUS
 10
114.7879037383
 20
347.5970356897
 11
114.7879037383
 21
347.3022752543
  0
LINE
  5
27C
100
AcDbEntity
  8
0
100
AcDbLine
 62
7
  6
CONTINUOUS
 10
115.7042349131
 20
354.7918047222
 11
115.7042349131
 21
354.4970356898
  0
LINE
  5
27D
100
AcDbEntity
  8
0
100
AcDbLine
 62
7
  6
CONTINUOUS
 10
116.3014667627
 20
356.2123291601
 11
116.3014667627
 21
356.5070356898
  0
LINE
  5
27E
100
AcDbEntity
  8
0
100
AcDbLine
 62
7
  6
CONTINUOUS
 10
116.4412547301
 20
349.8168862451
 11
116.4412547301
 21
352.1771560858
  0
LINE
  5
27F
100
AcDbEntity
  8
0
100
AcDbLine
 62
7
  6
CONTINUOUS
 10
116.5405150499
 20
349.121963264
 11
116.5405150499
 21
349.4166784228
  0
LINE
  5
280
100
AcDbEntity
  8
0
100
AcDbLine
 62
7
  6
CONTINUOUS
 10
116.5428066243
 20
352.5762475217
 11
116.5428066243
 21
352.8814301539
  0
LINE
  5
281
100
AcDbEntity
  8
0
100
AcDbLine
 62
7
  6
CONTINUOUS
 10
115.9424280687
 20
352.2818943355
 11
115.9411427795
 21
349.7218683709
  0
LINE
  5
282
100
AcDbEntity
  8
0
100
AcDbLine
 62
7
  6
CONTINUOUS
 10
116.2422583623
 20
352.2766586057
 11
116.2406979133
 21
349.7166328107
  0
LINE
  5
283
100
AcDbEntity
  8
0
100
AcDbLine
 62
7
  6
CONTINUOUS
 10
108.3026850601
 20
348.6466468266
 11
108.1883611719
 21
342.0970356722
  0
LINE
  5
284
100
AcDbEntity
  8
0
100
AcDbLine
 62
7
  6
CONTINUOUS
 10
108.6026397805
 20
348.6466704472
 11
108.4883154809
 21
342.0970356897
  0
LINE
  5
285
100
AcDbEntity
  8
0
100
AcDbLine
 62
7
  6
CONTINUOUS
 10
144.4930715019
 20
334.2584177937
 11
144.6133098285
 21
334.2212745398
  0
LINE
  5
286
100
AcDbEntity
  8
0
100
AcDbLine
 62
7
  6
CONTINUOUS
 10
115.2099011724
 20
347.9323915134
 11
116.0252059171
 21
347.6071099689
  0
LINE
  5
287
100
AcDbEntity
  8
0
100
AcDbLine
 62
7
  6
CONTINUOUS
 10
136.1333370688
 20
348.41209441
 11
137.8189793932
 21
347.6263306405
  0
LINE
  5
288
100
AcDbEntity
  8
0
100
AcDbLine
 62
7
  6
CONTINUOUS
 10
138.9335977068
 20
348.5323868834
 11
138.0959325442
 21
348.9229965637
  0
LINE
  5
289
100
AcDbEntity
  8
0
100
AcDbLine
 62
7
  6
CONTINUOUS
 10
139.0603831752
 20
348.7990435021
 11
138.2227180099
 21
349.1896531837
  0
LINE
  5
28A
100
AcDbEntity
  8
0
100
AcDbLine
 62
7
  6
CONTINUOUS
 10
137.6127120425
 20
347.4950737987
 11
135.9359403287
 21
348.2772282316
  0
LINE
  5
28B
100
AcDbEntity
  8
0
100
AcDbLine
 62
7
  6
CONTINUOUS
 10
116.4412547308
 20
352.1771679185
 11
116.2422583397
 21
352.276635799
  0
LINE
  5
28C
100
AcDbEntity
  8
0
100
AcDbLine
 62
7
  6
CONTINUOUS
 10
116.5428066182
 20
352.5762475217
 11
116.7410719919
 21
352.4771450385
  0
LINE
  5
28D
100
AcDbEntity
  8
0
100
AcDbLine
 62
7
  6
CONTINUOUS
 10
124.1351710125
 20
349.1167229016
 11
123.9366859456
 21
349.2159351979
  0
LINE
  5
28E
100
AcDbEntity
  8
0
100
AcDbLine
 62
7
  6
CONTINUOUS
 10
124.2365031945
 20
349.5158907191
 11
124.4349882614
 21
349.4166784227
  0
LINE
  5
28F
100
AcDbEntity
  8
0
100
AcDbLine
 62
7
  6
CONTINUOUS
 10
125.836191483
 20
349.4166784291
 11
125.6356335333
 21
349.516926851
  0
LINE
  5
290
100
AcDbEntity
  8
0
100
AcDbLine
 62
7
  6
CONTINUOUS
 10
125.9354680641
 20
349.8168804178
 11
126.136024431
 21
349.716632787
  0
LINE
  5
291
100
AcDbEntity
  8
0
100
AcDbLine
 62
7
  6
CONTINUOUS
 10
124.9388571013
 20
342.8491301431
 11
125.0714716455
 21
342.0970356897
  0
LINE
  5
292
100
AcDbEntity
  8
0
100
AcDbLine
 62
7
  6
CONTINUOUS
 10
128.0840692939
 20
353.6706838681
 11
128.1371801231
 21
353.3694778804
  0
LINE
  5
293
100
AcDbEntity
  8
0
100
AcDbLine
 62
7
  6
CONTINUOUS
 10
128.3795116192
 20
353.717542603
 11
128.4326264556
 21
353.4163133967
  0
LINE
  5
294
100
AcDbEntity
  8
0
100
AcDbLine
 62
7
  6
CONTINUOUS
 10
135.4207539998
 20
345.8123635011
 11
135.3848003763
 21
346.1338236192
  0
LINE
  5
295
100
AcDbEntity
  8
0
100
AcDbLine
 62
7
  6
CONTINUOUS
 10
135.8883519621
 20
345.8396437341
 11
135.8632567038
 21
346.1773943836
  0
LINE
  5
296
100
AcDbEntity
  8
0
100
AcDbLine
 62
7
  6
CONTINUOUS
 10
124.4374626549
 20
345.0625170505
 11
124.507226471
 21
343.0970356898
  0
LINE
  5
297
100
AcDbEntity
  8
0
100
AcDbLine
 62
7
  6
CONTINUOUS
 10
124.0901404889
 20
345.1710206804
 11
124.1618012838
 21
343.0970356897
  0
LINE
  5
298
100
AcDbEntity
  8
0
100
AcDbLine
 62
7
  6
CONTINUOUS
 10
122.9967255863
 20
345.3243774338
 11
123.0589864793
 21
343.0970356897
  0
LINE
  5
299
100
AcDbEntity
  8
0
100
AcDbLine
 62
7
  6
CONTINUOUS
 10
123.0971941182
 20
343.0970356898
 11
123.043796767
 21
345.3687270338
  0
LINE
  5
29A
100
AcDbEntity
  8
0
100
AcDbLine
 62
7
  6
CONTINUOUS
 10
124.1376298463
 20
345.0520445948
 11
124.1351686124
 21
349.1167229087
  0
LINE
  5
29B
100
AcDbEntity
  8
0
100
AcDbLine
 62
7
  6
CONTINUOUS
 10
126.136024431
 20
349.716632787
 11
126.134463982
 21
352.2766586008
  0
LINE
  5
29C
100
AcDbEntity
  8
0
100
AcDbLine
 62
7
  6
CONTINUOUS
 10
126.4358378018
 20
349.7218685066
 11
126.4345478409
 21
352.2818944831
  0
LINE
  5
29D
100
AcDbEntity
  8
0
100
AcDbLine
 62
7
  6
CONTINUOUS
 10
126.1876666257
 20
344.3766340236
 11
126.1869926807
 21
346.5887281232
  0
LINE
  5
29E
100
AcDbEntity
  8
0
100
AcDbLine
 62
7
  6
CONTINUOUS
 10
138.3972926859
 20
343.8341581768
 11
138.3964133524
 21
346.7204001045
  0
LINE
  5
29F
100
AcDbEntity
  8
0
100
AcDbLine
 62
7
  6
CONTINUOUS
 10
118.4400363991
 20
349.2159363981
 11
118.4400363991
 21
348.0331845959
  0
LINE
  5
2A0
100
AcDbEntity
  8
0
100
AcDbLine
 62
7
  6
CONTINUOUS
 10
118.8236705111
 20
354.4970356897
 11
118.8236705111
 21
354.7917999678
  0
LINE
  5
2A1
100
AcDbEntity
  8
0
100
AcDbLine
 62
7
  6
CONTINUOUS
 10
119.9383611721
 20
356.5070356897
 11
119.9383611721
 21
356.7070356897
  0
LINE
  5
2A2
100
AcDbEntity
  8
0
100
AcDbLine
 62
7
  6
CONTINUOUS
 10
120.3133611721
 20
356.5070356897
 11
120.3133611721
 21
356.7070356897
  0
LINE
  5
2A3
100
AcDbEntity
  8
0
100
AcDbLine
 62
7
  6
CONTINUOUS
 10
120.5633611572
 20
356.5070356897
 11
120.5633611572
 21
356.7070356897
  0
LINE
  5
2A4
100
AcDbEntity
  8
0
100
AcDbLine
 62
7
  6
CONTINUOUS
 10
120.625861187
 20
356.5070356897
 11
120.625861187
 21
356.7070356897
  0
LINE
  5
2A5
100
AcDbEntity
  8
0
100
AcDbLine
 62
7
  6
CONTINUOUS
 10
120.9383612019
 20
356.7070356897
 11
120.9383612019
 21
356.5070356897
  0
LINE
  5
2A6
100
AcDbEntity
  8
0
100
AcDbLine
 62
7
  6
CONTINUOUS
 10
121.1883611423
 20
356.5070356897
 11
121.1883611423
 21
356.7070356897
  0
LINE
  5
2A7
100
AcDbEntity
  8
0
100
AcDbLine
 62
7
  6
CONTINUOUS
 10
121.4383611721
 20
356.5070356897
 11
121.4383611721
 21
356.7070356897
  0
LINE
  5
2A8
100
AcDbEntity
  8
0
100
AcDbLine
 62
7
  6
CONTINUOUS
 10
121.7508612317
 20
356.7070356897
 11
121.7508612317
 21
356.5070356897
  0
LINE
  5
2A9
100
AcDbEntity
  8
0
100
AcDbLine
 62
7
  6
CONTINUOUS
 10
121.8133611721
 20
356.5070356897
 11
121.8133611721
 21
356.7070356897
  0
LINE
  5
2AA
100
AcDbEntity
  8
0
100
AcDbLine
 62
7
  6
CONTINUOUS
 10
122.0633611125
 20
356.5070356897
 11
122.0633611125
 21
356.7070356897
  0
LINE
  5
2AB
100
AcDbEntity
  8
0
100
AcDbLine
 62
7
  6
CONTINUOUS
 10
122.4383611125
 20
356.5070356897
 11
122.4383611125
 21
356.7070356897
  0
LINE
  5
2AC
100
AcDbEntity
  8
0
100
AcDbLine
 62
7
  6
CONTINUOUS
 10
123.5530518331
 20
354.4970356898
 11
123.5530518331
 21
354.7918030863
  0
LINE
  5
2AD
100
AcDbEntity
  8
0
100
AcDbLine
 62
7
  6
CONTINUOUS
 10
123.9366859463
 20
347.433550052
 11
123.9366859463
 21
349.2159363881
  0
LINE
  5
2AE
100
AcDbEntity
  8
0
100
AcDbLine
 62
7
  6
CONTINUOUS
 10
124.4374626715
 20
345.062517051
 11
124.4349882614
 21
349.4166784227
  0
LINE
  5
2AF
100
AcDbEntity
  8
0
100
AcDbLine
 62
7
  6
CONTINUOUS
 10
125.6883611721
 20
370.8970356897
 11
125.6883611721
 21
370.0970356897
  0
LINE
  5
2B0
100
AcDbEntity
  8
0
100
AcDbLine
 62
7
  6
CONTINUOUS
 10
125.8339157261
 20
352.8814227843
 11
125.8339157261
 21
352.5762475217
  0
LINE
  5
2B1
100
AcDbEntity
  8
0
100
AcDbLine
 62
7
  6
CONTINUOUS
 10
125.8362072792
 20
349.4166784228
 11
125.8362072792
 21
349.1219614512
  0
LINE
  5
2B2
100
AcDbEntity
  8
0
100
AcDbLine
 62
7
  6
CONTINUOUS
 10
125.9354676282
 20
352.1771451044
 11
125.9354676282
 21
349.8169262594
  0
LINE
  5
2B3
100
AcDbEntity
  8
0
100
AcDbLine
 62
7
  6
CONTINUOUS
 10
127.0992615408
 20
354.7918031383
 11
127.0992615408
 21
354.4970356898
  0
LINE
  5
2B4
100
AcDbEntity
  8
0
100
AcDbLine
 62
7
  6
CONTINUOUS
 10
127.9383611721
 20
356.5070356897
 11
127.9383611721
 21
356.2123292866
  0
LINE
  5
2B5
100
AcDbEntity
  8
0
100
AcDbLine
 62
7
  6
CONTINUOUS
 10
129.6884332062
 20
362.5473956983
 11
129.6884332062
 21
362.4473956983
  0
LINE
  5
2B6
100
AcDbEntity
  8
0
100
AcDbLine
 62
7
  6
CONTINUOUS
 10
129.6895108465
 20
360.746574532
 11
129.6895108465
 21
360.646574532
  0
LINE
  5
2B7
100
AcDbEntity
  8
0
100
AcDbLine
 62
7
  6
CONTINUOUS
 10
129.6897045038
 20
364.3470654621
 11
129.6897045038
 21
364.247065462
  0
LINE
  5
2B8
100
AcDbEntity
  8
0
100
AcDbLine
 62
7
  6
CONTINUOUS
 10
129.8691706142
 20
366.1326879642
 11
129.8691706142
 21
366.0326879642
  0
LINE
  5
2B9
100
AcDbEntity
  8
0
100
AcDbLine
 62
7
  6
CONTINUOUS
 10
130.0324194448
 20
358.9625992758
 11
130.0324194448
 21
358.862585282
  0
LINE
  5
2BA
100
AcDbEntity
  8
0
100
AcDbLine
 62
7
  6
CONTINUOUS
 10
130.4233611721
 20
369.2970356897
 11
130.4233611721
 21
366.2465643817
  0
LINE
  5
2BB
100
AcDbEntity
  8
0
100
AcDbLine
 62
7
  6
CONTINUOUS
 10
130.4233611721
 20
365.946642834
 11
130.4233611721
 21
364.9523439054
  0
LINE
  5
2BC
100
AcDbEntity
  8
0
100
AcDbLine
 62
7
  6
CONTINUOUS
 10
130.4233611721
 20
363.6417928035
 11
130.4233611721
 21
363.1523259501
  0
LINE
  5
2BD
100
AcDbEntity
  8
0
100
AcDbLine
 62
7
  6
CONTINUOUS
 10
130.4233611721
 20
361.8418136373
 11
130.4233611721
 21
361.3522891798
  0
LINE
  5
2BE
100
AcDbEntity
  8
0
100
AcDbLine
 62
7
  6
CONTINUOUS
 10
130.4233611721
 20
360.0417423434
 11
130.4233611721
 21
359.0154099247
  0
LINE
  5
2BF
100
AcDbEntity
  8
0
100
AcDbLine
 62
7
  6
CONTINUOUS
 10
130.4233611721
 20
358.7786355189
 11
130.4233611721
 21
357.9970356897
  0
LINE
  5
2C0
100
AcDbEntity
  8
0
100
AcDbLine
 62
7
  6
CONTINUOUS
 10
131.6883611721
 20
370.2002829474
 11
131.6883611721
 21
373.1556573668
  0
LINE
  5
2C1
100
AcDbEntity
  8
0
100
AcDbLine
 62
7
  6
CONTINUOUS
 10
132.1883302181
 20
365.7937793796
 11
132.1883218947
 21
366.3020657438
  0
LINE
  5
2C2
100
AcDbEntity
  8
0
100
AcDbLine
 62
7
  6
CONTINUOUS
 10
132.1884000236
 20
364.9920063602
 11
132.1883543292
 21
365.6969967913
  0
LINE
  5
2C3
100
AcDbEntity
  8
0
100
AcDbLine
 62
7
  6
CONTINUOUS
 10
132.1883636354
 20
367.3970383841
 11
132.1883636354
 21
367.497033997
  0
LINE
  5
2C4
100
AcDbEntity
  8
0
100
AcDbLine
 62
7
  6
CONTINUOUS
 10
132.1883477627
 20
365.6969459447
 11
132.1883497299
 21
365.7939360357
  0
LINE
  5
2C5
100
AcDbEntity
  8
0
100
AcDbLine
 62
7
  6
CONTINUOUS
 10
132.6883611721
 20
370.2002829474
 11
132.6883611721
 21
373.1556573668
  0
LINE
  5
2C6
100
AcDbEntity
  8
0
100
AcDbLine
 62
7
  6
CONTINUOUS
 10
133.9533611721
 20
369.2970356897
 11
133.9533611721
 21
367.0794328148
  0
LINE
  5
2C7
100
AcDbEntity
  8
0
100
AcDbLine
 62
7
  6
CONTINUOUS
 10
133.9533611721
 20
366.9146370139
 11
133.9533611721
 21
365.8523063685
  0
LINE
  5
2C8
100
AcDbEntity
  8
0
100
AcDbLine
 62
7
  6
CONTINUOUS
 10
133.9533611721
 20
364.5417825859
 11
133.9533611721
 21
364.0523427501
  0
LINE
  5
2C9
100
AcDbEntity
  8
0
100
AcDbLine
 62
7
  6
CONTINUOUS
 10
133.9533611721
 20
362.7418216064
 11
133.9533611721
 21
362.252306096
  0
LINE
  5
2CA
100
AcDbEntity
  8
0
100
AcDbLine
 62
7
  6
CONTINUOUS
 10
133.9533611721
 20
360.9424716563
 11
133.9533611721
 21
360.4514914332
  0
LINE
  5
2CB
100
AcDbEntity
  8
0
100
AcDbLine
 62
7
  6
CONTINUOUS
 10
133.9533611721
 20
359.142490462
 11
133.9533611721
 21
358.0506083665
  0
LINE
  5
2CC
100
AcDbEntity
  8
0
100
AcDbLine
 62
7
  6
CONTINUOUS
 10
133.9775348978
 20
357.9970409951
 11
133.9775348978
 21
358.0658382544
  0
LINE
  5
2CD
100
AcDbEntity
  8
0
100
AcDbLine
 62
7
  6
CONTINUOUS
 10
134.140538938
 20
366.9300757888
 11
134.140538938
 21
367.0300757888
  0
LINE
  5
2CE
100
AcDbEntity
  8
0
100
AcDbLine
 62
7
  6
CONTINUOUS
 10
134.6494628706
 20
359.7969914168
 11
134.6494617018
 21
359.6970739002
  0
LINE
  5
2CF
100
AcDbEntity
  8
0
100
AcDbLine
 62
7
  6
CONTINUOUS
 10
134.6871793023
 20
359.7472907248
 11
134.6871793023
 21
359.8472907247
  0
LINE
  5
2D0
100
AcDbEntity
  8
0
100
AcDbLine
 62
7
  6
CONTINUOUS
 10
134.6874603386
 20
365.1464184053
 11
134.6874603386
 21
365.2464184053
  0
LINE
  5
2D1
100
AcDbEntity
  8
0
100
AcDbLine
 62
7
  6
CONTINUOUS
 10
134.6875076326
 20
363.347685751
 11
134.6875076326
 21
363.447685751
  0
LINE
  5
2D2
100
AcDbEntity
  8
0
100
AcDbLine
 62
7
  6
CONTINUOUS
 10
134.688020228
 20
361.5463995527
 11
134.688020228
 21
361.6463995527
  0
LINE
  5
2D3
100
AcDbEntity
  8
0
100
AcDbLine
 62
7
  6
CONTINUOUS
 10
138.6883611721
 20
370.8970356897
 11
138.6883611721
 21
370.0970356897
  0
LINE
  5
2D4
100
AcDbEntity
  8
0
100
AcDbLine
 62
7
  6
CONTINUOUS
 10
138.688361296
 20
342.0970356897
 11
138.688361296
 21
341.8970356897
  0
LINE
  5
2D5
100
AcDbEntity
  8
0
100
AcDbLine
 62
7
  6
CONTINUOUS
 10
140.3904887526
 20
342.0970356897
 11
140.3904887526
 21
341.8970356897
  0
LINE
  5
2D6
100
AcDbEntity
  8
0
100
AcDbLine
 62
7
  6
CONTINUOUS
 10
140.762828955
 20
342.0970356897
 11
140.762828955
 21
341.8970356897
  0
LINE
  5
2D7
100
AcDbEntity
  8
0
100
AcDbLine
 62
7
  6
CONTINUOUS
 10
140.8160210936
 20
342.0970356897
 11
140.8160210936
 21
341.8970356897
  0
LINE
  5
2D8
100
AcDbEntity
  8
0
100
AcDbLine
 62
7
  6
CONTINUOUS
 10
141.188361296
 20
342.0970356897
 11
141.188361296
 21
341.8970356897
  0
LINE
  5
2D9
100
AcDbEntity
  8
0
100
AcDbLine
 62
7
  6
CONTINUOUS
 10
125.9803090364
 20
346.7204001045
 11
125.9794297029
 21
343.8341581767
  0
LINE
  5
2DA
100
AcDbEntity
  8
0
100
AcDbLine
 62
7
  6
CONTINUOUS
 10
138.1897296978
 20
346.5887281232
 11
138.1890557527
 21
344.3766340236
  0
LINE
  5
2DB
100
AcDbEntity
  8
0
100
AcDbLine
 62
7
  6
CONTINUOUS
 10
117.9417340828
 20
349.4166784227
 11
117.9411949314
 21
347.9323915134
  0
LINE
  5
2DC
100
AcDbEntity
  8
0
100
AcDbLine
 62
7
  6
CONTINUOUS
 10
123.5104726086
 20
347.6069712055
 11
123.5097421254
 21
345.8742990885
  0
LINE
  5
2DD
100
AcDbEntity
  8
0
100
AcDbLine
 62
7
  6
CONTINUOUS
 10
118.2415513309
 20
349.1167241142
 11
118.2410121796
 21
348.2322087615
  0
LINE
  5
2DE
100
AcDbEntity
  8
0
100
AcDbLine
 62
7
  6
CONTINUOUS
 10
123.8102898567
 20
347.3071539574
 11
123.8094291332
 21
345.8742947544
  0
LINE
  5
2DF
100
AcDbEntity
  8
0
100
AcDbLine
 62
7
  6
CONTINUOUS
 10
118.2019812135
 20
343.0970356897
 11
118.2263924644
 21
345.2480472756
  0
LINE
  5
2E0
100
AcDbEntity
  8
0
100
AcDbLine
 62
7
  6
CONTINUOUS
 10
118.5202484046
 20
345.2563742117
 11
118.4957426535
 21
343.0970356898
  0
LINE
  5
2E1
100
AcDbEntity
  8
0
100
AcDbLine
 62
7
  6
CONTINUOUS
 10
119.2248197533
 20
343.0970356898
 11
119.2701244627
 21
345.3038719883
  0
LINE
  5
2E2
100
AcDbEntity
  8
0
100
AcDbLine
 62
7
  6
CONTINUOUS
 10
119.3143359939
 20
345.368803171
 11
119.2606344213
 21
343.0970356897
  0
LINE
  5
2E3
100
AcDbEntity
  8
0
100
AcDbLine
 62
7
  6
CONTINUOUS
 10
118.4307429195
 20
343.0970352083
 11
118.5226232985
 21
345.7732268558
  0
LINE
  5
2E4
100
AcDbEntity
  8
0
100
AcDbLine
 62
7
  6
CONTINUOUS
 10
120.0260346435
 20
345.8996319321
 11
119.9298144857
 21
343.0970359305
  0
LINE
  5
2E5
100
AcDbEntity
  8
0
100
AcDbLine
 62
7
  6
CONTINUOUS
 10
118.4281174646
 20
345.5555140534
 11
118.3423178071
 21
343.0970356897
  0
LINE
  5
2E6
100
AcDbEntity
  8
0
100
AcDbLine
 62
7
  6
CONTINUOUS
 10
118.4261404863
 20
345.5470810356
 11
118.3405830176
 21
343.0970356897
  0
LINE
  5
2E7
100
AcDbEntity
  8
0
100
AcDbLine
 62
7
  6
CONTINUOUS
 10
119.3905830175
 20
343.0970356898
 11
119.4688319823
 21
345.3377928645
  0
LINE
  5
2E8
100
AcDbEntity
  8
0
100
AcDbLine
 62
7
  6
CONTINUOUS
 10
118.8237043086
 20
354.7440794656
 11
118.8987663289
 21
356.212261651
  0
LINE
  5
2E9
100
AcDbEntity
  8
0
100
AcDbLine
 62
7
  6
CONTINUOUS
 10
118.8987663714
 20
356.2122620536
 11
118.8236725246
 21
354.7918097189
  0
LINE
  5
2EA
100
AcDbEntity
  8
0
100
AcDbLine
 62
7
  6
CONTINUOUS
 10
115.4446701783
 20
345.0266228866
 11
115.3284451768
 21
343.0970356898
  0
LINE
  5
2EB
100
AcDbEntity
  8
0
100
AcDbLine
 62
7
  6
CONTINUOUS
 10
115.4640296206
 20
343.0970356898
 11
115.5903034857
 21
345.1934558259
  0
LWPOLYLINE
  5
2EC
100
AcDbEntity
  8
0
100
AcDbPolyline
 62
7
  6
CONTINUOUS
 90
4
 70
0
 10
110.4382241841
 20
346.030072776
 10
110.4386638871
 20
346.0352659519
 10
110.4390649018
 20
346.0404622574
 10
110.440060779
 20
346.0455754175
  0
LINE
  5
2ED
100
AcDbEntity
  8
0
100
AcDbLine
 62
7
  6
CONTINUOUS
 10
114.409181806
 20
353.6051024349
 11
114.1805158603
 21
350.9914387175
  0
LINE
  5
2EE
100
AcDbEntity
  8
0
100
AcDbLine
 62
7
  6
CONTINUOUS
 10
114.7080402151
 20
353.5841914324
 11
114.4793742697
 21
350.9705277166
  0
LINE
  5
2EF
100
AcDbEntity
  8
0
100
AcDbLine
 62
7
  6
CONTINUOUS
 10
110.4390649018
 20
346.0404622718
 11
110.4370792031
 21
346.0182652093
  0
LINE
  5
2F0
100
AcDbEntity
  8
0
100
AcDbLine
 62
7
  6
CONTINUOUS
 10
112.7234077437
 20
345.770523924
 11
112.2723601039
 21
342.0970356897
  0
LINE
  5
2F1
100
AcDbEntity
  8
0
100
AcDbLine
 62
7
  6
CONTINUOUS
 10
113.0211753664
 20
345.7392124874
 11
112.696756848
 21
343.0970356872
  0
LINE
  5
2F2
100
AcDbEntity
  8
0
100
AcDbLine
 62
7
  6
CONTINUOUS
 10
99.266321506
 20
360.1970356897
 11
100.0688553326
 21
364.3257143103
  0
LINE
  5
2F3
100
AcDbEntity
  8
0
100
AcDbLine
 62
7
  6
CONTINUOUS
 10
101.5412961077
 20
364.3257143103
 11
100.7387622811
 21
360.1970356897
  0
LWPOLYLINE
  5
2F4
100
AcDbEntity
  8
0
100
AcDbPolyline
 62
7
  6
CONTINUOUS
 90
3
 70
0
 10
143.9630649689
 20
334.3980225878
 10
144.3088569986
 20
334.3115282323
 10
144.4928119332
 20
334.2585333422
  0
LINE
  5
2F5
100
AcDbEntity
  8
0
100
AcDbLine
 62
7
  6
CONTINUOUS
 10
133.0737698006
 20
353.2718238771
 11
134.771547002
 21
352.6675426251
  0
LWPOLYLINE
  5
2F6
100
AcDbEntity
  8
0
100
AcDbPolyline
 62
7
  6
CONTINUOUS
 90
3
 70
0
 10
127.0992615399
 20
354.4970282567
 10
127.7417111863
 20
354.2633556181
 10
128.0840593915
 20
353.6706824631
  0
LINE
  5
2F7
100
AcDbEntity
  8
0
100
AcDbLine
 62
7
  6
CONTINUOUS
 10
148.113644764
 20
338.0574377029
 11
148.1883611721
 21
340.1970356897
  0
LINE
  5
2F8
100
AcDbEntity
  8
0
100
AcDbLine
 62
7
  6
CONTINUOUS
 10
128.5134656456
 20
346.1773943965
 11
128.4883703707
 21
345.8396437484
  0
LINE
  5
2F9
100
AcDbEntity
  8
0
100
AcDbLine
 62
7
  6
CONTINUOUS
 10
128.9919671764
 20
346.1337516154
 11
128.9559684566
 21
345.8123635847
  0
LINE
  5
2FA
100
AcDbEntity
  8
0
100
AcDbLine
 62
7
  6
CONTINUOUS
 10
659.5222938399
 20
364.0395008174
 11
660.9947346151
 21
364.3257143104
  0
LINE
  5
2FB
100
AcDbEntity
  8
0
100
AcDbLine
 62
7
  6
CONTINUOUS
 10
122.9967306339
 20
345.3243768236
 11
123.8895255793
 21
345.2205899624
  0
LINE
  5
2FC
100
AcDbEntity
  8
0
100
AcDbLine
 62
7
  6
CONTINUOUS
 10
134.1085068222
 20
359.8939242831
 11
134.6500059545
 21
359.7969333053
  0
LINE
  5
2FD
100
AcDbEntity
  8
0
100
AcDbLine
 62
7
  6
CONTINUOUS
 10
100.0688554654
 20
364.3257142846
 11
101.5412961077
 21
364.0395008174
  0
LINE
  5
2FE
100
AcDbEntity
  8
0
100
AcDbLine
 62
7
  6
CONTINUOUS
 10
134.2844693247
 20
361.8121575761
 11
133.6877518625
 21
361.9426809977
  0
LINE
  5
2FF
100
AcDbEntity
  8
0
100
AcDbLine
 62
7
  6
CONTINUOUS
 10
134.2863103191
 20
365.4117157038
 11
133.6874060972
 21
365.5426717583
  0
LINE
  5
300
100
AcDbEntity
  8
0
100
AcDbLine
 62
7
  6
CONTINUOUS
 10
134.2843893253
 20
360.0119397897
 11
133.6847740669
 21
360.1432313784
  0
LINE
  5
301
100
AcDbEntity
  8
0
100
AcDbLine
 62
7
  6
CONTINUOUS
 10
130.0939259761
 20
362.2815862904
 11
130.6896078103
 21
362.151204478
  0
LINE
  5
302
100
AcDbEntity
  8
0
100
AcDbLine
 62
7
  6
CONTINUOUS
 10
130.0912110854
 20
364.0823199118
 11
130.6912274543
 21
363.951012677
  0
LINE
  5
303
100
AcDbEntity
  8
0
100
AcDbLine
 62
7
  6
CONTINUOUS
 10
130.0929742533
 20
360.4820028571
 11
130.6924227747
 21
360.3507072201
  0
LINE
  5
304
100
AcDbEntity
  8
0
100
AcDbLine
 62
7
  6
CONTINUOUS
 10
134.2826161537
 20
363.6123106263
 11
133.684052677
 21
363.7434662809
  0
LINE
  5
305
100
AcDbEntity
  8
0
100
AcDbLine
 62
7
  6
CONTINUOUS
 10
130.5060979917
 20
358.6670471153
 11
130.8459811992
 21
358.5907814364
  0
LINE
  5
306
100
AcDbEntity
  8
0
100
AcDbLine
 62
7
  6
CONTINUOUS
 10
130.2571607303
 20
365.8665997958
 11
130.8371568477
 21
365.7339155904
  0
LINE
  5
307
100
AcDbEntity
  8
0
100
AcDbLine
 62
7
  6
CONTINUOUS
 10
133.6427673653
 20
367.2416051671
 11
133.5301817427
 21
367.2674094516
  0
LINE
  5
308
100
AcDbEntity
  8
0
100
AcDbLine
 62
7
  6
CONTINUOUS
 10
133.559386368
 20
358.2617561734
 11
133.4446990522
 21
358.2897604426
  0
LWPOLYLINE
  5
309
100
AcDbEntity
  8
0
100
AcDbPolyline
 62
7
  6
CONTINUOUS
 90
3
 70
0
 10
132.1538411112
 20
359.5181349739
 10
132.1592457198
 20
359.5431780332
 10
132.1900406853
 20
359.5537814981
  0
LINE
  5
30A
100
AcDbEntity
  8
0
100
AcDbLine
 62
7
  6
CONTINUOUS
 10
135.3281735006
 20
350.1474996571
 11
135.2617986836
 21
349.8754476465
  0
LINE
  5
30B
100
AcDbEntity
  8
0
100
AcDbLine
 62
7
  6
CONTINUOUS
 10
110.7337055157
 20
345.9751512807
 11
111.1497110693
 21
347.3636240343
  0
LINE
  5
30C
100
AcDbEntity
  8
0
100
AcDbLine
 62
7
  6
CONTINUOUS
 10
114.708043906
 20
353.5841912811
 11
114.867590674
 21
354.0447798543
  0
LWPOLYLINE
  5
30D
100
AcDbEntity
  8
0
100
AcDbPolyline
 62
7
  6
CONTINUOUS
 90
3
 70
0
 10
114.7080437998
 20
353.5841911791
 10
114.8676478695
 20
354.0448659448
 10
115.2324594771
 20
354.3787542814
  0
LINE
  5
30E
100
AcDbEntity
  8
0
100
AcDbLine
 62
7
  6
CONTINUOUS
 10
116.0766602173
 20
347.3090128591
 11
123.5104726086
 21
347.3123893439
  0
LINE
  5
30F
100
AcDbEntity
  8
0
100
AcDbLine
 62
7
  6
CONTINUOUS
 10
148.1136447578
 20
338.0574375249
 11
146.7562721264
 21
338.0574375249
  0
LINE
  5
310
100
AcDbEntity
  8
0
100
AcDbLine
 62
7
  6
CONTINUOUS
 10
117.620450076
 20
338.0574375249
 11
116.2630775864
 21
338.0574375249
  0
LINE
  5
311
100
AcDbEntity
  8
0
100
AcDbLine
 62
7
  6
CONTINUOUS
 10
120.6470653547
 20
338.6159684978
 11
143.7296486269
 21
338.6159684978
  0
LINE
  5
312
100
AcDbEntity
  8
0
100
AcDbLine
 62
7
  6
CONTINUOUS
 10
143.8092743033
 20
339.3584204059
 11
120.567447441
 21
339.3584204059
  0
LINE
  5
313
100
AcDbEntity
  8
0
100
AcDbLine
 62
7
  6
CONTINUOUS
 10
93.1973172965
 20
340.1970356897
 11
668.1794050477
 21
340.1970356897
  0
LINE
  5
314
100
AcDbEntity
  8
0
100
AcDbLine
 62
7
  6
CONTINUOUS
 10
141.188361296
 20
341.8970356897
 11
138.688361296
 21
341.8970356897
  0
LINE
  5
315
100
AcDbEntity
  8
0
100
AcDbLine
 62
7
  6
CONTINUOUS
 10
111.572360058
 20
341.8970356897
 11
109.072360058
 21
341.8970356897
  0
LINE
  5
316
100
AcDbEntity
  8
0
100
AcDbLine
 62
7
  6
CONTINUOUS
 10
141.9323215487
 20
342.0970356897
 11
138.1883611721
 21
342.0970356897
  0
LINE
  5
317
100
AcDbEntity
  8
0
100
AcDbLine
 62
7
  6
CONTINUOUS
 10
126.1883611721
 20
342.0970356897
 11
125.0714716455
 21
342.0970356897
  0
LINE
  5
318
100
AcDbEntity
  8
0
100
AcDbLine
 62
7
  6
CONTINUOUS
 10
112.2723601039
 20
342.0970356897
 11
108.188361172
 21
342.0970356897
  0
LINE
  5
319
100
AcDbEntity
  8
0
100
AcDbLine
 62
7
  6
CONTINUOUS
 10
141.6319650031
 20
342.0970385251
 11
141.4120166702
 21
342.0970356897
  0
LINE
  5
31A
100
AcDbEntity
  8
0
100
AcDbLine
 62
7
  6
CONTINUOUS
 10
112.3951446648
 20
343.0970356897
 11
124.6434147754
 21
343.0970356897
  0
LINE
  5
31B
100
AcDbEntity
  8
0
100
AcDbLine
 62
7
  6
CONTINUOUS
 10
671.1432646002
 20
343.3970356897
 11
90.233457744
 21
343.3970356897
  0
LINE
  5
31C
100
AcDbEntity
  8
0
100
AcDbLine
 62
7
  6
CONTINUOUS
 10
109.7409757284
 20
345.0970356897
 11
108.5355355456
 21
345.0970356897
  0
LINE
  5
31D
100
AcDbEntity
  8
0
100
AcDbLine
 62
7
  6
CONTINUOUS
 10
118.2263924645
 20
345.2480472757
 11
115.6379579442
 21
345.2480472756
  0
LINE
  5
31E
100
AcDbEntity
  8
0
100
AcDbLine
 62
7
  6
CONTINUOUS
 10
109.7409688765
 20
345.3917992734
 11
108.5458257814
 21
345.3917992734
  0
LINE
  5
31F
100
AcDbEntity
  8
0
100
AcDbLine
 62
7
  6
CONTINUOUS
 10
115.6623730847
 20
345.8996278357
 11
120.0260345029
 21
345.8996278357
  0
LINE
  5
320
100
AcDbEntity
  8
0
100
AcDbLine
 62
7
  6
CONTINUOUS
 10
115.4018835249
 20
347.3022733321
 11
114.7879037392
 21
347.3022733321
  0
LINE
  5
321
100
AcDbEntity
  8
0
100
AcDbLine
 62
7
  6
CONTINUOUS
 10
116.0252059171
 20
347.5970356897
 11
114.7879037391
 21
347.5970356897
  0
LINE
  5
322
100
AcDbEntity
  8
0
100
AcDbLine
 62
7
  6
CONTINUOUS
 10
116.0252059171
 20
347.6070848196
 11
123.5104726086
 21
347.6069712055
  0
LINE
  5
323
100
AcDbEntity
  8
0
100
AcDbLine
 62
7
  6
CONTINUOUS
 10
115.2099011724
 20
347.9323915134
 11
117.9411949315
 21
347.9323915134
  0
LINE
  5
324
100
AcDbEntity
  8
0
100
AcDbLine
 62
7
  6
CONTINUOUS
 10
117.9411949315
 20
348.2374444835
 11
115.1577876361
 21
348.2374444835
  0
LINE
  5
325
100
AcDbEntity
  8
0
100
AcDbLine
 62
7
  6
CONTINUOUS
 10
115.5881921427
 20
347.5967050928
 11
115.694315506
 21
347.5960713681
  0
LWPOLYLINE
  5
326
100
AcDbEntity
  8
0
100
AcDbPolyline
 62
7
  6
CONTINUOUS
 90
5
 70
0
 10
120.479369098
 20
347.6333004829
 10
120.8312220691
 20
347.6311238899
 10
121.1881487482
 20
347.6303933937
 10
121.5451772203
 20
347.6311223792
 10
121.897328037
 20
347.6333005379
  0
LINE
  5
327
100
AcDbEntity
  8
0
100
AcDbLine
 62
7
  6
CONTINUOUS
 10
119.0467078455
 20
354.7817764035
 11
119.0606029886
 21
354.7813349029
  0
LINE
  5
328
100
AcDbEntity
  8
0
100
AcDbLine
 62
7
  6
CONTINUOUS
 10
135.1262092102
 20
349.9080049483
 11
135.1964076794
 21
350.1788991583
  0
LINE
  5
329
100
AcDbEntity
  8
0
100
AcDbLine
 62
7
  6
CONTINUOUS
 10
135.349107379
 20
349.9246453806
 11
135.4238485378
 21
350.2040589218
  0
LINE
  5
32A
100
AcDbEntity
  8
0
100
AcDbLine
 62
7
  6
CONTINUOUS
 10
133.9265490064
 20
359.0917947665
 11
134.108731052
 21
359.6000591985
  0
LINE
  5
32B
100
AcDbEntity
  8
0
100
AcDbLine
 62
7
  6
CONTINUOUS
 10
130.3993927633
 20
364.8925004154
 11
130.2169554322
 21
364.3901653811
  0
LINE
  5
32C
100
AcDbEntity
  8
0
100
AcDbLine
 62
7
  6
CONTINUOUS
 10
130.3991474382
 20
361.2916962149
 11
130.2167303096
 21
360.7894561304
  0
LINE
  5
32D
100
AcDbEntity
  8
0
100
AcDbLine
 62
7
  6
CONTINUOUS
 10
133.9772963832
 20
359.2014552939
 11
134.1603963042
 21
359.7055794824
  0
LINE
  5
32E
100
AcDbEntity
  8
0
100
AcDbLine
 62
7
  6
CONTINUOUS
 10
130.3981364198
 20
363.0914801877
 11
130.2155613753
 21
362.5890615727
  0
LINE
  5
32F
100
AcDbEntity
  8
0
100
AcDbLine
 62
7
  6
CONTINUOUS
 10
133.9771344917
 20
364.5996843893
 11
134.1604970794
 21
365.104462618
  0
LINE
  5
330
100
AcDbEntity
  8
0
100
AcDbLine
 62
7
  6
CONTINUOUS
 10
133.9774176377
 20
362.801600874
 11
134.1607620382
 21
363.3063272666
  0
LINE
  5
331
100
AcDbEntity
  8
0
100
AcDbLine
 62
7
  6
CONTINUOUS
 10
133.9775441594
 20
360.9998542065
 11
134.1609307879
 21
361.504568735
  0
LINE
  5
332
100
AcDbEntity
  8
0
100
AcDbLine
 62
7
  6
CONTINUOUS
 10
125.9794297033
 20
343.8341582931
 11
126.1876666254
 21
344.3766340236
  0
LINE
  5
333
100
AcDbEntity
  8
0
100
AcDbLine
 62
7
  6
CONTINUOUS
 10
126.7105915299
 20
344.1760845944
 11
126.5022322594
 21
343.6332901357
  0
LWPOLYLINE
  5
334
100
AcDbEntity
  8
0
100
AcDbPolyline
 62
7
  6
CONTINUOUS
 90
3
 70
0
 10
108.2355955581
 20
344.8022691864
 10
108.3258668074
 20
345.0116031502
 10
108.5355355449
 20
345.0970438699
  0
LINE
  5
335
100
AcDbEntity
  8
0
100
AcDbLine
 62
7
  6
CONTINUOUS
 10
108.2355977932
 20
344.8022696416
 11
108.3258744961
 21
345.011611371
  0
LINE
  5
336
100
AcDbEntity
  8
0
100
AcDbLine
 62
7
  6
CONTINUOUS
 10
118.5202484046
 20
345.2563742117
 11
119.2701244627
 21
345.3038719883
  0
LINE
  5
337
100
AcDbEntity
  8
0
100
AcDbLine
 62
7
  6
CONTINUOUS
 10
123.3300144987
 20
354.7817764035
 11
123.3161193556
 21
354.7813349029
  0
LINE
  5
338
100
AcDbEntity
  8
0
100
AcDbLine
 62
7
  6
CONTINUOUS
 10
116.0251939835
 20
347.3084304009
 11
116.0766602173
 21
347.3090128591
  0
LINE
  5
339
100
AcDbEntity
  8
0
100
AcDbLine
 62
7
  6
CONTINUOUS
 10
131.2820517044
 20
353.2682038836
 11
133.0774762674
 21
353.2711883288
  0
LINE
  5
33A
100
AcDbEntity
  8
0
100
AcDbLine
 62
7
  6
CONTINUOUS
 10
116.5405150499
 20
349.1219615501
 11
117.9417340828
 21
349.1219615501
  0
LINE
  5
33B
100
AcDbEntity
  8
0
100
AcDbLine
 62
7
  6
CONTINUOUS
 10
124.4349882614
 20
349.121960544
 11
125.8362072792
 21
349.121960544
  0
LINE
  5
33C
100
AcDbEntity
  8
0
100
AcDbLine
 62
7
  6
CONTINUOUS
 10
125.8362072792
 20
349.4166784227
 11
124.4349882614
 21
349.4166784227
  0
LINE
  5
33D
100
AcDbEntity
  8
0
100
AcDbLine
 62
7
  6
CONTINUOUS
 10
117.9417340828
 20
349.4166784227
 11
116.5405150499
 21
349.4166784227
  0
LINE
  5
33E
100
AcDbEntity
  8
0
100
AcDbLine
 62
7
  6
CONTINUOUS
 10
116.5428066243
 20
352.5762475217
 11
125.8339157261
 21
352.5762475217
  0
LINE
  5
33F
100
AcDbEntity
  8
0
100
AcDbLine
 62
7
  6
CONTINUOUS
 10
125.8339157261
 20
352.8814264691
 11
116.5428066243
 21
352.8814264691
  0
LINE
  5
340
100
AcDbEntity
  8
0
100
AcDbLine
 62
7
  6
CONTINUOUS
 10
127.0992615331
 20
354.4970356898
 11
115.7042349131
 21
354.4970356898
  0
LINE
  5
341
100
AcDbEntity
  8
0
100
AcDbLine
 62
7
  6
CONTINUOUS
 10
123.3161193556
 20
354.7813349029
 11
119.0606029887
 21
354.7813349029
  0
LINE
  5
342
100
AcDbEntity
  8
0
100
AcDbLine
 62
7
  6
CONTINUOUS
 10
127.0992615321
 20
354.7918030863
 11
115.7042349066
 21
354.7917999678
  0
LINE
  5
343
100
AcDbEntity
  8
0
100
AcDbLine
 62
7
  6
CONTINUOUS
 10
116.3014828304
 20
356.2122714117
 11
127.9383611721
 21
356.2123221172
  0
LINE
  5
344
100
AcDbEntity
  8
0
100
AcDbLine
 62
7
  6
CONTINUOUS
 10
127.9383691702
 20
356.5070356897
 11
116.3014667627
 21
356.5070356898
  0
LINE
  5
345
100
AcDbEntity
  8
0
100
AcDbLine
 62
7
  6
CONTINUOUS
 10
122.4383611125
 20
356.7070356897
 11
119.9383611721
 21
356.7070356897
  0
LINE
  5
346
100
AcDbEntity
  8
0
100
AcDbLine
 62
7
  6
CONTINUOUS
 10
130.4233611721
 20
357.9970356897
 11
132.1883611721
 21
357.9970356897
  0
LINE
  5
347
100
AcDbEntity
  8
0
100
AcDbLine
 62
7
  6
CONTINUOUS
 10
132.1883611721
 20
357.9970369793
 11
134.0560286584
 21
357.9970356897
  0
LINE
  5
348
100
AcDbEntity
  8
0
100
AcDbLine
 62
7
  6
CONTINUOUS
 10
82.1883611721
 20
358.4970356898
 11
679.1883611721
 21
358.4970356897
  0
LINE
  5
349
100
AcDbEntity
  8
0
100
AcDbLine
 62
7
  6
CONTINUOUS
 10
84.6688133238
 20
360.1970356897
 11
676.7079090204
 21
360.1970356897
  0
LINE
  5
34A
100
AcDbEntity
  8
0
100
AcDbLine
 62
7
  6
CONTINUOUS
 10
101.5412961077
 20
364.3257143103
 11
659.5222938399
 21
364.3257143103
  0
LINE
  5
34B
100
AcDbEntity
  8
0
100
AcDbLine
 62
7
  6
CONTINUOUS
 10
92.2817949739
 20
365.5073323011
 11
90.7817949737
 21
365.5073323011
  0
LINE
  5
34C
100
AcDbEntity
  8
0
100
AcDbLine
 62
7
  6
CONTINUOUS
 10
96.5317949738
 20
366.5073323011
 11
86.5317949738
 21
366.5073323011
  0
LINE
  5
34D
100
AcDbEntity
  8
0
100
AcDbLine
 62
7
  6
CONTINUOUS
 10
83.7317949738
 20
366.7073323011
 11
677.3317949738
 21
366.7073323011
  0
LINE
  5
34E
100
AcDbEntity
  8
0
100
AcDbLine
 62
7
  6
CONTINUOUS
 10
130.4233611721
 20
369.2970356897
 11
133.9533611721
 21
369.2970356897
  0
LINE
  5
34F
100
AcDbEntity
  8
0
100
AcDbLine
 62
7
  6
CONTINUOUS
 10
680.5317949738
 20
369.9073323011
 11
80.5317949738
 21
369.9073323011
  0
LINE
  5
350
100
AcDbEntity
  8
0
100
AcDbLine
 62
7
  6
CONTINUOUS
 10
125.7882482472
 20
369.9970356897
 11
138.5883611721
 21
369.9970356897
  0
LINE
  5
351
100
AcDbEntity
  8
0
100
AcDbLine
 62
7
  6
CONTINUOUS
 10
125.6883611721
 20
370.0970356897
 11
138.6883611721
 21
370.0970356897
  0
LINE
  5
352
100
AcDbEntity
  8
0
100
AcDbLine
 62
7
  6
CONTINUOUS
 10
131.6883611721
 20
370.2002829474
 11
132.6883611721
 21
370.2002829474
  0
LINE
  5
353
100
AcDbEntity
  8
0
100
AcDbLine
 62
7
  6
CONTINUOUS
 10
132.6883611721
 20
370.3002829474
 11
131.6883611721
 21
370.3002829474
  0
LINE
  5
354
100
AcDbEntity
  8
0
100
AcDbLine
 62
7
  6
CONTINUOUS
 10
125.6883611721
 20
370.8970356897
 11
138.6883611721
 21
370.8970356897
  0
LINE
  5
355
100
AcDbEntity
  8
0
100
AcDbLine
 62
7
  6
CONTINUOUS
 10
125.9883612326
 20
371.1970356897
 11
138.3883611116
 21
371.1970356897
  0
LINE
  5
356
100
AcDbEntity
  8
0
100
AcDbLine
 62
7
  6
CONTINUOUS
 10
132.122086365
 20
371.3494169774
 11
136.5459616565
 21
371.3494169774
  0
LINE
  5
357
100
AcDbEntity
  8
0
100
AcDbLine
 62
7
  6
CONTINUOUS
 10
127.8307609241
 20
371.3492538434
 11
132.2156913127
 21
371.349460689
  0
LWPOLYLINE
  5
358
100
AcDbEntity
  8
0
100
AcDbPolyline
 62
7
  6
CONTINUOUS
 90
4
 70
0
 10
131.2919853687
 20
353.2699350576
 10
133.0861840069
 20
353.2696844958
 10
134.7779130067
 20
352.6639388651
 10
136.1619513146
 20
351.5282106074
  0
LINE
  5
359
100
AcDbEntity
  8
0
100
AcDbLine
 62
7
  6
CONTINUOUS
 10
118.5226232349
 20
345.7732250014
 11
118.4281174645
 21
345.5555140534
  0
LINE
  5
35A
100
AcDbEntity
  8
0
100
AcDbLine
 62
7
  6
CONTINUOUS
 10
120.8427433108
 20
334.4832361412
 11
121.180895458
 21
334.5334456204
  0
LINE
  5
35B
100
AcDbEntity
  8
0
100
AcDbLine
 62
7
  6
CONTINUOUS
 10
133.3399221762
 20
370.8970356897
 11
134.3383611721
 21
372.8029928211
  0
LINE
  5
35C
100
AcDbEntity
  8
0
100
AcDbLine
 62
7
  6
CONTINUOUS
 10
87.6182875505
 20
343.3970356897
 11
88.4786522051
 21
344.6257637562
  0
LINE
  5
35D
100
AcDbEntity
  8
0
100
AcDbLine
 62
7
  6
CONTINUOUS
 10
91.6684922549
 20
341.213647254
 11
91.3618727002
 21
340.775749148
  0
LINE
  5
35E
100
AcDbEntity
  8
0
100
AcDbLine
 62
7
  6
CONTINUOUS
 10
130.9319081161
 20
359.2545363023
 11
130.4304226342
 21
359.136970486
  0
LINE
  5
35F
100
AcDbEntity
  8
0
100
AcDbLine
 62
7
  6
CONTINUOUS
 10
120.4135741149
 20
334.3980040074
 11
120.4132264355
 21
334.3979250258
  0
LINE
  5
360
100
AcDbEntity
  8
0
100
AcDbLine
 62
7
  6
CONTINUOUS
 10
133.684391003
 20
361.2506049498
 11
134.2817134444
 21
361.3815126201
  0
LINE
  5
361
100
AcDbEntity
  8
0
100
AcDbLine
 62
7
  6
CONTINUOUS
 10
130.6909256543
 20
362.8431791463
 11
130.095247793
 21
362.7126727004
  0
LINE
  5
362
100
AcDbEntity
  8
0
100
AcDbLine
 62
7
  6
CONTINUOUS
 10
130.6899012205
 20
361.0427816438
 11
130.0904456002
 21
360.9116781384
  0
LINE
  5
363
100
AcDbEntity
  8
0
100
AcDbLine
 62
7
  6
CONTINUOUS
 10
133.6872927503
 20
363.0513560201
 11
134.2862157792
 21
363.1823217705
  0
LINE
  5
364
100
AcDbEntity
  8
0
100
AcDbLine
 62
7
  6
CONTINUOUS
 10
133.6674611081
 20
359.4572431926
 11
134.2817226191
 21
359.5893708938
  0
LINE
  5
365
100
AcDbEntity
  8
0
100
AcDbLine
 62
7
  6
CONTINUOUS
 10
134.6500044032
 20
359.6971254758
 11
134.1085056456
 21
359.6001352124
  0
LWPOLYLINE
  5
366
100
AcDbEntity
  8
0
100
AcDbPolyline
 62
7
  6
CONTINUOUS
 90
3
 70
0
 10
111.1476999765
 20
347.3596744625
 10
112.023258924
 20
348.5175475291
 10
113.2438669788
 20
349.2935858067
  0
LINE
  5
367
100
AcDbEntity
  8
0
100
AcDbLine
 62
7
  6
CONTINUOUS
 10
115.2313208125
 20
354.3781441109
 11
115.7042349081
 21
354.4970316442
  0
LINE
  5
368
100
AcDbEntity
  8
0
100
AcDbLine
 62
7
  6
CONTINUOUS
 10
133.4448606808
 20
366.6755234072
 11
133.729787716
 21
366.7437801467
  0
LINE
  5
369
100
AcDbEntity
  8
0
100
AcDbLine
 62
7
  6
CONTINUOUS
 10
130.8465311617
 20
366.4322149717
 11
130.3226985228
 21
366.3163854856
  0
LINE
  5
36A
100
AcDbEntity
  8
0
100
AcDbLine
 62
7
  6
CONTINUOUS
 10
133.6839939799
 20
364.8506024573
 11
134.2828102662
 21
364.9818067586
  0
LINE
  5
36B
100
AcDbEntity
  8
0
100
AcDbLine
 62
7
  6
CONTINUOUS
 10
130.6912528071
 20
364.643066132
 11
130.0914377625
 21
364.5117915938
  0
LINE
  5
36C
100
AcDbEntity
  8
0
100
AcDbLine
 62
7
  6
CONTINUOUS
 10
115.4446701783
 20
345.0266228866
 11
115.5903034857
 21
345.1934558259
  0
LINE
  5
36D
100
AcDbEntity
  8
0
100
AcDbLine
 62
7
  6
CONTINUOUS
 10
115.6379579442
 20
345.2480472756
 11
115.789030312
 21
345.4211110315
  0
LINE
  5
36E
100
AcDbEntity
  8
0
100
AcDbLine
 62
7
  6
CONTINUOUS
 10
128.4881436761
 20
345.839869792
 11
126.5022322589
 21
343.633290136
  0
LINE
  5
36F
100
AcDbEntity
  8
0
100
AcDbLine
 62
7
  6
CONTINUOUS
 10
126.7105915283
 20
344.1760845929
 11
128.5134375067
 21
346.1774334208
  0
LINE
  5
370
100
AcDbEntity
  8
0
100
AcDbLine
 62
7
  6
CONTINUOUS
 10
123.5105074694
 20
347.6069711609
 11
123.5742646677
 21
347.670728359
  0
LINE
  5
371
100
AcDbEntity
  8
0
100
AcDbLine
 62
7
  6
CONTINUOUS
 10
123.9366859472
 20
347.4335500477
 11
123.8102898566
 21
347.3071539574
  0
LINE
  5
372
100
AcDbEntity
  8
0
100
AcDbLine
 62
7
  6
CONTINUOUS
 10
114.8669490666
 20
354.0437971411
 11
115.2325083074
 21
354.3787788475
  0
LINE
  5
373
100
AcDbEntity
  8
0
100
AcDbLine
 62
7
  6
CONTINUOUS
 10
129.3940001076
 20
345.5950124153
 11
129.2350162725
 21
345.4609422676
  0
LINE
  5
374
100
AcDbEntity
  8
0
100
AcDbLine
 62
7
  6
CONTINUOUS
 10
129.3336175373
 20
344.7365559802
 11
126.1883611721
 21
342.0970356898
  0
LINE
  5
375
100
AcDbEntity
  8
0
100
AcDbLine
 62
7
  6
CONTINUOUS
 10
126.1883611721
 20
342.0970356898
 11
129.1729932417
 21
344.6013325667
  0
LINE
  5
376
100
AcDbEntity
  8
0
100
AcDbLine
 62
7
  6
CONTINUOUS
 10
112.0199118246
 20
348.5144692365
 11
113.2438675678
 21
349.2935843477
  0
LINE
  5
377
100
AcDbEntity
  8
0
100
AcDbLine
 62
7
  6
CONTINUOUS
 10
137.6127120424
 20
347.4950737988
 11
137.8188434705
 21
347.6263940015
  0
LINE
  5
378
100
AcDbEntity
  8
0
100
AcDbLine
 62
7
  6
CONTINUOUS
 10
138.3964133535
 20
346.7204001337
 11
138.1897296978
 21
346.5887281232
  0
LINE
  5
379
100
AcDbEntity
  8
0
100
AcDbLine
 62
7
  6
CONTINUOUS
 10
116.2406979132
 20
349.716632787
 11
116.4412547437
 21
349.8168806495
  0
LINE
  5
37A
100
AcDbEntity
  8
0
100
AcDbLine
 62
7
  6
CONTINUOUS
 10
116.7410877703
 20
349.5169263317
 11
116.5405308593
 21
349.416678429
  0
LINE
  5
37B
100
AcDbEntity
  8
0
100
AcDbLine
 62
7
  6
CONTINUOUS
 10
117.9417340828
 20
349.4166784227
 11
118.1402191497
 21
349.5158907191
  0
LINE
  5
37C
100
AcDbEntity
  8
0
100
AcDbLine
 62
7
  6
CONTINUOUS
 10
118.4400363978
 20
349.2159364077
 11
118.241551331
 21
349.1167241114
  0
LINE
  5
37D
100
AcDbEntity
  8
0
100
AcDbLine
 62
7
  6
CONTINUOUS
 10
125.6356493457
 20
352.4771445353
 11
125.8339157261
 21
352.5762475217
  0
LINE
  5
37E
100
AcDbEntity
  8
0
100
AcDbLine
 62
7
  6
CONTINUOUS
 10
126.1344640045
 20
352.2766357797
 11
125.9354681087
 21
352.1771681468
  0
LINE
  5
37F
100
AcDbEntity
  8
0
100
AcDbLine
 62
7
  6
CONTINUOUS
 10
128.4408083548
 20
348.277240518
 11
126.7640302714
 21
347.4950831138
  0
LINE
  5
380
100
AcDbEntity
  8
0
100
AcDbLine
 62
7
  6
CONTINUOUS
 10
126.5578788744
 20
347.6263940013
 11
128.2433852754
 21
348.41209441
  0
LINE
  5
381
100
AcDbEntity
  8
0
100
AcDbLine
 62
7
  6
CONTINUOUS
 10
132.1993936972
 20
371.3445082624
 11
132.2104537923
 21
371.3494169774
  0
LINE
  5
382
100
AcDbEntity
  8
0
100
AcDbLine
 62
7
  6
CONTINUOUS
 10
108.3258736756
 20
345.0116106712
 11
108.5355355452
 21
345.0970457164
  0
LINE
  5
383
100
AcDbEntity
  8
0
100
AcDbLine
 62
7
  6
CONTINUOUS
 10
129.6126057243
 20
352.6717445514
 11
131.2852096375
 21
353.2687563282
  0
LINE
  5
384
100
AcDbEntity
  8
0
100
AcDbLine
 62
7
  6
CONTINUOUS
 10
129.6126087888
 20
352.6717472214
 11
131.2855669128
 21
353.2688191025
  0
LINE
  5
385
100
AcDbEntity
  8
0
100
AcDbLine
 62
7
  6
CONTINUOUS
 10
129.6126049473
 20
352.6717439395
 11
131.2919823214
 21
353.2699345296
  0
LINE
  5
386
100
AcDbEntity
  8
0
100
AcDbLine
 62
7
  6
CONTINUOUS
 10
119.8833282541
 20
334.2583209028
 11
119.7634125157
 21
334.2212745398
  0
LINE
  5
387
100
AcDbEntity
  8
0
100
AcDbLine
 62
7
  6
CONTINUOUS
 10
670.014849644
 20
340.775749148
 11
669.7082300893
 21
341.2136472539
  0
LWPOLYLINE
  5
388
100
AcDbEntity
  8
0
100
AcDbPolyline
 62
7
  6
CONTINUOUS
 90
3
 70
0
 10
119.883574307
 20
334.2584314952
 10
120.0675198464
 20
334.3114342302
 10
120.4132262497
 20
334.3979245886
  0
LINE
  5
389
100
AcDbEntity
  8
0
100
AcDbLine
 62
7
  6
CONTINUOUS
 10
119.9710901935
 20
334.2836486402
 11
120.0676657877
 21
334.3114707424
  0
LINE
  5
38A
100
AcDbEntity
  8
0
100
AcDbLine
 62
7
  6
CONTINUOUS
 10
672.8980701391
 20
344.6257637562
 11
673.7584347937
 21
343.3970356898
  0
LINE
  5
38B
100
AcDbEntity
  8
0
100
AcDbLine
 62
7
  6
CONTINUOUS
 10
80.5317949738
 20
740.5073323012
 11
680.5317949738
 21
740.5073323012
  0
LINE
  5
38C
100
AcDbEntity
  8
0
100
AcDbLine
 62
7
  6
CONTINUOUS
 10
677.3317949738
 20
743.7073323011
 11
83.7317949738
 21
743.7073323011
  0
LINE
  5
38D
100
AcDbEntity
  8
0
100
AcDbLine
 62
7
  6
CONTINUOUS
 10
660.3248276665
 20
360.1970356897
 11
659.5222938399
 21
364.3257143103
  0
LINE
  5
38E
100
AcDbEntity
  8
0
100
AcDbLine
 62
7
  6
CONTINUOUS
 10
660.9947346151
 20
364.3257143103
 11
661.7972684417
 21
360.1970356897
  0
LINE
  5
38F
100
AcDbEntity
  8
0
100
AcDbLine
 62
7
  6
CONTINUOUS
 10
677.6883611721
 20
358.4970356898
 11
677.6883611721
 21
348.8649256336
  0
LINE
  5
390
100
AcDbEntity
  8
0
100
AcDbLine
 62
7
  6
CONTINUOUS
 10
679.0317949738
 20
369.9073323011
 11
679.0317949738
 21
740.5073323012
  0
LINE
  5
391
100
AcDbEntity
  8
0
100
AcDbLine
 62
7
  6
CONTINUOUS
 10
679.1883611721
 20
348.8649256336
 11
679.1883611721
 21
358.4970356897
  0
LINE
  5
392
100
AcDbEntity
  8
0
100
AcDbLine
 62
7
  6
CONTINUOUS
 10
680.5317949738
 20
740.5073323012
 11
680.5317949738
 21
369.9073323011
  0
LINE
  5
393
100
AcDbEntity
  8
0
100
AcDbLine
 62
7
  6
CONTINUOUS
 10
676.9634411139
 20
347.4723671583
 11
677.6883611721
 21
348.8649256336
  0
LINE
  5
394
100
AcDbEntity
  8
0
100
AcDbLine
 62
7
  6
CONTINUOUS
 10
671.1432646002
 20
343.3970356897
 11
676.9634411139
 21
347.4723671583
  0
LINE
  5
395
100
AcDbEntity
  8
0
100
AcDbLine
 62
7
  6
CONTINUOUS
 10
670.014849644
 20
340.775749148
 11
677.8238057684
 21
346.2436390919
  0
ARC
  5
396
100
AcDbEntity
  8
0
100
AcDbCircle
 62
7
  6
CONTINUOUS
 10
97.5400365592
 20
346.4319887245
 40
7.7240207137
100
AcDbArc
 50
220.250752572
 51
222.4752607881
  0
ARC
  5
397
100
AcDbEntity
  8
0
100
AcDbCircle
 62
7
  6
CONTINUOUS
 10
85.3883611721
 20
348.8649256336
 40
3.2
100
AcDbArc
 50
180.0
 51
235.0000000001
  0
ARC
  5
398
100
AcDbEntity
  8
0
100
AcDbCircle
 62
7
  6
CONTINUOUS
 10
93.1973172965
 20
343.3970356897
 40
3.2
100
AcDbArc
 50
235.0000000004
 51
270.0
  0
ARC
  5
399
100
AcDbEntity
  8
0
100
AcDbCircle
 62
7
  6
CONTINUOUS
 10
85.3883611721
 20
348.8649256336
 40
1.7
100
AcDbArc
 50
180.0
 51
235.0
  0
ARC
  5
39A
100
AcDbEntity
  8
0
100
AcDbCircle
 62
7
  6
CONTINUOUS
 10
93.0319605512
 20
355.5375886453
 40
9.7887182514
100
AcDbArc
 50
157.1525090749
 51
158.6284211512
  0
ARC
  5
39B
100
AcDbEntity
  8
0
100
AcDbCircle
 62
7
  6
CONTINUOUS
 10
83.7317949738
 20
369.9073323011
 40
3.2
100
AcDbArc
 50
180.0
 51
270.0
  0
ARC
  5
39C
100
AcDbEntity
  8
0
100
AcDbCircle
 62
7
  6
CONTINUOUS
 10
98.1056009656
 20
364.7073323011
 40
2.0
100
AcDbArc
 50
348.9999999987
 51
90.0
  0
ARC
  5
39D
100
AcDbEntity
  8
0
100
AcDbCircle
 62
7
  6
CONTINUOUS
 10
83.8883611721
 20
358.4970356897
 40
1.7
100
AcDbArc
 50
73.9807195373
 51
180.0
  0
ARC
  5
39E
100
AcDbEntity
  8
0
100
AcDbCircle
 62
7
  6
CONTINUOUS
 10
108.5355355458
 20
344.7970356897
 40
0.3
100
AcDbArc
 50
90.0
 51
179.0005139292
  0
ARC
  5
39F
100
AcDbEntity
  8
0
100
AcDbCircle
 62
7
  6
CONTINUOUS
 10
109.7409688711
 20
346.0970356897
 40
1.0
100
AcDbArc
 50
270.0
 51
354.1283706719
  0
ARC
  5
3A0
100
AcDbEntity
  8
0
100
AcDbCircle
 62
7
  6
CONTINUOUS
 10
109.7409845141
 20
346.0917825901
 40
0.6999712337
100
AcDbArc
 50
269.9980627794
 51
353.0000550857
  0
ARC
  5
3A1
100
AcDbEntity
  8
0
100
AcDbCircle
 62
7
  6
CONTINUOUS
 10
112.487016324
 20
351.144809883
 40
1.9999604608
100
AcDbArc
 50
292.2366074178
 51
355.0007582971
  0
ARC
  5
3A2
100
AcDbEntity
  8
0
100
AcDbCircle
 62
7
  6
CONTINUOUS
 10
114.7879037391
 20
345.5170356897
 40
4.08
100
AcDbArc
 50
112.2371234186
 51
173.276556112
  0
ARC
  5
3A3
100
AcDbEntity
  8
0
100
AcDbCircle
 62
7
  6
CONTINUOUS
 10
120.2606408882
 20
338.1970356897
 40
4.0
100
AcDbArc
 50
182.0000025522
 51
262.8190510788
  0
ARC
  5
3A4
100
AcDbEntity
  8
0
100
AcDbCircle
 62
7
  6
CONTINUOUS
 10
114.7879035926
 20
345.5170430289
 40
2.0799946111
100
AcDbArc
 50
89.9999959771
 51
173.00021069
  0
ARC
  5
3A5
100
AcDbEntity
  8
0
100
AcDbCircle
 62
7
  6
CONTINUOUS
 10
114.7878763221
 20
345.5222912504
 40
1.7799728201
100
AcDbArc
 50
90.0028746974
 51
173.0011092293
  0
ARC
  5
3A6
100
AcDbEntity
  8
0
100
AcDbCircle
 62
7
  6
CONTINUOUS
 10
116.3014771701
 20
348.5070529235
 40
7.9999947759
100
AcDbArc
 50
90.0000745732
 51
179.0001786509
  0
ARC
  5
3A7
100
AcDbEntity
  8
0
100
AcDbCircle
 62
7
  6
CONTINUOUS
 10
116.3014806918
 20
348.5122342457
 40
7.700023172
100
AcDbArc
 50
90.0001036727
 51
179.0026382354
  0
ARC
  5
3A8
100
AcDbEntity
  8
0
100
AcDbCircle
 62
7
  6
CONTINUOUS
 10
116.7413638576
 20
349.8170234992
 40
0.300103944
100
AcDbArc
 50
180.0272723633
 51
269.9472882926
  0
ARC
  5
3A9
100
AcDbEntity
  8
0
100
AcDbCircle
 62
7
  6
CONTINUOUS
 10
116.54007286
 20
349.7160722868
 40
0.2993822885
100
AcDbArc
 50
179.8927289712
 51
270.0876484472
  0
ARC
  5
3AA
100
AcDbEntity
  8
0
100
AcDbCircle
 62
7
  6
CONTINUOUS
 10
115.7042349131
 20
353.4970356897
 40
1.0
100
AcDbArc
 50
90.0000000086
 51
174.9999999999
  0
ARC
  5
3AB
100
AcDbEntity
  8
0
100
AcDbCircle
 62
7
  6
CONTINUOUS
 10
116.7413638701
 20
352.1770478707
 40
0.3001039577
100
AcDbArc
 50
90.0557265617
 51
179.9770809351
  0
ARC
  5
3AC
100
AcDbEntity
  8
0
100
AcDbCircle
 62
7
  6
CONTINUOUS
 10
116.5422864284
 20
352.2761699943
 40
0.3000529419
100
AcDbArc
 50
89.9006768312
 51
179.9110462858
  0
ARC
  5
3AD
100
AcDbEntity
  8
0
100
AcDbCircle
 62
7
  6
CONTINUOUS
 10
117.9407587026
 20
348.2326449782
 40
0.3002555883
100
AcDbArc
 50
270.0926462685
 51
359.9167826209
  0
ARC
  5
3AE
100
AcDbEntity
  8
0
100
AcDbCircle
 62
7
  6
CONTINUOUS
 10
117.9414422082
 20
349.1165812615
 40
0.3001039511
100
AcDbArc
 50
0.0272723907
 51
89.9442741275
  0
ARC
  5
3AF
100
AcDbEntity
  8
0
100
AcDbCircle
 62
7
  6
CONTINUOUS
 10
91.5317949738
 20
378.2260823011
 40
12.7408438324
100
AcDbArc
 50
246.8936731417
 51
266.6252870276
  0
ARC
  5
3B0
100
AcDbEntity
  8
0
100
AcDbCircle
 62
7
  6
CONTINUOUS
 10
91.5317949738
 20
378.2260823011
 40
12.7408438324
100
AcDbArc
 50
273.3747129724
 51
293.1063268583
  0
ARC
  5
3B1
100
AcDbEntity
  8
0
100
AcDbCircle
 62
7
  6
CONTINUOUS
 10
122.3087106968
 20
325.5882279715
 40
9.0395558458
100
AcDbArc
 50
101.8494593561
 51
102.7943406586
  0
ARC
  5
3B2
100
AcDbEntity
  8
0
100
AcDbCircle
 62
7
  6
CONTINUOUS
 10
122.1883611721
 20
326.5845356897
 40
8.0125
100
AcDbArc
 50
99.6680577748
 51
102.7972847406
  0
ARC
  5
3B3
100
AcDbEntity
  8
0
100
AcDbCircle
 62
7
  6
CONTINUOUS
 10
127.1883611721
 20
326.5845356897
 40
8.0125
100
AcDbArc
 50
71.8942022098
 51
108.0047957045
  0
ARC
  5
3B4
100
AcDbEntity
  8
0
100
AcDbCircle
 62
7
  6
CONTINUOUS
 10
122.1883611721
 20
326.5845356897
 40
8.0125
100
AcDbArc
 50
72.1644748625
 51
97.2233041775
  0
ARC
  5
3B5
100
AcDbEntity
  8
0
100
AcDbCircle
 62
7
  6
CONTINUOUS
 10
127.1138398336
 20
341.8572648785
 40
14.3001870981
100
AcDbArc
 50
0.9607216475
 51
23.5501320533
  0
ARC
  5
3B6
100
AcDbEntity
  8
0
100
AcDbCircle
 62
7
  6
CONTINUOUS
 10
127.1140270015
 20
341.862534105
 40
14.0
100
AcDbArc
 50
0.959755793
 51
23.5681705903
  0
ARC
  5
3B7
100
AcDbEntity
  8
0
100
AcDbCircle
 62
7
  6
CONTINUOUS
 10
127.1864083383
 20
346.5894058444
 40
0.999324051
100
AcDbArc
 50
115.0027966409
 51
180.0375896128
  0
CIRCLE
  5
3B8
100
AcDbEntity
  8
0
100
AcDbCircle
 62
7
  6
CONTINUOUS
 10
125.0383611721
 20
347.0970356897
 40
0.5
  0
ARC
  5
3B9
100
AcDbEntity
  8
0
100
AcDbCircle
 62
7
  6
CONTINUOUS
 10
123.5100363821
 20
347.3067177391
 40
0.3002555877
100
AcDbArc
 50
0.0832411663
 51
89.910104954
  0
ARC
  5
3BA
100
AcDbEntity
  8
0
100
AcDbCircle
 62
7
  6
CONTINUOUS
 10
124.6434147754
 20
342.7970356897
 40
0.3
100
AcDbArc
 50
10.0000000005
 51
90.0
  0
ARC
  5
3BB
100
AcDbEntity
  8
0
100
AcDbCircle
 62
7
  6
CONTINUOUS
 10
132.1883611721
 20
326.5845356897
 40
8.0125
100
AcDbArc
 50
71.9250537314
 51
108.0409299996
  0
ARC
  5
3BC
100
AcDbEntity
  8
0
100
AcDbCircle
 62
7
  6
CONTINUOUS
 10
129.6883611721
 20
334.4072689876
 40
0.2
100
AcDbArc
 50
252.2770631752
 51
276.0636442296
  0
ARC
  5
3BD
100
AcDbEntity
  8
0
100
AcDbCircle
 62
7
  6
CONTINUOUS
 10
127.9383611721
 20
342.5070356897
 40
14.0
100
AcDbArc
 50
358.3218158941
 51
89.9999999793
  0
ARC
  5
3BE
100
AcDbEntity
  8
0
100
AcDbCircle
 62
7
  6
CONTINUOUS
 10
128.089955888
 20
342.5070662374
 40
13.8483302348
100
AcDbArc
 50
359.5843296078
 51
359.9998751242
  0
ARC
  5
3BF
100
AcDbEntity
  8
0
100
AcDbCircle
 62
7
  6
CONTINUOUS
 10
128.0926874068
 20
342.5073370593
 40
13.8456007281
100
AcDbArc
 50
359.7080594575
 51
359.998754025
  0
ARC
  5
3C0
100
AcDbEntity
  8
0
100
AcDbCircle
 62
7
  6
CONTINUOUS
 10
127.938439004
 20
342.5122593557
 40
13.6999567333
100
AcDbArc
 50
358.2631855474
 51
90.0003254762
  0
ARC
  5
3C1
100
AcDbEntity
  8
0
100
AcDbCircle
 62
7
  6
CONTINUOUS
 10
128.7871769961
 20
345.0612948424
 40
0.6004189007
100
AcDbArc
 50
309.9899160359
 51
41.7853765535
  0
ARC
  5
3C2
100
AcDbEntity
  8
0
100
AcDbCircle
 62
7
  6
CONTINUOUS
 10
128.9469243737
 20
345.1949614042
 40
0.5998276099
100
AcDbArc
 50
309.9927188878
 51
41.8524072797
  0
ARC
  5
3C3
100
AcDbEntity
  8
0
100
AcDbCircle
 62
7
  6
CONTINUOUS
 10
132.1883611721
 20
348.0970356897
 40
5.25
100
AcDbArc
 50
21.3424602454
 51
119.3813163881
  0
ARC
  5
3C4
100
AcDbEntity
  8
0
100
AcDbCircle
 62
7
  6
CONTINUOUS
 10
132.1758981222
 20
348.1047476329
 40
3.9729436847
100
AcDbArc
 50
318.2803662576
 51
324.7610186792
  0
ARC
  5
3C5
100
AcDbEntity
  8
0
100
AcDbCircle
 62
7
  6
CONTINUOUS
 10
132.1868772247
 20
348.0954600965
 40
3.9591492419
100
AcDbArc
 50
4.5871571964
 51
31.608484307
  0
ARC
  5
3C6
100
AcDbEntity
  8
0
100
AcDbCircle
 62
7
  6
CONTINUOUS
 10
132.1891237456
 20
348.0956961337
 40
3.9584018105
100
AcDbArc
 50
148.3889276884
 51
175.4154133084
  0
ARC
  5
3C7
100
AcDbEntity
  8
0
100
AcDbCircle
 62
7
  6
CONTINUOUS
 10
132.1848353108
 20
348.0931865883
 40
3.953230196
100
AcDbArc
 50
215.234739711
 51
221.7377682578
  0
ARC
  5
3C8
100
AcDbEntity
  8
0
100
AcDbCircle
 62
7
  6
CONTINUOUS
 10
132.1844613182
 20
348.1010051671
 40
3.7566409894
100
AcDbArc
 50
318.1457198208
 51
328.4248786221
  0
ARC
  5
3C9
100
AcDbEntity
  8
0
100
AcDbCircle
 62
7
  6
CONTINUOUS
 10
132.1847694437
 20
348.097523292
 40
3.7554673989
100
AcDbArc
 50
2.7427352629
 51
28.435551241
  0
ARC
  5
3CA
100
AcDbEntity
  8
0
100
AcDbCircle
 62
7
  6
CONTINUOUS
 10
132.1898761008
 20
348.0978643742
 40
3.7533639156
100
AcDbArc
 50
151.542905175
 51
177.2607418592
  0
ARC
  5
3CB
100
AcDbEntity
  8
0
100
AcDbCircle
 62
7
  6
CONTINUOUS
 10
132.1759255458
 20
348.0892319026
 40
3.7365134283
100
AcDbArc
 50
211.5578514033
 51
221.8740093974
  0
ARC
  5
3CC
100
AcDbEntity
  8
0
100
AcDbCircle
 62
7
  6
CONTINUOUS
 10
132.1883621396
 20
348.0963330402
 40
3.6572656131
100
AcDbArc
 50
34.7354632215
 51
145.2638109434
  0
ARC
  5
3CD
100
AcDbEntity
  8
0
100
AcDbCircle
 62
7
  6
CONTINUOUS
 10
127.0992615409
 20
353.4970356897
 40
1.0
100
AcDbArc
 50
9.9999998798
 51
90.0
  0
ARC
  5
3CE
100
AcDbEntity
  8
0
100
AcDbCircle
 62
7
  6
CONTINUOUS
 10
125.635345539
 20
349.8170371098
 40
0.3001203186
100
AcDbArc
 50
270.0549826324
 51
359.9700862494
  0
ARC
  5
3CF
100
AcDbEntity
  8
0
100
AcDbCircle
 62
7
  6
CONTINUOUS
 10
125.6353588027
 20
352.1770475162
 40
0.3001039659
100
AcDbArc
 50
0.023030321
 51
89.9445283338
  0
ARC
  5
3D0
100
AcDbEntity
  8
0
100
AcDbCircle
 62
7
  6
CONTINUOUS
 10
124.4352801359
 20
349.1165812609
 40
0.3001039512
100
AcDbArc
 50
90.0557258721
 51
179.9729584488
  0
ARC
  5
3D1
100
AcDbEntity
  8
0
100
AcDbCircle
 62
7
  6
CONTINUOUS
 10
125.8344359497
 20
352.2761699591
 40
0.3000530445
100
AcDbArc
 50
0.0889567622
 51
90.0993295953
  0
ARC
  5
3D2
100
AcDbEntity
  8
0
100
AcDbCircle
 62
7
  6
CONTINUOUS
 10
125.8366495401
 20
349.7160723333
 40
0.2993822458
100
AcDbArc
 50
269.9123405061
 51
0.1072621442
  0
ARC
  5
3D3
100
AcDbEntity
  8
0
100
AcDbCircle
 62
7
  6
CONTINUOUS
 10
127.4732635873
 20
360.8781866105
 40
15.1789439275
100
AcDbArc
 50
303.8848549929
 51
304.7873341677
  0
ARC
  5
3D4
100
AcDbEntity
  8
0
100
AcDbCircle
 62
7
  6
CONTINUOUS
 10
127.4713706061
 20
371.6970356897
 40
0.5
100
AcDbArc
 50
270.0
 51
315.9538066404
  0
ARC
  5
3D5
100
AcDbEntity
  8
0
100
AcDbCircle
 62
7
  6
CONTINUOUS
 10
125.9883611721
 20
370.8970356897
 40
0.3
100
AcDbArc
 50
90.0
 51
180.0
  0
ARC
  5
3D6
100
AcDbEntity
  8
0
100
AcDbCircle
 62
7
  6
CONTINUOUS
 10
125.7883611721
 20
370.0970356897
 40
0.1
100
AcDbArc
 50
180.0
 51
269.9330149749
  0
ARC
  5
3D7
100
AcDbEntity
  8
0
100
AcDbCircle
 62
7
  6
CONTINUOUS
 10
129.1219829674
 20
353.5431102467
 40
0.9999884086
100
AcDbArc
 50
189.9993103349
 51
299.3816625758
  0
ARC
  5
3D8
100
AcDbEntity
  8
0
100
AcDbCircle
 62
7
  6
CONTINUOUS
 10
129.1219622053
 20
353.5378927205
 40
0.6999842098
100
AcDbArc
 50
190.0008753248
 51
299.3829390479
  0
ARC
  5
3D9
100
AcDbEntity
  8
0
100
AcDbCircle
 62
7
  6
CONTINUOUS
 10
132.1883152326
 20
366.0119148562
 40
6.7910780737
100
AcDbArc
 50
85.7781114003
 51
94.2218919619
  0
ARC
  5
3DA
100
AcDbEntity
  8
0
100
AcDbCircle
 62
7
  6
CONTINUOUS
 10
132.1882520081
 20
366.0136320213
 40
6.7893603942
100
AcDbArc
 50
85.7775881851
 51
94.2224266898
  0
ARC
  5
3DB
100
AcDbEntity
  8
0
100
AcDbCircle
 62
7
  6
CONTINUOUS
 10
132.1883611721
 20
367.1345356897
 40
6.0625
100
AcDbArc
 50
110.7713318918
 51
135.9538022325
  0
ARC
  5
3DC
100
AcDbEntity
  8
0
100
AcDbCircle
 62
7
  6
CONTINUOUS
 10
132.1883611721
 20
367.1345356897
 40
6.0625
100
AcDbArc
 50
44.0461933881
 51
69.2286681873
  0
ARC
  5
3DD
100
AcDbEntity
  8
0
100
AcDbCircle
 62
7
  6
CONTINUOUS
 10
132.1883611721
 20
367.1345356897
 40
6.0418462617
100
AcDbArc
 50
94.7470076651
 51
110.7477106777
  0
ARC
  5
3DE
100
AcDbEntity
  8
0
100
AcDbCircle
 62
7
  6
CONTINUOUS
 10
132.1883611721
 20
367.1345356897
 40
6.0418462617
100
AcDbArc
 50
69.2522893223
 51
85.2529923349
  0
ARC
  5
3DF
100
AcDbEntity
  8
0
100
AcDbCircle
 62
7
  6
CONTINUOUS
 10
132.1883611721
 20
371.5002829474
 40
1.3
100
AcDbArc
 50
207.6478742203
 51
332.3521257799
  0
ARC
  5
3E0
100
AcDbEntity
  8
0
100
AcDbCircle
 62
7
  6
CONTINUOUS
 10
129.7233611721
 20
369.2970356897
 40
0.7
100
AcDbArc
 50
0.0
 51
89.9086493409
  0
ARC
  5
3E1
100
AcDbEntity
  8
0
100
AcDbCircle
 62
7
  6
CONTINUOUS
 10
137.1883611721
 20
326.5845356897
 40
8.0125
100
AcDbArc
 50
71.9789505568
 51
108.0861438464
  0
ARC
  5
3E2
100
AcDbEntity
  8
0
100
AcDbCircle
 62
7
  6
CONTINUOUS
 10
142.1883611721
 20
326.5845356897
 40
8.0125
100
AcDbArc
 50
77.202716617
 51
107.9975933935
  0
ARC
  5
3E3
100
AcDbEntity
  8
0
100
AcDbCircle
 62
7
  6
CONTINUOUS
 10
144.116081456
 20
338.1970356897
 40
4.0
100
AcDbArc
 50
277.1809489213
 51
357.9999974478
  0
ARC
  5
3E4
100
AcDbEntity
  8
0
100
AcDbCircle
 62
7
  6
CONTINUOUS
 10
143.5113102436
 20
331.2151691515
 40
3.2219908553
100
AcDbArc
 50
71.656282506
 51
71.9281861581
  0
ARC
  5
3E5
100
AcDbEntity
  8
0
100
AcDbCircle
 62
7
  6
CONTINUOUS
 10
138.0883611721
 20
346.7197713144
 40
2.0
100
AcDbArc
 50
21.7316965703
 51
65.0000000026
  0
ARC
  5
3E6
100
AcDbEntity
  8
0
100
AcDbCircle
 62
7
  6
CONTINUOUS
 10
137.396119143
 20
346.7196863978
 40
1.0004109477
100
AcDbArc
 50
0.0427731543
 51
64.9955829349
  0
ARC
  5
3E7
100
AcDbEntity
  8
0
100
AcDbCircle
 62
7
  6
CONTINUOUS
 10
135.5893833236
 20
345.0612394828
 40
0.6002623708
100
AcDbArc
 50
138.272894725
 51
230.0184840562
  0
ARC
  5
3E8
100
AcDbEntity
  8
0
100
AcDbCircle
 62
7
  6
CONTINUOUS
 10
135.4296096201
 20
345.194900038
 40
0.5996463277
100
AcDbArc
 50
138.2118506526
 51
230.0030248562
  0
ARC
  5
3E9
100
AcDbEntity
  8
0
100
AcDbCircle
 62
7
  6
CONTINUOUS
 10
137.8891071884
 20
344.3768724707
 40
0.3000585586
100
AcDbArc
 50
222.0058629869
 51
359.9835767767
  0
ARC
  5
3EA
100
AcDbEntity
  8
0
100
AcDbCircle
 62
7
  6
CONTINUOUS
 10
134.6883611721
 20
334.4072689876
 40
0.2
100
AcDbArc
 50
252.2770875914
 51
287.7229368321
  0
ARC
  5
3EB
100
AcDbEntity
  8
0
100
AcDbCircle
 62
7
  6
CONTINUOUS
 10
138.941095035
 20
350.7355529693
 40
1.9999069555
100
AcDbArc
 50
201.341595737
 51
245.0012053452
  0
ARC
  5
3EC
100
AcDbEntity
  8
0
100
AcDbCircle
 62
7
  6
CONTINUOUS
 10
138.9412356902
 20
350.7304499651
 40
1.7000934386
100
AcDbArc
 50
201.3439514125
 51
245.0009880708
  0
ARC
  5
3ED
100
AcDbEntity
  8
0
100
AcDbCircle
 62
7
  6
CONTINUOUS
 10
134.6533611721
 20
369.2970356897
 40
0.7
100
AcDbArc
 50
90.144593112
 51
180.0
  0
ARC
  5
3EE
100
AcDbEntity
  8
0
100
AcDbCircle
 62
7
  6
CONTINUOUS
 10
136.9053517381
 20
371.6970356897
 40
0.5
100
AcDbArc
 50
224.0461933596
 51
270.0182190388
  0
ARC
  5
3EF
100
AcDbEntity
  8
0
100
AcDbCircle
 62
7
  6
CONTINUOUS
 10
138.3883611721
 20
370.8970356897
 40
0.3
100
AcDbArc
 50
0.0
 51
90.0
  0
ARC
  5
3F0
100
AcDbEntity
  8
0
100
AcDbCircle
 62
7
  6
CONTINUOUS
 10
138.5883611721
 20
370.0970356897
 40
0.1
100
AcDbArc
 50
270.0
 51
360.0
  0
ARC
  5
3F1
100
AcDbEntity
  8
0
100
AcDbCircle
 62
7
  6
CONTINUOUS
 10
157.5963265924
 20
419.5998140511
 40
78.7237984361
100
AcDbArc
 50
224.2091301705
 51
224.496610219
  0
ARC
  5
3F2
100
AcDbEntity
  8
0
100
AcDbCircle
 62
7
  6
CONTINUOUS
 10
124.5934948023
 20
387.2054769497
 40
32.4790302055
100
AcDbArc
 50
224.5389113828
 51
224.7849033331
  0
ARC
  5
3F3
100
AcDbEntity
  8
0
100
AcDbCircle
 62
7
  6
CONTINUOUS
 10
83.7317949738
 20
740.5073323011
 40
3.2
100
AcDbArc
 50
90.0
 51
179.9999999999
  0
ARC
  5
3F4
100
AcDbEntity
  8
0
100
AcDbCircle
 62
7
  6
CONTINUOUS
 10
603.4711820403
 20
419.5959769775
 40
78.7183139725
100
AcDbArc
 50
315.5033691732
 51
315.7908829285
  0
ARC
  5
3F5
100
AcDbEntity
  8
0
100
AcDbCircle
 62
7
  6
CONTINUOUS
 10
636.4708043501
 20
387.2047744662
 40
32.4780319803
100
AcDbArc
 50
315.2150948937
 51
315.4610612581
  0
ARC
  5
3F6
100
AcDbEntity
  8
0
100
AcDbCircle
 62
7
  6
CONTINUOUS
 10
668.220290761
 20
355.4869236081
 40
9.9231018942
100
AcDbArc
 50
21.354371344
 51
22.7826198611
  0
ARC
  5
3F7
100
AcDbEntity
  8
0
100
AcDbCircle
 62
7
  6
CONTINUOUS
 10
675.9883611721
 20
348.8649256336
 40
3.2
100
AcDbArc
 50
304.9999999996
 51
360.0
  0
ARC
  5
3F8
100
AcDbEntity
  8
0
100
AcDbCircle
 62
7
  6
CONTINUOUS
 10
668.1794050477
 20
343.3970356897
 40
3.2
100
AcDbArc
 50
270.0
 51
304.9999999996
  0
ARC
  5
3F9
100
AcDbEntity
  8
0
100
AcDbCircle
 62
7
  6
CONTINUOUS
 10
677.3317949738
 20
369.9073323011
 40
3.2
100
AcDbArc
 50
270.0
 51
360.0
  0
ARC
  5
3FA
100
AcDbEntity
  8
0
100
AcDbCircle
 62
7
  6
CONTINUOUS
 10
662.957988982
 20
364.7073323011
 40
2.0
100
AcDbArc
 50
90.0
 51
191.0000000013
  0
ARC
  5
3FB
100
AcDbEntity
  8
0
100
AcDbCircle
 62
7
  6
CONTINUOUS
 10
675.9883611721
 20
348.8649256336
 40
1.7
100
AcDbArc
 50
304.9999999998
 51
360.0
  0
ARC
  5
3FC
100
AcDbEntity
  8
0
100
AcDbCircle
 62
7
  6
CONTINUOUS
 10
677.4883611721
 20
358.4970356897
 40
1.7
100
AcDbArc
 50
0.0
 51
106.0716823743
  0
ARC
  5
3FD
100
AcDbEntity
  8
0
100
AcDbCircle
 62
7
  6
CONTINUOUS
 10
677.3317949738
 20
740.5073323011
 40
3.2
100
AcDbArc
 50
0.0000000001
 51
90.0
  0
SPLINE
  5
3FE
100
AcDbEntity
  8
0
100
AcDbSpline
 62
7
  6
CONTINUOUS
 70
0
 71
3
 72
14
 73
10
 74
0
 42
0.0000001
 43
0.0000001
 44
0.0000000001
 40
0.0
 40
0.0
 40
0.0
 40
0.0
 40
0.3918893139
 40
0.551763789
 40
0.6858801117
 40
0.7946541742
 40
0.880125047
 40
0.9461364675
 40
1.0
 40
1.0
 40
1.0
 40
1.0
 10
145.9121581608
 20
340.1970368462
 30
0.0
 10
145.9398052952
 20
339.8830888844
 30
0.0
 10
146.000921068
 20
339.4418226179
 30
0.0
 10
146.1386477706
 20
338.9071658255
 30
0.0
 10
146.2474494636
 20
338.6015105885
 30
0.0
 10
146.3645467278
 20
338.3638797775
 30
0.0
 10
146.4874828256
 20
338.1929447606
 30
0.0
 10
146.616057919
 20
338.0849047365
 30
0.0
 10
146.7129519053
 20
338.057436757
 30
0.0
 10
146.7562697232
 20
338.0574363959
 30
0.0
  0
SPLINE
  5
3FF
100
AcDbEntity
  8
0
100
AcDbSpline
 62
7
  6
CONTINUOUS
 70
0
 71
3
 72
14
 73
10
 74
0
 42
0.0000001
 43
0.0000001
 44
0.0000000001
 40
0.0
 40
0.0
 40
0.0
 40
0.0
 40
0.0538635307
 40
0.1198749424
 40
0.2053458056
 40
0.3141198612
 40
0.4482361817
 40
0.6081106604
 40
1.0
 40
1.0
 40
1.0
 40
1.0
 10
117.6204524795
 20
338.0574364005
 30
0.0
 10
117.663770298
 20
338.057436735
 30
0.0
 10
117.7606642992
 20
338.084904661
 30
0.0
 10
117.8892394188
 20
338.1929446466
 30
0.0
 10
118.012175536
 20
338.3638796371
 30
0.0
 10
118.1292728187
 20
338.6015104366
 30
0.0
 10
118.2380745304
 20
338.9071656783
 30
0.0
 10
118.3758012604
 20
339.4418225127
 30
0.0
 10
118.4369170426
 20
339.8830888229
 30
0.0
 10
118.4645641811
 20
340.1970368196
 30
0.0
  0
SPLINE
  5
400
100
AcDbEntity
  8
0
100
AcDbSpline
 62
7
  6
CONTINUOUS
 70
0
 71
3
 72
11
 73
7
 74
0
 42
0.0000001
 43
0.0000001
 44
0.0000000001
 40
0.0
 40
0.0
 40
0.0
 40
0.0
 40
0.2580422909
 40
0.509966614
 40
0.7553652335
 40
1.0
 40
1.0
 40
1.0
 40
1.0
 10
118.9410773851
 20
340.1970339277
 30
0.0
 10
119.0095780237
 20
339.9967713064
 30
0.0
 10
119.1726696789
 20
339.6088867288
 30
0.0
 10
119.5429725768
 20
339.1017119512
 30
0.0
 10
120.0514374024
 20
338.7448825955
 30
0.0
 10
120.447909692
 20
338.6402687493
 30
0.0
 10
120.647083844
 20
338.6159207945
 30
0.0
  0
SPLINE
  5
401
100
AcDbEntity
  8
0
100
AcDbSpline
 62
7
  6
CONTINUOUS
 70
0
 71
3
 72
11
 73
7
 74
0
 42
0.0000001
 43
0.0000001
 44
0.0000000001
 40
0.0
 40
0.0
 40
0.0
 40
0.0
 40
0.2630609227
 40
0.5191028936
 40
0.7636204548
 40
1.0
 40
1.0
 40
1.0
 40
1.0
 10
119.7043004195
 20
340.1970356897
 30
0.0
 10
119.7353286007
 20
340.0878963482
 30
0.0
 10
119.8104138166
 20
339.8758156513
 30
0.0
 10
119.9912470827
 20
339.5943603162
 30
0.0
 10
120.2555066423
 20
339.402268257
 30
0.0
 10
120.4654935094
 20
339.3590678071
 30
0.0
 10
120.567447441
 20
339.3584204059
 30
0.0
  0
SPLINE
  5
402
100
AcDbEntity
  8
0
100
AcDbSpline
 62
7
  6
CONTINUOUS
 70
0
 71
3
 72
11
 73
7
 74
0
 42
0.0000001
 43
0.0000001
 44
0.0000000001
 40
0.0
 40
0.0
 40
0.0
 40
0.0
 40
0.2364510905
 40
0.4809514216
 40
0.7369637653
 40
1.0
 40
1.0
 40
1.0
 40
1.0
 10
143.8092743033
 20
339.3584204059
 30
0.0
 10
143.9112578198
 20
339.3584646644
 30
0.0
 10
144.121230055
 20
339.4026557291
 30
0.0
 10
144.3855426037
 20
339.5943515948
 30
0.0
 10
144.5660873782
 20
339.8759490312
 30
0.0
 10
144.6419049956
 20
340.0877668015
 30
0.0
 10
144.6724205583
 20
340.1970356897
 30
0.0
  0
SPLINE
  5
403
100
AcDbEntity
  8
0
100
AcDbSpline
 62
7
  6
CONTINUOUS
 70
0
 71
3
 72
14
 73
10
 74
0
 42
0.0000001
 43
0.0000001
 44
0.0000000001
 40
0.0
 40
0.0
 40
0.0
 40
0.0
 40
0.0702685481
 40
0.1564819397
 40
0.2590345553
 40
0.3774493972
 40
0.5115324671
 40
0.6608701083
 40
1.0
 40
1.0
 40
1.0
 40
1.0
 10
143.1727730042
 20
334.5364896883
 30
0.0
 10
143.2192925407
 20
334.6215684668
 30
0.0
 10
143.302639738
 20
334.8219198901
 30
0.0
 10
143.4020525292
 20
335.1655532292
 30
0.0
 10
143.4888945238
 20
335.5808845957
 30
0.0
 10
143.5558034489
 20
336.0665059351
 30
0.0
 10
143.6083167207
 20
336.6185847138
 30
0.0
 10
143.6732387415
 20
337.4752498011
 30
0.0
 10
143.7070657766
 20
338.1485350565
 30
0.0
 10
143.7296473348
 20
338.6159684978
 30
0.0
  0
SPLINE
  5
404
100
AcDbEntity
  8
0
100
AcDbSpline
 62
7
  6
CONTINUOUS
 70
0
 71
3
 72
11
 73
7
 74
0
 42
0.0000001
 43
0.0000001
 44
0.0000000001
 40
0.0
 40
0.0
 40
0.0
 40
0.0
 40
0.2422832539
 40
0.4976240997
 40
0.7541595826
 40
1.0
 40
1.0
 40
1.0
 40
1.0
 10
117.6204525746
 20
338.0574376087
 30
0.0
 10
117.6337822668
 20
337.6696056402
 30
0.0
 10
117.7767927937
 20
336.8724195481
 30
0.0
 10
118.3375148612
 20
335.7816362488
 30
0.0
 10
119.2071790767
 20
334.9076780379
 30
0.0
 10
119.9340401498
 20
334.5299723079
 30
0.0
 10
120.3068821602
 20
334.4033447938
 30
0.0
  0
SPLINE
  5
405
100
AcDbEntity
  8
0
100
AcDbSpline
 62
7
  6
CONTINUOUS
 70
0
 71
3
 72
13
 73
9
 74
0
 42
0.0000001
 43
0.0000001
 44
0.0000000001
 40
0.0
 40
0.0
 40
0.0
 40
0.0
 40
0.0691368289
 40
0.1545489376
 40
0.3751620871
 40
0.5097478813
 40
0.6596467743
 40
1.0
 40
1.0
 40
1.0
 40
1.0
 10
121.1805262343
 20
334.5355185456
 30
0.0
 10
121.13771192
 20
334.6206060752
 30
0.0
 10
121.0613911348
 20
334.8203877353
 30
0.0
 10
120.9287659012
 20
335.3203205147
 30
0.0
 10
120.838108354
 20
335.9221825651
 30
0.0
 10
120.7690441143
 20
336.6144760857
 30
0.0
 10
120.7028847699
 20
337.4729246822
 30
0.0
 10
120.6692008687
 20
338.147575109
 30
0.0
 10
120.6470752383
 20
338.6159684978
 30
0.0
  0
SPLINE
  5
406
100
AcDbEntity
  8
0
100
AcDbSpline
 62
7
  6
CONTINUOUS
 70
0
 71
3
 72
9
 73
5
 74
0
 42
0.0000001
 43
0.0000001
 44
0.0000000001
 40
0.0
 40
0.0
 40
0.0
 40
0.0
 40
0.2537230158
 40
1.0
 40
1.0
 40
1.0
 40
1.0
 10
120.5674366248
 20
339.3584204149
 30
0.0
 10
120.5684604342
 20
339.2952273165
 30
0.0
 10
120.5782458488
 20
339.0463201934
 30
0.0
 10
120.6094068247
 20
338.7980184336
 30
0.0
 10
120.6470516613
 20
338.6159753721
 30
0.0
  0
SPLINE
  5
407
100
AcDbEntity
  8
0
100
AcDbSpline
 62
7
  6
CONTINUOUS
 70
0
 71
3
 72
13
 73
9
 74
0
 42
0.0000001
 43
0.0000001
 44
0.0000000001
 40
0.0
 40
0.0
 40
0.0
 40
0.0
 40
0.0566586448
 40
0.0804226115
 40
0.1570087063
 40
0.3271633095
 40
0.6033971958
 40
1.0
 40
1.0
 40
1.0
 40
1.0
 10
119.7606277393
 20
334.2284103798
 30
0.0
 10
119.7581166388
 20
334.2287267659
 30
0.0
 10
119.753984042
 20
334.2283193445
 30
0.0
 10
119.7496277623
 20
334.2353887932
 30
0.0
 10
119.7661042006
 20
334.2412506317
 30
0.0
 10
119.7832754438
 20
334.250389251
 30
0.0
 10
119.821135025
 20
334.2631223902
 30
0.0
 10
119.8488400503
 20
334.2726409817
 30
0.0
 10
119.8656848593
 20
334.2781292214
 30
0.0
  0
SPLINE
  5
408
100
AcDbEntity
  8
0
100
AcDbSpline
 62
7
  6
CONTINUOUS
 70
0
 71
3
 72
9
 73
5
 74
0
 42
0.0000001
 43
0.0000001
 44
0.0000000001
 40
0.0
 40
0.0
 40
0.0
 40
0.0
 40
0.1678768792
 40
1.0
 40
1.0
 40
1.0
 40
1.0
 10
119.8656848593
 20
334.2781292214
 30
0.0
 10
119.8900889409
 20
334.2860803623
 30
0.0
 10
120.0360269824
 20
334.3317304585
 30
0.0
 10
120.1844751756
 20
334.3687220515
 30
0.0
 10
120.3068898887
 20
334.4033691393
 30
0.0
  0
SPLINE
  5
409
100
AcDbEntity
  8
0
100
AcDbSpline
 62
7
  6
CONTINUOUS
 70
0
 71
3
 72
9
 73
5
 74
0
 42
0.0000001
 43
0.0000001
 44
0.0000000001
 40
0.0
 40
0.0
 40
0.0
 40
0.0
 40
0.3327233072
 40
1.0
 40
1.0
 40
1.0
 40
1.0
 10
144.0698321511
 20
334.4033691382
 30
0.0
 10
144.1187532692
 20
334.3895360659
 30
0.0
 10
144.2661795473
 20
334.3494526451
 30
0.0
 10
144.4138718269
 20
334.3098427349
 30
0.0
 10
144.5108001416
 20
334.2782142076
 30
0.0
  0
SPLINE
  5
40A
100
AcDbEntity
  8
0
100
AcDbSpline
 62
7
  6
CONTINUOUS
 70
0
 71
3
 72
13
 73
9
 74
0
 42
0.0000001
 43
0.0000001
 44
0.0000000001
 40
0.0
 40
0.0
 40
0.0
 40
0.0
 40
0.2778755168
 40
0.5001671587
 40
0.738403189
 40
0.8747425646
 40
0.9228972471
 40
1.0
 40
1.0
 40
1.0
 40
1.0
 10
144.5253248618
 20
334.273436541
 30
0.0
 10
144.5357454403
 20
334.2699814154
 30
0.0
 10
144.5544775963
 20
334.2635371302
 30
0.0
 10
144.5819515748
 20
334.2542915812
 30
0.0
 10
144.604007675
 20
334.244128275
 30
0.0
 10
144.6190408059
 20
334.2401719975
 30
0.0
 10
144.6276146191
 20
334.2292766425
 30
0.0
 10
144.6191171558
 20
334.2287911954
 30
0.0
 10
144.6160948339
 20
334.2284104086
 30
0.0
  0
SPLINE
  5
40B
100
AcDbEntity
  8
0
100
AcDbSpline
 62
7
  6
CONTINUOUS
 70
0
 71
3
 72
12
 73
8
 74
0
 42
0.0000001
 43
0.0000001
 44
0.0000000001
 40
0.0
 40
0.0
 40
0.0
 40
0.0
 40
0.257902778
 40
0.5095250087
 40
0.6331869503
 40
0.7566243882
 40
1.0
 40
1.0
 40
1.0
 40
1.0
 10
145.435639965
 20
340.1970366512
 30
0.0
 10
145.3641253639
 20
339.997714858
 30
0.0
 10
145.2052355517
 20
339.6084062625
 30
0.0
 10
144.8908006508
 20
339.1838631315
 30
0.0
 10
144.5729055944
 20
338.9226467017
 30
0.0
 10
144.229702729
 20
338.7131341892
 30
0.0
 10
143.9294776853
 20
338.6168258327
 30
0.0
 10
143.7296449401
 20
338.6159462469
 30
0.0
  0
SPLINE
  5
40C
100
AcDbEntity
  8
0
100
AcDbSpline
 62
7
  6
CONTINUOUS
 70
0
 71
3
 72
11
 73
7
 74
0
 42
0.0000001
 43
0.0000001
 44
0.0000000001
 40
0.0
 40
0.0
 40
0.0
 40
0.0
 40
0.2458414596
 40
0.5023773187
 40
0.7577177801
 40
1.0
 40
1.0
 40
1.0
 40
1.0
 10
144.0698398258
 20
334.4033447866
 30
0.0
 10
144.4426834217
 20
334.529972838
 30
0.0
 10
145.169546428
 20
334.9076801668
 30
0.0
 10
146.0392105606
 20
335.7816409204
 30
0.0
 10
146.5999302428
 20
336.8724234948
 30
0.0
 10
146.7429398786
 20
337.6696072911
 30
0.0
 10
146.756269526
 20
338.0574376087
 30
0.0
  0
SPLINE
  5
40D
100
AcDbEntity
  8
0
100
AcDbSpline
 62
7
  6
CONTINUOUS
 70
0
 71
3
 72
9
 73
5
 74
0
 42
0.0000001
 43
0.0000001
 44
0.0000000001
 40
0.0
 40
0.0
 40
0.0
 40
0.0
 40
0.2436103471
 40
1.0
 40
1.0
 40
1.0
 40
1.0
 10
143.729659905
 20
338.6159754056
 30
0.0
 10
143.7419492625
 20
338.6754024236
 30
0.0
 10
143.7857825272
 20
338.9206797121
 30
0.0
 10
143.8062261784
 20
339.1700251357
 30
0.0
 10
143.8092795999
 20
339.3584204154
 30
0.0
  0
SPLINE
  5
40E
100
AcDbEntity
  8
0
100
AcDbSpline
 62
7
  6
CONTINUOUS
 70
0
 71
3
 72
9
 73
5
 74
0
 42
0.0000001
 43
0.0000001
 44
0.0000000001
 40
0.0
 40
0.0
 40
0.0
 40
0.0
 40
0.2830013024
 40
1.0
 40
1.0
 40
1.0
 40
1.0
 10
121.1806857873
 20
334.5382665959
 30
0.0
 10
121.1476816748
 20
334.5351541066
 30
0.0
 10
121.0310950032
 20
334.5238175096
 30
0.0
 10
120.9145918587
 20
334.5114088818
 30
0.0
 10
120.831292528
 20
334.5006702807
 30
0.0
  0
SPLINE
  5
40F
100
AcDbEntity
  8
0
100
AcDbSpline
 62
7
  6
CONTINUOUS
 70
0
 71
3
 72
9
 73
5
 74
0
 42
0.0000001
 43
0.0000001
 44
0.0000000001
 40
0.0
 40
0.0
 40
0.0
 40
0.0
 40
0.3200857418
 40
1.0
 40
1.0
 40
1.0
 40
1.0
 10
120.831292528
 20
334.5006702807
 30
0.0
 10
120.7906071046
 20
334.4954252863
 30
0.0
 10
120.6636570708
 20
334.4776836862
 30
0.0
 10
120.5378055671
 20
334.4530236226
 30
0.0
 10
120.4525196044
 20
334.4351553771
 30
0.0
  0
SPLINE
  5
410
100
AcDbEntity
  8
0
100
AcDbSpline
 62
7
  6
CONTINUOUS
 70
0
 71
3
 72
8
 73
4
 74
0
 42
0.0000001
 43
0.0000001
 44
0.0000000001
 40
0.0
 40
0.0
 40
0.0
 40
0.0
 40
1.0
 40
1.0
 40
1.0
 40
1.0
 10
120.4135744074
 20
334.3980036386
 30
0.0
 10
120.3788506462
 20
334.3901244612
 30
0.0
 10
120.3406528732
 20
334.3920608033
 30
0.0
 10
120.3068898199
 20
334.4033690862
 30
0.0
  0
SPLINE
  5
411
100
AcDbEntity
  8
0
100
AcDbSpline
 62
7
  6
CONTINUOUS
 70
0
 71
3
 72
8
 73
4
 74
0
 42
0.0000001
 43
0.0000001
 44
0.0000000001
 40
0.0
 40
0.0
 40
0.0
 40
0.0
 40
1.0
 40
1.0
 40
1.0
 40
1.0
 10
144.0698323228
 20
334.4033691636
 30
0.0
 10
144.0360693089
 20
334.39206092
 30
0.0
 10
143.9978715963
 20
334.3901245923
 30
0.0
 10
143.9631478829
 20
334.398003755
 30
0.0
  0
SPLINE
  5
412
100
AcDbEntity
  8
0
100
AcDbSpline
 62
7
  6
CONTINUOUS
 70
0
 71
3
 72
9
 73
5
 74
0
 42
0.0000001
 43
0.0000001
 44
0.0000000001
 40
0.0
 40
0.0
 40
0.0
 40
0.0
 40
0.1833757875
 40
1.0
 40
1.0
 40
1.0
 40
1.0
 10
144.0698408859
 20
334.403342861
 30
0.0
 10
144.0608207899
 20
334.40500804
 30
0.0
 10
144.0117400723
 20
334.4146825327
 30
0.0
 10
143.9630942102
 20
334.4263889675
 30
0.0
 10
143.9232310186
 20
334.435303412
 30
0.0
  0
SPLINE
  5
413
100
AcDbEntity
  8
0
100
AcDbSpline
 62
7
  6
CONTINUOUS
 70
0
 71
3
 72
9
 73
5
 74
0
 42
0.0000001
 43
0.0000001
 44
0.0000000001
 40
0.0
 40
0.0
 40
0.0
 40
0.0
 40
0.185780284
 40
1.0
 40
1.0
 40
1.0
 40
1.0
 10
143.9232310186
 20
334.435303412
 30
0.0
 10
143.9006411062
 20
334.4403551029
 30
0.0
 10
143.7788870248
 20
334.4668508197
 30
0.0
 10
143.6555533931
 20
334.4858387451
 30
0.0
 10
143.5548985693
 20
334.4985175473
 30
0.0
  0
SPLINE
  5
414
100
AcDbEntity
  8
0
100
AcDbSpline
 62
7
  6
CONTINUOUS
 70
0
 71
3
 72
9
 73
5
 74
0
 42
0.0000001
 43
0.0000001
 44
0.0000000001
 40
0.0
 40
0.0
 40
0.0
 40
0.0
 40
0.2169040385
 40
1.0
 40
1.0
 40
1.0
 40
1.0
 10
143.5548985693
 20
334.4985175473
 30
0.0
 10
143.5272967107
 20
334.5019943653
 30
0.0
 10
143.3999484002
 20
334.5172727062
 30
0.0
 10
143.2723474922
 20
334.5303598971
 30
0.0
 10
143.1723814739
 20
334.5400997632
 30
0.0
  0
SPLINE
  5
415
100
AcDbEntity
  8
0
100
AcDbSpline
 62
7
  6
CONTINUOUS
 70
0
 71
3
 72
9
 73
5
 74
0
 42
0.0000001
 43
0.0000001
 44
0.0000000001
 40
0.0
 40
0.0
 40
0.0
 40
0.0
 40
0.2033475192
 40
1.0
 40
1.0
 40
1.0
 40
1.0
 10
676.707929171
 20
360.1970327273
 30
0.0
 10
676.7356754747
 20
360.1970553924
 30
0.0
 10
676.8727734749
 20
360.1692718366
 30
0.0
 10
676.9712494337
 20
360.0554425301
 30
0.0
 10
677.0355578773
 20
359.9678044786
 30
0.0
  0
SPLINE
  5
416
100
AcDbEntity
  8
0
100
AcDbSpline
 62
7
  6
CONTINUOUS
 70
0
 71
3
 72
9
 73
5
 74
0
 42
0.0000001
 43
0.0000001
 44
0.0000000001
 40
0.0
 40
0.0
 40
0.0
 40
0.0
 40
0.2099387141
 40
1.0
 40
1.0
 40
1.0
 40
1.0
 10
677.0355578773
 20
359.9678044786
 30
0.0
 10
677.0654165014
 20
359.9271138399
 30
0.0
 10
677.1960470411
 20
359.7248347707
 30
0.0
 10
677.2954557133
 20
359.5045404057
 30
0.0
 10
677.3691987788
 20
359.3295051992
 30
0.0
  0
SPLINE
  5
417
100
AcDbEntity
  8
0
100
AcDbSpline
 62
7
  6
CONTINUOUS
 70
0
 71
3
 72
8
 73
4
 74
0
 42
0.0000001
 43
0.0000001
 44
0.0000000001
 40
0.0
 40
0.0
 40
0.0
 40
0.0
 40
1.0
 40
1.0
 40
1.0
 40
1.0
 10
677.4621329864
 20
359.100274336
 30
0.0
 10
677.5201064034
 20
358.9524771977
 30
0.0
 10
677.5755022842
 20
358.8036737935
 30
0.0
 10
677.6304028221
 20
358.6547078844
 30
0.0
  0
LINE
  5
418
100
AcDbEntity
  8
0
100
AcDbLine
 62
7
  6
CONTINUOUS
 10
677.6304028221
 20
358.6547078844
 11
677.6883611721
 21
358.4970356897
  0
LINE
  5
419
100
AcDbEntity
  8
0
100
AcDbLine
 62
7
  6
CONTINUOUS
 10
83.6883611721
 20
358.4970356897
 11
83.7467412394
 21
358.6558499238
  0
SPLINE
  5
41A
100
AcDbEntity
  8
0
100
AcDbSpline
 62
7
  6
CONTINUOUS
 70
0
 71
3
 72
8
 73
4
 74
0
 42
0.0000001
 43
0.0000001
 44
0.0000000001
 40
0.0
 40
0.0
 40
0.0
 40
0.0
 40
1.0
 40
1.0
 40
1.0
 40
1.0
 10
83.7467412394
 20
358.6558499238
 30
0.0
 10
83.8020590707
 20
358.805935405
 30
0.0
 10
83.857884073
 20
358.9558548045
 30
0.0
 10
83.916346911
 20
359.1047433894
 30
0.0
  0
SPLINE
  5
41B
100
AcDbEntity
  8
0
100
AcDbSpline
 62
7
  6
CONTINUOUS
 70
0
 71
3
 72
9
 73
5
 74
0
 42
0.0000001
 43
0.0000001
 44
0.0000000001
 40
0.0
 40
0.0
 40
0.0
 40
0.0
 40
0.2882269901
 40
1.0
 40
1.0
 40
1.0
 40
1.0
 10
84.0112491415
 20
359.338347868
 30
0.0
 10
84.0380890488
 20
359.4018435191
 30
0.0
 10
84.1345625635
 20
359.6203104264
 30
0.0
 10
84.243477954
 20
359.836055633
 30
0.0
 10
84.3448343153
 20
359.9728285024
 30
0.0
  0
SPLINE
  5
41C
100
AcDbEntity
  8
0
100
AcDbSpline
 62
7
  6
CONTINUOUS
 70
0
 71
3
 72
8
 73
4
 74
0
 42
0.0000001
 43
0.0000001
 44
0.0000000001
 40
0.0
 40
0.0
 40
0.0
 40
0.0
 40
1.0
 40
1.0
 40
1.0
 40
1.0
 10
84.3448343153
 20
359.9728285024
 30
0.0
 10
84.3875991638
 20
360.0305364841
 30
0.0
 10
84.4356516327
 20
360.085992643
 30
0.0
 10
84.4928791234
 20
360.1293983769
 30
0.0
  0
SPLINE
  5
41D
100
AcDbEntity
  8
0
100
AcDbSpline
 62
7
  6
CONTINUOUS
 70
0
 71
3
 72
8
 73
4
 74
0
 42
0.0000001
 43
0.0000001
 44
0.0000000001
 40
0.0
 40
0.0
 40
0.0
 40
0.0
 40
1.0
 40
1.0
 40
1.0
 40
1.0
 10
84.4928791234
 20
360.1293983769
 30
0.0
 10
84.5429408298
 20
360.1673690283
 30
0.0
 10
84.6059919406
 20
360.1970064127
 30
0.0
 10
84.6688246073
 20
360.1970348315
 30
0.0
  0
SPLINE
  5
41E
100
AcDbEntity
  8
0
100
AcDbSpline
 62
7
  6
CONTINUOUS
 70
0
 71
3
 72
9
 73
5
 74
0
 42
0.0000001
 43
0.0000001
 44
0.0000000001
 40
0.0
 40
0.0
 40
0.0
 40
0.0
 40
0.2335981365
 40
1.0
 40
1.0
 40
1.0
 40
1.0
 10
669.0828467821
 20
340.775749148
 30
0.0
 10
669.141362963
 20
340.8257873866
 30
0.0
 10
669.385575043
 20
341.0473596272
 30
0.0
 10
669.6075765774
 20
341.2923810203
 30
0.0
 10
669.7696527671
 20
341.4861336007
 30
0.0
  0
SPLINE
  5
41F
100
AcDbEntity
  8
0
100
AcDbSpline
 62
7
  6
CONTINUOUS
 70
0
 71
3
 72
8
 73
4
 74
0
 42
0.0000001
 43
0.0000001
 44
0.0000000001
 40
0.0
 40
0.0
 40
0.0
 40
0.0
 40
1.0
 40
1.0
 40
1.0
 40
1.0
 10
669.7696527671
 20
341.4861336007
 30
0.0
 10
670.0125250081
 20
341.7764731224
 30
0.0
 10
670.2380207371
 20
342.0813439442
 30
0.0
 10
670.4564586153
 20
342.3904860744
 30
0.0
  0
SPLINE
  5
420
100
AcDbEntity
  8
0
100
AcDbSpline
 62
7
  6
CONTINUOUS
 70
0
 71
3
 72
8
 73
4
 74
0
 42
0.0000001
 43
0.0000001
 44
0.0000000001
 40
0.0
 40
0.0
 40
0.0
 40
0.0
 40
1.0
 40
1.0
 40
1.0
 40
1.0
 10
670.4564586153
 20
342.3904860744
 30
0.0
 10
670.690853647
 20
342.7222114145
 30
0.0
 10
670.9170017633
 20
343.0597111268
 30
0.0
 10
671.1432646002
 20
343.3970356897
 30
0.0
  0
SPLINE
  5
421
100
AcDbEntity
  8
0
100
AcDbSpline
 62
7
  6
CONTINUOUS
 70
0
 71
3
 72
8
 73
4
 74
0
 42
0.0000001
 43
0.0000001
 44
0.0000000001
 40
0.0
 40
0.0
 40
0.0
 40
0.0
 40
1.0
 40
1.0
 40
1.0
 40
1.0
 10
90.233457744
 20
343.3970356897
 30
0.0
 10
90.4597205808
 20
343.0597111267
 30
0.0
 10
90.6858686972
 20
342.7222114145
 30
0.0
 10
90.9202637289
 20
342.3904860744
 30
0.0
  0
SPLINE
  5
422
100
AcDbEntity
  8
0
100
AcDbSpline
 62
7
  6
CONTINUOUS
 70
0
 71
3
 72
9
 73
5
 74
0
 42
0.0000001
 43
0.0000001
 44
0.0000000001
 40
0.0
 40
0.0
 40
0.0
 40
0.0
 40
0.7610597797
 40
1.0
 40
1.0
 40
1.0
 40
1.0
 10
90.9202637289
 20
342.3904860744
 30
0.0
 10
91.0951259697
 20
342.1430139507
 30
0.0
 10
91.3309085743
 20
341.8217681532
 30
0.0
 10
91.5833557088
 20
341.5137998211
 30
0.0
 10
91.6448787056
 20
341.4412362896
 30
0.0
  0
SPLINE
  5
423
100
AcDbEntity
  8
0
100
AcDbSpline
 62
7
  6
CONTINUOUS
 70
0
 71
3
 72
8
 73
4
 74
0
 42
0.0000001
 43
0.0000001
 44
0.0000000001
 40
0.0
 40
0.0
 40
0.0
 40
0.0
 40
1.0
 40
1.0
 40
1.0
 40
1.0
 10
91.8430385194
 20
341.2161753344
 30
0.0
 10
91.9850190516
 20
341.0613266553
 30
0.0
 10
92.1342059079
 20
340.9122855406
 30
0.0
 10
92.2938755621
 20
340.775749148
 30
0.0
  0
SPLINE
  5
424
100
AcDbEntity
  8
0
100
AcDbSpline
 62
7
  6
CONTINUOUS
 70
0
 71
3
 72
9
 73
5
 74
0
 42
0.0000001
 43
0.0000001
 44
0.0000000001
 40
0.0
 40
0.0
 40
0.0
 40
0.0
 40
0.288508265
 40
1.0
 40
1.0
 40
1.0
 40
1.0
 10
92.2938755621
 20
340.775749148
 30
0.0
 10
92.3418143205
 20
340.7162551267
 30
0.0
 10
92.5142624352
 20
340.5166414959
 30
0.0
 10
92.7235327916
 20
340.3386385372
 30
0.0
 10
92.8961700479
 20
340.2631458419
 30
0.0
  0
SPLINE
  5
425
100
AcDbEntity
  8
0
100
AcDbSpline
 62
7
  6
CONTINUOUS
 70
0
 71
3
 72
8
 73
4
 74
0
 42
0.0000001
 43
0.0000001
 44
0.0000000001
 40
0.0
 40
0.0
 40
0.0
 40
0.0
 40
1.0
 40
1.0
 40
1.0
 40
1.0
 10
92.8961700479
 20
340.2631458419
 30
0.0
 10
92.9903333234
 20
340.2219691016
 30
0.0
 10
93.0945445063
 20
340.1970356897
 30
0.0
 10
93.1973172965
 20
340.1970356897
 30
0.0
  0
SPLINE
  5
426
100
AcDbEntity
  8
0
100
AcDbSpline
 62
7
  6
CONTINUOUS
 70
0
 71
3
 72
9
 73
5
 74
0
 42
0.0000001
 43
0.0000001
 44
0.0000000001
 40
0.0
 40
0.0
 40
0.0
 40
0.0
 40
0.2087843592
 40
1.0
 40
1.0
 40
1.0
 40
1.0
 10
668.1794050477
 20
340.1970356897
 30
0.0
 10
668.2556985935
 20
340.1970356897
 30
0.0
 10
668.6231042944
 20
340.2631503419
 30
0.0
 10
668.9014406476
 20
340.5506164832
 30
0.0
 10
669.0828467821
 20
340.775749148
 30
0.0
  0
SPLINE
  5
427
100
AcDbEntity
  8
0
100
AcDbSpline
 62
7
  6
CONTINUOUS
 70
0
 71
3
 72
8
 73
4
 74
0
 42
0.0000001
 43
0.0000001
 44
0.0000000001
 40
0.0
 40
0.0
 40
0.0
 40
0.0
 40
1.0
 40
1.0
 40
1.0
 40
1.0
 10
659.8964430174
 20
364.7073362735
 30
0.0
 10
660.0155044677
 20
364.8295220131
 30
0.0
 10
660.1345675972
 20
364.9517118315
 30
0.0
 10
660.2546607819
 20
365.0728836553
 30
0.0
  0
SPLINE
  5
428
100
AcDbEntity
  8
0
100
AcDbSpline
 62
7
  6
CONTINUOUS
 70
0
 71
3
 72
8
 73
4
 74
0
 42
0.0000001
 43
0.0000001
 44
0.0000000001
 40
0.0
 40
0.0
 40
0.0
 40
0.0
 40
1.0
 40
1.0
 40
1.0
 40
1.0
 10
660.2546607819
 20
365.0728836553
 30
0.0
 10
660.3903105513
 20
365.2097517881
 30
0.0
 10
660.5272715565
 20
365.3453812558
 30
0.0
 10
660.6672128353
 20
365.4778583641
 30
0.0
  0
SPLINE
  5
429
100
AcDbEntity
  8
0
100
AcDbSpline
 62
7
  6
CONTINUOUS
 70
0
 71
3
 72
9
 73
5
 74
0
 42
0.0000001
 43
0.0000001
 44
0.0000000001
 40
0.0
 40
0.0
 40
0.0
 40
0.0
 40
0.2668579165
 40
1.0
 40
1.0
 40
1.0
 40
1.0
 10
660.6672128353
 20
365.4778583641
 30
0.0
 10
660.7611876307
 20
365.5668207435
 30
0.0
 10
661.1182360306
 20
365.8942251221
 30
0.0
 10
661.5035746022
 20
366.1964828857
 30
0.0
 10
661.8128164479
 20
366.371869403
 30
0.0
  0
SPLINE
  5
42A
100
AcDbEntity
  8
0
100
AcDbSpline
 62
7
  6
CONTINUOUS
 70
0
 71
3
 72
9
 73
5
 74
0
 42
0.0000001
 43
0.0000001
 44
0.0000000001
 40
0.0
 40
0.0
 40
0.0
 40
0.0
 40
0.267411545
 40
1.0
 40
1.0
 40
1.0
 40
1.0
 10
661.8128164479
 20
366.371869403
 30
0.0
 10
661.9058859798
 20
366.4246537893
 30
0.0
 10
662.2621516678
 20
366.6055882195
 30
0.0
 10
662.6648678169
 20
366.7073323011
 30
0.0
 10
662.957988982
 20
366.7073323011
 30
0.0
  0
SPLINE
  5
42B
100
AcDbEntity
  8
0
100
AcDbSpline
 62
7
  6
CONTINUOUS
 70
0
 71
3
 72
9
 73
5
 74
0
 42
0.0000001
 43
0.0000001
 44
0.0000000001
 40
0.0
 40
0.0
 40
0.0
 40
0.0
 40
0.3684247479
 40
1.0
 40
1.0
 40
1.0
 40
1.0
 10
83.7317949738
 20
743.7073323011
 30
0.0
 10
83.5502577769
 20
743.7073323011
 30
0.0
 10
83.1263018879
 20
743.3268376982
 30
0.0
 10
82.9343697616
 20
742.8925181626
 30
0.0
 10
82.8070765201
 20
742.6085411971
 30
0.0
  0
SPLINE
  5
42C
100
AcDbEntity
  8
0
100
AcDbSpline
 62
7
  6
CONTINUOUS
 70
0
 71
3
 72
9
 73
5
 74
0
 42
0.0000001
 43
0.0000001
 44
0.0000000001
 40
0.0
 40
0.0
 40
0.0
 40
0.0
 40
0.2312192843
 40
1.0
 40
1.0
 40
1.0
 40
1.0
 10
82.8070765201
 20
742.6085411971
 30
0.0
 10
82.7723961618
 20
742.5311732016
 30
0.0
 10
82.6276450081
 20
742.1942126329
 30
0.0
 10
82.4989282347
 20
741.8506157675
 30
0.0
 10
82.4036352564
 20
741.5853081246
 30
0.0
  0
SPLINE
  5
42D
100
AcDbEntity
  8
0
100
AcDbSpline
 62
7
  6
CONTINUOUS
 70
0
 71
3
 72
8
 73
4
 74
0
 42
0.0000001
 43
0.0000001
 44
0.0000000001
 40
0.0
 40
0.0
 40
0.0
 40
0.0
 40
1.0
 40
1.0
 40
1.0
 40
1.0
 10
82.4036352564
 20
741.5853081246
 30
0.0
 10
82.2751473226
 20
741.2275815484
 30
0.0
 10
82.1535710669
 20
740.867399011
 30
0.0
 10
82.0317949738
 20
740.5073323012
 30
0.0
  0
SPLINE
  5
42E
100
AcDbEntity
  8
0
100
AcDbSpline
 62
7
  6
CONTINUOUS
 70
0
 71
3
 72
8
 73
4
 74
0
 42
0.0000001
 43
0.0000001
 44
0.0000000001
 40
0.0
 40
0.0
 40
0.0
 40
0.0
 40
1.0
 40
1.0
 40
1.0
 40
1.0
 10
679.0317949738
 20
740.5073323012
 30
0.0
 10
678.9100194085
 20
740.8673974506
 30
0.0
 10
678.7884436809
 20
741.2275784267
 30
0.0
 10
678.6599563614
 20
741.5853034731
 30
0.0
  0
SPLINE
  5
42F
100
AcDbEntity
  8
0
100
AcDbSpline
 62
7
  6
CONTINUOUS
 70
0
 71
3
 72
9
 73
5
 74
0
 42
0.0000001
 43
0.0000001
 44
0.0000000001
 40
0.0
 40
0.0
 40
0.0
 40
0.0
 40
0.2783452302
 40
1.0
 40
1.0
 40
1.0
 40
1.0
 10
678.6599563614
 20
741.5853034731
 30
0.0
 10
678.6130897952
 20
741.7157859565
 30
0.0
 10
678.4407799777
 20
742.1828740729
 30
0.0
 10
678.2524094003
 20
742.6459716819
 30
0.0
 10
678.0846042186
 20
742.9638562894
 30
0.0
  0
SPLINE
  5
430
100
AcDbEntity
  8
0
100
AcDbSpline
 62
7
  6
CONTINUOUS
 70
0
 71
3
 72
9
 73
5
 74
0
 42
0.0000001
 43
0.0000001
 44
0.0000000001
 40
0.0
 40
0.0
 40
0.0
 40
0.0
 40
0.3430044071
 40
1.0
 40
1.0
 40
1.0
 40
1.0
 10
678.0846042186
 20
742.9638562894
 30
0.0
 10
678.0271497564
 20
743.0726961296
 30
0.0
 10
677.857182021
 20
743.3704252316
 30
0.0
 10
677.567532041
 20
743.7073323011
 30
0.0
 10
677.3317949738
 20
743.7073323011
 30
0.0
  0
SPLINE
  5
431
100
AcDbEntity
  8
0
100
AcDbSpline
 62
7
  6
CONTINUOUS
 70
0
 71
3
 72
9
 73
5
 74
0
 42
0.0000001
 43
0.0000001
 44
0.0000000001
 40
0.0
 40
0.0
 40
0.0
 40
0.0
 40
0.3684247479
 40
1.0
 40
1.0
 40
1.0
 40
1.0
 10
677.3317949738
 20
366.7073323011
 30
0.0
 10
677.5133321707
 20
366.7073323011
 30
0.0
 10
677.9372880597
 20
367.0878269041
 30
0.0
 10
678.1292201861
 20
367.5221464397
 30
0.0
 10
678.2565134275
 20
367.8061234052
 30
0.0
  0
SPLINE
  5
432
100
AcDbEntity
  8
0
100
AcDbSpline
 62
7
  6
CONTINUOUS
 70
0
 71
3
 72
9
 73
5
 74
0
 42
0.0000001
 43
0.0000001
 44
0.0000000001
 40
0.0
 40
0.0
 40
0.0
 40
0.0
 40
0.2312192843
 40
1.0
 40
1.0
 40
1.0
 40
1.0
 10
678.2565134275
 20
367.8061234052
 30
0.0
 10
678.2911937858
 20
367.8834914006
 30
0.0
 10
678.4359449395
 20
368.2204519694
 30
0.0
 10
678.5646617129
 20
368.5640488348
 30
0.0
 10
678.6599546912
 20
368.8293564778
 30
0.0
  0
SPLINE
  5
433
100
AcDbEntity
  8
0
100
AcDbSpline
 62
7
  6
CONTINUOUS
 70
0
 71
3
 72
8
 73
4
 74
0
 42
0.0000001
 43
0.0000001
 44
0.0000000001
 40
0.0
 40
0.0
 40
0.0
 40
0.0
 40
1.0
 40
1.0
 40
1.0
 40
1.0
 10
678.6599546912
 20
368.8293564778
 30
0.0
 10
678.788442625
 20
369.1870830539
 30
0.0
 10
678.9100188807
 20
369.5472655913
 30
0.0
 10
679.0317949738
 20
369.9073323011
 30
0.0
  0
SPLINE
  5
434
100
AcDbEntity
  8
0
100
AcDbSpline
 62
7
  6
CONTINUOUS
 70
0
 71
3
 72
8
 73
4
 74
0
 42
0.0000001
 43
0.0000001
 44
0.0000000001
 40
0.0
 40
0.0
 40
0.0
 40
0.0
 40
1.0
 40
1.0
 40
1.0
 40
1.0
 10
82.0317949738
 20
369.9073323011
 30
0.0
 10
82.1535705391
 20
369.5472671517
 30
0.0
 10
82.2751462667
 20
369.1870861756
 30
0.0
 10
82.4036335863
 20
368.8293611292
 30
0.0
  0
SPLINE
  5
435
100
AcDbEntity
  8
0
100
AcDbSpline
 62
7
  6
CONTINUOUS
 70
0
 71
3
 72
9
 73
5
 74
0
 42
0.0000001
 43
0.0000001
 44
0.0000000001
 40
0.0
 40
0.0
 40
0.0
 40
0.0
 40
0.2783452302
 40
1.0
 40
1.0
 40
1.0
 40
1.0
 10
82.4036335863
 20
368.8293611292
 30
0.0
 10
82.4505001524
 20
368.6988786458
 30
0.0
 10
82.6228099699
 20
368.2317905294
 30
0.0
 10
82.8111805474
 20
367.7686929204
 30
0.0
 10
82.978985729
 20
367.4508083129
 30
0.0
  0
SPLINE
  5
436
100
AcDbEntity
  8
0
100
AcDbSpline
 62
7
  6
CONTINUOUS
 70
0
 71
3
 72
9
 73
5
 74
0
 42
0.0000001
 43
0.0000001
 44
0.0000000001
 40
0.0
 40
0.0
 40
0.0
 40
0.0
 40
0.3430044071
 40
1.0
 40
1.0
 40
1.0
 40
1.0
 10
82.978985729
 20
367.4508083129
 30
0.0
 10
83.0364401913
 20
367.3419684727
 30
0.0
 10
83.2064079267
 20
367.0442393707
 30
0.0
 10
83.4960579066
 20
366.7073323011
 30
0.0
 10
83.7317949738
 20
366.7073323011
 30
0.0
  0
SPLINE
  5
437
100
AcDbEntity
  8
0
100
AcDbSpline
 62
7
  6
CONTINUOUS
 70
0
 71
3
 72
9
 73
5
 74
0
 42
0.0000001
 43
0.0000001
 44
0.0000000001
 40
0.0
 40
0.0
 40
0.0
 40
0.0
 40
0.7325943329
 40
1.0
 40
1.0
 40
1.0
 40
1.0
 10
98.1056009656
 20
366.7073323011
 30
0.0
 10
98.3986542735
 20
366.7073323011
 30
0.0
 10
98.8012748817
 20
366.6056388667
 30
0.0
 10
99.1574704138
 20
366.424776392
 30
0.0
 10
99.2505199611
 20
366.3720134839
 30
0.0
  0
SPLINE
  5
438
100
AcDbEntity
  8
0
100
AcDbSpline
 62
7
  6
CONTINUOUS
 70
0
 71
3
 72
9
 73
5
 74
0
 42
0.0000001
 43
0.0000001
 44
0.0000000001
 40
0.0
 40
0.0
 40
0.0
 40
0.0
 40
0.2284796376
 40
1.0
 40
1.0
 40
1.0
 40
1.0
 10
99.2505199611
 20
366.3720134839
 30
0.0
 10
99.3852131136
 20
366.2956369444
 30
0.0
 10
99.951622802
 20
365.920333302
 30
0.0
 10
100.4408595785
 20
365.4442585537
 30
0.0
 10
100.8089205285
 20
365.0728921988
 30
0.0
  0
SPLINE
  5
439
100
AcDbEntity
  8
0
100
AcDbSpline
 62
7
  6
CONTINUOUS
 70
0
 71
3
 72
8
 73
4
 74
0
 42
0.0000001
 43
0.0000001
 44
0.0000000001
 40
0.0
 40
0.0
 40
0.0
 40
0.0
 40
1.0
 40
1.0
 40
1.0
 40
1.0
 10
100.8089205285
 20
365.0728921988
 30
0.0
 10
100.9290166297
 20
364.9517175636
 30
0.0
 10
101.0480826093
 20
364.8295248671
 30
0.0
 10
101.1671469032
 20
364.7073362438
 30
0.0
  0
LINE
  5
43A
100
AcDbEntity
  8
0
100
AcDbLine
 62
7
  6
CONTINUOUS
 10
110.4381105984
 20
346.0300875682
 11
110.4400670749
 21
346.0455749048
  0
LINE
  5
43B
100
AcDbEntity
  8
0
100
AcDbLine
 62
7
  6
CONTINUOUS
 10
128.9528768513
 20
350.2040551349
 11
129.0488936645
 21
350.1481632686
  0
LINE
  5
43C
100
AcDbEntity
  8
0
100
AcDbLine
 62
7
  6
CONTINUOUS
 10
135.3278286799
 20
350.1481632686
 11
135.391824109
 21
350.1854511942
  0
LINE
  5
43D
100
AcDbEntity
  8
0
100
AcDbLine
 62
7
  6
CONTINUOUS
 10
129.1145700755
 20
349.8748258811
 11
129.0276103155
 21
349.9246438226
  0
LINE
  5
43E
100
AcDbEntity
  8
0
100
AcDbLine
 62
7
  6
CONTINUOUS
 10
135.3491107572
 20
349.9246485687
 11
135.2621522688
 21
349.8748258812
  0
SPLINE
  5
43F
100
AcDbEntity
  8
0
100
AcDbSpline
 62
7
  6
CONTINUOUS
 70
0
 71
3
 72
8
 73
4
 74
0
 42
0.0000001
 43
0.0000001
 44
0.0000000001
 40
0.0
 40
0.0
 40
0.0
 40
0.0
 40
1.0
 40
1.0
 40
1.0
 40
1.0
 10
129.1829543257
 20
350.1801857225
 30
0.0
 10
129.1657350072
 20
350.1562746491
 30
0.0
 10
129.1307658328
 20
350.125646957
 30
0.0
 10
129.1046168641
 20
350.1392291437
 30
0.0
  0
SPLINE
  5
440
100
AcDbEntity
  8
0
100
AcDbSpline
 62
7
  6
CONTINUOUS
 70
0
 71
3
 72
8
 73
4
 74
0
 42
0.0000001
 43
0.0000001
 44
0.0000000001
 40
0.0
 40
0.0
 40
0.0
 40
0.0
 40
1.0
 40
1.0
 40
1.0
 40
1.0
 10
129.1145700755
 20
349.8748258811
 30
0.0
 10
129.1406083174
 20
349.8600086735
 30
0.0
 10
129.1880140017
 20
349.8486167307
 30
0.0
 10
129.2044395615
 20
349.8736714841
 30
0.0
  0
SPLINE
  5
441
100
AcDbEntity
  8
0
100
AcDbSpline
 62
7
  6
CONTINUOUS
 70
0
 71
3
 72
9
 73
5
 74
0
 42
0.0000001
 43
0.0000001
 44
0.0000000001
 40
0.0
 40
0.0
 40
0.0
 40
0.0
 40
0.5038587119
 40
1.0
 40
1.0
 40
1.0
 40
1.0
 10
128.9528768513
 20
350.2040551349
 30
0.0
 10
128.931109617
 20
350.2167812264
 30
0.0
 10
128.8756639462
 20
350.2253966421
 30
0.0
 10
128.8310554629
 20
350.1916420684
 30
0.0
 10
128.8180407167
 20
350.1704983737
 30
0.0
  0
SPLINE
  5
442
100
AcDbEntity
  8
0
100
AcDbSpline
 62
7
  6
CONTINUOUS
 70
0
 71
3
 72
9
 73
5
 74
0
 42
0.0000001
 43
0.0000001
 44
0.0000000001
 40
0.0
 40
0.0
 40
0.0
 40
0.0
 40
0.4985048902
 40
1.0
 40
1.0
 40
1.0
 40
1.0
 10
128.8900165612
 20
349.8863436941
 30
0.0
 10
128.9023017813
 20
349.9090215428
 30
0.0
 10
128.9473950962
 20
349.9460947614
 30
0.0
 10
129.0052151602
 20
349.9377462187
 30
0.0
 10
129.0276103155
 20
349.9246438226
 30
0.0
  0
SPLINE
  5
443
100
AcDbEntity
  8
0
100
AcDbSpline
 62
7
  6
CONTINUOUS
 70
0
 71
3
 72
10
 73
6
 74
0
 42
0.0000001
 43
0.0000001
 44
0.0000000001
 40
0.0
 40
0.0
 40
0.0
 40
0.0
 40
0.3366635044
 40
0.6655531994
 40
1.0
 40
1.0
 40
1.0
 40
1.0
 10
128.8892382885
 20
349.8859700094
 30
0.0
 10
128.8816386813
 20
349.9179807564
 30
0.0
 10
128.8663367199
 20
349.9812069154
 30
0.0
 10
128.839969378
 20
350.0753209561
 30
0.0
 10
128.8247198102
 20
350.1383376616
 30
0.0
 10
128.8172310165
 20
350.1701520065
 30
0.0
  0
SPLINE
  5
444
100
AcDbEntity
  8
0
100
AcDbSpline
 62
7
  6
CONTINUOUS
 70
0
 71
3
 72
10
 73
6
 74
0
 42
0.0000001
 43
0.0000001
 44
0.0000000001
 40
0.0
 40
0.0
 40
0.0
 40
0.0
 40
0.3321953537
 40
0.6655071467
 40
1.0
 40
1.0
 40
1.0
 40
1.0
 10
128.2433852754
 20
348.41209441
 30
0.0
 10
128.2651291797
 20
348.3969915301
 30
0.0
 10
128.3088420132
 20
348.3669541252
 30
0.0
 10
128.3746418662
 20
348.3219909488
 30
0.0
 10
128.4186761988
 20
348.292099538
 30
0.0
 10
128.4408083548
 20
348.277240518
 30
0.0
  0
SPLINE
  5
445
100
AcDbEntity
  8
0
100
AcDbSpline
 62
7
  6
CONTINUOUS
 70
0
 71
3
 72
14
 73
10
 74
0
 42
0.0000001
 43
0.0000001
 44
0.0000000001
 40
0.0
 40
0.0
 40
0.0
 40
0.0
 40
0.1397254746
 40
0.2772024193
 40
0.4240952595
 40
0.5798986279
 40
0.7268624275
 40
0.8631677304
 40
1.0
 40
1.0
 40
1.0
 40
1.0
 10
125.9795762214
 20
343.8341581767
 30
0.0
 10
125.9795660151
 20
343.8006598065
 30
0.0
 10
125.9906477366
 20
343.7336226791
 30
0.0
 10
126.040411504
 20
343.6429022366
 30
0.0
 10
126.1208497772
 20
343.5711903066
 30
0.0
 10
126.2241088157
 20
343.5320862574
 30
0.0
 10
126.3316211487
 20
343.5325110052
 30
0.0
 10
126.4280354277
 20
343.5671484008
 30
0.0
 10
126.4802871231
 20
343.6089064907
 30
0.0
 10
126.5022322589
 20
343.633290136
 30
0.0
  0
SPLINE
  5
446
100
AcDbEntity
  8
0
100
AcDbSpline
 62
7
  6
CONTINUOUS
 70
0
 71
3
 72
12
 73
8
 74
0
 42
0.0000001
 43
0.0000001
 44
0.0000000001
 40
0.0
 40
0.0
 40
0.0
 40
0.0
 40
0.1859340187
 40
0.3946950072
 40
0.6114224912
 40
0.8183075787
 40
1.0
 40
1.0
 40
1.0
 40
1.0
 10
128.4881436761
 20
345.839869792
 30
0.0
 10
128.510411172
 20
345.8636333506
 30
0.0
 10
128.5683750815
 20
345.904571285
 30
0.0
 10
128.67353783
 20
345.933326021
 30
0.0
 10
128.7860941822
 20
345.9267827203
 30
0.0
 10
128.8862805048
 20
345.8860863047
 30
0.0
 10
128.9372868161
 20
345.8383027003
 30
0.0
 10
128.9558539612
 20
345.8124575096
 30
0.0
  0
SPLINE
  5
447
100
AcDbEntity
  8
0
100
AcDbSpline
 62
7
  6
CONTINUOUS
 70
0
 71
3
 72
13
 73
9
 74
0
 42
0.0000001
 43
0.0000001
 44
0.0000000001
 40
0.0
 40
0.0
 40
0.0
 40
0.0
 40
0.1511525162
 40
0.3208832713
 40
0.5008368606
 40
0.6806096314
 40
0.8498441455
 40
1.0
 40
1.0
 40
1.0
 40
1.0
 10
128.9919984904
 20
346.133694113
 30
0.0
 10
128.9774305527
 20
346.1569997183
 30
0.0
 10
128.9379098662
 20
346.2015231446
 30
0.0
 10
128.8577666728
 20
346.247710939
 30
0.0
 10
128.7627455925
 20
346.2699193202
 30
0.0
 10
128.6653678807
 20
346.2650520772
 30
0.0
 10
128.5785779622
 20
346.2340145047
 30
0.0
 10
128.5318596542
 20
346.1975846453
 30
0.0
 10
128.5134375068
 20
346.1774334209
 30
0.0
  0
SPLINE
  5
448
100
AcDbEntity
  8
0
100
AcDbSpline
 62
7
  6
CONTINUOUS
 70
0
 71
3
 72
8
 73
4
 74
0
 42
0.0000001
 43
0.0000001
 44
0.0000000001
 40
0.0
 40
0.0
 40
0.0
 40
0.0
 40
1.0
 40
1.0
 40
1.0
 40
1.0
 10
115.8858650164
 20
345.5245637551
 30
0.0
 10
115.8676495284
 20
345.5025344288
 30
0.0
 10
115.8534229694
 20
345.4774000822
 30
0.0
 10
115.8352074814
 20
345.4553707559
 30
0.0
  0
SPLINE
  5
449
100
AcDbEntity
  8
0
100
AcDbSpline
 62
7
  6
CONTINUOUS
 70
0
 71
3
 72
9
 73
5
 74
0
 42
0.0000001
 43
0.0000001
 44
0.0000000001
 40
0.0
 40
0.0
 40
0.0
 40
0.0
 40
0.5
 40
1.0
 40
1.0
 40
1.0
 40
1.0
 10
116.1655015609
 20
345.8523846608
 30
0.0
 10
116.1182749325
 20
345.7982833198
 30
0.0
 10
116.0256832887
 20
345.688474208
 30
0.0
 10
115.9330916448
 20
345.5786650962
 30
0.0
 10
115.8858650164
 20
345.5245637551
 30
0.0
  0
LINE
  5
44A
100
AcDbEntity
  8
0
100
AcDbLine
 62
7
  6
CONTINUOUS
 10
115.789030312
 20
345.4211110315
 11
115.980086049
 21
343.0970356898
  0
SPLINE
  5
44B
100
AcDbEntity
  8
0
100
AcDbSpline
 62
7
  6
CONTINUOUS
 70
0
 71
3
 72
9
 73
5
 74
0
 42
0.0000001
 43
0.0000001
 44
0.0000000001
 40
0.0
 40
0.0
 40
0.0
 40
0.0
 40
0.5
 40
1.0
 40
1.0
 40
1.0
 40
1.0
 10
115.7979228648
 20
345.4210930923
 30
0.0
 10
115.7645435241
 20
345.7837142024
 30
0.0
 10
115.7021981416
 20
346.5093536431
 30
0.0
 10
115.6398527591
 20
347.2349930838
 30
0.0
 10
115.6064734184
 20
347.597614194
 30
0.0
  0
SPLINE
  5
44C
100
AcDbEntity
  8
0
100
AcDbSpline
 62
7
  6
CONTINUOUS
 70
0
 71
3
 72
10
 73
6
 74
0
 42
0.0000001
 43
0.0000001
 44
0.0000000001
 40
0.0
 40
0.0
 40
0.0
 40
0.0
 40
0.3321629159
 40
0.6672636441
 40
1.0
 40
1.0
 40
1.0
 40
1.0
 10
115.702536754
 20
347.5966059196
 30
0.0
 10
115.7230137105
 20
347.3671667032
 30
0.0
 10
115.7702750036
 20
346.9068379905
 30
0.0
 10
115.8338407663
 20
346.2162267123
 30
0.0
 10
115.8637777473
 20
345.7539929207
 30
0.0
 10
115.8842900548
 20
345.5241576045
 30
0.0
  0
LINE
  5
44D
100
AcDbEntity
  8
0
100
AcDbLine
 62
7
  6
CONTINUOUS
 10
116.0718683319
 20
343.0970356898
 11
115.8793807019
 21
345.5246135982
  0
SPLINE
  5
44E
100
AcDbEntity
  8
0
100
AcDbSpline
 62
7
  6
CONTINUOUS
 70
0
 71
3
 72
10
 73
6
 74
0
 42
0.0000001
 43
0.0000001
 44
0.0000000001
 40
0.0
 40
0.0
 40
0.0
 40
0.0
 40
0.4121986992
 40
0.6909118455
 40
1.0
 40
1.0
 40
1.0
 40
1.0
 10
112.7234069023
 20
345.7705170704
 30
0.0
 10
112.7284209537
 20
345.8113532433
 30
0.0
 10
112.844303426
 20
345.7480064067
 30
0.0
 10
112.9293365395
 20
345.7534746325
 30
0.0
 10
112.9905532953
 20
345.7429643623
 30
0.0
 10
113.0211753664
 20
345.7392124874
 30
0.0
  0
SPLINE
  5
44F
100
AcDbEntity
  8
0
100
AcDbSpline
 62
7
  6
CONTINUOUS
 70
0
 71
3
 72
10
 73
6
 74
0
 42
0.0000001
 43
0.0000001
 44
0.0000000001
 40
0.0
 40
0.0
 40
0.0
 40
0.0
 40
0.3333915799
 40
0.6666871851
 40
1.0
 40
1.0
 40
1.0
 40
1.0
 10
114.7877870151
 20
347.3022743205
 30
0.0
 10
114.9252933313
 20
347.3039298259
 30
0.0
 10
115.2002812334
 20
347.3065475263
 30
0.0
 10
115.6127614247
 20
347.304635605
 30
0.0
 10
115.8877178517
 20
347.3069806214
 30
0.0
 10
116.0251939835
 20
347.3084319967
 30
0.0
  0
SPLINE
  5
450
100
AcDbEntity
  8
0
100
AcDbSpline
 62
7
  6
CONTINUOUS
 70
0
 71
3
 72
11
 73
7
 74
0
 42
0.0000001
 43
0.0000001
 44
0.0000000001
 40
0.0
 40
0.0
 40
0.0
 40
0.0
 40
0.3517487542
 40
0.6259400132
 40
0.8207690087
 40
1.0
 40
1.0
 40
1.0
 40
1.0
 10
123.0437937212
 20
345.3687310731
 30
0.0
 10
123.1515409325
 20
345.3773465566
 30
0.0
 10
123.339574298
 20
345.3956275439
 30
0.0
 10
123.601650309
 20
345.4260389503
 30
0.0
 10
123.768585193
 20
345.4680994412
 30
0.0
 10
123.9405443454
 20
345.4923631769
 30
0.0
 10
123.9386221847
 20
345.5474066559
 30
0.0
  0
SPLINE
  5
451
100
AcDbEntity
  8
0
100
AcDbSpline
 62
7
  6
CONTINUOUS
 70
0
 71
3
 72
8
 73
4
 74
0
 42
0.0000001
 43
0.0000001
 44
0.0000000001
 40
0.0
 40
0.0
 40
0.0
 40
0.0
 40
1.0
 40
1.0
 40
1.0
 40
1.0
 10
122.9206536509
 20
345.3441897133
 30
0.0
 10
122.9191929702
 20
345.3860181366
 30
0.0
 10
123.0020729623
 20
345.3653950775
 30
0.0
 10
123.0437937212
 20
345.3687310731
 30
0.0
  0
SPLINE
  5
452
100
AcDbEntity
  8
0
100
AcDbSpline
 62
7
  6
CONTINUOUS
 70
0
 71
3
 72
8
 73
4
 74
0
 42
0.0000001
 43
0.0000001
 44
0.0000000001
 40
0.0
 40
0.0
 40
0.0
 40
0.0
 40
1.0
 40
1.0
 40
1.0
 40
1.0
 10
122.9967306339
 20
345.3243768236
 30
0.0
 10
122.9707010523
 20
345.3274027464
 30
0.0
 10
122.9215681878
 20
345.3180008044
 30
0.0
 10
122.9206536509
 20
345.3441897133
 30
0.0
  0
SPLINE
  5
453
100
AcDbEntity
  8
0
100
AcDbSpline
 62
7
  6
CONTINUOUS
 70
0
 71
3
 72
10
 73
6
 74
0
 42
0.0000001
 43
0.0000001
 44
0.0000000001
 40
0.0
 40
0.0
 40
0.0
 40
0.0
 40
0.4193476758
 40
0.6952911319
 40
1.0
 40
1.0
 40
1.0
 40
1.0
 10
123.8094291326
 20
345.8742997084
 30
0.0
 10
123.7861973692
 20
345.9091749198
 30
0.0
 10
123.6924463532
 20
345.866210002
 30
0.0
 10
123.5995900757
 20
345.8784622154
 30
0.0
 10
123.5401122065
 20
345.8748961309
 30
0.0
 10
123.509669123
 20
345.8742977521
 30
0.0
  0
SPLINE
  5
454
100
AcDbEntity
  8
0
100
AcDbSpline
 62
7
  6
CONTINUOUS
 70
0
 71
3
 72
10
 73
6
 74
0
 42
0.0000001
 43
0.0000001
 44
0.0000000001
 40
0.0
 40
0.0
 40
0.0
 40
0.0
 40
0.3027635936
 40
0.5771363721
 40
1.0
 40
1.0
 40
1.0
 40
1.0
 10
124.4374626549
 20
345.0625170505
 30
0.0
 10
124.4071869135
 20
345.0619708444
 30
0.0
 10
124.3490902637
 20
345.0620581278
 30
0.0
 10
124.2509945549
 20
345.0532058733
 30
0.0
 10
124.1747535277
 20
345.0723048894
 30
0.0
 10
124.1376298456
 20
345.0520446402
 30
0.0
  0
SPLINE
  5
455
100
AcDbEntity
  8
0
100
AcDbSpline
 62
7
  6
CONTINUOUS
 70
0
 71
3
 72
10
 73
6
 74
0
 42
0.0000001
 43
0.0000001
 44
0.0000000001
 40
0.0
 40
0.0
 40
0.0
 40
0.0
 40
0.422834576
 40
0.6967568914
 40
1.0
 40
1.0
 40
1.0
 40
1.0
 10
124.1351686124
 20
349.1167229087
 30
0.0
 10
124.1729562109
 20
349.1357594478
 30
0.0
 10
124.2484546064
 20
349.1160787809
 30
0.0
 10
124.346855352
 20
349.1230007594
 30
0.0
 10
124.4049526975
 20
349.1219418037
 30
0.0
 10
124.435297363
 20
349.1219600217
 30
0.0
  0
SPLINE
  5
456
100
AcDbEntity
  8
0
100
AcDbSpline
 62
7
  6
CONTINUOUS
 70
0
 71
3
 72
9
 73
5
 74
0
 42
0.0000001
 43
0.0000001
 44
0.0000000001
 40
0.0
 40
0.0
 40
0.0
 40
0.0
 40
0.49992666
 40
1.0
 40
1.0
 40
1.0
 40
1.0
 10
118.1402621133
 20
349.5158906801
 30
0.0
 10
118.2167402195
 20
349.5158332427
 30
0.0
 10
118.3760184587
 20
349.4517400389
 30
0.0
 10
118.4399902567
 20
349.2924370593
 30
0.0
 10
118.440036855
 20
349.2159365068
 30
0.0
  0
SPLINE
  5
457
100
AcDbEntity
  8
0
100
AcDbSpline
 62
7
  6
CONTINUOUS
 70
0
 71
3
 72
23
 73
19
 74
0
 42
0.0000001
 43
0.0000001
 44
0.0000000001
 40
0.0
 40
0.0
 40
0.0
 40
0.0
 40
0.0142794121
 40
0.0457854171
 40
0.0945386884
 40
0.157357087
 40
0.2318882698
 40
0.3152904611
 40
0.4053386898
 40
0.4994678976
 40
0.5934648602
 40
0.6831638703
 40
0.7662700737
 40
0.8408988501
 40
0.904215348
 40
0.9535860786
 40
0.9855512479
 40
1.0
 40
1.0
 40
1.0
 40
1.0
 10
124.2364817165
 20
349.515890706
 30
0.0
 10
124.2089347034
 20
349.5250444884
 30
0.0
 10
124.1141446392
 20
349.5268193027
 30
0.0
 10
123.9237086767
 20
349.5399540869
 30
0.0
 10
123.6321608173
 20
349.5456275108
 30
0.0
 10
123.2542225013
 20
349.5538479858
 30
0.0
 10
122.8053919223
 20
349.5594666668
 30
0.0
 10
122.3013321741
 20
349.5639574674
 30
0.0
 10
121.757374812
 20
349.5666418035
 30
0.0
 10
121.1918863986
 20
349.5675645675
 30
0.0
 10
120.62710789
 20
349.566664883
 30
0.0
 10
120.0847308112
 20
349.5640176175
 30
0.0
 10
119.5817840331
 20
349.5595756323
 30
0.0
 10
119.1323424971
 20
349.5540091086
 30
0.0
 10
118.7519429747
 20
349.5457842572
 30
0.0
 10
118.4571739539
 20
349.5401519224
 30
0.0
 10
118.2642469886
 20
349.5268362502
 30
0.0
 10
118.168127561
 20
349.5251778104
 30
0.0
 10
118.1402621135
 20
349.515890693
 30
0.0
  0
SPLINE
  5
458
100
AcDbEntity
  8
0
100
AcDbSpline
 62
7
  6
CONTINUOUS
 70
0
 71
3
 72
9
 73
5
 74
0
 42
0.0000001
 43
0.0000001
 44
0.0000000001
 40
0.0
 40
0.0
 40
0.0
 40
0.0
 40
0.500077039
 40
1.0
 40
1.0
 40
1.0
 40
1.0
 10
123.9366855972
 20
349.2159364996
 30
0.0
 10
123.9367321959
 20
349.2924409131
 30
0.0
 10
124.000710718
 20
349.4517514449
 30
0.0
 10
124.1600008781
 20
349.515838723
 30
0.0
 10
124.2364817165
 20
349.5158907098
 30
0.0
  0
SPLINE
  5
459
100
AcDbEntity
  8
0
100
AcDbSpline
 62
7
  6
CONTINUOUS
 70
0
 71
3
 72
10
 73
6
 74
0
 42
0.0000001
 43
0.0000001
 44
0.0000000001
 40
0.0
 40
0.0
 40
0.0
 40
0.0
 40
0.3024835377
 40
0.5766590598
 40
1.0
 40
1.0
 40
1.0
 40
1.0
 10
117.9417340827
 20
349.1219598361
 30
0.0
 10
117.9719713278
 20
349.1219414108
 30
0.0
 10
118.0299529636
 20
349.1229874811
 30
0.0
 10
118.1282698408
 20
349.1161080639
 30
0.0
 10
118.2037073885
 20
349.1356633878
 30
0.0
 10
118.2415513309
 20
349.1167241142
 30
0.0
  0
SPLINE
  5
45A
100
AcDbEntity
  8
0
100
AcDbSpline
 62
7
  6
CONTINUOUS
 70
0
 71
3
 72
16
 73
12
 74
0
 42
0.0000001
 43
0.0000001
 44
0.0000000001
 40
0.0
 40
0.0
 40
0.0
 40
0.0
 40
0.0089023428
 40
0.0266534131
 40
0.0531734072
 40
0.0881638475
 40
0.182180706
 40
0.3058718342
 40
0.4557288991
 40
0.6257719466
 40
1.0
 40
1.0
 40
1.0
 40
1.0
 10
118.4400368283
 20
348.0331839104
 30
0.0
 10
118.4455095212
 20
348.0271145887
 30
0.0
 10
118.4711017208
 20
348.0207439612
 30
0.0
 10
118.5174981972
 20
348.0107952576
 30
0.0
 10
118.5904677759
 20
348.0019502485
 30
0.0
 10
118.7321745669
 20
347.988062831
 30
0.0
 10
118.9640181117
 20
347.9734294386
 30
0.0
 10
119.3009883642
 20
347.9585031184
 30
0.0
 10
119.7080870448
 20
347.9464925685
 30
0.0
 10
120.3451575196
 20
347.933987312
 30
0.0
 10
120.8448205742
 20
347.9303920049
 30
0.0
 10
121.1883611994
 20
347.9303927551
 30
0.0
  0
SPLINE
  5
45B
100
AcDbEntity
  8
0
100
AcDbSpline
 62
7
  6
CONTINUOUS
 70
0
 71
3
 72
16
 73
12
 74
0
 42
0.0000001
 43
0.0000001
 44
0.0000000001
 40
0.0
 40
0.0
 40
0.0
 40
0.0
 40
0.3747331843
 40
0.5449952643
 40
0.6950290707
 40
0.8188309396
 40
0.9128521976
 40
0.9477812463
 40
0.9741726666
 40
0.991675744
 40
1.0
 40
1.0
 40
1.0
 40
1.0
 10
121.1883611731
 20
349.2673164757
 30
0.0
 10
120.8448852497
 20
349.2673165744
 30
0.0
 10
120.3453411576
 20
349.2655252986
 30
0.0
 10
119.708325636
 20
349.2592655696
 30
0.0
 10
119.3012874814
 20
349.2532907945
 30
0.0
 10
118.9642634643
 20
349.2457565576
 30
0.0
 10
118.732547149
 20
349.2386124958
 30
0.0
 10
118.5905442483
 20
349.231430361
 30
0.0
 10
118.5180359919
 20
349.2274530938
 30
0.0
 10
118.4711914444
 20
349.2216465951
 30
0.0
 10
118.4467100536
 20
349.2196356946
 30
0.0
 10
118.440036855
 20
349.2159365068
 30
0.0
  0
SPLINE
  5
45C
100
AcDbEntity
  8
0
100
AcDbSpline
 62
7
  6
CONTINUOUS
 70
0
 71
3
 72
16
 73
12
 74
0
 42
0.0000001
 43
0.0000001
 44
0.0000000001
 40
0.0
 40
0.0
 40
0.0
 40
0.0
 40
0.008324413
 40
0.0258276168
 40
0.0522191195
 40
0.0871482005
 40
0.1811693513
 40
0.304970851
 40
0.4550040649
 40
0.6252656773
 40
1.0
 40
1.0
 40
1.0
 40
1.0
 10
123.9366855972
 20
349.2159364996
 30
0.0
 10
123.9300121363
 20
349.2196355113
 30
0.0
 10
123.9055306505
 20
349.2216465102
 30
0.0
 10
123.8586856214
 20
349.2274528403
 30
0.0
 10
123.786177214
 20
349.2314301793
 30
0.0
 10
123.6441742646
 20
349.2386123105
 30
0.0
 10
123.4124583829
 20
349.2457564971
 30
0.0
 10
123.0754353262
 20
349.2532907816
 30
0.0
 10
122.6683984758
 20
349.2592654915
 30
0.0
 10
122.0313828645
 20
349.2655250956
 30
0.0
 10
121.5318381479
 20
349.2673163698
 30
0.0
 10
121.1883611731
 20
349.2673164685
 30
0.0
  0
SPLINE
  5
45D
100
AcDbEntity
  8
0
100
AcDbSpline
 62
7
  6
CONTINUOUS
 70
0
 71
3
 72
11
 73
7
 74
0
 42
0.0000001
 43
0.0000001
 44
0.0000000001
 40
0.0
 40
0.0
 40
0.0
 40
0.0
 40
0.2215750537
 40
0.4960739416
 40
0.7553206093
 40
1.0
 40
1.0
 40
1.0
 40
1.0
 10
123.3395773121
 20
347.9705459286
 30
0.0
 10
123.4040138274
 20
347.9801658984
 30
0.0
 10
123.5540665611
 20
347.9536307627
 30
0.0
 10
123.7481629747
 20
347.8378030395
 30
0.0
 10
123.8933866924
 20
347.6530761599
 30
0.0
 10
123.9315508502
 20
347.5053106816
 30
0.0
 10
123.9366859463
 20
347.433550052
 30
0.0
  0
SPLINE
  5
45E
100
AcDbEntity
  8
0
100
AcDbSpline
 62
7
  6
CONTINUOUS
 70
0
 71
3
 72
9
 73
5
 74
0
 42
0.0000001
 43
0.0000001
 44
0.0000000001
 40
0.0
 40
0.0
 40
0.0
 40
0.0
 40
0.2841829405
 40
1.0
 40
1.0
 40
1.0
 40
1.0
 10
121.1883611994
 20
347.9303954099
 30
0.0
 10
121.3921818078
 20
347.930395855
 30
0.0
 10
122.1093536735
 20
347.9341811403
 30
0.0
 10
122.8267598533
 20
347.9456206133
 30
0.0
 10
123.3395496566
 20
347.9705535255
 30
0.0
  0
SPLINE
  5
45F
100
AcDbEntity
  8
0
100
AcDbSpline
 62
7
  6
CONTINUOUS
 70
0
 71
3
 72
11
 73
7
 74
0
 42
0.0000001
 43
0.0000001
 44
0.0000000001
 40
0.0
 40
0.0
 40
0.0
 40
0.0
 40
0.2272692015
 40
0.4649394921
 40
0.7192994782
 40
1.0
 40
1.0
 40
1.0
 40
1.0
 10
123.9366859472
 20
347.4335500477
 30
0.0
 10
123.9302985333
 20
347.4686250381
 30
0.0
 10
123.9000275323
 20
347.5378813185
 30
0.0
 10
123.8165927241
 20
347.6174270644
 30
0.0
 10
123.7036883287
 20
347.66705902
 30
0.0
 10
123.6181325156
 20
347.6745459244
 30
0.0
 10
123.5742646677
 20
347.670728359
 30
0.0
  0
SPLINE
  5
460
100
AcDbEntity
  8
0
100
AcDbSpline
 62
7
  6
CONTINUOUS
 70
0
 71
3
 72
10
 73
6
 74
0
 42
0.0000001
 43
0.0000001
 44
0.0000000001
 40
0.0
 40
0.0
 40
0.0
 40
0.0
 40
0.4234366631
 40
0.697673833
 40
1.0
 40
1.0
 40
1.0
 40
1.0
 10
118.2410121796
 20
348.2322087615
 30
0.0
 10
118.2031681867
 20
348.2511480603
 30
0.0
 10
118.127730527
 20
348.2315925595
 30
0.0
 10
118.0294358997
 20
348.2384709286
 30
0.0
 10
117.9714770475
 20
348.2374260307
 30
0.0
 10
117.9412623254
 20
348.2374444423
 30
0.0
  0
SPLINE
  5
461
100
AcDbEntity
  8
0
100
AcDbSpline
 62
7
  6
CONTINUOUS
 70
0
 71
3
 72
9
 73
5
 74
0
 42
0.0000001
 43
0.0000001
 44
0.0000000001
 40
0.0
 40
0.0
 40
0.0
 40
0.0
 40
0.4594019713
 40
1.0
 40
1.0
 40
1.0
 40
1.0
 10
123.5743032864
 20
347.6707336821
 30
0.0
 10
123.511758056
 20
347.672444196
 30
0.0
 10
123.3791383287
 20
347.7556314572
 30
0.0
 10
123.3408020134
 20
347.8969369998
 30
0.0
 10
123.3395496566
 20
347.9705535255
 30
0.0
  0
SPLINE
  5
462
100
AcDbEntity
  8
0
100
AcDbSpline
 62
7
  6
CONTINUOUS
 70
0
 71
3
 72
20
 73
16
 74
0
 42
0.0000001
 43
0.0000001
 44
0.0000000001
 40
0.0
 40
0.0
 40
0.0
 40
0.0
 40
0.0152818309
 40
0.0482610554
 40
0.0990607841
 40
0.1658956604
 40
0.246547375
 40
0.338142621
 40
0.437102038
 40
0.5399214313
 40
0.6433241291
 40
0.7439285704
 40
0.8380422187
 40
0.9230254359
 40
1.0
 40
1.0
 40
1.0
 40
1.0
 10
118.1403177021
 20
347.7333674152
 30
0.0
 10
118.1631704699
 20
347.7177009636
 30
0.0
 10
118.255356359
 20
347.7103441512
 30
0.0
 10
118.4297650908
 20
347.6881885941
 30
0.0
 10
118.7046758266
 20
347.6752790505
 30
0.0
 10
119.0629796565
 20
347.6595354412
 30
0.0
 10
119.4966212422
 20
347.6478378998
 30
0.0
 10
119.9881518426
 20
347.6384885636
 30
0.0
 10
120.5200654108
 20
347.632568444
 30
0.0
 10
121.0733723919
 20
347.6300470009
 30
0.0
 10
121.6296784514
 20
347.6311121633
 30
0.0
 10
122.1701787
 20
347.6356813259
 30
0.0
 10
122.6772450422
 20
347.6434289474
 30
0.0
 10
123.1413971116
 20
347.6545097489
 30
0.0
 10
123.4348672409
 20
347.6648292987
 30
0.0
 10
123.5743032854
 20
347.6707320755
 30
0.0
  0
SPLINE
  5
463
100
AcDbEntity
  8
0
100
AcDbSpline
 62
7
  6
CONTINUOUS
 70
0
 71
3
 72
9
 73
5
 74
0
 42
0.0000001
 43
0.0000001
 44
0.0000000001
 40
0.0
 40
0.0
 40
0.0
 40
0.0
 40
0.4999830452
 40
1.0
 40
1.0
 40
1.0
 40
1.0
 10
118.4400368283
 20
348.0331839104
 30
0.0
 10
118.4399435539
 20
347.9567349594
 30
0.0
 10
118.375902374
 20
347.7975844591
 30
0.0
 10
118.2167718036
 20
347.7334855981
 30
0.0
 10
118.1403177021
 20
347.7333674699
 30
0.0
  0
SPLINE
  5
464
100
AcDbEntity
  8
0
100
AcDbSpline
 62
7
  6
CONTINUOUS
 70
0
 71
3
 72
10
 73
6
 74
0
 42
0.0000001
 43
0.0000001
 44
0.0000000001
 40
0.0
 40
0.0
 40
0.0
 40
0.0
 40
0.3024835371
 40
0.5766590594
 40
1.0
 40
1.0
 40
1.0
 40
1.0
 10
123.5104726088
 20
347.3123896793
 30
0.0
 10
123.5407098537
 20
347.312371254
 30
0.0
 10
123.5986914895
 20
347.3134173243
 30
0.0
 10
123.6970083665
 20
347.3065379071
 30
0.0
 10
123.7724459142
 20
347.326093231
 30
0.0
 10
123.8102898567
 20
347.3071539574
 30
0.0
  0
SPLINE
  5
465
100
AcDbEntity
  8
0
100
AcDbSpline
 62
7
  6
CONTINUOUS
 70
0
 71
3
 72
11
 73
7
 74
0
 42
0.0000001
 43
0.0000001
 44
0.0000000001
 40
0.0
 40
0.0
 40
0.0
 40
0.0
 40
0.0843936285
 40
0.3050286283
 40
0.6368497375
 40
1.0
 40
1.0
 40
1.0
 40
1.0
 10
116.2406985462
 20
349.716632923
 30
0.0
 10
116.2331600956
 20
349.7204054773
 30
0.0
 10
116.2008467535
 20
349.7159816101
 30
0.0
 10
116.1388718067
 20
349.7224417518
 30
0.0
 10
116.046619258
 20
349.7208840001
 30
0.0
 10
115.9774163624
 20
349.7218456923
 30
0.0
 10
115.9411427795
 20
349.7218683612
 30
0.0
  0
SPLINE
  5
466
100
AcDbEntity
  8
0
100
AcDbSpline
 62
7
  6
CONTINUOUS
 70
0
 71
3
 72
13
 73
9
 74
0
 42
0.0000001
 43
0.0000001
 44
0.0000000001
 40
0.0
 40
0.0
 40
0.0
 40
0.0
 40
0.1757797464
 40
0.3367707534
 40
0.4995572158
 40
0.6624397299
 40
0.8237121116
 40
1.0
 40
1.0
 40
1.0
 40
1.0
 10
115.9411427797
 20
349.7218685156
 30
0.0
 10
115.9426894781
 20
349.6668726417
 30
0.0
 10
115.9557209649
 20
349.5610403211
 30
0.0
 10
116.0170407088
 20
349.4150162712
 30
0.0
 10
116.1126310997
 20
349.2944467774
 30
0.0
 10
116.2331175896
 20
349.198589462
 30
0.0
 10
116.3793383099
 20
349.1370280605
 30
0.0
 10
116.4853654295
 20
349.1236905749
 30
0.0
 10
116.5405150495
 20
349.121963264
 30
0.0
  0
SPLINE
  5
467
100
AcDbEntity
  8
0
100
AcDbSpline
 62
7
  6
CONTINUOUS
 70
0
 71
3
 72
11
 73
7
 74
0
 42
0.0000001
 43
0.0000001
 44
0.0000000001
 40
0.0
 40
0.0
 40
0.0
 40
0.0
 40
0.3648163005
 40
0.6969143792
 40
0.9164654992
 40
1.0
 40
1.0
 40
1.0
 40
1.0
 10
115.9424280687
 20
352.2818943407
 30
0.0
 10
115.9789015239
 20
352.2818721456
 30
0.0
 10
116.0483606004
 20
352.2809038854
 30
0.0
 10
116.1407863128
 20
352.2824635025
 30
0.0
 10
116.2026563174
 20
352.2760217049
 30
0.0
 10
116.2347902814
 20
352.2803963172
 30
0.0
 10
116.2422587723
 20
352.2766586003
 30
0.0
  0
SPLINE
  5
468
100
AcDbEntity
  8
0
100
AcDbSpline
 62
7
  6
CONTINUOUS
 70
0
 71
3
 72
13
 73
9
 74
0
 42
0.0000001
 43
0.0000001
 44
0.0000000001
 40
0.0
 40
0.0
 40
0.0
 40
0.0
 40
0.176789055
 40
0.3380022278
 40
0.5005961604
 40
0.6629928364
 40
0.8239374883
 40
1.0
 40
1.0
 40
1.0
 40
1.0
 10
116.5428066202
 20
352.8814301539
 30
0.0
 10
116.4874937649
 20
352.8796607902
 30
0.0
 10
116.3813096247
 20
352.8663380444
 30
0.0
 10
116.2350394346
 20
352.8047047969
 30
0.0
 10
116.1147099073
 20
352.7090103979
 30
0.0
 10
116.01911451
 20
352.5887252662
 30
0.0
 10
115.9575421552
 20
352.442847987
 30
0.0
 10
115.9441885599
 20
352.3369799268
 30
0.0
 10
115.9424280687
 20
352.2818943374
 30
0.0
  0
SPLINE
  5
469
100
AcDbEntity
  8
0
100
AcDbSpline
 62
7
  6
CONTINUOUS
 70
0
 71
3
 72
11
 73
7
 74
0
 42
0.0000001
 43
0.0000001
 44
0.0000000001
 40
0.0
 40
0.0
 40
0.0
 40
0.0
 40
0.0835679758
 40
0.3031796878
 40
0.6352937195
 40
1.0
 40
1.0
 40
1.0
 40
1.0
 10
126.1344635872
 20
352.2766585966
 30
0.0
 10
126.1419413864
 20
352.280400972
 30
0.0
 10
126.1741127342
 20
352.2760186204
 30
0.0
 10
126.2360456223
 20
352.2824674968
 30
0.0
 10
126.3285461114
 20
352.2809047573
 30
0.0
 10
126.3980545642
 20
352.2818728176
 30
0.0
 10
126.4345478407
 20
352.2818944861
 30
0.0
  0
SPLINE
  5
46A
100
AcDbEntity
  8
0
100
AcDbSpline
 62
7
  6
CONTINUOUS
 70
0
 71
3
 72
13
 73
9
 74
0
 42
0.0000001
 43
0.0000001
 44
0.0000000001
 40
0.0
 40
0.0
 40
0.0
 40
0.0
 40
0.1773204634
 40
0.3384639397
 40
0.5006952656
 40
0.6627931731
 40
0.8233925032
 40
1.0
 40
1.0
 40
1.0
 40
1.0
 10
126.4345478412
 20
352.2818943273
 30
0.0
 10
126.4325175549
 20
352.337365123
 30
0.0
 10
126.418842171
 20
352.4436317756
 30
0.0
 10
126.3569716659
 20
352.5898189853
 30
0.0
 10
126.2612959016
 20
352.7098727097
 30
0.0
 10
126.1410545274
 20
352.8050357364
 30
0.0
 10
125.99508187
 20
352.866266452
 30
0.0
 10
125.8891695265
 20
352.8795729826
 30
0.0
 10
125.8339157286
 20
352.8814227844
 30
0.0
  0
SPLINE
  5
46B
100
AcDbEntity
  8
0
100
AcDbSpline
 62
7
  6
CONTINUOUS
 70
0
 71
3
 72
11
 73
7
 74
0
 42
0.0000001
 43
0.0000001
 44
0.0000000001
 40
0.0
 40
0.0
 40
0.0
 40
0.0
 40
0.3630373789
 40
0.694873922
 40
0.9155714505
 40
1.0
 40
1.0
 40
1.0
 40
1.0
 10
126.4358378018
 20
349.7218684835
 30
0.0
 10
126.3995442445
 20
349.7218463496
 30
0.0
 10
126.3302913747
 20
349.720884875
 30
0.0
 10
126.2379628194
 20
349.7224457976
 30
0.0
 10
126.1759236094
 20
349.7159784211
 30
0.0
 10
126.1435718432
 20
349.7204102716
 30
0.0
 10
126.1360237735
 20
349.7166329053
 30
0.0
  0
SPLINE
  5
46C
100
AcDbEntity
  8
0
100
AcDbSpline
 62
7
  6
CONTINUOUS
 70
0
 71
3
 72
13
 73
9
 74
0
 42
0.0000001
 43
0.0000001
 44
0.0000000001
 40
0.0
 40
0.0
 40
0.0
 40
0.0
 40
0.1764300877
 40
0.3375587848
 40
0.500183848
 40
0.6627665449
 40
0.8237527271
 40
1.0
 40
1.0
 40
1.0
 40
1.0
 10
125.8362072893
 20
349.1219614512
 30
0.0
 10
125.8914025431
 20
349.1237113346
 30
0.0
 10
125.9974352566
 20
349.1370319536
 30
0.0
 10
126.1435714396
 20
349.1985953265
 30
0.0
 10
126.2639347136
 20
349.2942933241
 30
0.0
 10
126.3595040015
 20
349.4147059022
 30
0.0
 10
126.4208682267
 20
349.5607962941
 30
0.0
 10
126.4341180862
 20
349.6667295532
 30
0.0
 10
126.4358378018
 20
349.721868506
 30
0.0
  0
SPLINE
  5
46D
100
AcDbEntity
  8
0
100
AcDbSpline
 62
7
  6
CONTINUOUS
 70
0
 71
3
 72
24
 73
20
 74
0
 42
0.0000001
 43
0.0000001
 44
0.0000000001
 40
0.0
 40
0.0
 40
0.0
 40
0.0
 40
0.0113608015
 40
0.0385848114
 40
0.0807866225
 40
0.1363320728
 40
0.2042343796
 40
0.2818331072
 40
0.3664597909
 40
0.455273891
 40
0.5454022693
 40
0.6339759628
 40
0.7181927593
 40
0.7954038399
 40
0.8631167647
 40
0.9187121101
 40
0.9611039971
 40
0.9885353441
 40
1.0
 40
1.0
 40
1.0
 40
1.0
 10
125.6356429663
 20
349.516914243
 30
0.0
 10
125.6055268281
 20
349.5320298739
 30
0.0
 10
125.4854298945
 20
349.5276772136
 30
0.0
 10
125.251101884
 20
349.55122105
 30
0.0
 10
124.8780101232
 20
349.5564781634
 30
0.0
 10
124.3878485014
 20
349.5694705024
 30
0.0
 10
123.7912186418
 20
349.5774957096
 30
0.0
 10
123.1088091324
 20
349.5848151563
 30
0.0
 10
122.3641899944
 20
349.5895384532
 30
0.0
 10
121.5824464267
 20
349.5920040064
 30
0.0
 10
120.7889740305
 20
349.5919947743
 30
0.0
 10
120.0091592531
 20
349.5895195117
 30
0.0
 10
119.2676189959
 20
349.5848078777
 30
0.0
 10
118.5881355893
 20
349.5775251837
 30
0.0
 10
117.993070556
 20
349.5695410925
 30
0.0
 10
117.5027584351
 20
349.5565737641
 30
0.0
 10
117.1283263347
 20
349.5513644903
 30
0.0
 10
116.8925548619
 20
349.527667672
 30
0.0
 10
116.7714697395
 20
349.5321705118
 30
0.0
 10
116.7410794999
 20
349.5169143028
 30
0.0
  0
SPLINE
  5
46E
100
AcDbEntity
  8
0
100
AcDbSpline
 62
7
  6
CONTINUOUS
 70
0
 71
3
 72
24
 73
20
 74
0
 42
0.0000001
 43
0.0000001
 44
0.0000000001
 40
0.0
 40
0.0
 40
0.0
 40
0.0
 40
0.0113558988
 40
0.038580057
 40
0.0807820856
 40
0.1363278144
 40
0.2042304556
 40
0.2818295623
 40
0.3664566569
 40
0.4552711869
 40
0.5454000008
 40
0.6339741231
 40
0.718191329
 40
0.7954027871
 40
0.8631160458
 40
0.9187116702
 40
0.9611037756
 40
0.988535272
 40
1.0
 40
1.0
 40
1.0
 40
1.0
 10
116.741123177
 20
352.4771510445
 30
0.0
 10
116.7712250181
 20
352.4620397193
 30
0.0
 10
116.8913086351
 20
352.4663960332
 30
0.0
 10
117.1256197102
 20
352.4428484639
 30
0.0
 10
117.4987128822
 20
352.4375940171
 30
0.0
 10
117.9888739764
 20
352.4246005948
 30
0.0
 10
118.5855040106
 20
352.4165757818
 30
0.0
 10
119.2679133958
 20
352.4092562079
 30
0.0
 10
120.0125324688
 20
352.404532952
 30
0.0
 10
120.7942759296
 20
352.4020673873
 30
0.0
 10
121.5877482192
 20
352.4020766252
 30
0.0
 10
122.367562901
 20
352.4045518767
 30
0.0
 10
123.1091030597
 20
352.4092635426
 30
0.0
 10
123.7885864649
 20
352.4165461271
 30
0.0
 10
124.383651313
 20
352.4245305435
 30
0.0
 10
124.8739639154
 20
352.437496959
 30
0.0
 10
125.2483949521
 20
352.4427084743
 30
0.0
 10
125.4841687378
 20
352.4664009202
 30
0.0
 10
125.6052512947
 20
352.4619033246
 30
0.0
 10
125.6356428196
 20
352.4771570728
 30
0.0
  0
SPLINE
  5
46F
100
AcDbEntity
  8
0
100
AcDbSpline
 62
7
  6
CONTINUOUS
 70
0
 71
3
 72
16
 73
12
 74
0
 42
0.0000001
 43
0.0000001
 44
0.0000000001
 40
0.0
 40
0.0
 40
0.0
 40
0.0
 40
0.169885791
 40
0.3348342398
 40
0.4900528501
 40
0.6310334816
 40
0.7536836672
 40
0.8544460117
 40
0.9304028742
 40
0.9793667201
 40
1.0
 40
1.0
 40
1.0
 40
1.0
 10
121.1883611721
 20
352.1022361949
 30
0.0
 10
121.4572786223
 20
352.1022361907
 30
0.0
 10
121.9873006824
 20
352.1029584891
 30
0.0
 10
122.7630046368
 20
352.1062494466
 30
0.0
 10
123.4929846808
 20
352.111494145
 30
0.0
 10
124.1558498293
 20
352.1189789123
 30
0.0
 10
124.732916159
 20
352.1270288081
 30
0.0
 10
125.2057980821
 20
352.1394341964
 30
0.0
 10
125.5650590038
 20
352.1449613191
 30
0.0
 10
125.7909863723
 20
352.1665286318
 30
0.0
 10
125.9058999959
 20
352.1632706824
 30
0.0
 10
125.9354676282
 20
352.1771451042
 30
0.0
  0
SPLINE
  5
470
100
AcDbEntity
  8
0
100
AcDbSpline
 62
7
  6
CONTINUOUS
 70
0
 71
3
 72
16
 73
12
 74
0
 42
0.0000001
 43
0.0000001
 44
0.0000000001
 40
0.0
 40
0.0
 40
0.0
 40
0.0
 40
0.0206332867
 40
0.0695971104
 40
0.1455539058
 40
0.2463161472
 40
0.3689662199
 40
0.509946769
 40
0.6651653736
 40
0.8301139374
 40
1.0
 40
1.0
 40
1.0
 40
1.0
 10
116.4412547301
 20
352.1771560856
 30
0.0
 10
116.4708225851
 20
352.1632821109
 30
0.0
 10
116.5857356793
 20
352.1665387129
 30
0.0
 10
116.8116633058
 20
352.1449717884
 30
0.0
 10
117.1709236989
 20
352.1394433696
 30
0.0
 10
117.6438052525
 20
352.1270370844
 30
0.0
 10
118.2208710773
 20
352.1189857793
 30
0.0
 10
118.8837359231
 20
352.1114995169
 30
0.0
 10
119.6137160187
 20
352.10625303
 30
0.0
 10
120.3894205953
 20
352.1029606178
 30
0.0
 10
120.9194432831
 20
352.1022361991
 30
0.0
 10
121.1883611721
 20
352.1022361949
 30
0.0
  0
SPLINE
  5
471
100
AcDbEntity
  8
0
100
AcDbSpline
 62
7
  6
CONTINUOUS
 70
0
 71
3
 72
16
 73
12
 74
0
 42
0.0000001
 43
0.0000001
 44
0.0000000001
 40
0.0
 40
0.0
 40
0.0
 40
0.0
 40
0.1698565147
 40
0.3347855811
 40
0.4899952444
 40
0.6309786886
 40
0.7536387795
 40
0.8544151557
 40
0.930386105
 40
0.9793614154
 40
1.0
 40
1.0
 40
1.0
 40
1.0
 10
121.1883611721
 20
349.8918395246
 30
0.0
 10
121.4572323179
 20
349.8918395239
 30
0.0
 10
121.9871774314
 20
349.891121131
 30
0.0
 10
122.7627903258
 20
349.8878327741
 30
0.0
 10
123.4927300903
 20
349.8825906513
 30
0.0
 10
124.155601333
 20
349.8751071892
 30
0.0
 10
124.7327100706
 20
349.8670569868
 30
0.0
 10
125.2056522173
 20
349.854650248
 30
0.0
 10
125.564975975
 20
349.8491201524
 30
0.0
 10
125.7909515341
 20
349.8275491163
 30
0.0
 10
125.9058924095
 20
349.8308042916
 30
0.0
 10
125.9354676282
 20
349.8169262595
 30
0.0
  0
SPLINE
  5
472
100
AcDbEntity
  8
0
100
AcDbSpline
 62
7
  6
CONTINUOUS
 70
0
 71
3
 72
16
 73
12
 74
0
 42
0.0000001
 43
0.0000001
 44
0.0000000001
 40
0.0
 40
0.0
 40
0.0
 40
0.0
 40
0.0206389783
 40
0.0696149886
 40
0.1455866434
 40
0.2463635119
 40
0.3690237509
 40
0.5100069634
 40
0.6652160594
 40
0.830144341
 40
1.0
 40
1.0
 40
1.0
 40
1.0
 10
116.4412547301
 20
349.8168862451
 30
0.0
 10
116.4708307367
 20
349.8307640751
 30
0.0
 10
116.5857727808
 20
349.8275110976
 30
0.0
 10
116.8117515577
 20
349.8490830685
 30
0.0
 10
117.1710780384
 20
349.8546167608
 30
0.0
 10
117.6440223936
 20
349.8670272203
 30
0.0
 10
118.2211317402
 20
349.8750823511
 30
0.0
 10
118.8840019909
 20
349.882571245
 30
0.0
 10
119.6139392939
 20
349.8878197984
 30
0.0
 10
120.3895487676
 20
349.8911133816
 30
0.0
 10
120.9194913462
 20
349.8918395252
 30
0.0
 10
121.1883611721
 20
349.8918395245
 30
0.0
  0
SPLINE
  5
473
100
AcDbEntity
  8
0
100
AcDbSpline
 62
7
  6
CONTINUOUS
 70
0
 71
3
 72
13
 73
9
 74
0
 42
0.0000001
 43
0.0000001
 44
0.0000000001
 40
0.0
 40
0.0
 40
0.0
 40
0.0
 40
0.214959408
 40
0.4203796959
 40
0.6060485946
 40
0.7631219646
 40
0.884256334
 40
1.0
 40
1.0
 40
1.0
 40
1.0
 10
120.025502109
 20
345.8996278358
 30
0.0
 10
119.9169625274
 20
345.8996278358
 30
0.0
 10
119.704869929
 20
345.8975031327
 30
0.0
 10
119.3982270093
 20
345.8891641078
 30
0.0
 10
119.1240918619
 20
345.8732577408
 30
0.0
 10
118.883913091
 20
345.8592298054
 30
0.0
 10
118.7048643386
 20
345.8217513358
 30
0.0
 10
118.5458743145
 20
345.8267880239
 30
0.0
 10
118.522603066
 20
345.7731785387
 30
0.0
  0
SPLINE
  5
474
100
AcDbEntity
  8
0
100
AcDbSpline
 62
7
  6
CONTINUOUS
 70
0
 71
3
 72
10
 73
6
 74
0
 42
0.0000001
 43
0.0000001
 44
0.0000000001
 40
0.0
 40
0.0
 40
0.0
 40
0.0
 40
0.4123459097
 40
0.6910591879
 40
1.0
 40
1.0
 40
1.0
 40
1.0
 10
108.3026850657
 20
348.6466471667
 30
0.0
 10
108.3033153599
 20
348.6878748931
 30
0.0
 10
108.4255523009
 20
348.6369119441
 30
0.0
 10
108.5096685652
 20
348.6512587067
 30
0.0
 10
108.5717518043
 20
348.6472018877
 30
0.0
 10
108.6026397805
 20
348.6466704472
 30
0.0
  0
SPLINE
  5
475
100
AcDbEntity
  8
0
100
AcDbSpline
 62
7
  6
CONTINUOUS
 70
0
 71
3
 72
13
 73
9
 74
0
 42
0.0000001
 43
0.0000001
 44
0.0000000001
 40
0.0
 40
0.0
 40
0.0
 40
0.0
 40
0.3701552728
 40
0.7068372423
 40
0.8331747414
 40
0.9249002031
 40
0.9808570698
 40
1.0
 40
1.0
 40
1.0
 40
1.0
 10
108.5458258025
 20
345.3918000646
 30
0.0
 10
108.5088118089
 20
345.3924459461
 30
0.0
 10
108.4383962957
 20
345.3932161985
 30
0.0
 10
108.3541743466
 20
345.3945267383
 30
0.0
 10
108.3000288157
 20
345.3933822737
 30
0.0
 10
108.2703190033
 20
345.3946561378
 30
0.0
 10
108.2577978474
 20
345.3911084736
 30
0.0
 10
108.2459148887
 20
345.3937138465
 30
0.0
 10
108.2458880776
 20
345.3917995291
 30
0.0
  0
SPLINE
  5
476
100
AcDbEntity
  8
0
100
AcDbSpline
 62
7
  6
CONTINUOUS
 70
0
 71
3
 72
12
 73
8
 74
0
 42
0.0000001
 43
0.0000001
 44
0.0000000001
 40
0.0
 40
0.0
 40
0.0
 40
0.0
 40
0.1958320273
 40
0.3977722106
 40
0.6018042397
 40
0.8038849283
 40
1.0
 40
1.0
 40
1.0
 40
1.0
 10
113.130334034
 20
349.5660396677
 30
0.0
 10
113.242353288
 20
349.6120077317
 30
0.0
 10
113.4598819137
 20
349.7318828319
 30
0.0
 10
113.7406558593
 20
349.9802491511
 30
0.0
 10
113.9654092509
 20
350.2851717026
 30
0.0
 10
114.1196718889
 20
350.6271155066
 30
0.0
 10
114.1697671458
 20
350.8706568722
 30
0.0
 10
114.1805139712
 20
350.9914388825
 30
0.0
  0
LINE
  5
477
100
AcDbEntity
  8
0
100
AcDbLine
 62
7
  6
CONTINUOUS
 10
110.4381105984
 20
346.0300875682
 11
110.4400670749
 21
346.0455749048
  0
SPLINE
  5
478
100
AcDbEntity
  8
0
100
AcDbSpline
 62
7
  6
CONTINUOUS
 70
0
 71
3
 72
9
 73
5
 74
0
 42
0.0000001
 43
0.0000001
 44
0.0000000001
 40
0.0
 40
0.0
 40
0.0
 40
0.0
 40
0.202708317
 40
1.0
 40
1.0
 40
1.0
 40
1.0
 10
123.2426919562
 20
356.2018051765
 30
0.0
 10
123.2585970517
 20
356.2022949618
 30
0.0
 10
123.3370441831
 20
356.2052043373
 30
0.0
 10
123.4154575237
 20
356.2089611876
 30
0.0
 10
123.4779574463
 20
356.2122714387
 30
0.0
  0
SPLINE
  5
479
100
AcDbEntity
  8
0
100
AcDbSpline
 62
7
  6
CONTINUOUS
 70
0
 71
3
 72
12
 73
8
 74
0
 42
0.0000001
 43
0.0000001
 44
0.0000000001
 40
0.0
 40
0.0
 40
0.0
 40
0.0
 40
0.1779466177
 40
0.3646480671
 40
0.5648988021
 40
0.7782491501
 40
1.0
 40
1.0
 40
1.0
 40
1.0
 10
123.5530518331
 20
354.4970356897
 30
0.0
 10
123.5289632878
 20
354.4970356897
 30
0.0
 10
123.4791498141
 20
354.5069209285
 30
0.0
 10
123.4134059026
 20
354.5487763238
 30
0.0
 10
123.3612866238
 20
354.6127041519
 30
0.0
 10
123.3268157781
 20
354.6925175493
 30
0.0
 10
123.3173624327
 20
354.7513425883
 30
0.0
 10
123.3161193457
 20
354.781335141
 30
0.0
  0
SPLINE
  5
47A
100
AcDbEntity
  8
0
100
AcDbSpline
 62
7
  6
CONTINUOUS
 70
0
 71
3
 72
10
 73
6
 74
0
 42
0.0000001
 43
0.0000001
 44
0.0000000001
 40
0.0
 40
0.0
 40
0.0
 40
0.0
 40
0.3085411837
 40
0.6070389002
 40
1.0
 40
1.0
 40
1.0
 40
1.0
 10
123.3156915538
 20
354.7813069512
 30
0.0
 10
123.3410623838
 20
354.779560363
 30
0.0
 10
123.3901124492
 20
354.7843273607
 30
0.0
 10
123.4768882918
 20
354.8000756267
 30
0.0
 10
123.5206626315
 20
354.7450727796
 30
0.0
 10
123.5530252201
 20
354.7437645882
 30
0.0
  0
SPLINE
  5
47B
100
AcDbEntity
  8
0
100
AcDbSpline
 62
7
  6
CONTINUOUS
 70
0
 71
3
 72
9
 73
5
 74
0
 42
0.0000001
 43
0.0000001
 44
0.0000000001
 40
0.0
 40
0.0
 40
0.0
 40
0.0
 40
0.2780185223
 40
1.0
 40
1.0
 40
1.0
 40
1.0
 10
118.8987649153
 20
356.212271602
 30
0.0
 10
118.9205588925
 20
356.211117305
 30
0.0
 10
118.9989592672
 20
356.207174631
 30
0.0
 10
119.0773823048
 20
356.2035497951
 30
0.0
 10
119.1340311808
 20
356.20180539
 30
0.0
  0
SPLINE
  5
47C
100
AcDbEntity
  8
0
100
AcDbSpline
 62
7
  6
CONTINUOUS
 70
0
 71
3
 72
9
 73
5
 74
0
 42
0.0000001
 43
0.0000001
 44
0.0000000001
 40
0.0
 40
0.0
 40
0.0
 40
0.0
 40
0.6288254849
 40
1.0
 40
1.0
 40
1.0
 40
1.0
 10
119.0470499212
 20
354.781753842
 30
0.0
 10
119.000206496
 20
354.7833203603
 30
0.0
 10
118.9257405622
 20
354.7866114524
 30
0.0
 10
118.8512995114
 20
354.7903494232
 30
0.0
 10
118.8236725246
 20
354.7918097189
 30
0.0
  0
SPLINE
  5
47D
100
AcDbEntity
  8
0
100
AcDbSpline
 62
7
  6
CONTINUOUS
 70
0
 71
3
 72
12
 73
8
 74
0
 42
0.0000001
 43
0.0000001
 44
0.0000000001
 40
0.0
 40
0.0
 40
0.0
 40
0.0
 40
0.2492705695
 40
0.5262896233
 40
0.6828530993
 40
0.8407101443
 40
1.0
 40
1.0
 40
1.0
 40
1.0
 10
118.8987649383
 20
356.2122714117
 30
0.0
 10
118.9035868689
 20
356.2525068037
 30
0.0
 10
118.8804031179
 20
356.3417190381
 30
0.0
 10
118.8005419588
 20
356.4231634505
 30
0.0
 10
118.7177741203
 20
356.4728038034
 30
0.0
 10
118.6450386794
 20
356.4994364774
 30
0.0
 10
118.5934177991
 20
356.5070357027
 30
0.0
 10
118.5675224417
 20
356.5070356897
 30
0.0
  0
SPLINE
  5
47E
100
AcDbEntity
  8
0
100
AcDbSpline
 62
7
  6
CONTINUOUS
 70
0
 71
3
 72
12
 73
8
 74
0
 42
0.0000001
 43
0.0000001
 44
0.0000000001
 40
0.0
 40
0.0
 40
0.0
 40
0.0
 40
0.1958556931
 40
0.397808668
 40
0.6018417414
 40
0.803910637
 40
1.0
 40
1.0
 40
1.0
 40
1.0
 10
114.1805131103
 20
350.9914389579
 30
0.0
 10
114.1698005044
 20
350.8708149984
 30
0.0
 10
114.1197630282
 20
350.6275120311
 30
0.0
 10
113.9657319565
 20
350.2857345437
 30
0.0
 10
113.7410958898
 20
349.9807241894
 30
0.0
 10
113.4602306797
 20
349.7320884219
 30
0.0
 10
113.2424921177
 20
349.6120883159
 30
0.0
 10
113.130333048
 20
349.5660420777
 30
0.0
  0
SPLINE
  5
47F
100
AcDbEntity
  8
0
100
AcDbSpline
 62
7
  6
CONTINUOUS
 70
0
 71
3
 72
10
 73
6
 74
0
 42
0.0000001
 43
0.0000001
 44
0.0000000001
 40
0.0
 40
0.0
 40
0.0
 40
0.0
 40
0.3333183002
 40
0.6666816549
 40
1.0
 40
1.0
 40
1.0
 40
1.0
 10
127.0992615353
 20
354.791803232
 30
0.0
 10
126.7052237058
 20
354.789463456
 30
0.0
 10
125.9170834051
 20
354.7826487865
 30
0.0
 10
124.7352300686
 20
354.7532310862
 30
0.0
 10
123.947089715
 20
354.7464164101
 30
0.0
 10
123.5530518325
 20
354.7440766284
 30
0.0
  0
SPLINE
  5
480
100
AcDbEntity
  8
0
100
AcDbSpline
 62
7
  6
CONTINUOUS
 70
0
 71
3
 72
10
 73
6
 74
0
 42
0.0000001
 43
0.0000001
 44
0.0000000001
 40
0.0
 40
0.0
 40
0.0
 40
0.0
 40
0.3091479275
 40
0.5878667302
 40
1.0
 40
1.0
 40
1.0
 40
1.0
 10
128.4326264556
 20
353.4163133967
 30
0.0
 10
128.4022641407
 20
353.4109708544
 30
0.0
 10
128.3415839579
 20
353.3972611177
 30
0.0
 10
128.2571530325
 20
353.3983780002
 30
0.0
 10
128.1425465805
 20
353.3287392279
 30
0.0
 10
128.1371787232
 20
353.3694858194
 30
0.0
  0
SPLINE
  5
481
100
AcDbEntity
  8
0
100
AcDbSpline
 62
7
  6
CONTINUOUS
 70
0
 71
3
 72
12
 73
8
 74
0
 42
0.0000001
 43
0.0000001
 44
0.0000000001
 40
0.0
 40
0.0
 40
0.0
 40
0.0
 40
0.1958316539
 40
0.3977712829
 40
0.6018039226
 40
0.8038857428
 40
1.0
 40
1.0
 40
1.0
 40
1.0
 10
113.1303331643
 20
349.5660417999
 30
0.0
 10
113.2423523785
 20
349.612009222
 30
0.0
 10
113.459880937
 20
349.7318831081
 30
0.0
 10
113.7406551943
 20
349.9802486306
 30
0.0
 10
113.9654088466
 20
350.2851717906
 30
0.0
 10
114.1196713714
 20
350.6271160563
 30
0.0
 10
114.1697670779
 20
350.8706574342
 30
0.0
 10
114.1805137204
 20
350.9914389052
 30
0.0
  0
SPLINE
  5
482
100
AcDbEntity
  8
0
100
AcDbSpline
 62
7
  6
CONTINUOUS
 70
0
 71
3
 72
13
 73
9
 74
0
 42
0.0000001
 43
0.0000001
 44
0.0000000001
 40
0.0
 40
0.0
 40
0.0
 40
0.0
 40
0.167149939
 40
0.333733878
 40
0.5000552439
 40
0.6663726873
 40
0.8329462832
 40
1.0
 40
1.0
 40
1.0
 40
1.0
 10
109.740883164
 20
345.391796548
 30
0.0
 10
109.7985595328
 20
345.3920555954
 30
0.0
 10
109.9142265612
 20
345.4060546779
 30
0.0
 10
110.0765788411
 20
345.4694317652
 30
0.0
 10
110.2184473913
 20
345.5702039136
 30
0.0
 10
110.3313377485
 20
345.7026290957
 30
0.0
 10
110.4087631736
 20
345.8587279481
 30
0.0
 10
110.4328965009
 20
345.9726757598
 30
0.0
 10
110.4382241841
 20
346.030072776
 30
0.0
  0
LINE
  5
483
100
AcDbEntity
  8
0
100
AcDbLine
 62
7
  6
CONTINUOUS
 10
108.5355355457
 20
345.0970356897
 11
108.545825805
 21
345.3917999678
  0
SPLINE
  5
484
100
AcDbEntity
  8
0
100
AcDbSpline
 62
7
  6
CONTINUOUS
 70
0
 71
3
 72
13
 73
9
 74
0
 42
0.0000001
 43
0.0000001
 44
0.0000000001
 40
0.0
 40
0.0
 40
0.0
 40
0.0
 40
0.0191446312
 40
0.0751027913
 40
0.1668290138
 40
0.2931666396
 40
0.6298470543
 40
1.0
 40
1.0
 40
1.0
 40
1.0
 10
108.2458861015
 20
345.3917997455
 30
0.0
 10
108.2459141087
 20
345.3937142284
 30
0.0
 10
108.2577948379
 20
345.3911084962
 30
0.0
 10
108.2703190845
 20
345.3946563534
 30
0.0
 10
108.3000278006
 20
345.3933823813
 30
0.0
 10
108.3541745103
 20
345.3945268455
 30
0.0
 10
108.4383960333
 20
345.3932162579
 30
0.0
 10
108.5088118015
 20
345.3924459949
 30
0.0
 10
108.5458258049
 20
345.3918001088
 30
0.0
  0
SPLINE
  5
485
100
AcDbEntity
  8
0
100
AcDbSpline
 62
7
  6
CONTINUOUS
 70
0
 71
3
 72
13
 73
9
 74
0
 42
0.0000001
 43
0.0000001
 44
0.0000000001
 40
0.0
 40
0.0
 40
0.0
 40
0.0
 40
0.3701537872
 40
0.7068346818
 40
0.8331722267
 40
0.9248981647
 40
0.9808558902
 40
1.0
 40
1.0
 40
1.0
 40
1.0
 10
108.545825802
 20
345.3918000248
 30
0.0
 10
108.5088117094
 20
345.3924459124
 30
0.0
 10
108.4383958535
 20
345.3932161743
 30
0.0
 10
108.3541740168
 20
345.3945267408
 30
0.0
 10
108.3000275516
 20
345.3933822679
 30
0.0
 10
108.2703184669
 20
345.3946561914
 30
0.0
 10
108.2577951175
 20
345.3911083938
 30
0.0
 10
108.2459137168
 20
345.3937139971
 30
0.0
 10
108.2458860645
 20
345.3917995609
 30
0.0
  0
SPLINE
  5
486
100
AcDbEntity
  8
0
100
AcDbSpline
 62
7
  6
CONTINUOUS
 70
0
 71
3
 72
10
 73
6
 74
0
 42
0.0000001
 43
0.0000001
 44
0.0000000001
 40
0.0
 40
0.0
 40
0.0
 40
0.0
 40
0.3089255429
 40
0.5876282678
 40
1.0
 40
1.0
 40
1.0
 40
1.0
 10
108.6026398129
 20
348.6466722885
 30
0.0
 10
108.5717533491
 20
348.6472030595
 30
0.0
 10
108.5096731849
 20
348.6512585035
 30
0.0
 10
108.4255552949
 20
348.6369133251
 30
0.0
 10
108.3033172953
 20
348.6878771103
 30
0.0
 10
108.3026850601
 20
348.6466468268
 30
0.0
  0
SPLINE
  5
487
100
AcDbEntity
  8
0
100
AcDbSpline
 62
7
  6
CONTINUOUS
 70
0
 71
3
 72
10
 73
6
 74
0
 42
0.0000001
 43
0.0000001
 44
0.0000000001
 40
0.0
 40
0.0
 40
0.0
 40
0.0
 40
0.4116623863
 40
0.6902310459
 40
1.0
 40
1.0
 40
1.0
 40
1.0
 10
110.7335066933
 20
345.9751728711
 30
0.0
 10
110.7290001687
 20
345.9343315087
 30
0.0
 10
110.6125834338
 20
345.9976838045
 30
0.0
 10
110.5277466373
 20
345.9921786559
 30
0.0
 10
110.4664281202
 20
346.0027160135
 30
0.0
 10
110.4357392495
 20
346.0064809852
 30
0.0
  0
SPLINE
  5
488
100
AcDbEntity
  8
0
100
AcDbSpline
 62
7
  6
CONTINUOUS
 70
0
 71
3
 72
14
 73
10
 74
0
 42
0.0000001
 43
0.0000001
 44
0.0000000001
 40
0.0
 40
0.0
 40
0.0
 40
0.0
 40
0.1502439294
 40
0.2879698831
 40
0.4247243466
 40
0.5637843918
 40
0.7027441017
 40
0.8440405257
 40
1.0
 40
1.0
 40
1.0
 40
1.0
 10
115.7042349104
 20
354.7918023633
 30
0.0
 10
115.6079169887
 20
354.7890761828
 30
0.0
 10
115.4229844315
 20
354.7695912751
 30
0.0
 10
115.1619528857
 20
354.6844569172
 30
0.0
 10
114.9326252268
 20
354.5473045881
 30
0.0
 10
114.7339621942
 20
354.3680977514
 30
0.0
 10
114.5716505404
 20
354.151132249
 30
0.0
 10
114.45796556
 20
353.8928862391
 30
0.0
 10
114.4209467528
 20
353.7044303774
 30
0.0
 10
114.4091883961
 20
353.6051018578
 30
0.0
  0
SPLINE
  5
489
100
AcDbEntity
  8
0
100
AcDbSpline
 62
7
  6
CONTINUOUS
 70
0
 71
3
 72
10
 73
6
 74
0
 42
0.0000001
 43
0.0000001
 44
0.0000000001
 40
0.0
 40
0.0
 40
0.0
 40
0.0
 40
0.3069429762
 40
0.586512569
 40
1.0
 40
1.0
 40
1.0
 40
1.0
 10
110.4357342315
 20
346.0064787291
 30
0.0
 10
110.4661436933
 20
346.0027484181
 30
0.0
 10
110.5272504202
 20
345.9922674587
 30
0.0
 10
110.6120784238
 20
345.9977899239
 30
0.0
 10
110.7289631575
 20
345.9341529459
 30
0.0
 10
110.7335072639
 20
345.9751741298
 30
0.0
  0
SPLINE
  5
48A
100
AcDbEntity
  8
0
100
AcDbSpline
 62
7
  6
CONTINUOUS
 70
0
 71
3
 72
13
 73
9
 74
0
 42
0.0000001
 43
0.0000001
 44
0.0000000001
 40
0.0
 40
0.0
 40
0.0
 40
0.0
 40
0.1747293285
 40
0.3369952644
 40
0.5002243021
 40
0.6633833185
 40
0.8255337518
 40
1.0
 40
1.0
 40
1.0
 40
1.0
 10
128.3795076886
 20
353.7175419084
 30
0.0
 10
128.3588082583
 20
353.8209329583
 30
0.0
 10
128.300833973
 20
354.0178411648
 30
0.0
 10
128.1470821943
 20
354.2810964435
 30
0.0
 10
127.9403495871
 20
354.4947447685
 30
0.0
 10
127.694001291
 20
354.6610335116
 30
0.0
 10
127.408272099
 20
354.7665331462
 30
0.0
 10
127.20451803
 20
354.7893964275
 30
0.0
 10
127.0992615409
 20
354.7918031384
 30
0.0
  0
SPLINE
  5
48B
100
AcDbEntity
  8
0
100
AcDbSpline
 62
7
  6
CONTINUOUS
 70
0
 71
3
 72
13
 73
9
 74
0
 42
0.0000001
 43
0.0000001
 44
0.0000000001
 40
0.0
 40
0.0
 40
0.0
 40
0.0
 40
0.0191309473
 40
0.0750551516
 40
0.1667316649
 40
0.2930113288
 40
0.6296214127
 40
1.0
 40
1.0
 40
1.0
 40
1.0
 10
128.0840594501
 20
353.6706821289
 30
0.0
 10
128.0843908127
 20
353.6688029105
 30
0.0
 10
128.0956673341
 20
353.6732474108
 30
0.0
 10
128.1085601828
 20
353.6717017574
 30
0.0
 10
128.1376031034
 20
353.677609499
 30
0.0
 10
128.1911030494
 20
353.6849366359
 30
0.0
 10
128.2738668375
 20
353.6993812593
 30
0.0
 10
128.3431253321
 20
353.711128743
 30
0.0
 10
128.3795076876
 20
353.7175419992
 30
0.0
  0
SPLINE
  5
48C
100
AcDbEntity
  8
0
100
AcDbSpline
 62
7
  6
CONTINUOUS
 70
0
 71
3
 72
13
 73
9
 74
0
 42
0.0000001
 43
0.0000001
 44
0.0000000001
 40
0.0
 40
0.0
 40
0.0
 40
0.0
 40
0.3720863321
 40
0.7085499221
 40
0.8344408725
 40
0.9256789319
 40
0.9812098734
 40
1.0
 40
1.0
 40
1.0
 40
1.0
 10
139.0603831722
 20
348.7990435439
 30
0.0
 10
139.0449010981
 20
348.7658522156
 30
0.0
 10
139.0152183225
 20
348.7030477447
 30
0.0
 10
138.9805327697
 20
348.6275824566
 30
0.0
 10
138.9565733226
 20
348.5801401345
 30
0.0
 10
138.9457507687
 20
348.5529840864
 30
0.0
 10
138.937023456
 20
348.5437314802
 30
0.0
 10
138.9352707595
 20
348.531598398
 30
0.0
 10
138.9335932507
 20
348.5323772946
 30
0.0
  0
SPLINE
  5
48D
100
AcDbEntity
  8
0
100
AcDbSpline
 62
7
  6
CONTINUOUS
 70
0
 71
3
 72
11
 73
7
 74
0
 42
0.0000001
 43
0.0000001
 44
0.0000000001
 40
0.0
 40
0.0
 40
0.0
 40
0.0
 40
0.250430579
 40
0.4998557052
 40
0.7493107461
 40
1.0
 40
1.0
 40
1.0
 40
1.0
 10
140.2229762198
 20
347.570923448
 30
0.0
 10
140.1689562207
 20
347.7047783147
 30
0.0
 10
140.036612501
 20
347.9629534376
 30
0.0
 10
139.7683283794
 20
348.3045489803
 30
0.0
 10
139.4418788068
 20
348.5913041672
 30
0.0
 10
139.1911987854
 20
348.7376788067
 30
0.0
 10
139.0603831735
 20
348.7990435029
 30
0.0
  0
SPLINE
  5
48E
100
AcDbEntity
  8
0
100
AcDbSpline
 62
7
  6
CONTINUOUS
 70
0
 71
3
 72
10
 73
6
 74
0
 42
0.0000001
 43
0.0000001
 44
0.0000000001
 40
0.0
 40
0.0
 40
0.0
 40
0.0
 40
0.4116210526
 40
0.6901158825
 40
1.0
 40
1.0
 40
1.0
 40
1.0
 10
139.9462010554
 20
347.4603139258
 30
0.0
 10
139.9621463949
 20
347.4226512513
 30
0.0
 10
140.0556419442
 20
347.5148166586
 30
0.0
 10
140.1386900925
 20
347.5324491728
 30
0.0
 10
140.1945715945
 20
347.5590397202
 30
0.0
 10
140.22297622
 20
347.5709234727
 30
0.0
  0
SPLINE
  5
48F
100
AcDbEntity
  8
0
100
AcDbSpline
 62
7
  6
CONTINUOUS
 70
0
 71
3
 72
13
 73
9
 74
0
 42
0.0000001
 43
0.0000001
 44
0.0000000001
 40
0.0
 40
0.0
 40
0.0
 40
0.0
 40
0.3706888128
 40
0.7072279905
 40
0.8334354526
 40
0.9250439156
 40
0.9809130704
 40
1.0
 40
1.0
 40
1.0
 40
1.0
 10
137.3577349463
 20
350.1116688525
 30
0.0
 10
137.3234139166
 20
350.0982624556
 30
0.0
 10
137.2580264715
 20
350.0731959083
 30
0.0
 10
137.1799907622
 20
350.0428041475
 30
0.0
 10
137.1291890435
 20
350.0251347341
 30
0.0
 10
137.1020097511
 20
350.0135970781
 30
0.0
 10
137.0891253498
 20
350.0126119017
 30
0.0
 10
137.0790147194
 20
350.0059611557
 30
0.0
 10
137.078324265
 20
350.0077283008
 30
0.0
  0
SPLINE
  5
490
100
AcDbEntity
  8
0
100
AcDbSpline
 62
7
  6
CONTINUOUS
 70
0
 71
3
 72
10
 73
6
 74
0
 42
0.0000001
 43
0.0000001
 44
0.0000000001
 40
0.0
 40
0.0
 40
0.0
 40
0.0
 40
0.3098739712
 40
0.5883681548
 40
1.0
 40
1.0
 40
1.0
 40
1.0
 10
140.2229846352
 20
347.5709023566
 30
0.0
 10
140.1945808522
 20
347.5590191199
 30
0.0
 10
140.1386964796
 20
347.5324200557
 30
0.0
 10
140.05568161
 20
347.5147945904
 30
0.0
 10
139.9620766653
 20
347.4225928576
 30
0.0
 10
139.9462104365
 20
347.4602901368
 30
0.0
  0
SPLINE
  5
491
100
AcDbEntity
  8
0
100
AcDbSpline
 62
7
  6
CONTINUOUS
 70
0
 71
3
 72
10
 73
6
 74
0
 42
0.0000001
 43
0.0000001
 44
0.0000000001
 40
0.0
 40
0.0
 40
0.0
 40
0.0
 40
0.3100978524
 40
0.5889066227
 40
1.0
 40
1.0
 40
1.0
 40
1.0
 10
138.2227194131
 20
349.1896525294
 30
0.0
 10
138.2098168885
 20
349.1619931921
 30
0.0
 10
138.1867827595
 20
349.1050894164
 30
0.0
 10
138.1376095962
 20
349.036959605
 30
0.0
 10
138.1326011081
 20
348.9058977596
 30
0.0
 10
138.095930993
 20
348.9229972869
 30
0.0
  0
SPLINE
  5
492
100
AcDbEntity
  8
0
100
AcDbSpline
 62
7
  6
CONTINUOUS
 70
0
 71
3
 72
13
 73
9
 74
0
 42
0.0000001
 43
0.0000001
 44
0.0000000001
 40
0.0
 40
0.0
 40
0.0
 40
0.0
 40
0.370693018
 40
0.7072316539
 40
0.8334380049
 40
0.9250452627
 40
0.9809134537
 40
1.0
 40
1.0
 40
1.0
 40
1.0
 10
137.3577263365
 20
350.111665488
 30
0.0
 10
137.3234059607
 20
350.098259366
 30
0.0
 10
137.2580201683
 20
350.0731934847
 30
0.0
 10
137.1799865914
 20
350.042802603
 30
0.0
 10
137.1291866792
 20
350.0251338412
 30
0.0
 10
137.1020085364
 20
350.0135967159
 30
0.0
 10
137.0891247174
 20
350.0126115611
 30
0.0
 10
137.079014577
 20
350.0059612016
 30
0.0
 10
137.0783241534
 20
350.0077282555
 30
0.0
  0
SPLINE
  5
493
100
AcDbEntity
  8
0
100
AcDbSpline
 62
7
  6
CONTINUOUS
 70
0
 71
3
 72
17
 73
13
 74
0
 42
0.0000001
 43
0.0000001
 44
0.0000000001
 40
0.0
 40
0.0
 40
0.0
 40
0.0
 40
0.1017099023
 40
0.2008695398
 40
0.3008472228
 40
0.4012191001
 40
0.5011582208
 40
0.6010115057
 40
0.7011079523
 40
0.8005988896
 40
0.8991171443
 40
1.0
 40
1.0
 40
1.0
 40
1.0
 10
129.4654210513
 20
352.9279268579
 30
0.0
 10
129.7468295693
 20
353.0835027902
 30
0.0
 10
130.3276828637
 20
353.3484467022
 30
0.0
 10
131.2523733246
 20
353.5903594039
 30
0.0
 10
132.2008013218
 20
353.6669886213
 30
0.0
 10
133.151154964
 20
353.585477045
 30
0.0
 10
134.0732189524
 20
353.3417689373
 30
0.0
 10
134.9389149569
 20
352.9436779492
 30
0.0
 10
135.7220467968
 20
352.4039270832
 30
0.0
 10
136.4025828899
 20
351.7453410219
 30
0.0
 10
136.9598809599
 20
350.9765610457
 30
0.0
 10
137.2394494669
 20
350.407859004
 30
0.0
 10
137.3577414774
 20
350.1116716143
 30
0.0
  0
LINE
  5
494
100
AcDbEntity
  8
0
100
AcDbLine
 62
7
  6
CONTINUOUS
 10
123.2431161457
 20
356.2018341524
 11
123.3156915538
 21
354.7813069512
  0
SPLINE
  5
495
100
AcDbEntity
  8
0
100
AcDbSpline
 62
7
  6
CONTINUOUS
 70
0
 71
3
 72
10
 73
6
 74
0
 42
0.0000001
 43
0.0000001
 44
0.0000000001
 40
0.0
 40
0.0
 40
0.0
 40
0.0
 40
0.3348657203
 40
0.6678914106
 40
1.0
 40
1.0
 40
1.0
 40
1.0
 10
123.2845152614
 20
356.5070356897
 30
0.0
 10
123.2732509627
 20
356.4743473097
 30
0.0
 10
123.2553363085
 20
356.4074989977
 30
0.0
 10
123.2415334196
 20
356.3049311019
 30
0.0
 10
123.2409259319
 20
356.2360507738
 30
0.0
 10
123.2426924951
 20
356.2018062134
 30
0.0
  0
SPLINE
  5
496
100
AcDbEntity
  8
0
100
AcDbSpline
 62
7
  6
CONTINUOUS
 70
0
 71
3
 72
10
 73
6
 74
0
 42
0.0000001
 43
0.0000001
 44
0.0000000001
 40
0.0
 40
0.0
 40
0.0
 40
0.0
 40
0.3267698698
 40
0.6602943891
 40
1.0
 40
1.0
 40
1.0
 40
1.0
 10
119.1340305792
 20
356.2018062174
 30
0.0
 10
119.1357683634
 20
356.2355001972
 30
0.0
 10
119.1352447006
 20
356.3038734186
 30
0.0
 10
119.1216118368
 20
356.4064639401
 30
0.0
 10
119.1036355387
 20
356.473875038
 30
0.0
 10
119.0922082642
 20
356.5070356897
 30
0.0
  0
LINE
  5
497
100
AcDbEntity
  8
0
100
AcDbLine
 62
7
  6
CONTINUOUS
 10
119.0610302209
 20
354.7813069088
 11
119.1336069246
 21
356.2018341566
  0
SPLINE
  5
498
100
AcDbEntity
  8
0
100
AcDbSpline
 62
7
  6
CONTINUOUS
 70
0
 71
3
 72
10
 73
6
 74
0
 42
0.0000001
 43
0.0000001
 44
0.0000000001
 40
0.0
 40
0.0
 40
0.0
 40
0.0
 40
0.3323454179
 40
0.6657225368
 40
1.0
 40
1.0
 40
1.0
 40
1.0
 10
118.8236375687
 20
354.7434227139
 30
0.0
 10
118.4780267329
 20
354.7457745824
 30
0.0
 10
117.7857189124
 20
354.7526844883
 30
0.0
 10
116.7461733506
 20
354.782613823
 30
0.0
 10
116.0518550613
 20
354.7894594004
 30
0.0
 10
115.7042349131
 20
354.7918027464
 30
0.0
  0
SPLINE
  5
499
100
AcDbEntity
  8
0
100
AcDbSpline
 62
7
  6
CONTINUOUS
 70
0
 71
3
 72
10
 73
6
 74
0
 42
0.0000001
 43
0.0000001
 44
0.0000000001
 40
0.0
 40
0.0
 40
0.0
 40
0.0
 40
0.3063314166
 40
0.6041399189
 40
1.0
 40
1.0
 40
1.0
 40
1.0
 10
119.0610307904
 20
354.7813069512
 30
0.0
 10
119.035848697
 20
354.7795896057
 30
0.0
 10
118.9870233775
 20
354.7839959553
 30
0.0
 10
118.9003604763
 20
354.8007425551
 30
0.0
 10
118.8563156166
 20
354.7447107668
 30
0.0
 10
118.8237043086
 20
354.7440794656
 30
0.0
  0
SPLINE
  5
49A
100
AcDbEntity
  8
0
100
AcDbSpline
 62
7
  6
CONTINUOUS
 70
0
 71
3
 72
12
 73
8
 74
0
 42
0.0000001
 43
0.0000001
 44
0.0000000001
 40
0.0
 40
0.0
 40
0.0
 40
0.0
 40
0.2217505773
 40
0.4351009973
 40
0.6353518002
 40
0.822053316
 40
1.0
 40
1.0
 40
1.0
 40
1.0
 10
119.0606029887
 20
354.7813349029
 30
0.0
 10
119.0593598908
 20
354.7513424051
 30
0.0
 10
119.0499065224
 20
354.6925174344
 30
0.0
 10
119.0154356919
 20
354.6127041064
 30
0.0
 10
118.9633164148
 20
354.5487763022
 30
0.0
 10
118.897572514
 20
354.5069209241
 30
0.0
 10
118.8477590513
 20
354.4970356897
 30
0.0
 10
118.8236705111
 20
354.4970356897
 30
0.0
  0
SPLINE
  5
49B
100
AcDbEntity
  8
0
100
AcDbSpline
 62
7
  6
CONTINUOUS
 70
0
 71
3
 72
12
 73
8
 74
0
 42
0.0000001
 43
0.0000001
 44
0.0000000001
 40
0.0
 40
0.0
 40
0.0
 40
0.0
 40
0.2214336419
 40
0.4347818938
 40
0.6351745069
 40
0.8220155933
 40
1.0
 40
1.0
 40
1.0
 40
1.0
 10
123.3161193556
 20
354.7813349029
 30
0.0
 10
123.3173606795
 20
354.751385344
 30
0.0
 10
123.3267959797
 20
354.6926042006
 30
0.0
 10
123.3612259358
 20
354.6128000194
 30
0.0
 10
123.4133474483
 20
354.5488234625
 30
0.0
 10
123.4791208623
 20
354.5069297304
 30
0.0
 10
123.5289582444
 20
354.4970356897
 30
0.0
 10
123.5530518331
 20
354.4970356897
 30
0.0
  0
SPLINE
  5
49C
100
AcDbEntity
  8
0
100
AcDbSpline
 62
7
  6
CONTINUOUS
 70
0
 71
3
 72
9
 73
5
 74
0
 42
0.0000001
 43
0.0000001
 44
0.0000000001
 40
0.0
 40
0.0
 40
0.0
 40
0.0
 40
0.2780185232
 40
1.0
 40
1.0
 40
1.0
 40
1.0
 10
123.4779574291
 20
356.2122716015
 30
0.0
 10
123.4561634518
 20
356.2111173045
 30
0.0
 10
123.3777630772
 20
356.2071746308
 30
0.0
 10
123.2993400398
 20
356.2035497951
 30
0.0
 10
123.2426911639
 20
356.2018053901
 30
0.0
  0
SPLINE
  5
49D
100
AcDbEntity
  8
0
100
AcDbSpline
 62
7
  6
CONTINUOUS
 70
0
 71
3
 72
9
 73
5
 74
0
 42
0.0000001
 43
0.0000001
 44
0.0000000001
 40
0.0
 40
0.0
 40
0.0
 40
0.0
 40
0.6288254848
 40
1.0
 40
1.0
 40
1.0
 40
1.0
 10
123.329672423
 20
354.781753842
 30
0.0
 10
123.3765158482
 20
354.7833203603
 30
0.0
 10
123.450981782
 20
354.7866114524
 30
0.0
 10
123.5254228328
 20
354.7903494232
 30
0.0
 10
123.5530498196
 20
354.7918097189
 30
0.0
  0
SPLINE
  5
49E
100
AcDbEntity
  8
0
100
AcDbSpline
 62
7
  6
CONTINUOUS
 70
0
 71
3
 72
12
 73
8
 74
0
 42
0.0000001
 43
0.0000001
 44
0.0000000001
 40
0.0
 40
0.0
 40
0.0
 40
0.0
 40
0.2492703339
 40
0.5262892786
 40
0.6828527272
 40
0.8407098417
 40
1.0
 40
1.0
 40
1.0
 40
1.0
 10
123.477957406
 20
356.2122714117
 30
0.0
 10
123.4731354697
 20
356.2525067767
 30
0.0
 10
123.4963192036
 20
356.3417189803
 30
0.0
 10
123.5761803202
 20
356.4231633922
 30
0.0
 10
123.6589481612
 20
356.4728037772
 30
0.0
 10
123.731683674
 20
356.4994364881
 30
0.0
 10
123.7833046345
 20
356.5070357155
 30
0.0
 10
123.8092000489
 20
356.5070356897
 30
0.0
  0
LINE
  5
49F
100
AcDbEntity
  8
0
100
AcDbLine
 62
7
  6
CONTINUOUS
 10
119.1336061985
 20
356.2018341524
 11
119.0610307904
 21
354.7813069512
  0
SPLINE
  5
4A0
100
AcDbEntity
  8
0
100
AcDbSpline
 62
7
  6
CONTINUOUS
 70
0
 71
3
 72
10
 73
6
 74
0
 42
0.0000001
 43
0.0000001
 44
0.0000000001
 40
0.0
 40
0.0
 40
0.0
 40
0.0
 40
0.3348661009
 40
0.667889228
 40
1.0
 40
1.0
 40
1.0
 40
1.0
 10
119.0922070567
 20
356.5070356897
 30
0.0
 10
119.103471364
 20
356.4743472704
 30
0.0
 10
119.1213860076
 20
356.4074991863
 30
0.0
 10
119.1351888777
 20
356.3049312908
 30
0.0
 10
119.1357964325
 20
356.236050999
 30
0.0
 10
119.1340298491
 20
356.2018062134
 30
0.0
  0
SPLINE
  5
4A1
100
AcDbEntity
  8
0
100
AcDbSpline
 62
7
  6
CONTINUOUS
 70
0
 71
3
 72
10
 73
6
 74
0
 42
0.0000001
 43
0.0000001
 44
0.0000000001
 40
0.0
 40
0.0
 40
0.0
 40
0.0
 40
0.326772629
 40
0.6602953862
 40
1.0
 40
1.0
 40
1.0
 40
1.0
 10
123.242691765
 20
356.2018062173
 30
0.0
 10
123.2409539612
 20
356.2355004816
 30
0.0
 10
123.2414776854
 20
356.3038738099
 30
0.0
 10
123.2551105912
 20
356.4064643231
 30
0.0
 10
123.2730868556
 20
356.4738751342
 30
0.0
 10
123.2845140942
 20
356.5070356897
 30
0.0
  0
LINE
  5
4A2
100
AcDbEntity
  8
0
100
AcDbLine
 62
7
  6
CONTINUOUS
 10
123.3156921233
 20
354.7813069088
 11
123.2431154196
 21
356.2018341565
  0
SPLINE
  5
4A3
100
AcDbEntity
  8
0
100
AcDbSpline
 62
7
  6
CONTINUOUS
 70
0
 71
3
 72
9
 73
5
 74
0
 42
0.0000001
 43
0.0000001
 44
0.0000000001
 40
0.0
 40
0.0
 40
0.0
 40
0.0
 40
0.2027083162
 40
1.0
 40
1.0
 40
1.0
 40
1.0
 10
119.1340303871
 20
356.2018051773
 30
0.0
 10
119.1181252918
 20
356.2022949626
 30
0.0
 10
119.0396781606
 20
356.2052043376
 30
0.0
 10
118.9612648202
 20
356.2089611875
 30
0.0
 10
118.8987648979
 20
356.2122714381
 30
0.0
  0
SPLINE
  5
4A4
100
AcDbEntity
  8
0
100
AcDbSpline
 62
7
  6
CONTINUOUS
 70
0
 71
3
 72
12
 73
8
 74
0
 42
0.0000001
 43
0.0000001
 44
0.0000000001
 40
0.0
 40
0.0
 40
0.0
 40
0.0
 40
0.1587801854
 40
0.3159850786
 40
0.4718646337
 40
0.7483212359
 40
1.0
 40
1.0
 40
1.0
 40
1.0
 10
118.5675216887
 20
356.5070356897
 30
0.0
 10
118.5933325435
 20
356.5070357198
 30
0.0
 10
118.6447606496
 20
356.4994878563
 30
0.0
 10
118.7172349809
 20
356.4730400181
 30
0.0
 10
118.7998096855
 20
356.4237076882
 30
0.0
 10
118.8800815232
 20
356.342426363
 30
0.0
 10
118.9035186406
 20
356.2529064768
 30
0.0
 10
118.8987648815
 20
356.2122714117
 30
0.0
  0
SPLINE
  5
4A5
100
AcDbEntity
  8
0
100
AcDbSpline
 62
7
  6
CONTINUOUS
 70
0
 71
3
 72
14
 73
10
 74
0
 42
0.0000001
 43
0.0000001
 44
0.0000000001
 40
0.0
 40
0.0
 40
0.0
 40
0.0
 40
0.1501906199
 40
0.2879037554
 40
0.4246801332
 40
0.5637828089
 40
0.7027810224
 40
0.8441071054
 40
1.0
 40
1.0
 40
1.0
 40
1.0
 10
115.7042349131
 20
354.7918027464
 30
0.0
 10
115.6079508539
 20
354.789077737
 30
0.0
 10
115.4230632631
 20
354.7695896167
 30
0.0
 10
115.162044159
 20
354.6845088325
 30
0.0
 10
114.9326824213
 20
354.547339224
 30
0.0
 10
114.7339804828
 20
354.3680774505
 30
0.0
 10
114.5716004139
 20
354.1510761308
 30
0.0
 10
114.457882222
 20
353.8928384086
 30
0.0
 10
114.4209014933
 20
353.7043930715
 30
0.0
 10
114.4091890712
 20
353.6051017996
 30
0.0
  0
SPLINE
  5
4A6
100
AcDbEntity
  8
0
100
AcDbSpline
 62
7
  6
CONTINUOUS
 70
0
 71
3
 72
14
 73
10
 74
0
 42
0.0000001
 43
0.0000001
 44
0.0000000001
 40
0.0
 40
0.0
 40
0.0
 40
0.0
 40
0.1503929211
 40
0.2881592279
 40
0.4249488125
 40
0.5640172097
 40
0.7029444616
 40
0.844206379
 40
1.0
 40
1.0
 40
1.0
 40
1.0
 10
114.4091850898
 20
353.6051021468
 30
0.0
 10
114.4203490208
 20
353.7009059652
 30
0.0
 10
114.4559435267
 20
353.883542704
 30
0.0
 10
114.5635474766
 20
354.1363002541
 30
0.0
 10
114.7202566027
 20
354.3528127821
 30
0.0
 10
114.9162032724
 20
354.5349973993
 30
0.0
 10
115.1464930492
 20
354.677687955
 30
0.0
 10
115.4135183213
 20
354.7683934595
 30
0.0
 10
115.6043645375
 20
354.7887942488
 30
0.0
 10
115.7042349128
 20
354.7918047222
 30
0.0
  0
SPLINE
  5
4A7
100
AcDbEntity
  8
0
100
AcDbSpline
 62
7
  6
CONTINUOUS
 70
0
 71
3
 72
13
 73
9
 74
0
 42
0.0000001
 43
0.0000001
 44
0.0000000001
 40
0.0
 40
0.0
 40
0.0
 40
0.0
 40
0.0191442353
 40
0.0750905775
 40
0.1667961762
 40
0.2931077069
 40
0.6297518592
 40
1.0
 40
1.0
 40
1.0
 40
1.0
 10
114.7080437943
 20
353.5841911153
 30
0.0
 10
114.7078771105
 20
353.5822859853
 30
0.0
 10
114.6962348518
 20
353.5857155147
 30
0.0
 10
114.683499331
 20
353.5830526629
 30
0.0
 10
114.6539994539
 20
353.5863956951
 30
0.0
 10
114.5999725803
 20
353.5890296082
 30
0.0
 10
114.516145221
 20
353.596205946
 30
0.0
 10
114.4460302651
 20
353.6018796225
 30
0.0
 10
114.4091850902
 20
353.6051021786
 30
0.0
  0
SPLINE
  5
4A8
100
AcDbEntity
  8
0
100
AcDbSpline
 62
7
  6
CONTINUOUS
 70
0
 71
3
 72
13
 73
9
 74
0
 42
0.0000001
 43
0.0000001
 44
0.0000000001
 40
0.0
 40
0.0
 40
0.0
 40
0.0
 40
0.3703788834
 40
0.706988943
 40
0.8332685314
 40
0.9249449581
 40
0.9808690888
 40
1.0
 40
1.0
 40
1.0
 40
1.0
 10
128.3795070537
 20
353.717541882
 30
0.0
 10
128.3431247418
 20
353.7111286349
 30
0.0
 10
128.2738663601
 20
353.6993811727
 30
0.0
 10
128.1911027143
 20
353.6849365779
 30
0.0
 10
128.1376028981
 20
353.6776094606
 30
0.0
 10
128.1085600519
 20
353.6717017379
 30
0.0
 10
128.0956672588
 20
353.673247387
 30
0.0
 10
128.0843907612
 20
353.6688029053
 30
0.0
 10
128.0840594064
 20
353.6706821175
 30
0.0
  0
SPLINE
  5
4A9
100
AcDbEntity
  8
0
100
AcDbSpline
 62
7
  6
CONTINUOUS
 70
0
 71
3
 72
10
 73
6
 74
0
 42
0.0000001
 43
0.0000001
 44
0.0000000001
 40
0.0
 40
0.0
 40
0.0
 40
0.0
 40
0.3091531142
 40
0.5878732527
 40
1.0
 40
1.0
 40
1.0
 40
1.0
 10
128.4326230407
 20
353.4163327631
 30
0.0
 10
128.4022618782
 20
353.4109809016
 30
0.0
 10
128.3415822734
 20
353.3972566084
 30
0.0
 10
128.2571557418
 20
353.3983833369
 30
0.0
 10
128.1425336244
 20
353.3287301043
 30
0.0
 10
128.137180123
 20
353.3694778804
 30
0.0
  0
SPLINE
  5
4AA
100
AcDbEntity
  8
0
100
AcDbSpline
 62
7
  6
CONTINUOUS
 70
0
 71
3
 72
13
 73
9
 74
0
 42
0.0000001
 43
0.0000001
 44
0.0000000001
 40
0.0
 40
0.0
 40
0.0
 40
0.0
 40
0.3719952164
 40
0.7084651169
 40
0.8343757596
 40
0.9256363277
 40
0.981188106
 40
1.0
 40
1.0
 40
1.0
 40
1.0
 10
129.4654085276
 20
352.9279490948
 30
0.0
 10
129.4833897874
 20
352.896022819
 30
0.0
 10
129.5178149913
 20
352.835639531
 30
0.0
 10
129.5582548866
 20
352.7630361945
 30
0.0
 10
129.5858311079
 20
352.7175487166
 30
0.0
 10
129.598805326
 20
352.6913316085
 30
0.0
 10
129.608190167
 20
352.682741591
 30
0.0
 10
129.6109941242
 20
352.6708380826
 30
0.0
 10
129.6126087552
 20
352.6717472024
 30
0.0
  0
SPLINE
  5
4AB
100
AcDbEntity
  8
0
100
AcDbSpline
 62
7
  6
CONTINUOUS
 70
0
 71
3
 72
17
 73
13
 74
0
 42
0.0000001
 43
0.0000001
 44
0.0000000001
 40
0.0
 40
0.0
 40
0.0
 40
0.0
 40
0.1016909774
 40
0.2008389136
 40
0.3008125295
 40
0.4011855238
 40
0.5011286691
 40
0.6009865795
 40
0.7010920023
 40
0.80059909
 40
0.8991230262
 40
1.0
 40
1.0
 40
1.0
 40
1.0
 10
137.3577479203
 20
350.1116741305
 30
0.0
 10
137.2384367291
 20
350.410205721
 30
0.0
 10
136.9565913202
 20
350.9829396376
 30
0.0
 10
136.3940563745
 20
351.7555444302
 30
0.0
 10
135.7084556451
 20
352.415282442
 30
0.0
 10
134.9212020063
 20
352.9538523921
 30
0.0
 10
134.053123207
 20
353.3489442708
 30
0.0
 10
133.130916643
 20
353.5888379116
 30
0.0
 10
132.1829034202
 20
353.6667965627
 30
0.0
 10
131.2390756978
 20
353.587816294
 30
0.0
 10
130.3209236172
 20
353.3455451212
 30
0.0
 10
129.7444715051
 20
353.0823255198
 30
0.0
 10
129.4654085277
 20
352.9279490945
 30
0.0
  0
SPLINE
  5
4AC
100
AcDbEntity
  8
0
100
AcDbSpline
 62
7
  6
CONTINUOUS
 70
0
 71
3
 72
13
 73
9
 74
0
 42
0.0000001
 43
0.0000001
 44
0.0000000001
 40
0.0
 40
0.0
 40
0.0
 40
0.0
 40
0.3706866712
 40
0.7072261291
 40
0.8334341539
 40
0.9250432262
 40
0.9809128702
 40
1.0
 40
1.0
 40
1.0
 40
1.0
 10
137.3577391165
 20
350.1116705028
 30
0.0
 10
137.3234177458
 20
350.0982639624
 30
0.0
 10
137.2580294426
 20
350.0731970691
 30
0.0
 10
137.1799926322
 20
350.0428048539
 30
0.0
 10
137.1291899774
 20
350.0251351027
 30
0.0
 10
137.102010102
 20
350.0135971763
 30
0.0
 10
137.0891253872
 20
350.0126119838
 30
0.0
 10
137.0790145191
 20
350.0059610434
 30
0.0
 10
137.0783240426
 20
350.0077282334
 30
0.0
  0
SPLINE
  5
4AD
100
AcDbEntity
  8
0
100
AcDbSpline
 62
7
  6
CONTINUOUS
 70
0
 71
3
 72
10
 73
6
 74
0
 42
0.0000001
 43
0.0000001
 44
0.0000000001
 40
0.0
 40
0.0
 40
0.0
 40
0.0
 40
0.3100863046
 40
0.588900761
 40
1.0
 40
1.0
 40
1.0
 40
1.0
 10
138.2227180097
 20
349.1896531838
 30
0.0
 10
138.2098166518
 20
349.1619945595
 30
0.0
 10
138.1867838451
 20
349.1050909357
 30
0.0
 10
138.1376096005
 20
349.0369618509
 30
0.0
 10
138.1326031548
 20
348.9058967765
 30
0.0
 10
138.0959325312
 20
348.9229965696
 30
0.0
  0
SPLINE
  5
4AE
100
AcDbEntity
  8
0
100
AcDbSpline
 62
7
  6
CONTINUOUS
 70
0
 71
3
 72
13
 73
9
 74
0
 42
0.0000001
 43
0.0000001
 44
0.0000000001
 40
0.0
 40
0.0
 40
0.0
 40
0.0
 40
0.3720916573
 40
0.7085567161
 40
0.8344467938
 40
0.9256831882
 40
0.9812120338
 40
1.0
 40
1.0
 40
1.0
 40
1.0
 10
139.0603831686
 20
348.7990435265
 30
0.0
 10
139.0449010914
 20
348.7658522018
 30
0.0
 10
139.015218639
 20
348.7030484476
 30
0.0
 10
138.9805326981
 20
348.6275823542
 30
0.0
 10
138.9565745638
 20
348.5801428234
 30
0.0
 10
138.9457507233
 20
348.5529841833
 30
0.0
 10
138.9370267457
 20
348.5437381946
 30
0.0
 10
138.9352710648
 20
348.5315996802
 30
0.0
 10
138.9335950111
 20
348.5323811371
 30
0.0
  0
SPLINE
  5
4AF
100
AcDbEntity
  8
0
100
AcDbSpline
 62
7
  6
CONTINUOUS
 70
0
 71
3
 72
10
 73
6
 74
0
 42
0.0000001
 43
0.0000001
 44
0.0000000001
 40
0.0
 40
0.0
 40
0.0
 40
0.0
 40
0.3136282298
 40
0.592359398
 40
1.0
 40
1.0
 40
1.0
 40
1.0
 10
140.2229738101
 20
347.5709291799
 30
0.0
 10
140.1942263266
 20
347.5589020635
 30
0.0
 10
140.1379861477
 20
347.5319727733
 30
0.0
 10
140.0549838666
 20
347.5144727628
 30
0.0
 10
139.9619574656
 20
347.422972749
 30
0.0
 10
139.9462161859
 20
347.4602917355
 30
0.0
  0
SPLINE
  5
4B0
100
AcDbEntity
  8
0
100
AcDbSpline
 62
7
  6
CONTINUOUS
 70
0
 71
3
 72
10
 73
6
 74
0
 42
0.0000001
 43
0.0000001
 44
0.0000000001
 40
0.0
 40
0.0
 40
0.0
 40
0.0
 40
0.4116026145
 40
0.6901023636
 40
1.0
 40
1.0
 40
1.0
 40
1.0
 10
139.9462047965
 20
347.4603178601
 30
0.0
 10
139.9620698671
 20
347.4226240242
 30
0.0
 10
140.0556666278
 20
347.5148264712
 30
0.0
 10
140.1386817646
 20
347.5324457005
 30
0.0
 10
140.1945695749
 20
347.5590423492
 30
0.0
 10
140.2229749515
 20
347.5709264675
 30
0.0
  0
SPLINE
  5
4B1
100
AcDbEntity
  8
0
100
AcDbSpline
 62
7
  6
CONTINUOUS
 70
0
 71
3
 72
13
 73
9
 74
0
 42
0.0000001
 43
0.0000001
 44
0.0000000001
 40
0.0
 40
0.0
 40
0.0
 40
0.0
 40
0.0187882115
 40
0.0743175894
 40
0.1655546279
 40
0.2914452872
 40
0.6279105974
 40
1.0
 40
1.0
 40
1.0
 40
1.0
 10
138.9335932569
 20
348.5323773645
 30
0.0
 10
138.9352693833
 20
348.5315959445
 30
0.0
 10
138.9370250257
 20
348.5437346289
 30
0.0
 10
138.9457492693
 20
348.5529809597
 30
0.0
 10
138.9565732883
 20
348.5801400865
 30
0.0
 10
138.9805318406
 20
348.6275804635
 30
0.0
 10
139.0152181893
 20
348.7030474691
 30
0.0
 10
139.0449009751
 20
348.7658519482
 30
0.0
 10
139.0603831737
 20
348.7990435431
 30
0.0
  0
SPLINE
  5
4B2
100
AcDbEntity
  8
0
100
AcDbSpline
 62
7
  6
CONTINUOUS
 70
0
 71
3
 72
13
 73
9
 74
0
 42
0.0000001
 43
0.0000001
 44
0.0000000001
 40
0.0
 40
0.0
 40
0.0
 40
0.0
 40
0.1745647614
 40
0.336805842
 40
0.5000569172
 40
0.6632904572
 40
0.8255003154
 40
1.0
 40
1.0
 40
1.0
 40
1.0
 10
128.3795097164
 20
353.7175422646
 30
0.0
 10
128.3588551661
 20
353.8208410486
 30
0.0
 10
128.3009215038
 20
354.0176413564
 30
0.0
 10
128.147271943
 20
354.2808352432
 30
0.0
 10
127.94055873
 20
354.494561879
 30
0.0
 10
127.694168166
 20
354.6609632638
 30
0.0
 10
127.4083470807
 20
354.7665152321
 30
0.0
 10
127.2045382363
 20
354.7893991548
 30
0.0
 10
127.0992615377
 20
354.7918061272
 30
0.0
  0
SPLINE
  5
4B3
100
AcDbEntity
  8
0
100
AcDbSpline
 62
7
  6
CONTINUOUS
 70
0
 71
3
 72
10
 73
6
 74
0
 42
0.0000001
 43
0.0000001
 44
0.0000000001
 40
0.0
 40
0.0
 40
0.0
 40
0.0
 40
0.3080727171
 40
0.5779892661
 40
1.0
 40
1.0
 40
1.0
 40
1.0
 10
114.1805158603
 20
350.9914387175
 30
0.0
 10
114.211166963
 20
350.9887579103
 30
0.0
 10
114.2716702391
 20
350.9805684723
 30
0.0
 10
114.3570226601
 20
350.9884492741
 30
0.0
 10
114.4757008517
 20
350.9285406694
 30
0.0
 10
114.4793742696
 20
350.9705277165
 30
0.0
  0
SPLINE
  5
4B4
100
AcDbEntity
  8
0
100
AcDbSpline
 62
7
  6
CONTINUOUS
 70
0
 71
3
 72
13
 73
9
 74
0
 42
0.0000001
 43
0.0000001
 44
0.0000000001
 40
0.0
 40
0.0
 40
0.0
 40
0.0
 40
0.372376482
 40
0.7088709461
 40
0.8346861524
 40
0.925821202
 40
0.9812592658
 40
1.0
 40
1.0
 40
1.0
 40
1.0
 10
113.1303330485
 20
349.5660420804
 30
0.0
 10
113.1442024298
 20
349.532129367
 30
0.0
 10
113.1708176522
 20
349.4679604925
 30
0.0
 10
113.2017784733
 20
349.3908958667
 30
0.0
 10
113.2233802864
 20
349.3423780098
 30
0.0
 10
113.2328038314
 20
349.3147348024
 30
0.0
 10
113.2410791571
 20
349.3051114328
 30
0.0
 10
113.2421601799
 20
349.2928879831
 30
0.0
 10
113.2438669986
 20
349.2935857958
 30
0.0
  0
SPLINE
  5
4B5
100
AcDbEntity
  8
0
100
AcDbSpline
 62
7
  6
CONTINUOUS
 70
0
 71
3
 72
13
 73
9
 74
0
 42
0.0000001
 43
0.0000001
 44
0.0000000001
 40
0.0
 40
0.0
 40
0.0
 40
0.0
 40
0.1714909236
 40
0.3362653198
 40
0.502291171
 40
0.6684838875
 40
0.831974582
 40
1.0
 40
1.0
 40
1.0
 40
1.0
 10
110.4356897157
 20
346.0064993652
 30
0.0
 10
110.469427914
 20
346.2717475397
 30
0.0
 10
110.575613293
 20
346.7881066365
 30
0.0
 10
110.8680146542
 20
347.5192648024
 30
0.0
 10
111.2857322735
 20
348.1767836718
 30
0.0
 10
111.8069708253
 20
348.7528296412
 30
0.0
 10
112.4264404939
 20
349.2270719817
 30
0.0
 10
112.8886470827
 20
349.4649361927
 30
0.0
 10
113.130333048
 20
349.5660420777
 30
0.0
  0
SPLINE
  5
4B6
100
AcDbEntity
  8
0
100
AcDbSpline
 62
7
  6
CONTINUOUS
 70
0
 71
3
 72
13
 73
9
 74
0
 42
0.0000001
 43
0.0000001
 44
0.0000000001
 40
0.0
 40
0.0
 40
0.0
 40
0.0
 40
0.1675839393
 40
0.3314383527
 40
0.4975520267
 40
0.6637827481
 40
0.8298285762
 40
1.0
 40
1.0
 40
1.0
 40
1.0
 10
113.130334034
 20
349.5660396677
 30
0.0
 10
112.8912741557
 20
349.4661017082
 30
0.0
 10
112.4330930976
 20
349.2303176438
 30
0.0
 10
111.8176686591
 20
348.7621337322
 30
0.0
 10
111.2975257083
 20
348.1928740369
 30
0.0
 10
110.8793688501
 20
347.5407650178
 30
0.0
 10
110.5855751328
 20
346.8171635842
 30
0.0
 10
110.4751821871
 20
346.3063302368
 30
0.0
 10
110.4400670749
 20
346.0455749048
 30
0.0
  0
SPLINE
  5
4B7
100
AcDbEntity
  8
0
100
AcDbSpline
 62
7
  6
CONTINUOUS
 70
0
 71
3
 72
10
 73
6
 74
0
 42
0.0000001
 43
0.0000001
 44
0.0000000001
 40
0.0
 40
0.0
 40
0.0
 40
0.0
 40
0.4274231737
 40
0.6937016644
 40
1.0
 40
1.0
 40
1.0
 40
1.0
 10
115.4004043627
 20
347.5970356897
 30
0.0
 10
115.3583099906
 20
347.5970356897
 30
0.0
 10
115.3988717963
 20
347.4750847804
 30
0.0
 10
115.3925016416
 20
347.3916763755
 30
0.0
 10
115.3991991452
 20
347.3323172262
 30
0.0
 10
115.4018836817
 20
347.3022714114
 30
0.0
  0
SPLINE
  5
4B8
100
AcDbEntity
  8
0
100
AcDbSpline
 62
7
  6
CONTINUOUS
 70
0
 71
3
 72
10
 73
6
 74
0
 42
0.0000001
 43
0.0000001
 44
0.0000000001
 40
0.0
 40
0.0
 40
0.0
 40
0.0
 40
0.4121917909
 40
0.690906144
 40
1.0
 40
1.0
 40
1.0
 40
1.0
 10
112.723407586
 20
345.7705225525
 30
0.0
 10
112.7277943601
 20
345.811430137
 30
0.0
 10
112.8444960249
 20
345.747981178
 30
0.0
 10
112.9292841349
 20
345.753484089
 30
0.0
 10
112.9905518812
 20
345.7429573299
 30
0.0
 10
113.0211736587
 20
345.7391985899
 30
0.0
  0
SPLINE
  5
4B9
100
AcDbEntity
  8
0
100
AcDbSpline
 62
7
  6
CONTINUOUS
 70
0
 71
3
 72
8
 73
4
 74
0
 42
0.0000001
 43
0.0000001
 44
0.0000000001
 40
0.0
 40
0.0
 40
0.0
 40
0.0
 40
1.0
 40
1.0
 40
1.0
 40
1.0
 10
135.3278286799
 20
350.1481632686
 30
0.0
 10
135.3027560351
 20
350.1351401416
 30
0.0
 10
135.2596045632
 20
350.123189348
 30
0.0
 10
135.2430940132
 20
350.146116212
 30
0.0
  0
SPLINE
  5
4BA
100
AcDbEntity
  8
0
100
AcDbSpline
 62
7
  6
CONTINUOUS
 70
0
 71
3
 72
8
 73
4
 74
0
 42
0.0000001
 43
0.0000001
 44
0.0000000001
 40
0.0
 40
0.0
 40
0.0
 40
0.0
 40
1.0
 40
1.0
 40
1.0
 40
1.0
 10
135.1268805478
 20
349.9084414872
 30
0.0
 10
135.1428163634
 20
349.8841337659
 30
0.0
 10
135.1777954395
 20
349.8516344971
 30
0.0
 10
135.2030573256
 20
349.8660099151
 30
0.0
  0
SPLINE
  5
4BB
100
AcDbEntity
  8
0
100
AcDbSpline
 62
7
  6
CONTINUOUS
 70
0
 71
3
 72
9
 73
5
 74
0
 42
0.0000001
 43
0.0000001
 44
0.0000000001
 40
0.0
 40
0.0
 40
0.0
 40
0.0
 40
0.4981672448
 40
1.0
 40
1.0
 40
1.0
 40
1.0
 10
135.5586824214
 20
350.1704968211
 30
0.0
 10
135.545614251
 20
350.1917272934
 30
0.0
 10
135.5008970087
 20
350.2254364263
 30
0.0
 10
135.445523766
 20
350.2167307645
 30
0.0
 10
135.423844084
 20
350.2040547555
 30
0.0
  0
SPLINE
  5
4BC
100
AcDbEntity
  8
0
100
AcDbSpline
 62
7
  6
CONTINUOUS
 70
0
 71
3
 72
9
 73
5
 74
0
 42
0.0000001
 43
0.0000001
 44
0.0000000001
 40
0.0
 40
0.0
 40
0.0
 40
0.0
 40
0.5014036797
 40
1.0
 40
1.0
 40
1.0
 40
1.0
 10
135.3491107572
 20
349.9246485687
 30
0.0
 10
135.3716053179
 20
349.9378102691
 30
0.0
 10
135.4298180272
 20
349.9460862809
 30
0.0
 10
135.4748270006
 20
349.9085618371
 30
0.0
 10
135.4871715933
 20
349.8857745191
 30
0.0
  0
SPLINE
  5
4BD
100
AcDbEntity
  8
0
100
AcDbSpline
 62
7
  6
CONTINUOUS
 70
0
 71
3
 72
10
 73
6
 74
0
 42
0.0000001
 43
0.0000001
 44
0.0000000001
 40
0.0
 40
0.0
 40
0.0
 40
0.0
 40
0.3344467227
 40
0.6633365902
 40
1.0
 40
1.0
 40
1.0
 40
1.0
 10
135.5594922789
 20
350.1701525918
 30
0.0
 10
135.5520034561
 20
350.1383382793
 30
0.0
 10
135.5367538399
 20
350.0753216119
 30
0.0
 10
135.5103865515
 20
349.9812076105
 30
0.0
 10
135.495084542
 20
349.9179814911
 30
0.0
 10
135.4874849103
 20
349.8859707773
 30
0.0
  0
SPLINE
  5
4BE
100
AcDbEntity
  8
0
100
AcDbSpline
 62
7
  6
CONTINUOUS
 70
0
 71
3
 72
14
 73
10
 74
0
 42
0.0000001
 43
0.0000001
 44
0.0000000001
 40
0.0
 40
0.0
 40
0.0
 40
0.0
 40
0.1429426105
 40
0.2857729267
 40
0.4285084301
 40
0.5712149725
 40
0.7139569416
 40
0.8568203368
 40
1.0
 40
1.0
 40
1.0
 40
1.0
 10
137.874526458
 20
343.6332497219
 30
0.0
 10
137.897453291
 20
343.6077752948
 30
0.0
 10
137.9525651361
 20
343.5644194779
 30
0.0
 10
138.0518945587
 20
343.5313113313
 30
0.0
 10
138.1566218535
 20
343.533621645
 30
0.0
 10
138.2543648764
 20
343.5711758244
 30
0.0
 10
138.3337069973
 20
343.6395807364
 30
0.0
 10
138.3853837409
 20
343.7307189739
 30
0.0
 10
138.3973031353
 20
343.7998874044
 30
0.0
 10
138.3972926709
 20
343.8342164743
 30
0.0
  0
SPLINE
  5
4BF
100
AcDbEntity
  8
0
100
AcDbSpline
 62
7
  6
CONTINUOUS
 70
0
 71
3
 72
12
 73
8
 74
0
 42
0.0000001
 43
0.0000001
 44
0.0000000001
 40
0.0
 40
0.0
 40
0.0
 40
0.0
 40
0.1822532085
 40
0.3896205449
 40
0.6066086639
 40
0.8151207192
 40
1.0
 40
1.0
 40
1.0
 40
1.0
 10
135.4208125978
 20
345.812404409
 30
0.0
 10
135.4394400455
 20
345.8383328433
 30
0.0
 10
135.4906192878
 20
345.8862339115
 30
0.0
 10
135.5910914684
 20
345.9269053247
 30
0.0
 10
135.7037675966
 20
345.9332706517
 30
0.0
 10
135.8087130367
 20
345.9043609066
 30
0.0
 10
135.8664342592
 20
345.8635019386
 30
0.0
 10
135.8885786367
 20
345.8398698268
 30
0.0
  0
SPLINE
  5
4C0
100
AcDbEntity
  8
0
100
AcDbSpline
 62
7
  6
CONTINUOUS
 70
0
 71
3
 72
13
 73
9
 74
0
 42
0.0000001
 43
0.0000001
 44
0.0000000001
 40
0.0
 40
0.0
 40
0.0
 40
0.0
 40
0.1511146498
 40
0.3209434662
 40
0.5009832939
 40
0.6808419614
 40
0.850145341
 40
1.0
 40
1.0
 40
1.0
 40
1.0
 10
135.8632847889
 20
346.1774334748
 30
0.0
 10
135.8447570539
 20
346.1977001765
 30
0.0
 10
135.7977958177
 20
346.2342457151
 30
0.0
 10
135.7106777604
 20
346.265195755
 30
0.0
 10
135.6132109436
 20
346.2698471052
 30
0.0
 10
135.5183495713
 20
346.2474520376
 30
0.0
 10
135.4386366097
 20
346.201318883
 30
0.0
 10
135.3993882052
 20
346.1570540122
 30
0.0
 10
135.384946567
 20
346.133968655
 30
0.0
  0
SPLINE
  5
4C1
100
AcDbEntity
  8
0
100
AcDbSpline
 62
7
  6
CONTINUOUS
 70
0
 71
3
 72
10
 73
6
 74
0
 42
0.0000001
 43
0.0000001
 44
0.0000000001
 40
0.0
 40
0.0
 40
0.0
 40
0.0
 40
0.3350088702
 40
0.6833791814
 40
1.0
 40
1.0
 40
1.0
 40
1.0
 10
110.733499702
 20
345.9751729045
 30
0.0
 10
110.7144589278
 20
345.8209368066
 30
0.0
 10
110.5991124879
 20
345.5107338146
 30
0.0
 10
110.2419847756
 20
345.188816314
 30
0.0
 10
109.9321517986
 20
345.1047768874
 30
0.0
 10
109.7851809301
 20
345.0980513939
 30
0.0
  0
SPLINE
  5
4C2
100
AcDbEntity
  8
0
100
AcDbSpline
 62
7
  6
CONTINUOUS
 70
0
 71
3
 72
10
 73
6
 74
0
 42
0.0000001
 43
0.0000001
 44
0.0000000001
 40
0.0
 40
0.0
 40
0.0
 40
0.0
 40
0.3235338492
 40
0.6793919387
 40
1.0
 40
1.0
 40
1.0
 40
1.0
 10
109.7859330035
 20
345.0980868623
 30
0.0
 10
109.9359510741
 20
345.1050766584
 30
0.0
 10
110.2522078639
 20
345.1926707312
 30
0.0
 10
110.6045546206
 20
345.520135237
 30
0.0
 10
110.7150886825
 20
345.8274555232
 30
0.0
 10
110.7334626402
 20
345.975178758
 30
0.0
  0
SPLINE
  5
4C3
100
AcDbEntity
  8
0
100
AcDbSpline
 62
7
  6
CONTINUOUS
 70
0
 71
3
 72
10
 73
6
 74
0
 42
0.0000001
 43
0.0000001
 44
0.0000000001
 40
0.0
 40
0.0
 40
0.0
 40
0.0
 40
0.3350087771
 40
0.6833791426
 40
1.0
 40
1.0
 40
1.0
 40
1.0
 10
110.7334996783
 20
345.9751727124
 30
0.0
 10
110.714458881
 20
345.8209366822
 30
0.0
 10
110.5991124399
 20
345.5107337725
 30
0.0
 10
110.2419847824
 20
345.1888163185
 30
0.0
 10
109.9321518096
 20
345.1047768902
 30
0.0
 10
109.7851809451
 20
345.0980513945
 30
0.0
  0
SPLINE
  5
4C4
100
AcDbEntity
  8
0
100
AcDbSpline
 62
7
  6
CONTINUOUS
 70
0
 71
3
 72
10
 73
6
 74
0
 42
0.0000001
 43
0.0000001
 44
0.0000000001
 40
0.0
 40
0.0
 40
0.0
 40
0.0
 40
0.3450373716
 40
0.6900969047
 40
1.0
 40
1.0
 40
1.0
 40
1.0
 10
110.7311850634
 20
345.9575320842
 30
0.0
 10
110.7092265752
 20
345.8016011092
 30
0.0
 10
110.5878831547
 20
345.4955091084
 30
0.0
 10
110.2310458032
 20
345.1854223218
 30
0.0
 10
109.9308876368
 20
345.1052943832
 30
0.0
 10
109.7891844386
 20
345.0982410326
 30
0.0
  0
SPLINE
  5
4C5
100
AcDbEntity
  8
0
100
AcDbSpline
 62
7
  6
CONTINUOUS
 70
0
 71
3
 72
14
 73
10
 74
0
 42
0.0000001
 43
0.0000001
 44
0.0000000001
 40
0.0
 40
0.0
 40
0.0
 40
0.0
 40
0.0951527018
 40
0.1892515852
 40
0.3124446225
 40
0.4608927799
 40
0.6291140122
 40
0.8110015464
 40
1.0
 40
1.0
 40
1.0
 40
1.0
 10
130.4234619355
 20
366.2470761757
 30
0.0
 10
130.4275713289
 20
366.3049910273
 30
0.0
 10
130.5743394308
 20
366.3548120269
 30
0.0
 10
130.7396276575
 20
366.409302579
 30
0.0
 10
130.9635842457
 20
366.4591328466
 30
0.0
 10
131.2249933646
 20
366.5094946635
 30
0.0
 10
131.5257022933
 20
366.5601502983
 30
0.0
 10
131.8504866357
 20
366.6109557579
 30
0.0
 10
132.0743246081
 20
366.6446556622
 30
0.0
 10
132.1883611721
 20
366.6618358551
 30
0.0
  0
SPLINE
  5
4C6
100
AcDbEntity
  8
0
100
AcDbSpline
 62
7
  6
CONTINUOUS
 70
0
 71
3
 72
22
 73
18
 74
0
 42
0.0000001
 43
0.0000001
 44
0.0000000001
 40
0.0
 40
0.0
 40
0.0
 40
0.0
 40
0.0946576856
 40
0.1861081194
 40
0.2705009203
 40
0.3444858791
 40
0.4060147944
 40
0.4530722437
 40
0.4845265419
 40
0.5150939701
 40
0.5463342255
 40
0.5932739781
 40
0.6548735341
 40
0.7289018318
 40
0.813326685
 40
0.9049280577
 40
1.0
 40
1.0
 40
1.0
 40
1.0
 10
132.1883628612
 20
365.4022769151
 30
0.0
 10
132.3028347233
 20
365.4212940899
 30
0.0
 10
132.5279808784
 20
365.4583624441
 30
0.0
 10
132.8549793996
 20
365.5127480514
 30
0.0
 10
133.1568109301
 20
365.5669712809
 30
0.0
 10
133.4194698268
 20
365.6226732464
 30
0.0
 10
133.6406197119
 20
365.6737211707
 30
0.0
 10
133.7945046335
 20
365.7341978819
 30
0.0
 10
133.9385092778
 20
365.775103175
 30
0.0
 10
133.9404040284
 20
365.9281858476
 30
0.0
 10
133.7962352915
 20
365.969783918
 30
0.0
 10
133.6430412336
 20
366.0301939952
 30
0.0
 10
133.4217815365
 20
366.0814317116
 30
0.0
 10
133.1590132038
 20
366.1372192932
 30
0.0
 10
132.8568924358
 20
366.1915062125
 30
0.0
 10
132.5291649048
 20
366.2459363952
 30
0.0
 10
132.3033334904
 20
366.2831163032
 30
0.0
 10
132.1883611721
 20
366.3022198014
 30
0.0
  0
SPLINE
  5
4C7
100
AcDbEntity
  8
0
100
AcDbSpline
 62
7
  6
CONTINUOUS
 70
0
 71
3
 72
15
 73
11
 74
0
 42
0.0000001
 43
0.0000001
 44
0.0000000001
 40
0.0
 40
0.0
 40
0.0
 40
0.0
 40
0.1872219978
 40
0.3674859778
 40
0.5341422489
 40
0.6812457901
 40
0.8039010763
 40
0.8980577637
 40
0.9620358796
 40
1.0
 40
1.0
 40
1.0
 40
1.0
 10
132.1883628612
 20
366.4322358183
 30
0.0
 10
132.0742404253
 20
366.4123769127
 30
0.0
 10
131.8502360474
 20
366.3734134177
 30
0.0
 10
131.5250048818
 20
366.3146510344
 30
0.0
 10
131.2249976211
 20
366.2562121153
 30
0.0
 10
130.9612371182
 20
366.1977389342
 30
0.0
 10
130.74360659
 20
366.1408549235
 30
0.0
 10
130.5787766565
 20
366.0822571766
 30
0.0
 10
130.4709288146
 20
366.0305630046
 30
0.0
 10
130.4249007967
 20
365.9765648174
 30
0.0
 10
130.4234619294
 20
365.9531198862
 30
0.0
  0
SPLINE
  5
4C8
100
AcDbEntity
  8
0
100
AcDbSpline
 62
7
  6
CONTINUOUS
 70
0
 71
3
 72
22
 73
18
 74
0
 42
0.0000001
 43
0.0000001
 44
0.0000000001
 40
0.0
 40
0.0
 40
0.0
 40
0.0
 40
0.0947441248
 40
0.1863163435
 40
0.2706497212
 40
0.3446996236
 40
0.4060088607
 40
0.4531254681
 40
0.4846150303
 40
0.5151925921
 40
0.54639619
 40
0.5932460927
 40
0.6548289092
 40
0.7287137121
 40
0.8131269451
 40
0.9047575773
 40
1.0
 40
1.0
 40
1.0
 40
1.0
 10
132.1883611721
 20
364.5022728801
 30
0.0
 10
132.0736451707
 20
364.520447599
 30
0.0
 10
131.8480653888
 20
364.5564617961
 30
0.0
 10
131.5211730375
 20
364.612593418
 30
0.0
 10
131.2193212028
 20
364.6675509552
 30
0.0
 10
130.9568874771
 20
364.7229660324
 30
0.0
 10
130.7357688475
 20
364.7737634226
 30
0.0
 10
130.5820985824
 20
364.8341511516
 30
0.0
 10
130.4378126093
 20
364.8752920198
 30
0.0
 10
130.4367429912
 20
365.028400197
 30
0.0
 10
130.5805922654
 20
365.0697841152
 30
0.0
 10
130.7337049824
 20
365.1301966172
 30
0.0
 10
130.9546265969
 20
365.1813717
 30
0.0
 10
131.2172040748
 20
365.2371112438
 30
0.0
 10
131.5191645093
 20
365.2913939903
 30
0.0
 10
131.8471095346
 20
365.3459304768
 30
0.0
 10
132.073183122
 20
365.3831462625
 30
0.0
 10
132.1883628612
 20
365.4022769152
 30
0.0
  0
SPLINE
  5
4C9
100
AcDbEntity
  8
0
100
AcDbSpline
 62
7
  6
CONTINUOUS
 70
0
 71
3
 72
22
 73
18
 74
0
 42
0.0000001
 43
0.0000001
 44
0.0000000001
 40
0.0
 40
0.0
 40
0.0
 40
0.0
 40
0.0949896228
 40
0.1866822012
 40
0.2709228477
 40
0.345062615
 40
0.4062606222
 40
0.4534296584
 40
0.484843937
 40
0.5153984371
 40
0.5466188166
 40
0.5934608995
 40
0.6550460273
 40
0.7289173705
 40
0.8133538991
 40
0.9049455162
 40
1.0
 40
1.0
 40
1.0
 40
1.0
 10
132.1883709384
 20
363.6021676081
 30
0.0
 10
132.303385537
 20
363.62039453
 30
0.0
 10
132.5294114228
 20
363.656492235
 30
0.0
 10
132.8566195293
 20
363.7127809803
 30
0.0
 10
133.1586235688
 20
363.7677891225
 30
0.0
 10
133.4208933469
 20
363.8231831712
 30
0.0
 10
133.6421093521
 20
363.8741080755
 30
0.0
 10
133.795404486
 20
363.9344306231
 30
0.0
 10
133.9399944324
 20
363.9760021632
 30
0.0
 10
133.9389680104
 20
364.1289501983
 30
0.0
 10
133.7955835609
 20
364.1700441421
 30
0.0
 10
133.6422290795
 20
364.2304950087
 30
0.0
 10
133.42132411
 20
364.2813064177
 30
0.0
 10
133.1586478703
 20
364.3367866825
 30
0.0
 10
132.8568707141
 20
364.3918042376
 30
0.0
 10
132.5294438434
 20
364.4479954809
 30
0.0
 10
132.3034572045
 20
364.4840523422
 30
0.0
 10
132.1883611721
 20
364.5022734054
 30
0.0
  0
SPLINE
  5
4CA
100
AcDbEntity
  8
0
100
AcDbSpline
 62
7
  6
CONTINUOUS
 70
0
 71
3
 72
22
 73
18
 74
0
 42
0.0000001
 43
0.0000001
 44
0.0000000001
 40
0.0
 40
0.0
 40
0.0
 40
0.0
 40
0.0944317636
 40
0.1857831585
 40
0.2702422839
 40
0.3443176849
 40
0.4060009352
 40
0.4530613255
 40
0.484485895
 40
0.5150124959
 40
0.5462154802
 40
0.5931639139
 40
0.6547392645
 40
0.7289290806
 40
0.8135320237
 40
0.9052039577
 40
1.0
 40
1.0
 40
1.0
 40
1.0
 10
132.1883611721
 20
364.9918535418
 30
0.0
 10
132.3027054653
 20
364.9737542582
 30
0.0
 10
132.5276489693
 20
364.937854065
 30
0.0
 10
132.8540577991
 20
364.8817753424
 30
0.0
 10
133.1558198336
 20
364.8267775022
 30
0.0
 10
133.4189196496
 20
364.7712794139
 30
0.0
 10
133.6404434501
 20
364.7204982348
 30
0.0
 10
133.7945415004
 20
364.6599410273
 30
0.0
 10
133.9382728927
 20
364.6190148659
 30
0.0
 10
133.9407499697
 20
364.4661865342
 30
0.0
 10
133.7966437645
 20
364.4243311959
 30
0.0
 10
133.6435523258
 20
364.3639521557
 30
0.0
 10
133.4220230432
 20
364.3129147357
 30
0.0
 10
133.1588330647
 20
364.2572909748
 30
0.0
 10
132.8563419817
 20
364.2021965922
 30
0.0
 10
132.5289153486
 20
364.1460902016
 30
0.0
 10
132.3031491681
 20
364.1100092375
 30
0.0
 10
132.1883709384
 20
364.0917949797
 30
0.0
  0
SPLINE
  5
4CB
100
AcDbEntity
  8
0
100
AcDbSpline
 62
7
  6
CONTINUOUS
 70
0
 71
3
 72
20
 73
16
 74
0
 42
0.0000001
 43
0.0000001
 44
0.0000000001
 40
0.0
 40
0.0
 40
0.0
 40
0.0
 40
0.0453795564
 40
0.0845903868
 40
0.1247214821
 40
0.1801210554
 40
0.2571346829
 40
0.3065974617
 40
0.3651591067
 40
0.4342163338
 40
0.5152260735
 40
0.6101033707
 40
0.7210893789
 40
0.8505880045
 40
1.0
 40
1.0
 40
1.0
 40
1.0
 10
130.4234619355
 20
366.2470761757
 30
0.0
 10
130.4230298244
 20
366.2737904117
 30
0.0
 10
130.5098050676
 20
366.2500395791
 30
0.0
 10
130.5698634558
 20
366.2640977822
 30
0.0
 10
130.6528518936
 20
366.264691937
 30
0.0
 10
130.7528803542
 20
366.269543147
 30
0.0
 10
130.8604498012
 20
366.2725026368
 30
0.0
 10
130.9692412698
 20
366.275722792
 30
0.0
 10
131.0734921832
 20
366.2785013861
 30
0.0
 10
131.1962763394
 20
366.2815745749
 30
0.0
 10
131.3404551342
 20
366.2849016485
 30
0.0
 10
131.5093146721
 20
366.2885374592
 30
0.0
 10
131.7067218093
 20
366.2925814464
 30
0.0
 10
131.9362309297
 20
366.2972179791
 30
0.0
 10
132.1004113225
 20
366.3004325148
 30
0.0
 10
132.1883611721
 20
366.3022200686
 30
0.0
  0
SPLINE
  5
4CC
100
AcDbEntity
  8
0
100
AcDbSpline
 62
7
  6
CONTINUOUS
 70
0
 71
3
 72
21
 73
17
 74
0
 42
0.0000001
 43
0.0000001
 44
0.0000000001
 40
0.0
 40
0.0
 40
0.0
 40
0.0
 40
0.1021907103
 40
0.2031607812
 40
0.3010357988
 40
0.3945097482
 40
0.4833012654
 40
0.5672712033
 40
0.6446535045
 40
0.7108668552
 40
0.7639088785
 40
0.8063000231
 40
0.8678681506
 40
0.9082523166
 40
0.9531583754
 40
1.0
 40
1.0
 40
1.0
 40
1.0
 10
132.1883467945
 20
365.794011164
 30
0.0
 10
132.1254559951
 20
365.8032491491
 30
0.0
 10
132.0004417939
 20
365.8217254922
 30
0.0
 10
131.8152874981
 20
365.8496868021
 30
0.0
 10
131.635623756
 20
365.8776832004
 30
0.0
 10
131.4636180852
 20
365.9056069018
 30
0.0
 10
131.300390957
 20
365.9335902459
 30
0.0
 10
131.1473361203
 20
365.9616372069
 30
0.0
 10
131.0084914258
 20
365.9891879543
 30
0.0
 10
130.8889554532
 20
366.0152568049
 30
0.0
 10
130.7912549712
 20
366.038796737
 30
0.0
 10
130.6968090447
 20
366.0645063848
 30
0.0
 10
130.6116811592
 20
366.0898577598
 30
0.0
 10
130.5246012551
 20
366.1268609843
 30
0.0
 10
130.4589203966
 20
366.1513467908
 30
0.0
 10
130.3988296653
 20
366.2315070995
 30
0.0
 10
130.4234566717
 20
366.2470784995
 30
0.0
  0
SPLINE
  5
4CD
100
AcDbEntity
  8
0
100
AcDbSpline
 62
7
  6
CONTINUOUS
 70
0
 71
3
 72
22
 73
18
 74
0
 42
0.0000001
 43
0.0000001
 44
0.0000000001
 40
0.0
 40
0.0
 40
0.0
 40
0.0
 40
0.0959688869
 40
0.1882744973
 40
0.2729544259
 40
0.3468009011
 40
0.4079068878
 40
0.4546151743
 40
0.4854786308
 40
0.5137101759
 40
0.5438534768
 40
0.5899294322
 40
0.6507341614
 40
0.725127338
 40
0.8110109947
 40
0.9042960437
 40
1.0
 40
1.0
 40
1.0
 40
1.0
 10
132.1883636016
 20
367.4970337729
 30
0.0
 10
132.3040255843
 20
367.4796044703
 30
0.0
 10
132.5309874554
 20
367.4455582696
 30
0.0
 10
132.8595159697
 20
367.3939541027
 30
0.0
 10
133.161404225
 20
367.3431491476
 30
0.0
 10
133.4228662069
 20
367.2913868735
 30
0.0
 10
133.6427646378
 20
367.2451436007
 30
0.0
 10
133.7948042709
 20
367.1881150822
 30
0.0
 10
133.9362115066
 20
367.153992896
 30
0.0
 10
133.9407439553
 20
367.0078146255
 30
0.0
 10
133.7992575871
 20
366.9728500643
 30
0.0
 10
133.6502673819
 20
366.9158978961
 30
0.0
 10
133.4306133374
 20
366.8688031118
 30
0.0
 10
133.1675983946
 20
366.8166153007
 30
0.0
 10
132.8623375448
 20
366.7654448282
 30
0.0
 10
132.5315088181
 20
366.7135382769
 30
0.0
 10
132.3037044811
 20
366.6792129159
 30
0.0
 10
132.1883611721
 20
366.6618358551
 30
0.0
  0
SPLINE
  5
4CE
100
AcDbEntity
  8
0
100
AcDbSpline
 62
7
  6
CONTINUOUS
 70
0
 71
3
 72
38
 73
34
 74
0
 42
0.0000001
 43
0.0000001
 44
0.0000000001
 40
0.0
 40
0.0
 40
0.0
 40
0.0
 40
0.0415162207
 40
0.0818426167
 40
0.1196621752
 40
0.1535043448
 40
0.1823511615
 40
0.2051578588
 40
0.2207638531
 40
0.2296525336
 40
0.2480035796
 40
0.2680612395
 40
0.2956314046
 40
0.3307054572
 40
0.3713269841
 40
0.4144200789
 40
0.4592575304
 40
0.5059005583
 40
0.552385094
 40
0.5948800931
 40
0.6325216939
 40
0.6655453685
 40
0.6933709806
 40
0.7138166641
 40
0.7264682297
 40
0.7391923824
 40
0.7559859706
 40
0.780636995
 40
0.8131454726
 40
0.8527086855
 40
0.8983154442
 40
0.9479603676
 40
1.0
 40
1.0
 40
1.0
 40
1.0
 10
132.1883636354
 20
367.497033997
 30
0.0
 10
132.3085266398
 20
367.477532753
 30
0.0
 10
132.5454816834
 20
367.439602844
 30
0.0
 10
132.8918535214
 20
367.3832823692
 30
0.0
 10
133.2153743146
 20
367.3278102534
 30
0.0
 10
133.5053110437
 20
367.2723624825
 30
0.0
 10
133.7490136159
 20
367.2193257743
 30
0.0
 10
133.9418623478
 20
367.1623810521
 30
0.0
 10
134.064983675
 20
367.1184691393
 30
0.0
 10
134.1838913315
 20
367.0215959288
 30
0.0
 10
134.004445216
 20
366.9117771097
 30
0.0
 10
133.8401029635
 20
366.8718273024
 30
0.0
 10
133.5953872201
 20
366.8111176528
 30
0.0
 10
133.300610447
 20
366.7590372505
 30
0.0
 10
132.9555192161
 20
366.7037277223
 30
0.0
 10
132.5827050618
 20
366.650423395
 30
0.0
 10
132.1915968636
 20
366.5972520426
 30
0.0
 10
131.7906289163
 20
366.543953643
 30
0.0
 10
131.3964196785
 20
366.4908671058
 30
0.0
 10
131.0291245198
 20
366.4384550948
 30
0.0
 10
130.7003332987
 20
366.3878165788
 30
0.0
 10
130.4186717243
 20
366.3364703851
 30
0.0
 10
130.1778376452
 20
366.2888352697
 30
0.0
 10
130.024264501
 20
366.2334651244
 30
0.0
 10
129.8601412826
 20
366.1913483327
 30
0.0
 10
129.9279151147
 20
366.0339224683
 30
0.0
 10
130.0929010633
 20
366.0155185875
 30
0.0
 10
130.2978043361
 20
365.9510481563
 30
0.0
 10
130.5794056905
 20
365.9059729184
 30
0.0
 10
130.9197062251
 20
365.8522750144
 30
0.0
 10
131.3118828238
 20
365.8008879685
 30
0.0
 10
131.7405275722
 20
365.7485373563
 30
0.0
 10
132.0367433713
 20
365.7143725944
 30
0.0
 10
132.1883430287
 20
365.6969964676
 30
0.0
  0
SPLINE
  5
4CF
100
AcDbEntity
  8
0
100
AcDbSpline
 62
7
  6
CONTINUOUS
 70
0
 71
3
 72
64
 73
60
 74
0
 42
0.0000001
 43
0.0000001
 44
0.0000000001
 40
0.0
 40
0.0
 40
0.0
 40
0.0
 40
0.0208195293
 40
0.0416733814
 40
0.0623403546
 40
0.0825903703
 40
0.1022517204
 40
0.1210914352
 40
0.1389224708
 40
0.1555328028
 40
0.1707811265
 40
0.1844986547
 40
0.1965683118
 40
0.2068505946
 40
0.2153017675
 40
0.2267039172
 40
0.2366689818
 40
0.2505612888
 40
0.2601969366
 40
0.2716122174
 40
0.2848569763
 40
0.2999967021
 40
0.3169731087
 40
0.3355344999
 40
0.3553551465
 40
0.3760551559
 40
0.3973477495
 40
0.419090701
 40
0.4413140812
 40
0.4641947696
 40
0.4876652266
 40
0.511399041
 40
0.5349711137
 40
0.5579114352
 40
0.5799097601
 40
0.6007947207
 40
0.6204974639
 40
0.6389953076
 40
0.6562095105
 40
0.6720314492
 40
0.6862703872
 40
0.6986991329
 40
0.7090995643
 40
0.7173614877
 40
0.7278560649
 40
0.7381611329
 40
0.7542875985
 40
0.7656193614
 40
0.779062207
 40
0.7944996579
 40
0.811832429
 40
0.8309059824
 40
0.8515939115
 40
0.8737719957
 40
0.8972412513
 40
0.9218067673
 40
0.9472833788
 40
0.9734189345
 40
1.0
 40
1.0
 40
1.0
 40
1.0
 10
132.1883627563
 20
367.3970407523
 30
0.0
 10
132.2487444888
 20
367.3872414058
 30
0.0
 10
132.3696275299
 20
367.3677501282
 30
0.0
 10
132.5504743611
 20
367.3386835663
 30
0.0
 10
132.7296336213
 20
367.3096623386
 30
0.0
 10
132.9052502689
 20
367.2806854713
 30
0.0
 10
133.0754326348
 20
367.2517639079
 30
0.0
 10
133.2384133695
 20
367.2228960315
 30
0.0
 10
133.3922921005
 20
367.1941075403
 30
0.0
 10
133.5354575412
 20
367.1653819501
 30
0.0
 10
133.6662251488
 20
367.1367302503
 30
0.0
 10
133.7835615387
 20
367.1082467415
 30
0.0
 10
133.8851602775
 20
367.0797378308
 30
0.0
 10
133.9727749052
 20
367.0518964314
 30
0.0
 10
134.0496580779
 20
367.0171713657
 30
0.0
 10
134.1500239079
 20
366.9789938954
 30
0.0
 10
134.1111533003
 20
366.8510871025
 30
0.0
 10
134.0087237276
 20
366.8268427285
 30
0.0
 10
133.9140151377
 20
366.7906040958
 30
0.0
 10
133.8161536153
 20
366.764544781
 30
0.0
 10
133.7026854536
 20
366.7368979682
 30
0.0
 10
133.5721943841
 20
366.7094310553
 30
0.0
 10
133.4259355982
 20
366.6815729834
 30
0.0
 10
133.2656834939
 20
366.6536612008
 30
0.0
 10
133.0943248343
 20
366.6258834263
 30
0.0
 10
132.9147848385
 20
366.5984650958
 30
0.0
 10
132.7294728754
 20
366.5714686978
 30
0.0
 10
132.5395966597
 20
366.5447727588
 30
0.0
 10
132.3450051043
 20
366.5181116202
 30
0.0
 10
132.1453227172
 20
366.4912195934
 30
0.0
 10
131.9412106031
 20
366.4639707915
 30
0.0
 10
131.7350870148
 20
366.4364375905
 30
0.0
 10
131.5305439583
 20
366.4088369498
 30
0.0
 10
131.331126952
 20
366.3813837753
 30
0.0
 10
131.139641442
 20
366.3542159888
 30
0.0
 10
130.9577237452
 20
366.3273530444
 30
0.0
 10
130.7861729676
 20
366.3007019924
 30
0.0
 10
130.6255415274
 20
366.2741199705
 30
0.0
 10
130.4764661845
 20
366.2474380906
 30
0.0
 10
130.3402455537
 20
366.2205952669
 30
0.0
 10
130.2181034312
 20
366.1936189597
 30
0.0
 10
130.1132670114
 20
366.1666347286
 30
0.0
 10
130.0238636312
 20
366.1398134488
 30
0.0
 10
129.9502418694
 20
366.1086888295
 30
0.0
 10
129.8473745567
 20
366.0658397325
 30
0.0
 10
129.9270223134
 20
365.9439312024
 30
0.0
 10
130.0354958591
 20
365.9265637305
 30
0.0
 10
130.1504274111
 20
365.8897505331
 30
0.0
 10
130.2658201456
 20
365.8644336739
 30
0.0
 10
130.3988696093
 20
365.8372458221
 30
0.0
 10
130.5488711745
 20
365.8106632022
 30
0.0
 10
130.7144870907
 20
365.7839407761
 30
0.0
 10
130.8945171123
 20
365.7572728688
 30
0.0
 10
131.0875855033
 20
365.7305593597
 30
0.0
 10
131.2921462422
 20
365.7038252077
 30
0.0
 10
131.5064769795
 20
365.6770936616
 30
0.0
 10
131.7286998676
 20
365.6503608521
 30
0.0
 10
131.9568903712
 20
365.6236650742
 30
0.0
 10
132.1107571579
 20
365.605877735
 30
0.0
 10
132.1883493606
 20
365.5969842299
 30
0.0
  0
SPLINE
  5
4D0
100
AcDbEntity
  8
0
100
AcDbSpline
 62
7
  6
CONTINUOUS
 70
0
 71
3
 72
22
 73
18
 74
0
 42
0.0000001
 43
0.0000001
 44
0.0000000001
 40
0.0
 40
0.0
 40
0.0
 40
0.0
 40
0.0946904796
 40
0.1859002697
 40
0.2696496308
 40
0.3427530995
 40
0.4033330519
 40
0.4500962023
 40
0.4816869531
 40
0.5003248819
 40
0.547233875
 40
0.5933242709
 40
0.653847344
 40
0.7277986349
 40
0.8128128073
 40
0.9051583965
 40
1.0
 40
1.0
 40
1.0
 40
1.0
 10
132.1883628612
 20
366.4322358181
 30
0.0
 10
132.3038050456
 20
366.4523243785
 30
0.0
 10
132.5304579578
 20
366.4916957669
 30
0.0
 10
132.8588216058
 20
366.5510751942
 30
0.0
 10
133.1600932772
 20
366.6100526782
 30
0.0
 10
133.4227198776
 20
366.6688052217
 30
0.0
 10
133.6389176797
 20
366.7247617181
 30
0.0
 10
133.8009324541
 20
366.7845377101
 30
0.0
 10
133.9095053763
 20
366.8331782227
 30
0.0
 10
133.9890481829
 20
366.9477634354
 30
0.0
 10
133.81546867
 20
367.0426290367
 30
0.0
 10
133.6547185355
 20
367.0976990218
 30
0.0
 10
133.4322423869
 20
367.1593109859
 30
0.0
 10
133.1695106311
 20
367.2173043611
 30
0.0
 10
132.8634695062
 20
367.2773065635
 30
0.0
 10
132.5322452791
 20
367.3371191722
 30
0.0
 10
132.30399006
 20
367.3769320716
 30
0.0
 10
132.1883611721
 20
367.3970385495
 30
0.0
  0
SPLINE
  5
4D1
100
AcDbEntity
  8
0
100
AcDbSpline
 62
7
  6
CONTINUOUS
 70
0
 71
3
 72
16
 73
12
 74
0
 42
0.0000001
 43
0.0000001
 44
0.0000000001
 40
0.0
 40
0.0
 40
0.0
 40
0.0
 40
0.0150355549
 40
0.0311778258
 40
0.080716695
 40
0.1654992956
 40
0.2843914094
 40
0.4346606441
 40
0.6111422337
 40
0.7996689629
 40
1.0
 40
1.0
 40
1.0
 40
1.0
 10
130.4234545664
 20
365.953145049
 30
0.0
 10
130.4182667182
 20
365.9439987765
 30
0.0
 10
130.4160171054
 20
365.9244083623
 30
0.0
 10
130.439101221
 20
365.876933166
 30
0.0
 10
130.5249694753
 20
365.8289782479
 30
0.0
 10
130.6716317605
 20
365.7750815597
 30
0.0
 10
130.8868416375
 20
365.7201833971
 30
0.0
 10
131.1590046497
 20
365.6643373111
 30
0.0
 10
131.4759879477
 20
365.6089141123
 30
0.0
 10
131.8245316877
 20
365.553898261
 30
0.0
 10
132.0646222361
 20
365.5183458682
 30
0.0
 10
132.188346178
 20
365.5000862574
 30
0.0
  0
SPLINE
  5
4D2
100
AcDbEntity
  8
0
100
AcDbSpline
 62
7
  6
CONTINUOUS
 70
0
 71
3
 72
15
 73
11
 74
0
 42
0.0000001
 43
0.0000001
 44
0.0000000001
 40
0.0
 40
0.0
 40
0.0
 40
0.0
 40
0.1750062347
 40
0.3455162282
 40
0.5052140281
 40
0.6474287416
 40
0.7680724429
 40
0.8654524873
 40
0.9403630067
 40
1.0
 40
1.0
 40
1.0
 40
1.0
 10
132.1883611721
 20
364.9918519225
 30
0.0
 10
132.0739150913
 20
365.0313306069
 30
0.0
 10
131.8478984324
 20
365.1090901983
 30
0.0
 10
131.5187916772
 20
365.2267435057
 30
0.0
 10
131.2139003241
 20
365.3446100495
 30
0.0
 10
130.9463000277
 20
365.4625552193
 30
0.0
 10
130.7259163144
 20
365.5798155756
 30
0.0
 10
130.5599437588
 20
365.6972274883
 30
0.0
 10
130.4502072836
 20
365.8177407317
 30
0.0
 10
130.4221805794
 20
365.9118847569
 30
0.0
 10
130.4234619294
 20
365.9531198862
 30
0.0
  0
SPLINE
  5
4D3
100
AcDbEntity
  8
0
100
AcDbSpline
 62
7
  6
CONTINUOUS
 70
0
 71
3
 72
22
 73
18
 74
0
 42
0.0000001
 43
0.0000001
 44
0.0000000001
 40
0.0
 40
0.0
 40
0.0
 40
0.0
 40
0.0952125469
 40
0.1869437895
 40
0.2711027982
 40
0.3453125262
 40
0.4065786888
 40
0.4537422081
 40
0.4850032117
 40
0.5154604289
 40
0.5466405703
 40
0.5935014676
 40
0.6550347314
 40
0.729059328
 40
0.8136015327
 40
0.9052460739
 40
1.0
 40
1.0
 40
1.0
 40
1.0
 10
132.1883611721
 20
362.7021280969
 30
0.0
 10
132.0731642154
 20
362.7209791176
 30
0.0
 10
131.8469326155
 20
362.757870619
 30
0.0
 10
131.5193097132
 20
362.8131067025
 30
0.0
 10
131.2171607075
 20
362.8676486389
 30
0.0
 10
130.9548581122
 20
362.9232335833
 30
0.0
 10
130.7334921157
 20
362.9744739634
 30
0.0
 10
130.5804222438
 20
363.0348036577
 30
0.0
 10
130.4360563234
 20
363.0766358315
 30
0.0
 10
130.4381588211
 20
363.2290390309
 30
0.0
 10
130.5811221397
 20
363.2700412682
 30
0.0
 10
130.7345122269
 20
363.3304798004
 30
0.0
 10
130.9555157579
 20
363.3813646306
 30
0.0
 10
131.2184698685
 20
363.4368962016
 30
0.0
 10
131.5206460372
 20
363.4919195952
 30
0.0
 10
131.8479295322
 20
363.5480269762
 30
0.0
 10
132.0736310142
 20
363.5840154514
 30
0.0
 10
132.1883709384
 20
363.6021676114
 30
0.0
  0
SPLINE
  5
4D4
100
AcDbEntity
  8
0
100
AcDbSpline
 62
7
  6
CONTINUOUS
 70
0
 71
3
 72
22
 73
18
 74
0
 42
0.0000001
 43
0.0000001
 44
0.0000000001
 40
0.0
 40
0.0
 40
0.0
 40
0.0
 40
0.0944395914
 40
0.1856807279
 40
0.27009692
 40
0.3441766101
 40
0.4060971087
 40
0.4532217494
 40
0.4845554017
 40
0.5150046493
 40
0.5461729683
 40
0.5931802318
 40
0.6547142092
 40
0.7290922923
 40
0.8136830139
 40
0.9053869258
 40
1.0
 40
1.0
 40
1.0
 40
1.0
 10
132.1883709384
 20
364.0917949798
 30
0.0
 10
132.0740197625
 20
364.0736506539
 30
0.0
 10
131.8492000568
 20
364.0377208932
 30
0.0
 10
131.5229319954
 20
363.9818078481
 30
0.0
 10
131.2213261051
 20
363.9268986263
 30
0.0
 10
130.9579828985
 20
363.8713529564
 30
0.0
 10
130.7360675342
 20
363.8204504482
 30
0.0
 10
130.5817797845
 20
363.7597671631
 30
0.0
 10
130.4381881621
 20
363.7187078521
 30
0.0
 10
130.4360287902
 20
363.566251689
 30
0.0
 10
130.5800004879
 20
363.5244293097
 30
0.0
 10
130.733098194
 20
363.4640649224
 30
0.0
 10
130.95478643
 20
363.412646117
 30
0.0
 10
131.2181036584
 20
363.3567289028
 30
0.0
 10
131.5210091271
 20
363.3023839047
 30
0.0
 10
131.8485352295
 20
363.2480247636
 30
0.0
 10
132.0739430409
 20
363.2108597336
 30
0.0
 10
132.1883611721
 20
363.1918020534
 30
0.0
  0
SPLINE
  5
4D5
100
AcDbEntity
  8
0
100
AcDbSpline
 62
7
  6
CONTINUOUS
 70
0
 71
3
 72
22
 73
18
 74
0
 42
0.0000001
 43
0.0000001
 44
0.0000000001
 40
0.0
 40
0.0
 40
0.0
 40
0.0
 40
0.0951634209
 40
0.1867572027
 40
0.2708785449
 40
0.3450504398
 40
0.4065685769
 40
0.453773913
 40
0.484982898
 40
0.5153817301
 40
0.5465693245
 40
0.5935504646
 40
0.655070225
 40
0.7293314509
 40
0.8138479396
 40
0.9054842954
 40
1.0
 40
1.0
 40
1.0
 40
1.0
 10
132.1883597015
 20
361.8022031435
 30
0.0
 10
132.3034271423
 20
361.821480089
 30
0.0
 10
132.529346047
 20
361.8588857186
 30
0.0
 10
132.8568553886
 20
361.9131619945
 30
0.0
 10
133.1588297216
 20
361.9672449714
 30
0.0
 10
133.4213355253
 20
362.0229804719
 30
0.0
 10
133.6429733025
 20
362.0744231614
 30
0.0
 10
133.7963417166
 20
362.1348883479
 30
0.0
 10
133.9405155764
 20
362.176646503
 30
0.0
 10
133.9388589878
 20
362.3288444501
 30
0.0
 10
133.7956964928
 20
362.3699616155
 30
0.0
 10
133.6422331061
 20
362.4304049301
 30
0.0
 10
133.4208520047
 20
362.4816203135
 30
0.0
 10
133.1576954557
 20
362.5373674808
 30
0.0
 10
132.8551587263
 20
362.5918729351
 30
0.0
 10
132.5280081355
 20
362.6467760426
 30
0.0
 10
132.3027216585
 20
362.6834466813
 30
0.0
 10
132.1883611721
 20
362.7021316606
 30
0.0
  0
SPLINE
  5
4D6
100
AcDbEntity
  8
0
100
AcDbSpline
 62
7
  6
CONTINUOUS
 70
0
 71
3
 72
22
 73
18
 74
0
 42
0.0000001
 43
0.0000001
 44
0.0000000001
 40
0.0
 40
0.0
 40
0.0
 40
0.0
 40
0.0946847826
 40
0.1858933346
 40
0.2701801677
 40
0.344219397
 40
0.4062960598
 40
0.4535021194
 40
0.4847195019
 40
0.5150978732
 40
0.5462726251
 40
0.5933522322
 40
0.6548484705
 40
0.729413872
 40
0.8140435724
 40
0.9057413409
 40
1.0
 40
1.0
 40
1.0
 40
1.0
 10
132.1883611721
 20
363.1918026909
 30
0.0
 10
132.3028702518
 20
363.1727385667
 30
0.0
 10
132.5277699635
 20
363.13565663
 30
0.0
 10
132.8544215412
 20
363.0813952636
 30
0.0
 10
133.1559443858
 20
363.0272977918
 30
0.0
 10
133.4192175454
 20
362.9715236913
 30
0.0
 10
133.6413426329
 20
362.9201819834
 30
0.0
 10
133.7955986582
 20
362.8594123545
 30
0.0
 10
133.93927586
 20
362.8181285478
 30
0.0
 10
133.9401440534
 20
362.6659956645
 30
0.0
 10
133.7964334163
 20
362.6243215608
 30
0.0
 10
133.6431532637
 20
362.5639432965
 30
0.0
 10
133.4212468268
 20
362.5124698412
 30
0.0
 10
133.1576762736
 20
362.4565174576
 30
0.0
 10
132.8544911575
 20
362.4021928285
 30
0.0
 10
132.5273394442
 20
362.3479242536
 30
0.0
 10
132.3023557479
 20
362.3108729613
 30
0.0
 10
132.1883597015
 20
362.2919085049
 30
0.0
  0
SPLINE
  5
4D7
100
AcDbEntity
  8
0
100
AcDbSpline
 62
7
  6
CONTINUOUS
 70
0
 71
3
 72
22
 73
18
 74
0
 42
0.0000001
 43
0.0000001
 44
0.0000000001
 40
0.0
 40
0.0
 40
0.0
 40
0.0
 40
0.0949609526
 40
0.1863487789
 40
0.2704964001
 40
0.3445926277
 40
0.4064150345
 40
0.4536847855
 40
0.4848957143
 40
0.5152684109
 40
0.5464740117
 40
0.5935807671
 40
0.6551065691
 40
0.7296096903
 40
0.8141310514
 40
0.9057502411
 40
1.0
 40
1.0
 40
1.0
 40
1.0
 10
132.1883611721
 20
360.9022961187
 30
0.0
 10
132.0734682612
 20
360.9211156191
 30
0.0
 10
131.8479526148
 20
360.9579009037
 30
0.0
 10
131.5210187614
 20
361.012821642
 30
0.0
 10
131.2194169163
 20
361.0671783786
 30
0.0
 10
130.9565603373
 20
361.1228173808
 30
0.0
 10
130.7345392171
 20
361.1741372075
 30
0.0
 10
130.5806704051
 20
361.2347814769
 30
0.0
 10
130.436628946
 20
361.2764246778
 30
0.0
 10
130.437383997
 20
361.4285795313
 30
0.0
 10
130.5809005866
 20
361.4699000545
 30
0.0
 10
130.7344325354
 20
361.5303498836
 30
0.0
 10
130.9562656434
 20
361.5818272393
 30
0.0
 10
131.2196907684
 20
361.6377559987
 30
0.0
 10
131.5225929309
 20
361.6918910449
 30
0.0
 10
131.8495437614
 20
361.7459194987
 30
0.0
 10
132.0743951634
 20
361.7831146705
 30
0.0
 10
132.1883597015
 20
361.802203146
 30
0.0
  0
SPLINE
  5
4D8
100
AcDbEntity
  8
0
100
AcDbSpline
 62
7
  6
CONTINUOUS
 70
0
 71
3
 72
22
 73
18
 74
0
 42
0.0000001
 43
0.0000001
 44
0.0000000001
 40
0.0
 40
0.0
 40
0.0
 40
0.0
 40
0.0948907634
 40
0.1861740174
 40
0.270341612
 40
0.3443821162
 40
0.4063604007
 40
0.4536430894
 40
0.4848515001
 40
0.5152264592
 40
0.5464592231
 40
0.5936188699
 40
0.6551475113
 40
0.7297623732
 40
0.8143296793
 40
0.9059309534
 40
1.0
 40
1.0
 40
1.0
 40
1.0
 10
132.1883597015
 20
362.291908508
 30
0.0
 10
132.0735988912
 20
362.2728144737
 30
0.0
 10
131.8483566957
 20
362.2356829992
 30
0.0
 10
131.5215305999
 20
362.1812639898
 30
0.0
 10
131.2200588553
 20
362.1271448064
 30
0.0
 10
130.957060154
 20
362.0714291321
 30
0.0
 10
130.7349216491
 20
362.0200375411
 30
0.0
 10
130.5808361528
 20
361.9593049004
 30
0.0
 10
130.4368317564
 20
361.9177701266
 30
0.0
 10
130.4371922372
 20
361.7655844604
 30
0.0
 10
130.5808656489
 20
361.7240917034
 30
0.0
 10
130.7344620938
 20
361.6636398146
 30
0.0
 10
130.9565767878
 20
361.6123597555
 30
0.0
 10
131.2202285422
 20
361.5566107967
 30
0.0
 10
131.5231864175
 20
361.5018411577
 30
0.0
 10
131.8497383022
 20
361.4465373559
 30
0.0
 10
132.0744983519
 20
361.4102815158
 30
0.0
 10
132.1883611721
 20
361.3919378596
 30
0.0
  0
SPLINE
  5
4D9
100
AcDbEntity
  8
0
100
AcDbSpline
 62
7
  6
CONTINUOUS
 70
0
 71
3
 72
34
 73
30
 74
0
 42
0.0000001
 43
0.0000001
 44
0.0000000001
 40
0.0
 40
0.0
 40
0.0
 40
0.0
 40
0.0490645273
 40
0.0976368609
 40
0.1452383493
 40
0.191328257
 40
0.235521229
 40
0.2773949807
 40
0.3165219017
 40
0.3525470867
 40
0.3851400193
 40
0.4139300632
 40
0.4386842232
 40
0.4592350177
 40
0.4880349481
 40
0.512253602
 40
0.5410669088
 40
0.5618200528
 40
0.5867755689
 40
0.6157195659
 40
0.6483497904
 40
0.6843538235
 40
0.7235426398
 40
0.7655375905
 40
0.8098349652
 40
0.855839155
 40
0.9031055386
 40
0.9512737874
 40
1.0
 40
1.0
 40
1.0
 40
1.0
 10
132.1883611721
 20
361.3919410544
 30
0.0
 10
132.2479472693
 20
361.3823733585
 30
0.0
 10
132.3670022233
 20
361.3664001557
 30
0.0
 10
132.5429008243
 20
361.3350691387
 30
0.0
 10
132.7153076716
 20
361.3051798189
 30
0.0
 10
132.882396763
 20
361.2761104787
 30
0.0
 10
133.0425990272
 20
361.2485625874
 30
0.0
 10
133.1940743699
 20
361.2208435303
 30
0.0
 10
133.3351880005
 20
361.1923437788
 30
0.0
 10
133.4643720423
 20
361.1628316501
 30
0.0
 10
133.5804938125
 20
361.1328640365
 30
0.0
 10
133.6818635834
 20
361.1030040551
 30
0.0
 10
133.7697276408
 20
361.0757882975
 30
0.0
 10
133.8513358818
 20
361.0411268603
 30
0.0
 10
133.9480846324
 20
361.0067156481
 30
0.0
 10
133.9470364628
 20
360.8781009032
 30
0.0
 10
133.8489373798
 20
360.8463026148
 30
0.0
 10
133.7674691113
 20
360.8100475783
 30
0.0
 10
133.6793372267
 20
360.7813535462
 30
0.0
 10
133.577562865
 20
360.7511329487
 30
0.0
 10
133.4610722965
 20
360.7217099698
 30
0.0
 10
133.3314063316
 20
360.6939212501
 30
0.0
 10
133.189910001
 20
360.6663767761
 30
0.0
 10
133.0381666162
 20
360.638185624
 30
0.0
 10
132.8780820534
 20
360.6089857743
 30
0.0
 10
132.7115329383
 20
360.5791107099
 30
0.0
 10
132.5401966793
 20
360.5489256259
 30
0.0
 10
132.365075109
 20
360.521085223
 30
0.0
 10
132.2475829906
 20
360.5010687881
 30
0.0
 10
132.1883611721
 20
360.4918618774
 30
0.0
  0
SPLINE
  5
4DA
100
AcDbEntity
  8
0
100
AcDbSpline
 62
7
  6
CONTINUOUS
 70
0
 71
3
 72
15
 73
11
 74
0
 42
0.0000001
 43
0.0000001
 44
0.0000000001
 40
0.0
 40
0.0
 40
0.0
 40
0.0
 40
0.0586436901
 40
0.1216242565
 40
0.2149112696
 40
0.3349905134
 40
0.477130334
 40
0.6385971028
 40
0.8151538187
 40
1.0
 40
1.0
 40
1.0
 40
1.0
 10
133.9267133093
 20
360.4023564111
 30
0.0
 10
133.9539435436
 20
360.4272406004
 30
0.0
 10
133.9241266085
 20
360.5372531358
 30
0.0
 10
133.7899067701
 20
360.5721080839
 30
0.0
 10
133.6287429681
 20
360.6344399285
 30
0.0
 10
133.4096108488
 20
360.6838711616
 30
0.0
 10
133.1491900227
 20
360.7389316975
 30
0.0
 10
132.8517893072
 20
360.7924453157
 30
0.0
 10
132.5274768283
 20
360.8469091063
 30
0.0
 10
132.3031037301
 20
360.883504892
 30
0.0
 10
132.1883611721
 20
360.9022961644
 30
0.0
  0
SPLINE
  5
4DB
100
AcDbEntity
  8
0
100
AcDbSpline
 62
7
  6
CONTINUOUS
 70
0
 71
3
 72
15
 73
11
 74
0
 42
0.0000001
 43
0.0000001
 44
0.0000000001
 40
0.0
 40
0.0
 40
0.0
 40
0.0
 40
0.1655176716
 40
0.3221235437
 40
0.4726482441
 40
0.6163249114
 40
0.7458553521
 40
0.854779496
 40
0.9399405296
 40
1.0
 40
1.0
 40
1.0
 40
1.0
 10
132.1538411112
 20
359.5181349739
 30
0.0
 10
132.2630922881
 20
359.5326905049
 30
0.0
 10
132.4758415824
 20
359.5602801035
 30
0.0
 10
132.7894195015
 20
359.5882410264
 30
0.0
 10
133.0863258251
 20
359.6337396405
 30
0.0
 10
133.3631885689
 20
359.6883177814
 30
0.0
 10
133.6124405882
 20
359.7392304103
 30
0.0
 10
133.8228328262
 20
359.7867816014
 30
0.0
 10
133.984840344
 20
359.8351300111
 30
0.0
 10
134.0749989959
 20
359.8725236025
 30
0.0
 10
134.1087319439
 20
359.8940067901
 30
0.0
  0
SPLINE
  5
4DC
100
AcDbEntity
  8
0
100
AcDbSpline
 62
7
  6
CONTINUOUS
 70
0
 71
3
 72
14
 73
10
 74
0
 42
0.0000001
 43
0.0000001
 44
0.0000000001
 40
0.0
 40
0.0
 40
0.0
 40
0.0
 40
0.0783957426
 40
0.1804806152
 40
0.3078115038
 40
0.4578478297
 40
0.6261178076
 40
0.8088283364
 40
1.0
 40
1.0
 40
1.0
 40
1.0
 10
133.9267133093
 20
360.4023564111
 30
0.0
 10
133.9038137968
 20
360.3565391573
 30
0.0
 10
133.8247609517
 20
360.2651540682
 30
0.0
 10
133.6610640163
 20
360.147699237
 30
0.0
 10
133.4423693212
 20
360.0297159352
 30
0.0
 10
133.17603003
 20
359.911819167
 30
0.0
 10
132.8709281389
 20
359.7929736405
 30
0.0
 10
132.537364053
 20
359.6737294
 30
0.0
 10
132.306550685
 20
359.5937289188
 30
0.0
 10
132.1883611721
 20
359.5533240901
 30
0.0
  0
SPLINE
  5
4DD
100
AcDbEntity
  8
0
100
AcDbSpline
 62
7
  6
CONTINUOUS
 70
0
 71
3
 72
22
 73
18
 74
0
 42
0.0000001
 43
0.0000001
 44
0.0000000001
 40
0.0
 40
0.0
 40
0.0
 40
0.0
 40
0.0950074806
 40
0.1866228713
 40
0.2707928711
 40
0.3450303805
 40
0.4064425401
 40
0.4536706362
 40
0.4849444285
 40
0.515368265
 40
0.5465224256
 40
0.5934289071
 40
0.654943743
 40
0.7291033108
 40
0.8136642736
 40
0.9053460496
 40
1.0
 40
1.0
 40
1.0
 40
1.0
 10
132.1883495801
 20
360.4918599855
 30
0.0
 10
132.0732889126
 20
360.4737343901
 30
0.0
 10
131.8472964292
 20
360.4377854081
 30
0.0
 10
131.5202523569
 20
360.3813492869
 30
0.0
 10
131.2183020555
 20
360.3262723555
 30
0.0
 10
130.9557227798
 20
360.2708654878
 30
0.0
 10
130.734023856
 20
360.2198124969
 30
0.0
 10
130.5806293976
 20
360.1593854943
 30
0.0
 10
130.4363656605
 20
360.1175921079
 30
0.0
 10
130.437764345
 20
359.9653023617
 30
0.0
 10
130.5808433112
 20
359.9241543931
 30
0.0
 10
130.7341555107
 20
359.8637296168
 30
0.0
 10
130.955349825
 20
359.8126472849
 30
0.0
 10
131.2184427735
 20
359.7569945048
 30
0.0
 10
131.5209125956
 20
359.7022130601
 30
0.0
 10
131.8482396429
 20
359.6466717105
 30
0.0
 10
132.073795269
 20
359.6102494788
 30
0.0
 10
132.1883611721
 20
359.5917734205
 30
0.0
  0
SPLINE
  5
4DE
100
AcDbEntity
  8
0
100
AcDbSpline
 62
7
  6
CONTINUOUS
 70
0
 71
3
 72
10
 73
6
 74
0
 42
0.0000001
 43
0.0000001
 44
0.0000000001
 40
0.0
 40
0.0
 40
0.0
 40
0.0
 40
0.3802421415
 40
0.6999068582
 40
1.0
 40
1.0
 40
1.0
 40
1.0
 10
131.8633172892
 20
359.4409503912
 30
0.0
 10
131.901384751
 20
359.4448659635
 30
0.0
 10
131.9715629321
 20
359.4540248405
 30
0.0
 10
132.0677251438
 20
359.484439533
 30
0.0
 10
132.1268131347
 20
359.5043747898
 30
0.0
 10
132.1550278972
 20
359.515149081
 30
0.0
  0
SPLINE
  5
4DF
100
AcDbEntity
  8
0
100
AcDbSpline
 62
7
  6
CONTINUOUS
 70
0
 71
3
 72
21
 73
17
 74
0
 42
0.0000001
 43
0.0000001
 44
0.0000000001
 40
0.0
 40
0.0
 40
0.0
 40
0.0
 40
0.1043333234
 40
0.2046968488
 40
0.2968685124
 40
0.3781094375
 40
0.4455843711
 40
0.4972325026
 40
0.5317169626
 40
0.567543499
 40
0.6030199437
 40
0.6554562467
 40
0.7239807794
 40
0.8063392302
 40
0.8997853488
 40
1.0
 40
1.0
 40
1.0
 40
1.0
 10
132.1883611721
 20
358.5330209733
 30
0.0
 10
132.0728738473
 20
358.5531147885
 30
0.0
 10
131.8462661612
 20
358.5925453285
 30
0.0
 10
131.5181681635
 20
358.6519361986
 30
0.0
 10
131.2158269145
 20
358.7106508691
 30
0.0
 10
130.9529060952
 20
358.7701831974
 30
0.0
 10
130.7315380968
 20
358.8258483906
 30
0.0
 10
130.5778449232
 20
358.8892358131
 30
0.0
 10
130.4330147461
 20
358.9387433833
 30
0.0
 10
130.4388791751
 20
359.0968177973
 30
0.0
 10
130.5844949815
 20
359.1440501266
 30
0.0
 10
130.7421710361
 20
359.2083706887
 30
0.0
 10
130.9666339897
 20
359.2639281163
 30
0.0
 10
131.2335585888
 20
359.3238208132
 30
0.0
 10
131.5384121657
 20
359.3826273177
 30
0.0
 10
131.752448254
 20
359.4213120219
 30
0.0
 10
131.8633172892
 20
359.4409503912
 30
0.0
  0
SPLINE
  5
4E0
100
AcDbEntity
  8
0
100
AcDbSpline
 62
7
  6
CONTINUOUS
 70
0
 71
3
 72
15
 73
11
 74
0
 42
0.0000001
 43
0.0000001
 44
0.0000000001
 40
0.0
 40
0.0
 40
0.0
 40
0.0
 40
0.0630391876
 40
0.1262672369
 40
0.2184551105
 40
0.3380361613
 40
0.481398119
 40
0.643384425
 40
0.8183434119
 40
1.0
 40
1.0
 40
1.0
 40
1.0
 10
133.9265488111
 20
357.9970356897
 30
0.0
 10
133.9547877701
 20
358.02531486
 30
0.0
 10
133.9254516038
 20
358.1386435918
 30
0.0
 10
133.789942931
 20
358.1800562466
 30
0.0
 10
133.6292528194
 20
358.245122568
 30
0.0
 10
133.4096527489
 20
358.2990685258
 30
0.0
 10
133.1471480158
 20
358.3581734242
 30
0.0
 10
132.8480566563
 20
358.4160412836
 30
0.0
 10
132.524569962
 20
358.4745628251
 30
0.0
 10
132.3018197319
 20
358.5132804959
 30
0.0
 10
132.1883611721
 20
358.5330213232
 30
0.0
  0
SPLINE
  5
4E1
100
AcDbEntity
  8
0
100
AcDbSpline
 62
7
  6
CONTINUOUS
 70
0
 71
3
 72
15
 73
11
 74
0
 42
0.0000001
 43
0.0000001
 44
0.0000000001
 40
0.0
 40
0.0
 40
0.0
 40
0.0
 40
0.1846589979
 40
0.3611387183
 40
0.5225637073
 40
0.6646414456
 40
0.7848650854
 40
0.8783914896
 40
0.9410972976
 40
1.0
 40
1.0
 40
1.0
 40
1.0
 10
132.1883611721
 20
359.59177345
 30
0.0
 10
132.3030321439
 20
359.5732684382
 30
0.0
 10
132.5273026344
 20
359.537049656
 30
0.0
 10
132.8513291674
 20
359.4820490692
 30
0.0
 10
133.1486095938
 20
359.4284260318
 30
0.0
 10
133.4090405052
 20
359.3735095623
 30
0.0
 10
133.6285001831
 20
359.3239655305
 30
0.0
 10
133.7892519624
 20
359.2611676045
 30
0.0
 10
133.924580034
 20
359.2268894196
 30
0.0
 10
133.9533318809
 20
359.1174622777
 30
0.0
 10
133.9265433825
 20
359.0918662181
 30
0.0
  0
SPLINE
  5
4E2
100
AcDbEntity
  8
0
100
AcDbSpline
 62
7
  6
CONTINUOUS
 70
0
 71
3
 72
63
 73
59
 74
0
 42
0.0000001
 43
0.0000001
 44
0.0000000001
 40
0.0
 40
0.0
 40
0.0
 40
0.0
 40
0.0086393266
 40
0.0208737279
 40
0.0374401626
 40
0.0485048619
 40
0.06136244
 40
0.0758839972
 40
0.0919761638
 40
0.1094922511
 40
0.1282976933
 40
0.1481602596
 40
0.1689254318
 40
0.1903908557
 40
0.2123468195
 40
0.2345956238
 40
0.2568432455
 40
0.2786828252
 40
0.2999033338
 40
0.3205283968
 40
0.3405481597
 40
0.3598832693
 40
0.378311092
 40
0.3954864052
 40
0.4110898806
 40
0.4248587822
 40
0.4367084066
 40
0.4466867417
 40
0.4548819994
 40
0.4661323512
 40
0.4757552122
 40
0.4897302022
 40
0.4995314134
 40
0.5112397016
 40
0.5249017843
 40
0.540523774
 40
0.5580217151
 40
0.5772316311
 40
0.5978907672
 40
0.619634636
 40
0.6422341781
 40
0.6656003033
 40
0.6897185037
 40
0.7145842161
 40
0.7398761613
 40
0.765132019
 40
0.7901503703
 40
0.814747305
 40
0.8386926606
 40
0.8617415272
 40
0.8836975357
 40
0.9043212046
 40
0.9234902445
 40
0.9410853199
 40
0.9569181917
 40
0.970821155
 40
0.9826918723
 40
1.0
 40
1.0
 40
1.0
 40
1.0
 10
133.926535806
 20
357.9970306514
 30
0.0
 10
133.9477074822
 20
358.0114417454
 30
0.0
 10
134.0074300397
 20
358.063944748
 30
0.0
 10
133.8970028719
 20
358.1645050345
 30
0.0
 10
133.7931120274
 20
358.1952170664
 30
0.0
 10
133.6769177017
 20
358.2325916978
 30
0.0
 10
133.5669045198
 20
358.2604008696
 30
0.0
 10
133.4411155089
 20
358.2891955474
 30
0.0
 10
133.3013523229
 20
358.3176923048
 30
0.0
 10
133.1486011662
 20
358.3462528431
 30
0.0
 10
132.9845030085
 20
358.3747518293
 30
0.0
 10
132.810630841
 20
358.4032393367
 30
0.0
 10
132.6287680505
 20
358.4316815738
 30
0.0
 10
132.440618107
 20
358.4600672075
 30
0.0
 10
132.2480148149
 20
358.4884048306
 30
0.0
 10
132.0530581302
 20
358.5166728917
 30
0.0
 10
131.8584241725
 20
358.5447615351
 30
0.0
 10
131.6668265781
 20
358.5725485644
 30
0.0
 10
131.48004542
 20
358.6000310729
 30
0.0
 10
131.298696047
 20
358.627365853
 30
0.0
 10
131.1230129043
 20
358.6547768739
 30
0.0
 10
130.9539587912
 20
358.6824119321
 30
0.0
 10
130.7934975983
 20
358.7102627428
 30
0.0
 10
130.6442588216
 20
358.7381561997
 30
0.0
 10
130.5091315754
 20
358.7658767548
 30
0.0
 10
130.389819967
 20
358.7931480377
 30
0.0
 10
130.2883125295
 20
358.8201688501
 30
0.0
 10
130.2016313621
 20
358.8460855616
 30
0.0
 10
130.1255178309
 20
358.8788277731
 30
0.0
 10
130.0239375667
 20
358.9128263887
 30
0.0
 10
130.063347792
 20
359.0413457144
 30
0.0
 10
130.1682895364
 20
359.0616241865
 30
0.0
 10
130.2656640953
 20
359.0974339228
 30
0.0
 10
130.3674280662
 20
359.1226463931
 30
0.0
 10
130.4857266514
 20
359.1496491444
 30
0.0
 10
130.6218882557
 20
359.1763916338
 30
0.0
 10
130.7746034567
 20
359.2035666947
 30
0.0
 10
130.9424790861
 20
359.2308238139
 30
0.0
 10
131.123091249
 20
359.2580307339
 30
0.0
 10
131.3138884127
 20
359.2850432654
 30
0.0
 10
131.512811623
 20
359.311862708
 30
0.0
 10
131.7188459207
 20
359.3385959588
 30
0.0
 10
131.9316417185
 20
359.3654136862
 30
0.0
 10
132.1501698035
 20
359.3923980815
 30
0.0
 10
132.3720811643
 20
359.4195003631
 30
0.0
 10
132.5944478343
 20
359.4466069272
 30
0.0
 10
132.814746026
 20
359.4736551032
 30
0.0
 10
133.0311349104
 20
359.5006620656
 30
0.0
 10
133.2416451838
 20
359.5276211776
 30
0.0
 10
133.4442689687
 20
359.5545176282
 30
0.0
 10
133.6369678964
 20
359.5813245531
 30
0.0
 10
133.8180595596
 20
359.6080623387
 30
0.0
 10
133.9860812913
 20
359.6347357025
 30
0.0
 10
134.139728989
 20
359.6613485164
 30
0.0
 10
134.2774872717
 20
359.6879308574
 30
0.0
 10
134.3980527181
 20
359.7143466985
 30
0.0
 10
134.5214356458
 20
359.7466172834
 30
0.0
 10
134.6045155748
 20
359.7733991273
 30
0.0
 10
134.6500294813
 20
359.7970871215
 30
0.0
  0
SPLINE
  5
4E3
100
AcDbEntity
  8
0
100
AcDbSpline
 62
7
  6
CONTINUOUS
 70
0
 71
3
 72
10
 73
6
 74
0
 42
0.0000001
 43
0.0000001
 44
0.0000000001
 40
0.0
 40
0.0
 40
0.0
 40
0.0
 40
0.3343424851
 40
0.6402467752
 40
1.0
 40
1.0
 40
1.0
 40
1.0
 10
132.1588917513
 20
359.4933135322
 30
0.0
 10
132.1259789456
 20
359.4873203885
 30
0.0
 10
132.0629313676
 20
359.475959871
 30
0.0
 10
131.9643552928
 20
359.458795472
 30
0.0
 10
131.8987636485
 20
359.4472206521
 30
0.0
 10
131.8633175156
 20
359.4409496402
 30
0.0
  0
SPLINE
  5
4E4
100
AcDbEntity
  8
0
100
AcDbSpline
 62
7
  6
CONTINUOUS
 70
0
 71
3
 72
15
 73
11
 74
0
 42
0.0000001
 43
0.0000001
 44
0.0000000001
 40
0.0
 40
0.0
 40
0.0
 40
0.0
 40
0.0604845325
 40
0.1457799843
 40
0.2554915778
 40
0.3958214848
 40
0.5288982463
 40
0.6752881053
 40
0.8325442492
 40
1.0
 40
1.0
 40
1.0
 40
1.0
 10
134.1085244904
 20
359.8940440076
 30
0.0
 10
134.0745298175
 20
359.8725187467
 30
0.0
 10
133.9841034872
 20
359.8350816354
 30
0.0
 10
133.8214180845
 20
359.7864877572
 30
0.0
 10
133.603896681
 20
359.7360747
 30
0.0
 10
133.3539437994
 20
359.6864303909
 30
0.0
 10
133.0790663895
 20
359.6369866566
 30
0.0
 10
132.7923365
 20
359.5901432524
 30
0.0
 10
132.4824443167
 20
359.5434075388
 30
0.0
 10
132.268950147
 20
359.5105347609
 30
0.0
 10
132.1588917513
 20
359.4933135322
 30
0.0
  0
SPLINE
  5
4E5
100
AcDbEntity
  8
0
100
AcDbSpline
 62
7
  6
CONTINUOUS
 70
0
 71
3
 72
188
 73
184
 74
0
 42
0.0000001
 43
0.0000001
 44
0.0000000001
 40
0.0
 40
0.0
 40
0.0
 40
0.0
 40
0.0074553449
 40
0.0148944232
 40
0.0221622764
 40
0.0291177237
 40
0.0357310673
 40
0.0420478641
 40
0.0480263111
 40
0.0535517699
 40
0.0585327744
 40
0.0629310087
 40
0.0667444683
 40
0.0699647665
 40
0.0725872471
 40
0.076019746
 40
0.0794917873
 40
0.0844567564
 40
0.0879506785
 40
0.0920687276
 40
0.0967346728
 40
0.1018677213
 40
0.1074543589
 40
0.1135198335
 40
0.1200217552
 40
0.1268487507
 40
0.1338892983
 40
0.1411057383
 40
0.1484118726
 40
0.1557722964
 40
0.1631946724
 40
0.170496422
 40
0.1776279318
 40
0.1845810182
 40
0.1911878028
 40
0.1973488558
 40
0.2030857071
 40
0.2084309446
 40
0.2133197286
 40
0.2176563033
 40
0.2213739871
 40
0.2244274159
 40
0.2286476286
 40
0.2318905671
 40
0.2359397558
 40
0.2389056898
 40
0.2425465113
 40
0.2468355944
 40
0.2517132536
 40
0.2570973071
 40
0.2628896085
 40
0.2690173521
 40
0.2754932606
 40
0.2823186722
 40
0.2894131558
 40
0.2966824185
 40
0.3040337549
 40
0.3113883782
 40
0.3187107155
 40
0.3259945269
 40
0.3331728452
 40
0.3401211375
 40
0.3467212262
 40
0.3528641715
 40
0.3585063338
 40
0.3636378893
 40
0.368233546
 40
0.3722944229
 40
0.3757973542
 40
0.378692617
 40
0.3825764328
 40
0.3858889587
 40
0.3903380377
 40
0.393470376
 40
0.3972309953
 40
0.4016070633
 40
0.406523517
 40
0.4119735627
 40
0.4179373052
 40
0.4242595422
 40
0.4308659742
 40
0.4377521966
 40
0.4448913231
 40
0.4522621279
 40
0.4597604898
 40
0.4672301869
 40
0.4745206544
 40
0.4816292548
 40
0.4886092618
 40
0.4953465883
 40
0.5017100755
 40
0.5077023225
 40
0.5132932827
 40
0.518352805
 40
0.5228597362
 40
0.5267865072
 40
0.5300926812
 40
0.5328030509
 40
0.5364368929
 40
0.5398391575
 40
0.5446829636
 40
0.5480102747
 40
0.5519092854
 40
0.5563770242
 40
0.5614551369
 40
0.5670403051
 40
0.5730103737
 40
0.5793954626
 40
0.586140773
 40
0.5931033491
 40
0.6002863995
 40
0.6076256929
 40
0.6150285395
 40
0.6224977588
 40
0.6298988525
 40
0.6370517769
 40
0.6439224682
 40
0.6505602096
 40
0.6569007854
 40
0.6628190763
 40
0.6682333472
 40
0.6731447714
 40
0.6774883364
 40
0.6812337109
 40
0.6844171763
 40
0.6889599085
 40
0.6922434432
 40
0.6961603947
 40
0.6990461802
 40
0.7025374109
 40
0.7065963495
 40
0.7111993516
 40
0.7163580509
 40
0.722072258
 40
0.7282981796
 40
0.7349350444
 40
0.7418697819
 40
0.7489782253
 40
0.7561684971
 40
0.7634695994
 40
0.7708431792
 40
0.7781831292
 40
0.7854760162
 40
0.7926396012
 40
0.7995022599
 40
0.8059804018
 40
0.8121368989
 40
0.8179407771
 40
0.8232649323
 40
0.828039947
 40
0.8322225932
 40
0.8358043641
 40
0.8387784982
 40
0.8428962261
 40
0.8461256729
 40
0.8503295271
 40
0.8533944668
 40
0.8570658659
 40
0.8613034952
 40
0.8660509545
 40
0.8712543702
 40
0.876933046
 40
0.883137926
 40
0.8898272157
 40
0.8968861774
 40
0.9041712318
 40
0.9114769749
 40
0.918689873
 40
0.9258431321
 40
0.9329708765
 40
0.9401149415
 40
0.9472490198
 40
0.9541875951
 40
0.9607417982
 40
0.9668305108
 40
0.9724187813
 40
0.9775352975
 40
0.9822088318
 40
0.9863724019
 40
0.9899254739
 40
0.99280952
 40
0.9966829994
 40
1.0
 40
1.0
 40
1.0
 40
1.0
 10
132.1883497299
 20
365.7939360357
 30
0.0
 10
132.2531316302
 20
365.7844227928
 30
0.0
 10
132.3825713317
 20
365.7655344448
 30
0.0
 10
132.5750980154
 20
365.7369248761
 30
0.0
 10
132.7632073297
 20
365.7084617096
 30
0.0
 10
132.9440156824
 20
365.6802293972
 30
0.0
 10
133.1163906721
 20
365.6521520059
 30
0.0
 10
133.280058797
 20
365.6240143975
 30
0.0
 10
133.4339946378
 20
365.5957466726
 30
0.0
 10
133.5760124419
 20
365.5674828779
 30
0.0
 10
133.7038261336
 20
365.5394246154
 30
0.0
 10
133.8164957963
 20
365.5116153881
 30
0.0
 10
133.9125403992
 20
365.4840217727
 30
0.0
 10
133.9942597324
 20
365.4562713298
 30
0.0
 10
134.0641189614
 20
365.4236725712
 30
0.0
 10
134.1573486537
 20
365.3761389466
 30
0.0
 10
134.0908910167
 20
365.2571340551
 30
0.0
 10
133.988799181
 20
365.232759511
 30
0.0
 10
133.8849095098
 20
365.1948897956
 30
0.0
 10
133.7805176568
 20
365.1675243487
 30
0.0
 10
133.66171105
 20
365.1388709384
 30
0.0
 10
133.5294946473
 20
365.1108818277
 30
0.0
 10
133.3847626645
 20
365.0828694118
 30
0.0
 10
133.2278082667
 20
365.0548070891
 30
0.0
 10
133.0598327375
 20
365.0265638884
 30
0.0
 10
132.8831861503
 20
364.9982800773
 30
0.0
 10
132.7001819936
 20
364.9700348199
 30
0.0
 10
132.5129084799
 20
364.941875479
 30
0.0
 10
132.3227898293
 20
364.9137494859
 30
0.0
 10
132.1308535391
 20
364.8855525384
 30
0.0
 10
131.9389654325
 20
364.8572923725
 30
0.0
 10
131.7491161379
 20
364.8289879504
 30
0.0
 10
131.5634346685
 20
364.800682663
 30
0.0
 10
131.3839259936
 20
364.7723993457
 30
0.0
 10
131.2130282755
 20
364.7442396192
 30
0.0
 10
131.0529331891
 20
364.7162824414
 30
0.0
 10
130.9040736092
 20
364.6883716633
 30
0.0
 10
130.766678846
 20
364.6602765131
 30
0.0
 10
130.6417264887
 20
364.6321067043
 30
0.0
 10
130.532020721
 20
364.6035360757
 30
0.0
 10
130.4373300806
 20
364.5763146228
 30
0.0
 10
130.3506852104
 20
364.540309761
 30
0.0
 10
130.2495047236
 20
364.5108427752
 30
0.0
 10
130.2443516863
 20
364.3818836709
 30
0.0
 10
130.344020752
 20
364.3504835031
 30
0.0
 10
130.4273610583
 20
364.3150777917
 30
0.0
 10
130.520207486
 20
364.2877604362
 30
0.0
 10
130.6286139248
 20
364.2590903811
 30
0.0
 10
130.753337244
 20
364.2306219716
 30
0.0
 10
130.8913937708
 20
364.2021420805
 30
0.0
 10
131.0407490165
 20
364.1739599251
 30
0.0
 10
131.1998785361
 20
364.1460270846
 30
0.0
 10
131.3682276644
 20
364.1181656603
 30
0.0
 10
131.5451554044
 20
364.0901808822
 30
0.0
 10
131.7291127125
 20
364.062056731
 30
0.0
 10
131.9177335556
 20
364.0338836797
 30
0.0
 10
132.1086683481
 20
364.0057402861
 30
0.0
 10
132.3000787996
 20
363.9776279493
 30
0.0
 10
132.4908785167
 20
363.9494383347
 30
0.0
 10
132.680083885
 20
363.9210536396
 30
0.0
 10
132.8659350404
 20
363.8924583882
 30
0.0
 10
133.0456951046
 20
363.8637791827
 30
0.0
 10
133.2162640162
 20
363.8352216369
 30
0.0
 10
133.3752311957
 20
363.8069166774
 30
0.0
 10
133.5211528423
 20
363.7788734087
 30
0.0
 10
133.6531769081
 20
363.7509544092
 30
0.0
 10
133.7712138402
 20
363.7231961715
 30
0.0
 10
133.8738353578
 20
363.6952249366
 30
0.0
 10
133.9629578838
 20
363.667951713
 30
0.0
 10
134.0420575652
 20
363.633297477
 30
0.0
 10
134.143174991
 20
363.5979151353
 30
0.0
 10
134.1146631212
 20
363.4694578387
 30
0.0
 10
134.014143253
 20
363.442915456
 30
0.0
 10
133.9232147111
 20
363.4063354481
 30
0.0
 10
133.8272762834
 20
363.3796009734
 30
0.0
 10
133.7163547401
 20
363.3514065731
 30
0.0
 10
133.5898445826
 20
363.3234646072
 30
0.0
 10
133.4492554323
 20
363.2951865742
 30
0.0
 10
133.2960735744
 20
363.2668611602
 30
0.0
 10
133.1325763268
 20
363.2385892889
 30
0.0
 10
132.9608329898
 20
363.2104890348
 30
0.0
 10
132.7818159464
 20
363.1824489525
 30
0.0
 10
132.596030353
 20
363.1542559167
 30
0.0
 10
132.4048406622
 20
363.1258502206
 30
0.0
 10
132.21073411
 20
363.0973242774
 30
0.0
 10
132.0173224612
 20
363.068922586
 30
0.0
 10
131.8273345251
 20
363.0407668144
 30
0.0
 10
131.6416787359
 20
363.0127195156
 30
0.0
 10
131.4609450994
 20
362.9846197946
 30
0.0
 10
131.2868438993
 20
362.9564770521
 30
0.0
 10
131.1215253751
 20
362.9283810817
 30
0.0
 10
130.9664286207
 20
362.9003140363
 30
0.0
 10
130.8229596089
 20
362.8722468741
 30
0.0
 10
130.6928769144
 20
362.8441796058
 30
0.0
 10
130.5775339441
 20
362.8161777205
 30
0.0
 10
130.4787968768
 20
362.7882011205
 30
0.0
 10
130.3943569773
 20
362.7606305267
 30
0.0
 10
130.3212826011
 20
362.7272806999
 30
0.0
 10
130.2231275779
 20
362.6853205917
 30
0.0
 10
130.277344346
 20
362.5609312678
 30
0.0
 10
130.3791329061
 20
362.5363726954
 30
0.0
 10
130.4778063215
 20
362.4989404677
 30
0.0
 10
130.5772396797
 20
362.4721925947
 30
0.0
 10
130.6918335375
 20
362.4440074874
 30
0.0
 10
130.8218045248
 20
362.4161130803
 30
0.0
 10
130.9651519937
 20
362.3879983774
 30
0.0
 10
131.1201957283
 20
362.3599052956
 30
0.0
 10
131.2855677802
 20
362.3317507741
 30
0.0
 10
131.4597705608
 20
362.3035625454
 30
0.0
 10
131.6410672778
 20
362.2753695252
 30
0.0
 10
131.827646022
 20
362.2472079865
 30
0.0
 10
132.0181269408
 20
362.2189985154
 30
0.0
 10
132.2111304205
 20
362.1906684352
 30
0.0
 10
132.4046666821
 20
362.1622306408
 30
0.0
 10
132.5959855962
 20
362.1338016069
 30
0.0
 10
132.7820169448
 20
362.1055562196
 30
0.0
 10
132.9612848479
 20
362.0774391687
 30
0.0
 10
133.1333205287
 20
362.0492701201
 30
0.0
 10
133.2968554944
 20
362.0210014708
 30
0.0
 10
133.4494995416
 20
361.9928030229
 30
0.0
 10
133.5893533264
 20
361.9647200936
 30
0.0
 10
133.715249928
 20
361.9369586252
 30
0.0
 10
133.8257107249
 20
361.908900948
 30
0.0
 10
133.9217213286
 20
361.8821069945
 30
0.0
 10
134.0134515223
 20
361.8450885525
 30
0.0
 10
134.1162532249
 20
361.8186550086
 30
0.0
 10
134.1420554817
 20
361.6888639597
 30
0.0
 10
134.0409311666
 20
361.6545218591
 30
0.0
 10
133.9616901117
 20
361.6196730601
 30
0.0
 10
133.8727878891
 20
361.5924824827
 30
0.0
 10
133.7702181795
 20
361.5644963346
 30
0.0
 10
133.6518963788
 20
361.5367071317
 30
0.0
 10
133.5189335549
 20
361.5087022963
 30
0.0
 10
133.3714234744
 20
361.4804484584
 30
0.0
 10
133.2107876798
 20
361.4519061192
 30
0.0
 10
133.0392924624
 20
361.4232333798
 30
0.0
 10
132.859934272
 20
361.3946361812
 30
0.0
 10
132.6756187949
 20
361.3662805543
 30
0.0
 10
132.4880169841
 20
361.3381376301
 30
0.0
 10
132.2980475443
 20
361.3100859397
 30
0.0
 10
132.1067534795
 20
361.2820070672
 30
0.0
 10
131.9155456571
 20
361.2538372448
 30
0.0
 10
131.7262172985
 20
361.2255652081
 30
0.0
 10
131.5411333041
 20
361.1972572718
 30
0.0
 10
131.3632696601
 20
361.1690849168
 30
0.0
 10
131.1943432687
 20
361.1410407058
 30
0.0
 10
131.0348632318
 20
361.112942617
 30
0.0
 10
130.8856909303
 20
361.0847193036
 30
0.0
 10
130.7489450359
 20
361.0564426139
 30
0.0
 10
130.6265390541
 20
361.0284669429
 30
0.0
 10
130.5203907975
 20
361.0003965451
 30
0.0
 10
130.4288928163
 20
360.9735501279
 30
0.0
 10
130.3453704215
 20
360.9379931519
 30
0.0
 10
130.2451481826
 20
360.9068734966
 30
0.0
 10
130.2484057789
 20
360.7775498086
 30
0.0
 10
130.3500168875
 20
360.748203086
 30
0.0
 10
130.436069095
 20
360.7122658694
 30
0.0
 10
130.5296163857
 20
360.6852393355
 30
0.0
 10
130.6368364844
 20
360.6571222067
 30
0.0
 10
130.7584679887
 20
360.6294839193
 30
0.0
 10
130.8928850435
 20
360.6017898462
 30
0.0
 10
131.0403719566
 20
360.5739979104
 30
0.0
 10
131.201040141
 20
360.5458432632
 30
0.0
 10
131.3739363645
 20
360.5172679823
 30
0.0
 10
131.5564021278
 20
360.4884580827
 30
0.0
 10
131.7443648303
 20
360.4597660241
 30
0.0
 10
131.9337589148
 20
360.4315018049
 30
0.0
 10
132.122058353
 20
360.4037476207
 30
0.0
 10
132.3088239993
 20
360.3763085209
 30
0.0
 10
132.4949694344
 20
360.3488067493
 30
0.0
 10
132.6808888963
 20
360.3209299338
 30
0.0
 10
132.8650625084
 20
360.2926188392
 30
0.0
 10
133.0439605592
 20
360.2641016414
 30
0.0
 10
133.2135803164
 20
360.2357185236
 30
0.0
 10
133.3712166676
 20
360.2076489678
 30
0.0
 10
133.5160718338
 20
360.1798072143
 30
0.0
 10
133.6482030838
 20
360.1519701635
 30
0.0
 10
133.7676707521
 20
360.1240787224
 30
0.0
 10
133.8723690536
 20
360.0956703107
 30
0.0
 10
133.9624820914
 20
360.0683807616
 30
0.0
 10
134.0426976136
 20
360.0329151514
 30
0.0
 10
134.1396508548
 20
360.0009145019
 30
0.0
 10
134.1306453372
 20
359.9128593538
 30
0.0
 10
134.1085068222
 20
359.8939242831
 30
0.0
  0
SPLINE
  5
4E6
100
AcDbEntity
  8
0
100
AcDbSpline
 62
7
  6
CONTINUOUS
 70
0
 71
3
 72
122
 73
118
 74
0
 42
0.0000001
 43
0.0000001
 44
0.0000000001
 40
0.0
 40
0.0
 40
0.0
 40
0.0
 40
0.0013792794
 40
0.0023469485
 40
0.003655412
 40
0.0057191356
 40
0.0165464676
 40
0.033743065
 40
0.0556975663
 40
0.0800491565
 40
0.1042554465
 40
0.11551593
 40
0.1257966218
 40
0.1348086289
 40
0.1423561853
 40
0.1482737222
 40
0.1524190775
 40
0.1538137583
 40
0.154806664
 40
0.1555384946
 40
0.1563021158
 40
0.1573591907
 40
0.1588177694
 40
0.1630645785
 40
0.1691150274
 40
0.1768117323
 40
0.1962841686
 40
0.2195744663
 40
0.2441894626
 40
0.2675371033
 40
0.2779811837
 40
0.2872144684
 40
0.2949738423
 40
0.3011075287
 40
0.3055084869
 40
0.3070453211
 40
0.3081595728
 40
0.3089449838
 40
0.3096672524
 40
0.3106339346
 40
0.311985431
 40
0.3159840722
 40
0.3217509838
 40
0.329219881
 40
0.3381786978
 40
0.3483755517
 40
0.3595546415
 40
0.3837276539
 40
0.4081260841
 40
0.4195847059
 40
0.4301614223
 40
0.4395879439
 40
0.4475990207
 40
0.453965604
 40
0.4585918025
 40
0.4602467795
 40
0.4614791583
 40
0.4623504103
 40
0.4630543175
 40
0.4651370103
 40
0.4689103313
 40
0.481638421
 40
0.5233064972
 40
0.5478911332
 40
0.5715972716
 40
0.5823063486
 40
0.5918937203
 40
0.600123624
 40
0.6067661201
 40
0.6116385715
 40
0.6134047416
 40
0.6147417343
 40
0.6163607043
 40
0.6182147802
 40
0.6217344723
 40
0.6270408592
 40
0.6340261677
 40
0.6425463916
 40
0.6524227001
 40
0.6633758034
 40
0.687288105
 40
0.7118048067
 40
0.7343572084
 40
0.744109958
 40
0.7525253671
 40
0.7594070071
 40
0.7645710606
 40
0.7679103967
 40
0.7696677041
 40
0.7704039302
 40
0.7714040652
 40
0.7727999649
 40
0.7746404725
 40
0.7796937196
 40
0.7864720072
 40
0.79479551
 40
0.8044709713
 40
0.8269217946
 40
0.851414789
 40
0.8753854261
 40
0.8863961218
 40
0.896347057
 40
0.9049571287
 40
0.9120444397
 40
0.9174610101
 40
0.9210922346
 40
0.9230302684
 40
0.9245908891
 40
0.9258755645
 40
0.927586164
 40
0.9323477044
 40
0.9388868023
 40
0.9470242219
 40
0.9565319988
 40
0.9671760359
 40
0.9831643314
 40
1.0
 40
1.0
 40
1.0
 40
1.0
 10
134.6494628706
 20
359.7969920192
 30
0.0
 10
134.6622348795
 20
359.8055145382
 30
0.0
 10
134.6856718608
 20
359.8218259583
 30
0.0
 10
134.6885960931
 20
359.8678515118
 30
0.0
 10
134.6477908698
 20
359.9010365945
 30
0.0
 10
134.507741366
 20
359.9685626671
 30
0.0
 10
134.1727748685
 20
360.036390323
 30
0.0
 10
133.6273250798
 20
360.1258832518
 30
0.0
 10
132.9241274935
 20
360.2123514669
 30
0.0
 10
132.1448142783
 20
360.3020447017
 30
0.0
 10
131.483107686
 20
360.3779208122
 30
0.0
 10
130.9777923646
 20
360.4411414838
 30
0.0
 10
130.6407689911
 20
360.4871907874
 30
0.0
 10
130.3455758119
 20
360.5332555962
 30
0.0
 10
130.0993232308
 20
360.5786834593
 30
0.0
 10
129.9087760544
 20
360.6238566151
 30
0.0
 10
129.7864059478
 20
360.6627711537
 30
0.0
 10
129.7226282263
 20
360.6980122589
 30
0.0
 10
129.6958461841
 20
360.7211153767
 30
0.0
 10
129.6861192413
 20
360.7494592603
 30
0.0
 10
129.6999928536
 20
360.7766602782
 30
0.0
 10
129.7288653454
 20
360.7994108536
 30
0.0
 10
129.7957760317
 20
360.8345203329
 30
0.0
 10
129.9212375814
 20
360.8739060712
 30
0.0
 10
130.1163447718
 20
360.9188836948
 30
0.0
 10
130.480426558
 20
360.9847066072
 30
0.0
 10
131.0368509363
 20
361.0622632029
 30
0.0
 10
131.7816650127
 20
361.150935002
 30
0.0
 10
132.5698284747
 20
361.2401470342
 30
0.0
 10
133.2155058304
 20
361.3168094776
 30
0.0
 10
133.6902102212
 20
361.3807060096
 30
0.0
 10
133.9921726702
 20
361.4266047618
 30
0.0
 10
134.2456703916
 20
361.4721623837
 30
0.0
 10
134.4441606419
 20
361.5175362057
 30
0.0
 10
134.5731832803
 20
361.5567997744
 30
0.0
 10
134.6438905594
 20
361.5916107437
 30
0.0
 10
134.6750083221
 20
361.6140468182
 30
0.0
 10
134.6912192887
 20
361.6409114345
 30
0.0
 10
134.6831449749
 20
361.669727428
 30
0.0
 10
134.6574418578
 20
361.6929088996
 30
0.0
 10
134.596468492
 20
361.7280921574
 30
0.0
 10
134.4781312465
 20
361.7674249196
 30
0.0
 10
134.291905568
 20
361.8126277176
 30
0.0
 10
134.0487808173
 20
361.8577853535
 30
0.0
 10
133.7560019467
 20
361.9037038052
 30
0.0
 10
133.4214479146
 20
361.9498556682
 30
0.0
 10
132.9183687188
 20
362.0132680796
 30
0.0
 10
132.257549585
 20
362.0891852279
 30
0.0
 10
131.5935805453
 20
362.1648622528
 30
0.0
 10
131.0805334601
 20
362.2279746609
 30
0.0
 10
130.7333452229
 20
362.2741855242
 30
0.0
 10
130.42488198
 20
362.3201771584
 30
0.0
 10
130.1637521043
 20
362.3655945606
 30
0.0
 10
129.9570457409
 20
362.410968638
 30
0.0
 10
129.8217128354
 20
362.450650526
 30
0.0
 10
129.7450120081
 20
362.4850995675
 30
0.0
 10
129.7101136475
 20
362.5077812886
 30
0.0
 10
129.6880520409
 20
362.5323439633
 30
0.0
 10
129.6889650566
 20
362.5766416166
 30
0.0
 10
129.7610853425
 20
362.6188827458
 30
0.0
 10
129.9476144821
 20
362.6872440639
 30
0.0
 10
130.5969371998
 20
362.8110770737
 30
0.0
 10
131.4615523612
 20
362.9136982846
 30
0.0
 10
132.4583156378
 20
363.027719319
 30
0.0
 10
133.1103725766
 20
363.1037223002
 30
0.0
 10
133.5960896511
 20
363.1675691409
 30
0.0
 10
133.9102942921
 20
363.2137167528
 30
0.0
 10
134.1787838769
 20
363.2591731887
 30
0.0
 10
134.3939680993
 20
363.3047416361
 30
0.0
 10
134.5365928356
 20
363.3435693273
 30
0.0
 10
134.6188524539
 20
363.3792655955
 30
0.0
 10
134.6640287545
 20
363.4028558708
 30
0.0
 10
134.7033542211
 20
363.4568704179
 30
0.0
 10
134.6285584631
 20
363.5168857427
 30
0.0
 10
134.5230306928
 20
363.5527464161
 30
0.0
 10
134.3496556496
 20
363.6003908574
 30
0.0
 10
134.1235601752
 20
363.6444583556
 30
0.0
 10
133.8443027977
 20
363.690836777
 30
0.0
 10
133.5209544775
 20
363.736669311
 30
0.0
 10
133.0268810508
 20
363.8002186621
 30
0.0
 10
132.3702503379
 20
363.8764524202
 30
0.0
 10
131.5851672694
 20
363.9657539084
 30
0.0
 10
130.9571589569
 20
364.0424887218
 30
0.0
 10
130.5085839971
 20
364.1069504995
 30
0.0
 10
130.2331951393
 20
364.1532261712
 30
0.0
 10
130.0106831213
 20
364.1972450828
 30
0.0
 10
129.8430442289
 20
364.2442061182
 30
0.0
 10
129.7404990999
 20
364.281160931
 30
0.0
 10
129.6826732434
 20
364.3332400041
 30
0.0
 10
129.6965237885
 20
364.3733835015
 30
0.0
 10
129.7236551715
 20
364.3961913808
 30
0.0
 10
129.7648650307
 20
364.4192819914
 30
0.0
 10
129.8508542229
 20
364.4533682931
 30
0.0
 10
129.998088843
 20
364.4929731936
 30
0.0
 10
130.2178538165
 20
364.5382857029
 30
0.0
 10
130.4899127374
 20
364.5840557513
 30
0.0
 10
130.9355453218
 20
364.648785854
 30
0.0
 10
131.5612170687
 20
364.7254252959
 30
0.0
 10
132.3455744996
 20
364.8147665198
 30
0.0
 10
133.0032322824
 20
364.8909494052
 30
0.0
 10
133.4994620502
 20
364.9544317325
 30
0.0
 10
133.82527582
 20
365.0003205344
 30
0.0
 10
134.1076216594
 20
365.0465966882
 30
0.0
 10
134.3368833846
 20
365.0910387546
 30
0.0
 10
134.514600271
 20
365.1379503857
 30
0.0
 10
134.6222703934
 20
365.1754941355
 30
0.0
 10
134.7019372085
 20
365.2315710633
 30
0.0
 10
134.6682480457
 20
365.2882929482
 30
0.0
 10
134.6244497632
 20
365.3118565718
 30
0.0
 10
134.5452269891
 20
365.3476975998
 30
0.0
 10
134.4054146245
 20
365.3864373638
 30
0.0
 10
134.1938430638
 20
365.4319917475
 30
0.0
 10
133.9284078035
 20
365.4774036759
 30
0.0
 10
133.6168791981
 20
365.5235426847
 30
0.0
 10
133.218018504
 20
365.576287471
 30
0.0
 10
132.7375825121
 20
365.6340856375
 30
0.0
 10
132.3745540417
 20
365.6756717519
 30
0.0
 10
132.1883543292
 20
365.6970051171
 30
0.0
  0
SPLINE
  5
4E7
100
AcDbEntity
  8
0
100
AcDbSpline
 62
7
  6
CONTINUOUS
 70
0
 71
3
 72
122
 73
118
 74
0
 42
0.0000001
 43
0.0000001
 44
0.0000000001
 40
0.0
 40
0.0
 40
0.0
 40
0.0
 40
0.0168356254
 40
0.0328238798
 40
0.0434679174
 40
0.0529756947
 40
0.0611131147
 40
0.0676522129
 40
0.0724137535
 40
0.0741243531
 40
0.0754090285
 40
0.0769696493
 40
0.0789076832
 40
0.0825389078
 40
0.0879554785
 40
0.0950427898
 40
0.1036528619
 40
0.1136037975
 40
0.1246144937
 40
0.1485851319
 40
0.1730781274
 40
0.1955289517
 40
0.2052044134
 40
0.2135279166
 40
0.2203062045
 40
0.2253594518
 40
0.2271999595
 40
0.2285958592
 40
0.2295959943
 40
0.2303322204
 40
0.2320895279
 40
0.2354288642
 40
0.2405929179
 40
0.2474745582
 40
0.2558899676
 40
0.2656427177
 40
0.2881951204
 40
0.3127118233
 40
0.3366241259
 40
0.3475772297
 40
0.3574535386
 40
0.3659737629
 40
0.3729590717
 40
0.3782654588
 40
0.3817851511
 40
0.3836392271
 40
0.3852581971
 40
0.3865951899
 40
0.3883613601
 40
0.3932338117
 40
0.3998763081
 40
0.4081062122
 40
0.4176935843
 40
0.4284026618
 40
0.4521088013
 40
0.4766934383
 40
0.5183615164
 40
0.5310896066
 40
0.5348629279
 40
0.5369456207
 40
0.537649528
 40
0.53852078
 40
0.5397531588
 40
0.5414081359
 40
0.5460343346
 40
0.5524009182
 40
0.5604119954
 40
0.5698385174
 40
0.5804152343
 40
0.5918738566
 40
0.6162722879
 40
0.6404453013
 40
0.6516243916
 40
0.661821246
 40
0.6707800632
 40
0.6782489608
 40
0.6840158726
 40
0.688014514
 40
0.6893660104
 40
0.6903326927
 40
0.6910549613
 40
0.6918403723
 40
0.6929546241
 40
0.6944914583
 40
0.6988924167
 40
0.7050261035
 40
0.7127854777
 40
0.7220187628
 40
0.7324628437
 40
0.7558104854
 40
0.7804254828
 40
0.8037157815
 40
0.8231882187
 40
0.830884924
 40
0.8369353731
 40
0.8411821824
 40
0.8426407612
 40
0.8436978361
 40
0.8444614573
 40
0.845193288
 40
0.8461861937
 40
0.8475808746
 40
0.8517262301
 40
0.8576437673
 40
0.865191324
 40
0.8742033315
 40
0.8844840237
 40
0.8957445077
 40
0.9199507988
 40
0.9443023901
 40
0.9662568924
 40
0.9834534906
 40
0.994280823
 40
0.9963445567
 40
0.9976530224
 40
0.9986206982
 40
1.0
 40
1.0
 40
1.0
 40
1.0
 10
132.1883571747
 20
365.5970796606
 30
0.0
 10
132.3745564011
 20
365.575746351
 30
0.0
 10
132.7375839224
 20
365.5341603403
 30
0.0
 10
133.2180189655
 20
365.4763622795
 30
0.0
 10
133.6168791981
 20
365.4236175542
 30
0.0
 10
133.9284078035
 20
365.3774785454
 30
0.0
 10
134.1938430638
 20
365.332066617
 30
0.0
 10
134.4054146245
 20
365.2865122333
 30
0.0
 10
134.5452269891
 20
365.2477724692
 30
0.0
 10
134.6244497632
 20
365.2119314413
 30
0.0
 10
134.6682480457
 20
365.1883678176
 30
0.0
 10
134.7019372085
 20
365.1316459328
 30
0.0
 10
134.6222703934
 20
365.075569005
 30
0.0
 10
134.514600271
 20
365.0380252551
 30
0.0
 10
134.3368833846
 20
364.9911136241
 30
0.0
 10
134.1076216594
 20
364.9466715577
 30
0.0
 10
133.82527582
 20
364.9003954039
 30
0.0
 10
133.4994620502
 20
364.854506602
 30
0.0
 10
133.0032322824
 20
364.7910242747
 30
0.0
 10
132.3455744996
 20
364.7148413893
 30
0.0
 10
131.5612170687
 20
364.6255001654
 30
0.0
 10
130.9355453218
 20
364.5488607235
 30
0.0
 10
130.4899127374
 20
364.4841306208
 30
0.0
 10
130.2178538165
 20
364.4383605724
 30
0.0
 10
129.998088843
 20
364.3930480631
 30
0.0
 10
129.8508542229
 20
364.3534431625
 30
0.0
 10
129.7648650307
 20
364.3193568609
 30
0.0
 10
129.7236551715
 20
364.2962662503
 30
0.0
 10
129.6965237885
 20
364.2734583709
 30
0.0
 10
129.6826732434
 20
364.2333148736
 30
0.0
 10
129.7404990999
 20
364.1812358005
 30
0.0
 10
129.8430442289
 20
364.1442809877
 30
0.0
 10
130.0106831213
 20
364.0973199523
 30
0.0
 10
130.2331951393
 20
364.0533010407
 30
0.0
 10
130.5085839971
 20
364.007025369
 30
0.0
 10
130.9571589569
 20
363.9425635913
 30
0.0
 10
131.5851672694
 20
363.8658287779
 30
0.0
 10
132.3702503379
 20
363.7765272897
 30
0.0
 10
133.0268810508
 20
363.7002935316
 30
0.0
 10
133.5209544775
 20
363.6367441805
 30
0.0
 10
133.8443027977
 20
363.5909116464
 30
0.0
 10
134.1235601752
 20
363.5445332251
 30
0.0
 10
134.3496556496
 20
363.5004657269
 30
0.0
 10
134.5230306928
 20
363.4528212856
 30
0.0
 10
134.6285584631
 20
363.4169606122
 30
0.0
 10
134.7033542211
 20
363.3569452874
 30
0.0
 10
134.6640287545
 20
363.3029307403
 30
0.0
 10
134.6188524539
 20
363.2793404649
 30
0.0
 10
134.5365928356
 20
363.2436441968
 30
0.0
 10
134.3939680993
 20
363.2048165056
 30
0.0
 10
134.1787838769
 20
363.1592480582
 30
0.0
 10
133.9102942921
 20
363.1137916223
 30
0.0
 10
133.5960896511
 20
363.0676440104
 30
0.0
 10
133.1103725766
 20
363.0037971697
 30
0.0
 10
132.4583156378
 20
362.9277941885
 30
0.0
 10
131.4615523612
 20
362.813773154
 30
0.0
 10
130.5969371998
 20
362.7111519432
 30
0.0
 10
129.9476144821
 20
362.5873189333
 30
0.0
 10
129.7610853425
 20
362.5189576153
 30
0.0
 10
129.6889650566
 20
362.4767164861
 30
0.0
 10
129.6880520409
 20
362.4324188328
 30
0.0
 10
129.7101136475
 20
362.407856158
 30
0.0
 10
129.7450120081
 20
362.385174437
 30
0.0
 10
129.8217128354
 20
362.3507253955
 30
0.0
 10
129.9570457409
 20
362.3110435074
 30
0.0
 10
130.1637521043
 20
362.2656694301
 30
0.0
 10
130.42488198
 20
362.2202520278
 30
0.0
 10
130.7333452229
 20
362.1742603937
 30
0.0
 10
131.0805334601
 20
362.1280495304
 30
0.0
 10
131.5935805453
 20
362.0649371223
 30
0.0
 10
132.257549585
 20
361.9892600974
 30
0.0
 10
132.9183687188
 20
361.9133429491
 30
0.0
 10
133.4214479146
 20
361.8499305377
 30
0.0
 10
133.7560019467
 20
361.8037786747
 30
0.0
 10
134.0487808173
 20
361.757860223
 30
0.0
 10
134.291905568
 20
361.7127025871
 30
0.0
 10
134.4781312465
 20
361.667499789
 30
0.0
 10
134.596468492
 20
361.6281670269
 30
0.0
 10
134.6574418578
 20
361.5929837691
 30
0.0
 10
134.6831449749
 20
361.5698022975
 30
0.0
 10
134.6912192887
 20
361.540986304
 30
0.0
 10
134.6750083221
 20
361.5141216877
 30
0.0
 10
134.6438905594
 20
361.4916856132
 30
0.0
 10
134.5731832803
 20
361.4568746439
 30
0.0
 10
134.4441606419
 20
361.4176110752
 30
0.0
 10
134.2456703916
 20
361.3722372532
 30
0.0
 10
133.9921726702
 20
361.3266796313
 30
0.0
 10
133.6902102212
 20
361.2807808791
 30
0.0
 10
133.2155058304
 20
361.2168843471
 30
0.0
 10
132.5698284747
 20
361.1402219037
 30
0.0
 10
131.7816650127
 20
361.0510098715
 30
0.0
 10
131.0368509363
 20
360.9623380724
 30
0.0
 10
130.480426558
 20
360.8847814767
 30
0.0
 10
130.1163447718
 20
360.8189585643
 30
0.0
 10
129.9212375814
 20
360.7739809407
 30
0.0
 10
129.7957760317
 20
360.7345952024
 30
0.0
 10
129.7288653454
 20
360.699485723
 30
0.0
 10
129.6999928536
 20
360.6767351477
 30
0.0
 10
129.6861192413
 20
360.6495341298
 30
0.0
 10
129.6958461841
 20
360.6211902462
 30
0.0
 10
129.7226282263
 20
360.5980871284
 30
0.0
 10
129.7864059478
 20
360.5628460231
 30
0.0
 10
129.9087760544
 20
360.5239314846
 30
0.0
 10
130.0993232308
 20
360.4787583288
 30
0.0
 10
130.3455758119
 20
360.4333304657
 30
0.0
 10
130.6407689911
 20
360.3872656569
 30
0.0
 10
130.9777923646
 20
360.3412163532
 30
0.0
 10
131.4831076858
 20
360.277995682
 30
0.0
 10
132.1448142793
 20
360.2021195689
 30
0.0
 10
132.9241274898
 20
360.1124263445
 30
0.0
 10
133.6273250909
 20
360.0259580968
 30
0.0
 10
134.1727748416
 20
359.9364652515
 30
0.0
 10
134.5077415175
 20
359.8686374247
 30
0.0
 10
134.6477910645
 20
359.8011114041
 30
0.0
 10
134.6885964715
 20
359.7679259302
 30
0.0
 10
134.685671373
 20
359.7218999918
 30
0.0
 10
134.6622339783
 20
359.7055886747
 30
0.0
 10
134.6494617018
 20
359.6970661087
 30
0.0
  0
SPLINE
  5
4E8
100
AcDbEntity
  8
0
100
AcDbSpline
 62
7
  6
CONTINUOUS
 70
0
 71
3
 72
188
 73
184
 74
0
 42
0.0000001
 43
0.0000001
 44
0.0000000001
 40
0.0
 40
0.0
 40
0.0
 40
0.0
 40
0.003307708
 40
0.0071776411
 40
0.0100557684
 40
0.0135908424
 40
0.0177299378
 40
0.0223963961
 40
0.0275356171
 40
0.0331415642
 40
0.0392260555
 40
0.0457735238
 40
0.0526728001
 40
0.0597506357
 40
0.066944563
 40
0.0742328432
 40
0.0815233168
 40
0.0888106311
 40
0.0961287673
 40
0.1033772862
 40
0.1103953906
 40
0.1170464675
 40
0.1232316384
 40
0.1289440643
 40
0.1342143734
 40
0.1390066587
 40
0.1432417728
 40
0.1468648508
 40
0.1498705133
 40
0.1539838078
 40
0.1572242589
 40
0.161452939
 40
0.1644617355
 40
0.1680824994
 40
0.1723430034
 40
0.1772170398
 40
0.182626164
 40
0.1884837206
 40
0.1946879513
 40
0.2012350088
 40
0.2081639734
 40
0.2153967825
 40
0.2227301925
 40
0.2300434779
 40
0.2373646153
 40
0.244627711
 40
0.2518012901
 40
0.2588951468
 40
0.2658036184
 40
0.2724040131
 40
0.2785802095
 40
0.2842312441
 40
0.2893048278
 40
0.2938350439
 40
0.2978376898
 40
0.3012694579
 40
0.3040949818
 40
0.3079015463
 40
0.3112347424
 40
0.3159157791
 40
0.3191693735
 40
0.3230073569
 40
0.3274224078
 40
0.3323662938
 40
0.3378238258
 40
0.3437704077
 40
0.3501279853
 40
0.3567773323
 40
0.3636660583
 40
0.3708500703
 40
0.378287738
 40
0.3857959204
 40
0.3931948165
 40
0.4004579688
 40
0.4075658732
 40
0.4144819194
 40
0.4211661251
 40
0.4275085857
 40
0.433498645
 40
0.4390898679
 40
0.4441259264
 40
0.4485565162
 40
0.4523926806
 40
0.4556409335
 40
0.4583030835
 40
0.4618233832
 40
0.4653026204
 40
0.4702325095
 40
0.4736067818
 40
0.4776077787
 40
0.4821706797
 40
0.4872883084
 40
0.4929077169
 40
0.4989252178
 40
0.5053392839
 40
0.5121173029
 40
0.5191160449
 40
0.5262496719
 40
0.5335706564
 40
0.541049275
 40
0.5485497598
 40
0.5559102774
 40
0.5630553649
 40
0.5699070498
 40
0.576442508
 40
0.5827098793
 40
0.5885761805
 40
0.5939332615
 40
0.5988150753
 40
0.6031631868
 40
0.6068802653
 40
0.6099763601
 40
0.6143173106
 40
0.6175878617
 40
0.6216038577
 40
0.6245763784
 40
0.6281570146
 40
0.6322902945
 40
0.6369764429
 40
0.6421656468
 40
0.6478299992
 40
0.6540206689
 40
0.6606627813
 40
0.6676442928
 40
0.6748435529
 40
0.6821419478
 40
0.6894562602
 40
0.6967740148
 40
0.7040960756
 40
0.7113440516
 40
0.7184138626
 40
0.7252077511
 40
0.7316716873
 40
0.7377909621
 40
0.7435438959
 40
0.7488743985
 40
0.7536884651
 40
0.7579086853
 40
0.7614765359
 40
0.764372672
 40
0.7683060949
 40
0.7715611554
 40
0.7758956171
 40
0.779012233
 40
0.782788583
 40
0.787153772
 40
0.7920408461
 40
0.7973882201
 40
0.8031773064
 40
0.8094127209
 40
0.816064483
 40
0.823003042
 40
0.8300827664
 40
0.8373851708
 40
0.8448218106
 40
0.852166642
 40
0.8594725696
 40
0.8667035342
 40
0.8737282723
 40
0.8804699378
 40
0.8868453041
 40
0.8927899624
 40
0.8983139586
 40
0.9034388336
 40
0.9081063727
 40
0.9122212177
 40
0.9157038251
 40
0.9184904501
 40
0.9221116788
 40
0.925393957
 40
0.9300223293
 40
0.9332413591
 40
0.9370375932
 40
0.9414063998
 40
0.9463808735
 40
0.9519257102
 40
0.9579253095
 40
0.9642486076
 40
0.970860967
 40
0.9778150607
 40
0.9850816503
 40
0.9925250487
 40
1.0
 40
1.0
 40
1.0
 40
1.0
 10
134.1085056456
 20
359.6001352124
 30
0.0
 10
134.1305828909
 20
359.6190162984
 30
0.0
 10
134.1397200852
 20
359.7068545106
 30
0.0
 10
134.0429010113
 20
359.7388651394
 30
0.0
 10
133.9629225493
 20
359.7742556476
 30
0.0
 10
133.873229997
 20
359.801457567
 30
0.0
 10
133.7689621469
 20
359.8297938215
 30
0.0
 10
133.6495794643
 20
359.8577084718
 30
0.0
 10
133.5171676802
 20
359.8856311779
 30
0.0
 10
133.3720030144
 20
359.9135450028
 30
0.0
 10
133.2143101887
 20
359.9416328035
 30
0.0
 10
133.0451271704
 20
359.9699502224
 30
0.0
 10
132.8671179646
 20
359.9983356893
 30
0.0
 10
132.6833430696
 20
360.0265984566
 30
0.0
 10
132.4960860491
 20
360.0546833845
 30
0.0
 10
132.3069205164
 20
360.0826298611
 30
0.0
 10
132.11692102
 20
360.1105422604
 30
0.0
 10
131.9266763973
 20
360.138590302
 30
0.0
 10
131.7368488134
 20
360.166939435
 30
0.0
 10
131.5494554859
 20
360.1955768996
 30
0.0
 10
131.3679991269
 20
360.2242680347
 30
0.0
 10
131.1959664822
 20
360.2527474741
 30
0.0
 10
131.0355170127
 20
360.2809170641
 30
0.0
 10
130.887343596
 20
360.3089116727
 30
0.0
 10
130.7517026062
 20
360.3369739824
 30
0.0
 10
130.6291629462
 20
360.3650146656
 30
0.0
 10
130.5221007509
 20
360.3933649947
 30
0.0
 10
130.4294891895
 20
360.4205381394
 30
0.0
 10
130.3455280631
 20
360.4560920602
 30
0.0
 10
130.2440625002
 20
360.4869415347
 30
0.0
 10
130.2496599088
 20
360.6166313881
 30
0.0
 10
130.3503008697
 20
360.6461235226
 30
0.0
 10
130.4358585525
 20
360.6819360152
 30
0.0
 10
130.528640806
 20
360.7087324454
 30
0.0
 10
130.6367342686
 20
360.7369944344
 30
0.0
 10
130.7614376848
 20
360.7651871484
 30
0.0
 10
130.9002840053
 20
360.7936284677
 30
0.0
 10
131.051105156
 20
360.8219325872
 30
0.0
 10
131.2120912035
 20
360.8501035158
 30
0.0
 10
131.382628663
 20
360.8782515317
 30
0.0
 10
131.5622853373
 20
360.9065789881
 30
0.0
 10
131.7489119891
 20
360.9350254139
 30
0.0
 10
131.9389709551
 20
360.9633433839
 30
0.0
 10
132.1298471901
 20
360.9914371239
 30
0.0
 10
132.32012249
 20
361.0193724958
 30
0.0
 10
132.5091555433
 20
361.0473223764
 30
0.0
 10
132.6961457789
 20
361.0754387826
 30
0.0
 10
132.8799471035
 20
361.1038113305
 30
0.0
 10
133.0586139184
 20
361.1324302986
 30
0.0
 10
133.2291069487
 20
361.1611073983
 30
0.0
 10
133.3884134756
 20
361.1896292298
 30
0.0
 10
133.5341678758
 20
361.2178105421
 30
0.0
 10
133.6651641553
 20
361.2457140917
 30
0.0
 10
133.7815830684
 20
361.2734257192
 30
0.0
 10
133.8824242568
 20
361.3013210444
 30
0.0
 10
133.9697724095
 20
361.3286667959
 30
0.0
 10
134.0466781725
 20
361.3629507306
 30
0.0
 10
134.1472577985
 20
361.4003108446
 30
0.0
 10
134.1091098023
 20
361.5286558299
 30
0.0
 10
134.006455917
 20
361.5540640882
 30
0.0
 10
133.911394978
 20
361.5914176501
 30
0.0
 10
133.8134312394
 20
361.6182197908
 30
0.0
 10
133.7011324072
 20
361.6462825617
 30
0.0
 10
133.5739199483
 20
361.6739822845
 30
0.0
 10
133.4331106669
 20
361.701974158
 30
0.0
 10
133.2796639797
 20
361.7300948585
 30
0.0
 10
133.115606508
 20
361.7582751121
 30
0.0
 10
132.9431449761
 20
361.7863750255
 30
0.0
 10
132.763333948
 20
361.8144694353
 30
0.0
 10
132.5765475941
 20
361.8427538522
 30
0.0
 10
132.3842958736
 20
361.8712745765
 30
0.0
 10
132.1901353611
 20
361.8997868154
 30
0.0
 10
131.9974915205
 20
361.9280780516
 30
0.0
 10
131.8083657929
 20
361.9561303164
 30
0.0
 10
131.6235153768
 20
361.9840998577
 30
0.0
 10
131.4438187439
 20
362.0121353638
 30
0.0
 10
131.2709374787
 20
362.0402227117
 30
0.0
 10
131.1063098683
 20
362.068382005
 30
0.0
 10
130.9514503369
 20
362.096625998
 30
0.0
 10
130.8082495475
 20
362.1249062623
 30
0.0
 10
130.6790839198
 20
362.1530686148
 30
0.0
 10
130.5654395043
 20
362.1809955427
 30
0.0
 10
130.4687174322
 20
362.2088114697
 30
0.0
 10
130.3861290376
 20
362.2366116249
 30
0.0
 10
130.315122944
 20
362.2694911471
 30
0.0
 10
130.2189040751
 20
362.3158790503
 30
0.0
 10
130.2851215408
 20
362.4361197585
 30
0.0
 10
130.3858926261
 20
362.4604779788
 30
0.0
 10
130.4874068319
 20
362.4978792972
 30
0.0
 10
130.5888265996
 20
362.5248113822
 30
0.0
 10
130.7055693567
 20
362.5532030665
 30
0.0
 10
130.8370324058
 20
362.5811209523
 30
0.0
 10
130.9814814834
 20
362.6091763625
 30
0.0
 10
131.1375213328
 20
362.6372093807
 30
0.0
 10
131.3038714788
 20
362.6653290122
 30
0.0
 10
131.4789464759
 20
362.6935033968
 30
0.0
 10
131.6604268618
 20
362.7216249292
 30
0.0
 10
131.8467375241
 20
362.7497029032
 30
0.0
 10
132.0372910132
 20
362.7779025452
 30
0.0
 10
132.231065127
 20
362.8063464476
 30
0.0
 10
132.4251752838
 20
362.8348918618
 30
0.0
 10
132.6163383625
 20
362.863343366
 30
0.0
 10
132.8017740994
 20
362.8915655247
 30
0.0
 10
132.9799090778
 20
362.9195855513
 30
0.0
 10
133.150238056
 20
362.9476065817
 30
0.0
 10
133.3117725223
 20
362.9757164308
 30
0.0
 10
133.4628008869
 20
363.0038490395
 30
0.0
 10
133.6014032144
 20
363.0319522607
 30
0.0
 10
133.7265431181
 20
363.0598499251
 30
0.0
 10
133.8364263732
 20
363.0881118947
 30
0.0
 10
133.9315056315
 20
363.1150355027
 30
0.0
 10
134.0201153782
 20
363.1515013035
 30
0.0
 10
134.1210612114
 20
363.179374121
 30
0.0
 10
134.1380921105
 20
363.3090347659
 30
0.0
 10
134.0360588112
 20
363.341810598
 30
0.0
 10
133.9541525385
 20
363.3771316263
 30
0.0
 10
133.8630339108
 20
363.4043556627
 30
0.0
 10
133.7582331322
 20
363.432488851
 30
0.0
 10
133.6382315323
 20
363.4603001461
 30
0.0
 10
133.5046730574
 20
363.4882066129
 30
0.0
 10
133.3576018374
 20
363.5161930107
 30
0.0
 10
133.1976297641
 20
363.5444612948
 30
0.0
 10
133.0259680483
 20
363.5730285425
 30
0.0
 10
132.8453534266
 20
363.6017110193
 30
0.0
 10
132.658891379
 20
363.6303038081
 30
0.0
 10
132.4694382368
 20
363.6586628857
 30
0.0
 10
132.278897514
 20
363.686782301
 30
0.0
 10
132.0881315546
 20
363.7147983154
 30
0.0
 10
131.8979604619
 20
363.7428554946
 30
0.0
 10
131.7100012613
 20
363.7709838314
 30
0.0
 10
131.5267292716
 20
363.7990864747
 30
0.0
 10
131.3504107731
 20
363.8270893435
 30
0.0
 10
131.1825361896
 20
363.8550230309
 30
0.0
 10
131.0239589681
 20
363.8830605235
 30
0.0
 10
130.8755229295
 20
363.9113201806
 30
0.0
 10
130.7388777239
 20
363.9398113781
 30
0.0
 10
130.6158132511
 20
363.9682810944
 30
0.0
 10
130.5093035028
 20
363.9968738687
 30
0.0
 10
130.4182762748
 20
364.0242857536
 30
0.0
 10
130.3376757762
 20
364.0591857241
 30
0.0
 10
130.2383594933
 20
364.0931523267
 30
0.0
 10
130.2561653938
 20
364.2213025208
 30
0.0
 10
130.3570073997
 20
364.2489899979
 30
0.0
 10
130.4463639604
 20
364.2853187373
 30
0.0
 10
130.542288546
 20
364.3123794893
 30
0.0
 10
130.6528723464
 20
364.340801283
 30
0.0
 10
130.7781131058
 20
364.3687498285
 30
0.0
 10
130.9160084713
 20
364.3967340102
 30
0.0
 10
131.0660092677
 20
364.4246809311
 30
0.0
 10
131.2276156574
 20
364.4527441739
 30
0.0
 10
131.3994416119
 20
364.4809290323
 30
0.0
 10
131.5787793894
 20
364.5090912234
 30
0.0
 10
131.7638995144
 20
364.5372503521
 30
0.0
 10
131.9534334933
 20
364.5654721329
 30
0.0
 10
132.1453176397
 20
364.5937167507
 30
0.0
 10
132.3372394972
 20
364.6219173976
 30
0.0
 10
132.527343196
 20
364.6500663809
 30
0.0
 10
132.7145966474
 20
364.6782691947
 30
0.0
 10
132.8968383728
 20
364.7064669348
 30
0.0
 10
133.0714953478
 20
364.7345235326
 30
0.0
 10
133.2365756077
 20
364.7623735637
 30
0.0
 10
133.3908257222
 20
364.7900548771
 30
0.0
 10
133.5339170499
 20
364.8177897815
 30
0.0
 10
133.6654318513
 20
364.8458519708
 30
0.0
 10
133.7844204259
 20
364.8742035729
 30
0.0
 10
133.8877705531
 20
364.9028689424
 30
0.0
 10
133.9760805223
 20
364.930878007
 30
0.0
 10
134.0516005698
 20
364.9648010499
 30
0.0
 10
134.1477506613
 20
365.0035856929
 30
0.0
 10
134.1086680542
 20
365.1279253697
 30
0.0
 10
134.0081237945
 20
365.1537517476
 30
0.0
 10
133.9139544675
 20
365.1906313783
 30
0.0
 10
133.8170793307
 20
365.217171676
 30
0.0
 10
133.7052850442
 20
365.2452260638
 30
0.0
 10
133.577488332
 20
365.2731861723
 30
0.0
 10
133.435224423
 20
365.3015649838
 30
0.0
 10
133.2808719968
 20
365.3299093247
 30
0.0
 10
133.116977884
 20
365.3580949278
 30
0.0
 10
132.9445668765
 20
365.3861830834
 30
0.0
 10
132.7637898517
 20
365.414407347
 30
0.0
 10
132.575670049
 20
365.4429007067
 30
0.0
 10
132.3829323075
 20
365.4714412056
 30
0.0
 10
132.253321521
 20
365.4906091861
 30
0.0
 10
132.1883693468
 20
365.5001474768
 30
0.0
  0
SPLINE
  5
4E9
100
AcDbEntity
  8
0
100
AcDbSpline
 62
7
  6
CONTINUOUS
 70
0
 71
3
 72
14
 73
10
 74
0
 42
0.0000001
 43
0.0000001
 44
0.0000000001
 40
0.0
 40
0.0
 40
0.0
 40
0.0
 40
0.0617805339
 40
0.1621800411
 40
0.2951365875
 40
0.4535730292
 40
0.6310625981
 40
0.8180330825
 40
1.0
 40
1.0
 40
1.0
 40
1.0
 10
133.9544749417
 20
357.997017155
 30
0.0
 10
133.9232058471
 20
358.017225637
 30
0.0
 10
133.8314892933
 20
358.0539882643
 30
0.0
 10
133.6603548736
 20
358.1012721447
 30
0.0
 10
133.4302432659
 20
358.1550865676
 30
0.0
 10
133.1528127785
 20
358.2087052433
 30
0.0
 10
132.8419886808
 20
358.2607047444
 30
0.0
 10
132.5166315321
 20
358.3114544323
 30
0.0
 10
132.2967882078
 20
358.3446442689
 30
0.0
 10
132.188361084
 20
358.361034793
 30
0.0
  0
SPLINE
  5
4EA
100
AcDbEntity
  8
0
100
AcDbSpline
 62
7
  6
CONTINUOUS
 70
0
 71
3
 72
62
 73
58
 74
0
 42
0.0000001
 43
0.0000001
 44
0.0000000001
 40
0.0
 40
0.0
 40
0.0
 40
0.0
 40
0.0173452808
 40
0.0291810548
 40
0.0429768272
 40
0.05872745
 40
0.0763509465
 40
0.0955839085
 40
0.1161257447
 40
0.1379470848
 40
0.1610199642
 40
0.185000302
 40
0.2095072361
 40
0.2344179075
 40
0.2597089286
 40
0.2850902552
 40
0.3101637101
 40
0.3347105535
 40
0.3587083637
 40
0.3819749284
 40
0.4041502363
 40
0.4249708177
 40
0.4444220888
 40
0.4624308132
 40
0.4787257735
 40
0.4930809408
 40
0.505508328
 40
0.5160264131
 40
0.5245165156
 40
0.5354616271
 40
0.5454751203
 40
0.5601817705
 40
0.570486914
 40
0.5826098046
 40
0.5964436966
 40
0.61197198
 40
0.629069181
 40
0.6474511601
 40
0.6668946125
 40
0.6873601651
 40
0.7087127371
 40
0.7305971103
 40
0.7527140532
 40
0.775016641
 40
0.7973928446
 40
0.819473062
 40
0.8409333838
 40
0.8617305071
 40
0.8817889659
 40
0.9007814224
 40
0.9184218759
 40
0.9346849779
 40
0.949529772
 40
0.9627411265
 40
0.9735956661
 40
0.9818737374
 40
1.0
 40
1.0
 40
1.0
 40
1.0
 10
134.6503367889
 20
359.6970322401
 30
0.0
 10
134.6053604385
 20
359.6736245186
 30
0.0
 10
134.5234168339
 20
359.6472674524
 30
0.0
 10
134.4021052341
 20
359.615316528
 30
0.0
 10
134.2838901594
 20
359.5892715399
 30
0.0
 10
134.1485484245
 20
359.5629687581
 30
0.0
 10
133.9970414716
 20
359.5365514395
 30
0.0
 10
133.8313545688
 20
359.5100914775
 30
0.0
 10
133.6532447966
 20
359.4836712182
 30
0.0
 10
133.463805894
 20
359.4571861328
 30
0.0
 10
133.2642413032
 20
359.4305657146
 30
0.0
 10
133.0567674586
 20
359.4038864205
 30
0.0
 10
132.8438718439
 20
359.3772613141
 30
0.0
 10
132.6271183375
 20
359.3506154877
 30
0.0
 10
132.4078043924
 20
359.3238505849
 30
0.0
 10
132.1880200283
 20
359.2970122796
 30
0.0
 10
131.9704209149
 20
359.2702255353
 30
0.0
 10
131.7568939551
 20
359.2434622537
 30
0.0
 10
131.5487046166
 20
359.2165927765
 30
0.0
 10
131.3475174266
 20
359.1896419514
 30
0.0
 10
131.1556989004
 20
359.1627341484
 30
0.0
 10
130.9751342
 20
359.135901176
 30
0.0
 10
130.8069130074
 20
359.1089824467
 30
0.0
 10
130.6520863719
 20
359.0819918445
 30
0.0
 10
130.5124842102
 20
359.0550382605
 30
0.0
 10
130.3892124039
 20
359.0282735624
 30
0.0
 10
130.2841394603
 20
359.0014002502
 30
0.0
 10
130.1943155496
 20
358.9748282565
 30
0.0
 10
130.1184506107
 20
358.9427348307
 30
0.0
 10
130.016251532
 20
358.903309075
 30
0.0
 10
130.074568157
 20
358.7793397182
 30
0.0
 10
130.177648831
 20
358.7583109844
 30
0.0
 10
130.2793363968
 20
358.7214308675
 30
0.0
 10
130.3823399014
 20
358.6953948869
 30
0.0
 10
130.5003310047
 20
358.6676888995
 30
0.0
 10
130.6333911639
 20
358.6403158897
 30
0.0
 10
130.7799071934
 20
358.6126833092
 30
0.0
 10
130.9380751465
 20
358.5851056812
 30
0.0
 10
131.1062154197
 20
358.5574791949
 30
0.0
 10
131.2831310755
 20
358.5297295789
 30
0.0
 10
131.4672539709
 20
358.5019074541
 30
0.0
 10
131.6562592193
 20
358.4740991342
 30
0.0
 10
131.8480696553
 20
358.446283489
 30
0.0
 10
132.0413161938
 20
358.4183535538
 30
0.0
 10
132.2344447364
 20
358.3903575558
 30
0.0
 10
132.4250866919
 20
358.3623710906
 30
0.0
 10
132.611065339
 20
358.3344034008
 30
0.0
 10
132.7910508636
 20
358.306339855
 30
0.0
 10
132.9637231553
 20
358.278218045
 30
0.0
 10
133.1270389709
 20
358.2500931906
 30
0.0
 10
133.2790982738
 20
358.2220055726
 30
0.0
 10
133.4187900909
 20
358.1938750402
 30
0.0
 10
133.5452940583
 20
358.165726065
 30
0.0
 10
133.6555422734
 20
358.1381156851
 30
0.0
 10
133.7466242465
 20
358.1115334424
 30
0.0
 10
133.8486673067
 20
358.0767726597
 30
0.0
 10
133.9233067923
 20
358.0398663656
 30
0.0
 10
133.9544749417
 20
357.997017155
 30
0.0
  0
SPLINE
  5
4EB
100
AcDbEntity
  8
0
100
AcDbSpline
 62
7
  6
CONTINUOUS
 70
0
 71
3
 72
21
 73
17
 74
0
 42
0.0000001
 43
0.0000001
 44
0.0000000001
 40
0.0
 40
0.0
 40
0.0
 40
0.0
 40
0.1055310481
 40
0.2069555942
 40
0.3002351119
 40
0.3816381994
 40
0.4491756264
 40
0.5004038087
 40
0.5341267983
 40
0.5654509118
 40
0.5995754804
 40
0.6513166125
 40
0.7197298656
 40
0.8032090969
 40
0.8981148176
 40
1.0
 40
1.0
 40
1.0
 40
1.0
 10
132.1883611721
 20
358.3610349964
 30
0.0
 10
132.0726325636
 20
358.3784640631
 30
0.0
 10
131.8456378632
 20
358.4126000237
 30
0.0
 10
131.5168443251
 20
358.4642290968
 30
0.0
 10
131.2144050257
 20
358.5149647349
 30
0.0
 10
130.9521666221
 20
358.566876811
 30
0.0
 10
130.7313705935
 20
358.6136084705
 30
0.0
 10
130.5802868231
 20
358.6708845465
 30
0.0
 10
130.4369183542
 20
358.7057383372
 30
0.0
 10
130.4404758258
 20
358.8537621689
 30
0.0
 10
130.5836394153
 20
358.8873973487
 30
0.0
 10
130.7373029589
 20
358.9453366913
 30
0.0
 10
130.961726994
 20
358.9923326319
 30
0.0
 10
131.2290659632
 20
359.0449884169
 30
0.0
 10
131.5361047358
 20
359.0960988719
 30
0.0
 10
131.7516080321
 20
359.1298859595
 30
0.0
 10
131.8632955825
 20
359.1469952499
 30
0.0
  0
SPLINE
  5
4EC
100
AcDbEntity
  8
0
100
AcDbSpline
 62
7
  6
CONTINUOUS
 70
0
 71
3
 72
14
 73
10
 74
0
 42
0.0000001
 43
0.0000001
 44
0.0000000001
 40
0.0
 40
0.0
 40
0.0
 40
0.0
 40
0.2019054265
 40
0.3954731174
 40
0.5731922821
 40
0.7279680694
 40
0.85361851
 40
0.9455129004
 40
1.0
 40
1.0
 40
1.0
 40
1.0
 10
132.1883613613
 20
359.1405483814
 30
0.0
 10
132.3053763815
 20
359.1382230025
 30
0.0
 10
132.5345720301
 20
359.1335486527
 30
0.0
 10
132.8667680605
 20
359.1270003326
 30
0.0
 10
133.1716324513
 20
359.1199807648
 30
0.0
 10
133.4371098993
 20
359.1132200819
 30
0.0
 10
133.6528628985
 20
359.1068124518
 30
0.0
 10
133.8103583156
 20
359.1000268887
 30
0.0
 10
133.8951724491
 20
359.0955323853
 30
0.0
 10
133.9265433825
 20
359.0918662181
 30
0.0
  0
LINE
  5
4ED
100
AcDbEntity
  8
0
100
AcDbLine
 62
7
  6
CONTINUOUS
 10
131.8632955825
 20
359.1469952499
 11
132.1883613613
 21
359.1405483926
  0
SPLINE
  5
4EE
100
AcDbEntity
  8
0
100
AcDbSpline
 62
7
  6
CONTINUOUS
 70
0
 71
3
 72
13
 73
9
 74
0
 42
0.0000001
 43
0.0000001
 44
0.0000000001
 40
0.0
 40
0.0
 40
0.0
 40
0.0
 40
0.0585282702
 40
0.1431800005
 40
0.2562243001
 40
0.3898957947
 40
0.6961719935
 40
1.0
 40
1.0
 40
1.0
 40
1.0
 10
134.1087388218
 20
359.6000808754
 30
0.0
 10
134.0693028258
 20
359.5781617397
 30
0.0
 10
133.969020939
 20
359.5339916567
 30
0.0
 10
133.7792739046
 20
359.4820626073
 30
0.0
 10
133.5319847353
 20
359.4264864166
 30
0.0
 10
133.1158911287
 20
359.3483942002
 30
0.0
 10
132.5539486658
 20
359.2577220772
 30
0.0
 10
132.0926088948
 20
359.185722671
 30
0.0
 10
131.8633144965
 20
359.1470224924
 30
0.0
  0
SPLINE
  5
4EF
100
AcDbEntity
  8
0
100
AcDbSpline
 62
7
  6
CONTINUOUS
 70
0
 71
3
 72
14
 73
10
 74
0
 42
0.0000001
 43
0.0000001
 44
0.0000000001
 40
0.0
 40
0.0
 40
0.0
 40
0.0
 40
0.2022479894
 40
0.3919985496
 40
0.562782871
 40
0.7136439423
 40
0.841866756
 40
0.9388092395
 40
1.0
 40
1.0
 40
1.0
 40
1.0
 10
132.1883611721
 20
358.3610349965
 30
0.0
 10
132.3070312631
 20
358.3432029735
 30
0.0
 10
132.5370331887
 20
358.3085851716
 30
0.0
 10
132.866946154
 20
358.25704108
 30
0.0
 10
133.1660645811
 20
358.2056990768
 30
0.0
 10
133.4279814518
 20
358.1547577234
 30
0.0
 10
133.6460365824
 20
358.1055900906
 30
0.0
 10
133.8084405668
 20
358.0579950291
 30
0.0
 10
133.8961983437
 20
358.0198065389
 30
0.0
 10
133.9244782359
 20
357.9970369793
 30
0.0
  0
ELLIPSE
  5
4F0
100
AcDbEntity
  8
0
100
AcDbEllipse
 62
7
  6
CONTINUOUS
 10
132.1883611721
 20
348.0980873904
 30
0.0
 11
-0.0
 21
3.4518283962
 31
0.0
 40
0.9999999536
 41
-1.0186376837
 42
1.0186376837
  0
ELLIPSE
  5
4F1
100
AcDbEntity
  8
0
100
AcDbEllipse
 62
7
  6
CONTINUOUS
 10
126.4877122516
 20
344.3768719135
 30
0.0
 11
0.1926475374
 21
0.230145192
 31
0.0
 40
0.9995043128
 41
-4.0149009989
 42
-1.6071397721
  0
ELLIPSE
  5
4F2
100
AcDbEntity
  8
0
100
AcDbEllipse
 62
7
  6
CONTINUOUS
 10
126.9804613055
 20
346.7202060697
 30
0.0
 11
0.9830509577
 21
0.1842177569
 31
0.0
 40
0.9996947711
 41
1.8218279017
 42
2.9560978643
  0
ELLIPSE
  5
4F3
100
AcDbEntity
  8
0
100
AcDbEllipse
 62
7
  6
CONTINUOUS
 10
115.6652477982
 20
345.8559435517
 30
0.0
 11
0.5016954476
 21
-0.0002522231
 31
0.0
 40
0.0870718604
 41
-0.0757850343
 42
1.576570127
  0
ELLIPSE
  5
4F4
100
AcDbEntity
  8
0
100
AcDbEllipse
 62
7
  6
CONTINUOUS
 10
123.0901481609
 20
345.1682020382
 30
0.0
 11
1.0006000436
 21
-0.0002289707
 31
0.0
 40
0.0873497152
 41
0.0348743382
 42
0.6453554475
  0
ELLIPSE
  5
4F5
100
AcDbEntity
  8
0
100
AcDbEllipse
 62
7
  6
CONTINUOUS
 10
115.1835544375
 20
348.2322087615
 30
0.0
 11
-0.0274387891
 21
0.2999912253
 31
0.0
 40
0.0836225002
 41
1.5456946259
 42
3.0990376602
  0
ELLIPSE
  5
4F6
100
AcDbEntity
  8
0
100
AcDbEllipse
 62
7
  6
CONTINUOUS
 10
121.1883611721
 20
345.5463427069
 30
0.0
 11
2.7622335773
 21
-0.0
 31
0.0
 40
0.0874890718
 41
3.1036329162
 42
3.9667442731
  0
ELLIPSE
  5
4F7
100
AcDbEntity
  8
0
100
AcDbEllipse
 62
7
  6
CONTINUOUS
 10
118.9883611721
 20
345.3379212921
 30
0.0
 11
0.4804730526
 21
0.0
 31
0.0
 40
0.0874890718
 41
-0.9441533029
 42
0.8251516194
  0
ELLIPSE
  5
4F8
100
AcDbEntity
  8
0
100
AcDbEllipse
 62
7
  6
CONTINUOUS
 10
118.2266896642
 20
345.2916849509
 30
0.0
 11
0.5000322465
 21
0.0000261356
 31
0.0
 40
0.0872697066
 41
-1.5713952492
 42
-0.9433542929
  0
ELLIPSE
  5
4F9
100
AcDbEntity
  8
0
100
AcDbEllipse
 62
7
  6
CONTINUOUS
 10
137.1895773106
 20
346.5885340129
 30
0.0
 11
0.631468855
 21
0.7759930097
 31
0.0
 40
0.9994907281
 41
-0.8877790809
 42
0.2464908807
  0
ENDSEC
  0
SECTION
  2
OBJECTS
  0
DICTIONARY
  5
C
100
AcDbDictionary
280
0
281
1
  3
ACAD_GROUP
350
D
  3
ACAD_MLINESTYLE
350
17
  3
ACAD_LAYOUT
350
1A
  3
ACAD_PLOTSETTINGS
350
19
  3
ACAD_PLOTSTYLENAME
350
E
  0
DICTIONARY
  5
D
102
{ACAD_REACTORS
330
C
102
}
100
AcDbDictionary
280
0
281
1
  0
ACDBDICTIONARYWDFLT
  5
E
102
{ACAD_REACTORS
330
C
102
}
100
AcDbDictionary
281
1
  3
Normal
350
F
100
AcDbDictionaryWithDefault
340
F
  0
DICTIONARY
  5
17
102
{ACAD_REACTORS
330
C
102
}
100
AcDbDictionary
280
0
281
1
  3
Standard
350
18
  0
DICTIONARY
  5
19
102
{ACAD_REACTORS
330
C
102
}
100
AcDbDictionary
281
1
  0
DICTIONARY
  5
1A
102
{ACAD_REACTORS
330
C
102
}
100
AcDbDictionary
281
1
  3
Model
350
4FA
  3
Layout1
350
4FB
  0
ACDBPLACEHOLDER
  5
F
102
{ACAD_REACTORS
330
E
102
}
  0
MLINESTYLE
  5
18
102
{ACAD_REACTORS
330
17
102
}
100
AcDbMlineStyle
  2
STANDARD
 70
0
  3

 62
256
 51
90.0
 52
90.0
 71
2
 49
0.5
 62
256
  6
BYLAYER
 49
-0.5
 62
256
  6
BYLAYER
  0
LAYOUT
  5
4FA
102
{ACAD_REACTORS
330
1A
102
}
100
AcDbPlotSettings
  1

  2
none_device
  4

  6

 40
0.0
 41
0.0
 42
0.0
 43
0.0
 44
210.0
 45
297.0
 46
0.0
 47
0.0
 48
0.0
 49
0.0
140
0.0
141
0.0
142
1.0
143
1.0
 70
1024
 72
1
 73
0
 74
0
  7

 75
0
147
1.0
148
0.0
149
0.0
100
AcDbLayout
  1
Model
 70
0
 71
0
 10
0.0
 20
0.0
 11
210.0
 21
297.0
 12
0.0
 22
0.0
 32
0.0
 14
0.0
 24
0.0
 34
0.0
 15
0.0
 25
0.0
 35
0.0
146
0.0
 13
0.0
 23
0.0
 33
0.0
 16
1.0
 26
0.0
 36
0.0
 17
0.0
 27
1.0
 37
0.0
 76
0
330
210
345
0
346
0
  0
LAYOUT
  5
4FB
102
{ACAD_REACTORS
330
1A
102
}
100
AcDbPlotSettings
  1

  2
none_device
  4

  6

 40
0.0
 41
0.0
 42
0.0
 43
0.0
 44
210.0
 45
297.0
 46
0.0
 47
0.0
 48
0.0
 49
0.0
140
0.0
141
0.0
142
1.0
143
1.0
 70
0
 72
1
 73
0
 74
0
  7

 75
0
147
1.0
148
0.0
149
0.0
100
AcDbLayout
  1
Layout1
 70
0
 71
1
 10
0.0
 20
0.0
 11
210.0
 21
297.0
 12
0.0
 22
0.0
 32
0.0
 14
0.0
 24
0.0
 34
0.0
 15
0.0
 25
0.0
 35
0.0
146
0.0
 13
0.0
 23
0.0
 33
0.0
 16
1.0
 26
0.0
 36
0.0
 17
0.0
 27
1.0
 37
0.0
 76
0
330
211
345
0
346
0
  0
ENDSEC
  0
EOF
