999
DXF file: C:\Users\sesa63760\Dev\_Creo\CAD\MCADID0004585_3D-CAD\drw0001_1.dxf
999
Pro/ENGINEER 2019471 by Parametric Technology Corporation
  0
SECTION
  2
HEADER
  9
$ACADVER
  1
AC1024
  9
$DWGCODEPAGE
  3
ANSI_1252
  9
$EXTMAX
 10
270.1105353373
 20
382.0134714056
 30
0.0
  9
$EXTMIN
 10
0.0
 20
0.0
 30
0.0
  9
$LIMMIN
 10
0.0
 20
0.0
  9
$LIMMAX
 10
270.1105353373
 20
382.0134714056
  9
$VIEWCTR
 10
135.0552676686
 20
191.0067357028
  9
$VIEWSIZE
 40
382.0134714056
  9
$CLAYER
  8
0
  9
$LTSCALE
 40
24.9016188768
  9
$CELTYPE
  6
BYLAYER
  9
$DIMSCALE
 40
1.0
  9
$DIMASZ
 40
3.2156016112
  9
$DIMEXO
 40
1.0
  9
$DIMDLI
 40
17.2047548603
  9
$DIMEXE
 40
1.0
  9
$DIMCEN
 40
4.0748103617
  9
$DIMLFAC
 40
1.0
  9
$DIMBLK
  1
_FILLED
  9
$DIMALT
 70
0
  9
$DIMALTF
 40
0.0393700787
  9
$DIMTXT
 40
4.5018422556
  9
$DIMTOL
 70
1
  9
$DIMLIM
 70
0
  9
$DIMTFAC
 40
1.0
  9
$DIMTP
 40
0.01
  9
$DIMTM
 40
0.01
  9
$DIMGAP
 40
0.625
  9
$DIMDSEP
 70
46
  9
$AUNITS
 70
0
  9
$PDMODE
 70
3
  9
$PDSIZE
 40
0.3125
  9
$HANDSEED
  5
511
  9
$TILEMODE
 70
1
  9
$MEASUREMENT
 70
1
  9
$INSUNITS
 70
4
  0
ENDSEC
  0
SECTION
  2
CLASSES
  0
CLASS
  1
ACDBDICTIONARYWDFLT
  2
AcDbDictionaryWithDefault
  3
AutoCAD 2000
 90
0
 91
1
280
0
281
0
  0
CLASS
  1
ACDBPLACEHOLDER
  2
AcDbPlaceHolder
  3
AutoCAD 2000
 90
0
 91
1
280
0
281
0
  0
CLASS
  1
LAYOUT
  2
AcDbLayout
  3
AutoCAD 2000
 90
0
 91
0
280
0
281
0
  0
ENDSEC
  0
SECTION
  2
TABLES
  0
TABLE
  2
VPORT
  5
8
100
AcDbSymbolTable
 70
2
  0
VPORT
  5
1F4
100
AcDbSymbolTableRecord
100
AcDbViewportTableRecord
  2
*ACTIVE
 70
0
 10
0.0
 20
0.0
 11
1.0
 21
1.0
 12
135.0552676686
 22
191.0067357028
 13
0.0
 23
0.0
 14
1.0
 24
1.0
 15
0.0
 25
0.0
 16
0.0
 26
0.0
 36
1.0
 17
0.0
 27
0.0
 37
0.0
 40
382.0134714056
 41
0.7070707071
 42
50.0
 43
0.0
 44
0.0
 50
0.0
 51
0.0
 71
0
 72
100
 73
1
 74
1
 75
0
 76
0
 77
0
 78
0
  0
ENDTAB
  0
TABLE
  2
LTYPE
  5
5
100
AcDbSymbolTable
 70
6
  0
LTYPE
  5
14
100
AcDbSymbolTableRecord
100
AcDbLinetypeTableRecord
  2
BYBLOCK
 70
0
  3

 72
65
 73
0
 40
0.0
  0
LTYPE
  5
15
100
AcDbSymbolTableRecord
100
AcDbLinetypeTableRecord
  2
BYLAYER
 70
0
  3

 72
65
 73
0
 40
0.0
  0
LTYPE
  5
16
100
AcDbSymbolTableRecord
100
AcDbLinetypeTableRecord
  2
CONTINUOUS
 70
64
  3
Solid line
 72
65
 73
0
 40
0.0
  0
LTYPE
  5
1F5
100
AcDbSymbolTableRecord
100
AcDbLinetypeTableRecord
  2
CENTER
 70
64
  3
____ _ ____ _ ____ _ ____ _ ____ _ ____ _ ____
 72
65
 73
4
 40
0.6
 49
0.375
 74
0
 49
-0.075
 74
0
 49
0.075
 74
0
 49
-0.075
 74
0
  0
LTYPE
  5
1F6
100
AcDbSymbolTableRecord
100
AcDbLinetypeTableRecord
  2
HIDDEN
 70
64
  3
- - - - - - - - - - - - - - - - - - - -
 72
65
 73
2
 40
0.2
 49
0.1
 74
0
 49
-0.1
 74
0
  0
LTYPE
  5
1F7
100
AcDbSymbolTableRecord
100
AcDbLinetypeTableRecord
  2
PHANTOM
 70
64
  3
_____ _ _ _____ _ _ _____ _ _ _____
 72
65
 73
6
 40
0.8
 49
0.45
 74
0
 49
-0.05
 74
0
 49
0.1
 74
0
 49
-0.05
 74
0
 49
0.1
 74
0
 49
-0.05
 74
0
  0
LTYPE
  5
1F8
100
AcDbSymbolTableRecord
100
AcDbLinetypeTableRecord
  2
DOT
 70
64
  3
. . . . . . . . . . . . . . . . . . . .
 72
65
 73
2
 40
0.2
 49
0.1
 74
0
 49
-0.1
 74
0
  0
LTYPE
  5
1F9
100
AcDbSymbolTableRecord
100
AcDbLinetypeTableRecord
  2
DASHED
 70
64
  3
- - - - - - - - - - - - - - - - - - - -
 72
65
 73
2
 40
0.2
 49
0.1
 74
0
 49
-0.1
 74
0
  0
ENDTAB
  0
TABLE
  2
LAYER
  5
2
100
AcDbSymbolTable
 70
36
  0
LAYER
  5
10
100
AcDbSymbolTableRecord
100
AcDbLayerTableRecord
  2
0
 70
0
 62
7
  6
CONTINUOUS
370
-3
390
F
  0
LAYER
  5
1FA
100
AcDbSymbolTableRecord
100
AcDbLayerTableRecord
  2
DEFAULT_1
 70
0
 62
7
  6
CENTER
370
-3
390
F
  0
LAYER
  5
1FB
100
AcDbSymbolTableRecord
100
AcDbLayerTableRecord
  2
DEFAULT_2
 70
0
 62
7
  6
HIDDEN
370
-3
390
F
  0
LAYER
  5
1FC
100
AcDbSymbolTableRecord
100
AcDbLayerTableRecord
  2
DEFAULT_3
 70
0
 62
7
  6
PHANTOM
370
-3
390
F
  0
LAYER
  5
1FD
100
AcDbSymbolTableRecord
100
AcDbLayerTableRecord
  2
00_COMPONENTS
 70
0
 62
7
  6
CONTINUOUS
370
-3
390
F
  0
LAYER
  5
1FE
100
AcDbSymbolTableRecord
100
AcDbLayerTableRecord
  2
01_1_DEFAULT_DATUMS
 70
0
 62
7
  6
CONTINUOUS
370
-3
390
F
  0
LAYER
  5
1FF
100
AcDbSymbolTableRecord
100
AcDbLayerTableRecord
  2
01_PLANES
 70
0
 62
7
  6
CONTINUOUS
370
-3
390
F
  0
LAYER
  5
200
100
AcDbSymbolTableRecord
100
AcDbLayerTableRecord
  2
02_COORD_SYS
 70
0
 62
7
  6
CONTINUOUS
370
-3
390
F
  0
LAYER
  5
201
100
AcDbSymbolTableRecord
100
AcDbLayerTableRecord
  2
03_AXES
 70
0
 62
7
  6
CONTINUOUS
370
-3
390
F
  0
LAYER
  5
202
100
AcDbSymbolTableRecord
100
AcDbLayerTableRecord
  2
04_POINTS
 70
0
 62
7
  6
CONTINUOUS
370
-3
390
F
  0
LAYER
  5
203
100
AcDbSymbolTableRecord
100
AcDbLayerTableRecord
  2
05_CURVES
 70
0
 62
7
  6
CONTINUOUS
370
-3
390
F
  0
LAYER
  5
204
100
AcDbSymbolTableRecord
100
AcDbLayerTableRecord
  2
06_SURFS
 70
0
 62
7
  6
CONTINUOUS
370
-3
390
F
  0
LAYER
  5
205
100
AcDbSymbolTableRecord
100
AcDbLayerTableRecord
  2
07_COSMETICS
 70
0
 62
7
  6
CONTINUOUS
370
-3
390
F
  0
LAYER
  5
206
100
AcDbSymbolTableRecord
100
AcDbLayerTableRecord
  2
10_NOTES
 70
0
 62
7
  6
CONTINUOUS
370
-3
390
F
  0
LAYER
  5
207
100
AcDbSymbolTableRecord
100
AcDbLayerTableRecord
  2
11_NOTES_PUB
 70
0
 62
7
  6
CONTINUOUS
370
-3
390
F
  0
LAYER
  5
208
100
AcDbSymbolTableRecord
100
AcDbLayerTableRecord
  2
13_REF_GTOL
 70
0
 62
7
  6
CONTINUOUS
370
-3
390
F
  0
LAYER
  5
209
100
AcDbSymbolTableRecord
100
AcDbLayerTableRecord
  2
16_MISC
 70
0
 62
7
  6
CONTINUOUS
370
-3
390
F
  0
LAYER
  5
20A
100
AcDbSymbolTableRecord
100
AcDbLayerTableRecord
  2
17_NO_PRINT
 70
0
 62
7
  6
CONTINUOUS
370
-3
390
F
  0
LAYER
  5
20B
100
AcDbSymbolTableRecord
100
AcDbLayerTableRecord
  2
18_DATUM_CAMS_JOINTS
 70
0
 62
7
  6
CONTINUOUS
370
-3
390
F
  0
LAYER
  5
20C
100
AcDbSymbolTableRecord
100
AcDbLayerTableRecord
  2
19_DATUM_FUNCTIONAL
 70
0
 62
7
  6
CONTINUOUS
370
-3
390
F
  0
LAYER
  5
20D
100
AcDbSymbolTableRecord
100
AcDbLayerTableRecord
  2
20_DATUM_KINEMATIC_SCHEME
 70
0
 62
7
  6
CONTINUOUS
370
-3
390
F
  0
ENDTAB
  0
TABLE
  2
STYLE
  5
3
100
AcDbSymbolTable
 70
1
  0
STYLE
  5
11
100
AcDbSymbolTableRecord
100
AcDbTextStyleTableRecord
  2
STANDARD
 70
0
 40
0.0
 41
1.0
 50
0.0
 71
0
 42
0.2
  3
ARIAL.TTF
  4

  0
STYLE
  5
20E
100
AcDbSymbolTableRecord
100
AcDbTextStyleTableRecord
  2
TEXTSTYLE_1
 70
0
 40
0.0
 41
0.8
 50
0.0
 71
0
 42
0.2
  3
gdt
  4

  0
ENDTAB
  0
TABLE
  2
VIEW
  5
6
100
AcDbSymbolTable
 70
0
  0
ENDTAB
  0
TABLE
  2
UCS
  5
7
100
AcDbSymbolTable
 70
0
  0
ENDTAB
  0
TABLE
  2
APPID
  5
9
100
AcDbSymbolTable
 70
1
  0
APPID
  5
20F
100
AcDbSymbolTableRecord
100
AcDbRegAppTableRecord
  2
ACAD
 70
0
  0
ENDTAB
  0
TABLE
  2
BLOCK_RECORD
  5
1
100
AcDbSymbolTable
 70
0
  0
BLOCK_RECORD
  5
210
100
AcDbSymbolTableRecord
100
AcDbBlockTableRecord
  2
*Model_Space
  0
BLOCK_RECORD
  5
211
100
AcDbSymbolTableRecord
100
AcDbBlockTableRecord
  2
*Paper_Space
  0
BLOCK_RECORD
  5
212
100
AcDbSymbolTableRecord
100
AcDbBlockTableRecord
  2
_FILLED
  0
ENDTAB
  0
TABLE
  2
DIMSTYLE
  5
A
100
AcDbSymbolTable
 70
1
100
AcDbDimStyleTable
 71
0
  0
DIMSTYLE
105
213
100
AcDbSymbolTableRecord
100
AcDbDimStyleTableRecord
  2
STANDARD
 70
0
  3

  4

 40
1.0
 41
3.2156016112
 42
1.0
 43
0.38
 44
1.0
 45
0.0
 46
0.0
 47
0.01
 48
0.01
140
4.5018422556
141
0.09
142
0.0
143
25.4
144
1.0
145
0.0
146
1.0
147
0.625
 71
1
 72
0
 73
0
 74
0
 75
0
 76
0
 77
1
 78
8
 79
2
170
0
171
1
172
0
173
0
174
0
175
0
176
0
177
0
178
0
270
2
179
2
271
2
272
2
273
2
274
2
275
0
280
0
281
0
282
0
283
1
284
8
285
0
286
0
287
3
288
0
340
11
278
46
341
212
342
212
343
212
344
212
  0
ENDTAB
  0
ENDSEC
  0
SECTION
  2
BLOCKS
  0
BLOCK
  5
20
100
AcDbEntity
  8
0
100
AcDbBlockBegin
  2
*Model_Space
 70
0
 10
0.0
 20
0.0
 30
0.0
  3
*Model_Space
  1

  0
ENDBLK
  5
21
100
AcDbEntity
  8
0
100
AcDbBlockEnd
  0
BLOCK
  5
1C
100
AcDbEntity
  8
0
100
AcDbBlockBegin
  2
*Paper_Space
 70
0
 10
0.0
 20
0.0
 30
0.0
  3
*Paper_Space
  1

  0
ENDBLK
  5
1D
100
AcDbEntity
  8
0
100
AcDbBlockEnd
  0
BLOCK
  5
214
100
AcDbEntity
  8
0
100
AcDbBlockBegin
  2
_FILLED
 70
64
 10
0.0
 20
0.0
  3
_FILLED
  1

  0
SOLID
  5
215
100
AcDbEntity
  8
0
  6
BYBLOCK
 62
0
100
AcDbTrace
 10
0.0
 20
0.0
 11
-1.0
 21
0.25
 12
-1.0
 22
-0.25
 13
-1.0
 23
-0.25
  0
ENDBLK
  5
216
100
AcDbEntity
  8
0
  6
BYBLOCK
 62
0
100
AcDbBlockEnd
  0
ENDSEC
  0
SECTION
  2
ENTITIES
  0
LINE
  5
217
100
AcDbEntity
  8
0
100
AcDbLine
 62
7
  6
BYLAYER
 10
31.3359297942
 20
153.5750697271
 11
31.3359297942
 21
195.7065944509
  0
LINE
  5
218
100
AcDbEntity
  8
0
100
AcDbLine
 62
7
  6
BYLAYER
 10
32.8589898407
 20
151.4522001269
 11
32.8589898407
 21
193.5837248508
  0
LINE
  5
219
100
AcDbEntity
  8
0
100
AcDbLine
 62
7
  6
BYLAYER
 10
33.0805746023
 20
197.4498274643
 11
33.0805746023
 21
195.6861822433
  0
LINE
  5
21A
100
AcDbEntity
  8
0
100
AcDbLine
 62
7
  6
BYLAYER
 10
39.9205746023
 20
197.4498274643
 11
39.9205746023
 21
195.6861822433
  0
LINE
  5
21B
100
AcDbEntity
  8
0
100
AcDbLine
 62
7
  6
BYLAYER
 10
50.7870753166
 20
242.449772042
 11
50.8164819816
 21
242.616462406
  0
LINE
  5
21C
100
AcDbEntity
  8
0
100
AcDbLine
 62
7
  6
BYLAYER
 10
54.0493300625
 20
252.408873655
 11
52.6778614749
 21
251.3529955844
  0
LWPOLYLINE
  5
21D
100
AcDbEntity
  8
0
100
AcDbPolyline
 62
7
  6
BYLAYER
 90
3
 70
0
 10
52.6778619988
 20
251.3529945998
 10
52.0065112242
 20
250.8449227347
 10
51.2854999261
 20
250.5591011269
  0
LINE
  5
21E
100
AcDbEntity
  8
0
100
AcDbLine
 62
7
  6
BYLAYER
 10
62.0176841914
 20
239.0673310705
 11
62.035881125
 21
239.1121021714
  0
LINE
  5
21F
100
AcDbEntity
  8
0
100
AcDbLine
 62
7
  6
BYLAYER
 10
64.8994687373
 20
237.6249836633
 11
64.8922254664
 21
237.6074286507
  0
LINE
  5
220
100
AcDbEntity
  8
0
100
AcDbLine
 62
7
  6
BYLAYER
 10
65.0920488854
 20
238.0913013793
 11
65.0970901399
 21
238.1035172836
  0
LINE
  5
221
100
AcDbEntity
  8
0
100
AcDbLine
 62
7
  6
BYLAYER
 10
62.0728140035
 20
239.0602405038
 11
62.0963770568
 21
239.1040627451
  0
LINE
  5
222
100
AcDbEntity
  8
0
100
AcDbLine
 62
7
  6
BYLAYER
 10
69.0095665558
 20
244.741053079
 11
69.0026483085
 21
244.7320599332
  0
LINE
  5
223
100
AcDbEntity
  8
0
100
AcDbLine
 62
7
  6
BYLAYER
 10
68.6870447788
 20
244.3216417847
 11
68.6902732297
 21
244.3258392649
  0
LINE
  5
224
100
AcDbEntity
  8
0
100
AcDbLine
 62
7
  6
BYLAYER
 10
83.4880461612
 20
122.2221621033
 11
32.8589898407
 21
151.4522001269
  0
LINE
  5
225
100
AcDbEntity
  8
0
100
AcDbLine
 62
7
  6
BYLAYER
 10
69.4249709782
 20
235.0122428343
 11
69.4177277074
 21
234.9946878217
  0
LINE
  5
226
100
AcDbEntity
  8
0
100
AcDbLine
 62
7
  6
BYLAYER
 10
69.6175511264
 20
235.4785605504
 11
69.6225923808
 21
235.4907764547
  0
LINE
  5
227
100
AcDbEntity
  8
0
100
AcDbLine
 62
7
  6
BYLAYER
 10
73.5350687967
 20
242.12831225
 11
73.5281505495
 21
242.1193191042
  0
LINE
  5
228
100
AcDbEntity
  8
0
100
AcDbLine
 62
7
  6
BYLAYER
 10
73.2125470197
 20
241.7089009557
 11
73.2157754706
 21
241.713098436
  0
LINE
  5
229
100
AcDbEntity
  8
0
100
AcDbLine
 62
7
  6
BYLAYER
 10
78.0605710377
 20
239.5155714211
 11
78.0536527904
 21
239.5065782753
  0
LINE
  5
22A
100
AcDbEntity
  8
0
100
AcDbLine
 62
7
  6
BYLAYER
 10
77.7380492607
 20
239.0961601268
 11
77.7412777116
 21
239.1003576071
  0
LINE
  5
22B
100
AcDbEntity
  8
0
100
AcDbLine
 62
7
  6
BYLAYER
 10
83.7349272247
 20
248.4312208637
 11
99.0083701085
 21
257.2492945873
  0
LINE
  5
22C
100
AcDbEntity
  8
0
100
AcDbLine
 62
7
  6
BYLAYER
 10
64.0052669778
 20
191.5834678303
 11
64.0052669778
 21
202.4213154508
  0
LINE
  5
22D
100
AcDbEntity
  8
0
100
AcDbLine
 62
7
  6
BYLAYER
 10
73.9504732192
 20
232.3995020054
 11
73.9432299483
 21
232.3819469928
  0
LINE
  5
22E
100
AcDbEntity
  8
0
100
AcDbLine
 62
7
  6
BYLAYER
 10
74.1430533673
 20
232.8658197215
 11
74.1480946218
 21
232.8780356258
  0
LINE
  5
22F
100
AcDbEntity
  8
0
100
AcDbLine
 62
7
  6
BYLAYER
 10
85.1492173302
 20
237.816920454
 11
85.3817027263
 21
237.9511451588
  0
LINE
  5
230
100
AcDbEntity
  8
0
100
AcDbLine
 62
7
  6
BYLAYER
 10
87.9743113923
 20
239.4479795351
 11
89.1089988186
 21
240.1030877156
  0
LINE
  5
231
100
AcDbEntity
  8
0
100
AcDbLine
 62
7
  6
BYLAYER
 10
113.4333708187
 20
254.1466866088
 11
117.3931523071
 21
256.4328538705
  0
LINE
  5
232
100
AcDbEntity
  8
0
100
AcDbLine
 62
7
  6
BYLAYER
 10
226.2105503804
 20
148.895862656
 11
226.210610553
 21
148.8958778724
  0
LINE
  5
233
100
AcDbEntity
  8
0
100
AcDbLine
 62
7
  6
BYLAYER
 10
82.7976783451
 20
247.1248504492
 11
82.7976783451
 21
226.6614071988
  0
LINE
  5
234
100
AcDbEntity
  8
0
100
AcDbLine
 62
7
  6
BYLAYER
 10
83.4880461612
 20
164.3536868272
 11
83.4880461612
 21
122.2221621033
  0
LINE
  5
235
100
AcDbEntity
  8
0
100
AcDbLine
 62
7
  6
BYLAYER
 10
83.5927064258
 20
183.3566408387
 11
83.5927064258
 21
184.0472605061
  0
LINE
  5
236
100
AcDbEntity
  8
0
100
AcDbLine
 62
7
  6
BYLAYER
 10
83.6261879009
 20
227.1397445586
 11
83.6261879009
 21
235.6940685304
  0
LINE
  5
237
100
AcDbEntity
  8
0
100
AcDbLine
 62
7
  6
BYLAYER
 10
83.7096309228
 20
168.2197894406
 11
83.7096309228
 21
166.4561442196
  0
LINE
  5
238
100
AcDbEntity
  8
0
100
AcDbLine
 62
7
  6
BYLAYER
 10
83.7349460661
 20
236.1719797951
 11
83.7349460661
 21
245.8184691568
  0
LINE
  5
239
100
AcDbEntity
  8
0
100
AcDbLine
 62
7
  6
BYLAYER
 10
85.1492479474
 20
228.0190784375
 11
85.1492479474
 21
233.5711989303
  0
LINE
  5
23A
100
AcDbEntity
  8
0
100
AcDbLine
 62
7
  6
BYLAYER
 10
85.2647671335
 20
237.3760649207
 11
85.2647671335
 21
235.6124196997
  0
LINE
  5
23B
100
AcDbEntity
  8
0
100
AcDbLine
 62
7
  6
BYLAYER
 10
87.8781108652
 20
210.5083671626
 11
87.8554094745
 21
210.0320945126
  0
LINE
  5
23C
100
AcDbEntity
  8
0
100
AcDbLine
 62
7
  6
BYLAYER
 10
88.577051467
 20
217.8346628598
 11
87.8781108652
 21
210.5083671626
  0
LINE
  5
23D
100
AcDbEntity
  8
0
100
AcDbLine
 62
7
  6
BYLAYER
 10
32.8589592234
 20
197.8294463745
 11
33.1975101951
 21
198.0249077023
  0
LINE
  5
23E
100
AcDbEntity
  8
0
100
AcDbLine
 62
7
  6
BYLAYER
 10
35.7901188611
 20
199.5217420787
 11
87.6948617993
 21
229.4887805072
  0
LINE
  5
23F
100
AcDbEntity
  8
0
100
AcDbLine
 62
7
  6
BYLAYER
 10
83.4880461612
 20
164.3536868272
 11
32.8589898407
 21
193.5837248508
  0
LINE
  5
240
100
AcDbEntity
  8
0
100
AcDbLine
 62
7
  6
BYLAYER
 10
92.5554116399
 20
216.641908021
 11
92.5554222196
 21
216.6364091821
  0
LINE
  5
241
100
AcDbEntity
  8
0
100
AcDbLine
 62
7
  6
BYLAYER
 10
87.6948429579
 20
232.101532214
 11
87.6948429579
 21
229.4887805072
  0
LINE
  5
242
100
AcDbEntity
  8
0
100
AcDbLine
 62
7
  6
BYLAYER
 10
87.8554094745
 20
208.5838887253
 11
87.8554094745
 21
210.0320945126
  0
LINE
  5
243
100
AcDbEntity
  8
0
100
AcDbLine
 62
7
  6
BYLAYER
 10
89.1089799772
 20
242.7158394225
 11
89.1089799772
 21
240.1030877156
  0
LINE
  5
244
100
AcDbEntity
  8
0
100
AcDbLine
 62
7
  6
BYLAYER
 10
90.5496309228
 20
168.2197894406
 11
90.5496309228
 21
166.4561442196
  0
LINE
  5
245
100
AcDbEntity
  8
0
100
AcDbLine
 62
7
  6
BYLAYER
 10
90.8419566855
 20
122.2221797799
 11
90.8419566855
 21
164.3537045038
  0
LINE
  5
246
100
AcDbEntity
  8
0
100
AcDbLine
 62
7
  6
BYLAYER
 10
92.1047671335
 20
237.3760649207
 11
92.1047671335
 21
235.6124196997
  0
LINE
  5
247
100
AcDbEntity
  8
0
100
AcDbLine
 62
7
  6
BYLAYER
 10
92.5052669778
 20
191.5834678303
 11
92.5052669778
 21
202.4213154508
  0
LINE
  5
248
100
AcDbEntity
  8
0
100
AcDbLine
 62
7
  6
BYLAYER
 10
94.3554198706
 20
216.6534393431
 11
94.3554121109
 21
216.6418989353
  0
LINE
  5
249
100
AcDbEntity
  8
0
100
AcDbLine
 62
7
  6
BYLAYER
 10
122.9841486567
 20
151.1945217049
 11
124.7519229695
 21
150.1739198186
  0
LINE
  5
24A
100
AcDbEntity
  8
0
100
AcDbLine
 62
7
  6
BYLAYER
 10
39.5454644801
 20
179.7980859288
 11
37.7777048871
 21
178.7774755442
  0
LINE
  5
24B
100
AcDbEntity
  8
0
100
AcDbLine
 62
7
  6
BYLAYER
 10
39.654168083
 20
173.5677370655
 11
38.5228019434
 21
172.9145464193
  0
LINE
  5
24C
100
AcDbEntity
  8
0
100
AcDbLine
 62
7
  6
BYLAYER
 10
137.0512398452
 20
155.6119095471
 11
131.9494856597
 21
156.0677701338
  0
LINE
  5
24D
100
AcDbEntity
  8
0
100
AcDbLine
 62
7
  6
BYLAYER
 10
129.4578374114
 20
152.3644698467
 11
129.7406813014
 21
152.2011735449
  0
LINE
  5
24E
100
AcDbEntity
  8
0
100
AcDbLine
 62
7
  6
BYLAYER
 10
108.1928489224
 20
197.5594549519
 11
108.1928489224
 21
197.7514551265
  0
LWPOLYLINE
  5
24F
100
AcDbEntity
  8
0
100
AcDbPolyline
 62
7
  6
BYLAYER
 90
3
 70
0
 10
226.7085877513
 20
157.0051379543
 10
225.3922505642
 20
157.1440708628
 10
224.4350614827
 20
157.6910811113
  0
LINE
  5
250
100
AcDbEntity
  8
0
100
AcDbLine
 62
7
  6
BYLAYER
 10
131.9494856597
 20
158.5573420649
 11
137.0512398452
 21
155.6119095471
  0
LINE
  5
251
100
AcDbEntity
  8
0
100
AcDbLine
 62
7
  6
BYLAYER
 10
162.0827860434
 20
147.0230801146
 11
150.2033426609
 21
153.8815247906
  0
LINE
  5
252
100
AcDbEntity
  8
0
100
AcDbLine
 62
7
  6
BYLAYER
 10
117.133767482
 20
217.8346628598
 11
117.8327080837
 21
210.5083671626
  0
LINE
  5
253
100
AcDbEntity
  8
0
100
AcDbLine
 62
7
  6
BYLAYER
 10
117.8554094745
 20
210.0320945126
 11
117.8327080837
 21
210.5083671626
  0
LINE
  5
254
100
AcDbEntity
  8
0
100
AcDbLine
 62
7
  6
BYLAYER
 10
117.7915436453
 20
256.1552959988
 11
117.7915436453
 21
254.3916507778
  0
LINE
  5
255
100
AcDbEntity
  8
0
100
AcDbLine
 62
7
  6
BYLAYER
 10
117.8554094745
 20
205.7862819435
 11
117.8554094745
 21
210.0320945126
  0
LINE
  5
256
100
AcDbEntity
  8
0
100
AcDbLine
 62
7
  6
BYLAYER
 10
86.8101348501
 20
185.2142129174
 11
83.5927064258
 21
183.3566408387
  0
LINE
  5
257
100
AcDbEntity
  8
0
100
AcDbLine
 62
7
  6
BYLAYER
 10
194.749882548
 20
186.1426653948
 11
194.7228206271
 21
186.1359664237
  0
LINE
  5
258
100
AcDbEntity
  8
0
100
AcDbLine
 62
7
  6
BYLAYER
 10
137.0512398452
 20
169.2164728213
 11
142.1529940307
 21
168.7606122346
  0
LINE
  5
259
100
AcDbEntity
  8
0
100
AcDbLine
 62
7
  6
BYLAYER
 10
136.283983312
 20
165.3471315367
 11
142.1529940307
 21
161.9587332742
  0
LINE
  5
25A
100
AcDbEntity
  8
0
100
AcDbLine
 62
7
  6
BYLAYER
 10
53.0614338152
 20
241.763438612
 11
53.0616551801
 21
241.7632481013
  0
LINE
  5
25B
100
AcDbEntity
  8
0
100
AcDbLine
 62
7
  6
BYLAYER
 10
124.6315436453
 20
256.1552959988
 11
124.6315436453
 21
254.3916507778
  0
LINE
  5
25C
100
AcDbEntity
  8
0
100
AcDbLine
 62
7
  6
BYLAYER
 10
50.9541174942
 20
153.9955337327
 11
49.8227513547
 21
153.3423430865
  0
LINE
  5
25D
100
AcDbEntity
  8
0
100
AcDbLine
 62
7
  6
BYLAYER
 10
141.9576253235
 20
174.0152273889
 11
142.2404692136
 21
173.8519310871
  0
LINE
  5
25E
100
AcDbEntity
  8
0
100
AcDbLine
 62
7
  6
BYLAYER
 10
152.7489376715
 20
168.7827315377
 11
162.0827860434
 21
163.3939535781
  0
LINE
  5
25F
100
AcDbEntity
  8
0
100
AcDbLine
 62
7
  6
BYLAYER
 10
139.733864459
 20
180.2065368114
 11
141.5016387718
 21
179.1859349251
  0
LINE
  5
260
100
AcDbEntity
  8
0
100
AcDbLine
 62
7
  6
BYLAYER
 10
53.0611586776
 20
241.7636737161
 11
54.0493709678
 21
241.0639003192
  0
LINE
  5
261
100
AcDbEntity
  8
0
100
AcDbLine
 62
7
  6
BYLAYER
 10
131.9494856597
 20
156.0677701338
 11
131.9494856597
 21
162.8696490943
  0
LINE
  5
262
100
AcDbEntity
  8
0
100
AcDbLine
 62
7
  6
BYLAYER
 10
136.283983312
 20
168.2619693716
 11
136.283983312
 21
165.3471315367
  0
LINE
  5
263
100
AcDbEntity
  8
0
100
AcDbLine
 62
7
  6
BYLAYER
 10
56.2953894924
 20
150.786191608
 11
54.5276298994
 21
149.7655812233
  0
LINE
  5
264
100
AcDbEntity
  8
0
100
AcDbLine
 62
7
  6
BYLAYER
 10
145.6778592614
 20
196.0130386365
 11
90.8419566855
 21
164.3537045038
  0
LINE
  5
265
100
AcDbEntity
  8
0
100
AcDbLine
 62
7
  6
BYLAYER
 10
168.5881130837
 20
171.068927354
 11
173.9621469948
 21
167.9662976196
  0
LINE
  5
266
100
AcDbEntity
  8
0
100
AcDbLine
 62
7
  6
BYLAYER
 10
207.0146820296
 20
151.0770283867
 11
208.0753466173
 21
150.4646672549
  0
LINE
  5
267
100
AcDbEntity
  8
0
100
AcDbLine
 62
7
  6
BYLAYER
 10
211.5430050847
 20
149.3288725247
 11
210.0227191756
 21
150.2065901469
  0
LINE
  5
268
100
AcDbEntity
  8
0
100
AcDbLine
 62
7
  6
BYLAYER
 10
142.1529940307
 20
168.7606122346
 11
142.1529940307
 21
161.9587332742
  0
LINE
  5
269
100
AcDbEntity
  8
0
100
AcDbLine
 62
7
  6
BYLAYER
 10
145.6778592614
 20
196.0130386365
 11
145.6778592614
 21
153.8815139126
  0
LINE
  5
26A
100
AcDbEntity
  8
0
100
AcDbLine
 62
7
  6
BYLAYER
 10
192.3467831727
 20
213.1593338913
 11
188.3870016843
 21
210.8731666297
  0
LINE
  5
26B
100
AcDbEntity
  8
0
100
AcDbLine
 62
7
  6
BYLAYER
 10
164.0626296841
 20
196.8295677365
 11
160.1028481957
 21
194.5434004748
  0
LINE
  5
26C
100
AcDbEntity
  8
0
100
AcDbLine
 62
7
  6
BYLAYER
 10
214.1633639432
 20
166.8380402405
 11
215.4361713841
 21
166.2878740965
  0
LINE
  5
26D
100
AcDbEntity
  8
0
100
AcDbLine
 62
7
  6
BYLAYER
 10
58.0091854286
 20
238.7777520938
 11
54.0493709678
 21
241.0639003192
  0
LINE
  5
26E
100
AcDbEntity
  8
0
100
AcDbLine
 62
7
  6
BYLAYER
 10
212.9369262083
 20
149.3322027785
 11
215.4088005548
 21
147.9050977445
  0
LINE
  5
26F
100
AcDbEntity
  8
0
100
AcDbLine
 62
7
  6
BYLAYER
 10
208.8894022447
 20
153.1040890672
 11
207.3691163357
 21
153.9818066894
  0
LINE
  5
270
100
AcDbEntity
  8
0
100
AcDbLine
 62
7
  6
BYLAYER
 10
57.9921868984
 20
240.2226660818
 11
59.5124728074
 21
239.3449484596
  0
LINE
  5
271
100
AcDbEntity
  8
0
100
AcDbLine
 62
7
  6
BYLAYER
 10
204.844730267
 20
150.6973281127
 11
205.9576080506
 21
149.8701494099
  0
LINE
  5
272
100
AcDbEntity
  8
0
100
AcDbLine
 62
7
  6
BYLAYER
 10
150.2033426609
 20
153.8815247906
 11
150.2033426609
 21
196.0130495144
  0
LINE
  5
273
100
AcDbEntity
  8
0
100
AcDbLine
 62
7
  6
BYLAYER
 10
152.7489376715
 20
194.5433827982
 11
152.7489376715
 21
168.7827315377
  0
LINE
  5
274
100
AcDbEntity
  8
0
100
AcDbLine
 62
7
  6
BYLAYER
 10
152.8644568575
 20
198.3482487885
 11
152.8644568575
 21
196.5846035675
  0
LINE
  5
275
100
AcDbEntity
  8
0
100
AcDbLine
 62
7
  6
BYLAYER
 10
131.9494856597
 20
162.8696490943
 11
137.0512398452
 21
169.2164728213
  0
LINE
  5
276
100
AcDbEntity
  8
0
100
AcDbLine
 62
7
  6
BYLAYER
 10
131.9494856597
 20
159.9548112594
 11
136.283983312
 21
165.3471315367
  0
LINE
  5
277
100
AcDbEntity
  8
0
100
AcDbLine
 62
7
  6
BYLAYER
 10
211.5430050847
 20
159.9434039474
 11
210.0227191756
 21
160.8211215696
  0
LINE
  5
278
100
AcDbEntity
  8
0
100
AcDbLine
 62
7
  6
BYLAYER
 10
60.6457897383
 20
247.061980962
 11
62.1660756474
 21
246.1842633398
  0
LINE
  5
279
100
AcDbEntity
  8
0
100
AcDbLine
 62
7
  6
BYLAYER
 10
152.7489376715
 20
194.5433827982
 11
150.2033426609
 21
196.0130495144
  0
LINE
  5
27A
100
AcDbEntity
  8
0
100
AcDbLine
 62
7
  6
BYLAYER
 10
87.6948429579
 20
232.101532214
 11
85.1492479474
 21
233.5711989303
  0
LINE
  5
27B
100
AcDbEntity
  8
0
100
AcDbLine
 62
7
  6
BYLAYER
 10
64.5590742946
 20
250.122749046
 11
60.5992598337
 21
252.4088972713
  0
LINE
  5
27C
100
AcDbEntity
  8
0
100
AcDbLine
 62
7
  6
BYLAYER
 10
219.4868150743
 20
160.6771997306
 11
223.4466295351
 21
158.3910515052
  0
LINE
  5
27D
100
AcDbEntity
  8
0
100
AcDbLine
 62
7
  6
BYLAYER
 10
216.8502107646
 20
163.0075022851
 11
215.3299248555
 21
163.8852199073
  0
LINE
  5
27E
100
AcDbEntity
  8
0
100
AcDbLine
 62
7
  6
BYLAYER
 10
65.9529954182
 20
250.1260792997
 11
66.7474980303
 21
249.6673833799
  0
LINE
  5
27F
100
AcDbEntity
  8
0
100
AcDbLine
 62
7
  6
BYLAYER
 10
215.0145462933
 20
164.9335132137
 11
216.0752108811
 21
164.321152082
  0
LINE
  5
280
100
AcDbEntity
  8
0
100
AcDbLine
 62
7
  6
BYLAYER
 10
159.7044568575
 20
198.3482487885
 11
159.7044568575
 21
196.5846035675
  0
LINE
  5
281
100
AcDbEntity
  8
0
100
AcDbLine
 62
7
  6
BYLAYER
 10
160.1028481957
 20
168.7827492144
 11
160.1028481957
 21
194.5434004748
  0
LINE
  5
282
100
AcDbEntity
  8
0
100
AcDbLine
 62
7
  6
BYLAYER
 10
162.0120515192
 20
164.2924974353
 11
162.0120515192
 21
166.7007172871
  0
LINE
  5
283
100
AcDbEntity
  8
0
100
AcDbLine
 62
7
  6
BYLAYER
 10
162.0827860434
 20
163.3939535781
 11
162.0827860434
 21
147.0230801146
  0
LINE
  5
284
100
AcDbEntity
  8
0
100
AcDbLine
 62
7
  6
BYLAYER
 10
142.1529940307
 20
161.9587332742
 11
137.0512398452
 21
155.6119095471
  0
LINE
  5
285
100
AcDbEntity
  8
0
100
AcDbLine
 62
7
  6
BYLAYER
 10
193.7610732782
 20
202.5450334816
 11
178.4876303944
 21
193.726959758
  0
LINE
  5
286
100
AcDbEntity
  8
0
100
AcDbLine
 62
7
  6
BYLAYER
 10
173.9621469948
 20
193.72694888
 11
168.5881130837
 21
196.8295786144
  0
LINE
  5
287
100
AcDbEntity
  8
0
100
AcDbLine
 62
7
  6
BYLAYER
 10
89.1089799772
 20
242.7158394225
 11
83.7349460661
 21
245.8184691568
  0
LINE
  5
288
100
AcDbEntity
  8
0
100
AcDbLine
 62
7
  6
BYLAYER
 10
224.4348682618
 20
157.6912554461
 11
223.4448369099
 21
158.3920853221
  0
LINE
  5
289
100
AcDbEntity
  8
0
100
AcDbLine
 62
7
  6
BYLAYER
 10
164.0626296841
 20
196.8295677365
 11
164.0626296841
 21
171.068916476
  0
LINE
  5
28A
100
AcDbEntity
  8
0
100
AcDbLine
 62
7
  6
BYLAYER
 10
164.3101389901
 20
168.0275107872
 11
164.3101389901
 21
163.700280059
  0
LINE
  5
28B
100
AcDbEntity
  8
0
100
AcDbLine
 62
7
  6
BYLAYER
 10
168.5881130837
 20
171.068927354
 11
168.5881130837
 21
196.8295786144
  0
LINE
  5
28C
100
AcDbEntity
  8
0
100
AcDbLine
 62
7
  6
BYLAYER
 10
170.5680674176
 20
147.0231005107
 11
170.5680674176
 21
163.3939739742
  0
LINE
  5
28D
100
AcDbEntity
  8
0
100
AcDbLine
 62
7
  6
BYLAYER
 10
160.1028481957
 20
168.7827492144
 11
164.0626296841
 21
171.068916476
  0
LINE
  5
28E
100
AcDbEntity
  8
0
100
AcDbLine
 62
7
  6
BYLAYER
 10
162.0120515192
 20
166.7007172871
 11
164.3101389901
 21
168.0275107872
  0
LINE
  5
28F
100
AcDbEntity
  8
0
100
AcDbLine
 62
7
  6
BYLAYER
 10
194.7498841623
 20
186.1426382784
 11
194.7217488523
 21
186.1309580061
  0
LINE
  5
290
100
AcDbEntity
  8
0
100
AcDbLine
 62
7
  6
BYLAYER
 10
201.6806009274
 20
186.2556261949
 11
194.6983221577
 21
190.2867555258
  0
LINE
  5
291
100
AcDbEntity
  8
0
100
AcDbLine
 62
7
  6
BYLAYER
 10
224.4344260586
 20
157.6916345183
 11
224.4346193759
 21
157.6914680511
  0
LINE
  5
292
100
AcDbEntity
  8
0
100
AcDbLine
 62
7
  6
BYLAYER
 10
173.9621469948
 20
193.72694888
 11
173.9621469948
 21
167.9662976196
  0
LINE
  5
293
100
AcDbEntity
  8
0
100
AcDbLine
 62
7
  6
BYLAYER
 10
178.4876303944
 20
175.1757289335
 11
178.4876303944
 21
193.726959758
  0
LINE
  5
294
100
AcDbEntity
  8
0
100
AcDbLine
 62
7
  6
BYLAYER
 10
145.6778592614
 20
153.8815139126
 11
90.8419566855
 21
122.2221797799
  0
LINE
  5
295
100
AcDbEntity
  8
0
100
AcDbLine
 62
7
  6
BYLAYER
 10
168.694219286
 20
165.4964181091
 11
166.3961318151
 21
164.1696246091
  0
LINE
  5
296
100
AcDbEntity
  8
0
100
AcDbLine
 62
7
  6
BYLAYER
 10
170.5680674176
 20
163.3939739742
 11
176.2602533071
 21
166.6803394128
  0
LWPOLYLINE
  5
297
100
AcDbEntity
  8
0
100
AcDbPolyline
 62
7
  6
BYLAYER
 90
3
 70
0
 10
50.7874127611
 20
242.4498138702
 10
52.1037500439
 20
242.3108809294
 10
53.0609390305
 20
241.7638707128
  0
LINE
  5
298
100
AcDbEntity
  8
0
100
AcDbLine
 62
7
  6
BYLAYER
 10
103.533853508
 20
257.2493054652
 11
108.9078874192
 21
254.1466757309
  0
LINE
  5
299
100
AcDbEntity
  8
0
100
AcDbLine
 62
7
  6
BYLAYER
 10
188.3870205257
 20
208.2604149228
 11
193.7610544368
 21
205.1577851884
  0
LINE
  5
29A
100
AcDbEntity
  8
0
100
AcDbLine
 62
7
  6
BYLAYER
 10
185.3912333694
 20
217.1274798666
 11
185.3912333694
 21
215.3638346456
  0
LINE
  5
29B
100
AcDbEntity
  8
0
100
AcDbLine
 62
7
  6
BYLAYER
 10
188.3870016843
 20
208.2604149228
 11
188.3870016843
 21
210.8731666297
  0
LINE
  5
29C
100
AcDbEntity
  8
0
100
AcDbLine
 62
7
  6
BYLAYER
 10
188.5118700516
 20
175.639659814
 11
188.5041918584
 21
175.6296792287
  0
LINE
  5
29D
100
AcDbEntity
  8
0
100
AcDbLine
 62
7
  6
BYLAYER
 10
188.1885883286
 20
175.2192610802
 11
188.1916856949
 21
175.2232881644
  0
LINE
  5
29E
100
AcDbEntity
  8
0
100
AcDbLine
 62
7
  6
BYLAYER
 10
124.7470628314
 20
256.4328715471
 11
189.2114936531
 21
219.2151570363
  0
LINE
  5
29F
100
AcDbEntity
  8
0
100
AcDbLine
 62
7
  6
BYLAYER
 10
192.1371791272
 20
217.5260499529
 11
192.3467525554
 21
217.405055415
  0
LINE
  5
2A0
100
AcDbEntity
  8
0
100
AcDbLine
 62
7
  6
BYLAYER
 10
192.2312333694
 20
217.1274798666
 11
192.2312333694
 21
215.3638346456
  0
LINE
  5
2A1
100
AcDbEntity
  8
0
100
AcDbLine
 62
7
  6
BYLAYER
 10
192.3467831727
 20
213.1593338913
 11
192.3467831727
 21
205.9742966115
  0
LINE
  5
2A2
100
AcDbEntity
  8
0
100
AcDbLine
 62
7
  6
BYLAYER
 10
193.7610732782
 20
202.5450334816
 11
193.7610732782
 21
185.8178373342
  0
LINE
  5
2A3
100
AcDbEntity
  8
0
100
AcDbLine
 62
7
  6
BYLAYER
 10
193.8698126019
 20
205.1577851884
 11
193.8698126019
 21
215.2821858148
  0
LINE
  5
2A4
100
AcDbEntity
  8
0
100
AcDbLine
 62
7
  6
BYLAYER
 10
194.6983221577
 20
203.8514038961
 11
194.6983221577
 21
186.1426194296
  0
LINE
  5
2A5
100
AcDbEntity
  8
0
100
AcDbLine
 62
7
  6
BYLAYER
 10
184.4010122871
 20
168.5226029588
 11
184.3939622053
 21
168.5055165727
  0
LINE
  5
2A6
100
AcDbEntity
  8
0
100
AcDbLine
 62
7
  6
BYLAYER
 10
188.9265145281
 20
165.9098621298
 11
188.9194644463
 21
165.8927757437
  0
LINE
  5
2A7
100
AcDbEntity
  8
0
100
AcDbLine
 62
7
  6
BYLAYER
 10
184.5936063397
 20
168.9889543918
 11
184.5986336897
 21
169.0011365791
  0
LINE
  5
2A8
100
AcDbEntity
  8
0
100
AcDbLine
 62
7
  6
BYLAYER
 10
189.1191085807
 20
166.3762135629
 11
189.1241359307
 21
166.3883957502
  0
LINE
  5
2A9
100
AcDbEntity
  8
0
100
AcDbLine
 62
7
  6
BYLAYER
 10
193.0373722925
 20
173.0269189851
 11
193.0296940993
 21
173.0169383997
  0
LINE
  5
2AA
100
AcDbEntity
  8
0
100
AcDbLine
 62
7
  6
BYLAYER
 10
192.7140905696
 20
172.6065202512
 11
192.7171879359
 21
172.6105473355
  0
LINE
  5
2AB
100
AcDbEntity
  8
0
100
AcDbLine
 62
7
  6
BYLAYER
 10
181.4177334605
 20
153.2871207301
 11
170.5680674176
 21
147.0231005107
  0
LINE
  5
2AC
100
AcDbEntity
  8
0
100
AcDbLine
 62
7
  6
BYLAYER
 10
193.452016769
 20
163.2971213009
 11
193.4449666872
 21
163.2800349148
  0
LINE
  5
2AD
100
AcDbEntity
  8
0
100
AcDbLine
 62
7
  6
BYLAYER
 10
193.6446108216
 20
163.7634727339
 11
193.6496381716
 21
163.7756549213
  0
LINE
  5
2AE
100
AcDbEntity
  8
0
100
AcDbLine
 62
7
  6
BYLAYER
 10
197.5628745335
 20
170.4141781562
 11
197.5551963403
 21
170.4041975708
  0
LINE
  5
2AF
100
AcDbEntity
  8
0
100
AcDbLine
 62
7
  6
BYLAYER
 10
197.2395928105
 20
169.9937794223
 11
197.2426901768
 21
169.9978065065
  0
LINE
  5
2B0
100
AcDbEntity
  8
0
100
AcDbLine
 62
7
  6
BYLAYER
 10
51.2858076592
 20
250.5591796301
 11
51.2857210737
 21
250.5591577199
  0
LINE
  5
2B1
100
AcDbEntity
  8
0
100
AcDbLine
 62
7
  6
BYLAYER
 10
215.7394926799
 20
149.7653618838
 11
215.7382250944
 21
149.7614441545
  0
LINE
  5
2B2
100
AcDbEntity
  8
0
100
AcDbLine
 62
7
  6
BYLAYER
 10
223.5425476431
 20
147.6518306661
 11
223.5417752633
 21
147.6511396496
  0
LWPOLYLINE
  5
2B3
100
AcDbEntity
  8
0
100
AcDbPolyline
 62
7
  6
BYLAYER
 90
3
 70
0
 10
224.8181383719
 20
148.1019572173
 10
225.4894812922
 20
148.6100247077
 10
226.2105021471
 20
148.8958511173
  0
ARC
  5
2B4
100
AcDbEntity
  8
0
100
AcDbCircle
 62
7
  6
BYLAYER
 10
78.2622215207
 20
187.816353774
 40
23.2031455778
100
AcDbArc
 50
83.9527995683
 51
89.1362280563
  0
ARC
  5
2B5
100
AcDbEntity
  8
0
100
AcDbCircle
 62
7
  6
BYLAYER
 10
78.2353485505
 20
188.134357303
 40
22.8856052024
100
AcDbArc
 50
89.0569552778
 51
98.8669794919
  0
ARC
  5
2B6
100
AcDbEntity
  8
0
100
AcDbCircle
 62
7
  6
BYLAYER
 10
77.8809461996
 20
190.3351967255
 40
20.6564432751
100
AcDbArc
 50
98.8366699407
 51
104.2837733759
  0
ARC
  5
2B7
100
AcDbEntity
  8
0
100
AcDbCircle
 62
7
  6
BYLAYER
 10
49.7482231684
 20
170.6197359947
 40
15.7911120013
100
AcDbArc
 50
179.684473161
 51
180.0002317728
  0
ARC
  5
2B8
100
AcDbEntity
  8
0
100
AcDbCircle
 62
7
  6
BYLAYER
 10
125.8319188128
 20
164.6183304902
 40
15.7896756065
100
AcDbArc
 50
299.6798026155
 51
300.0000903731
  0
ARC
  5
2B9
100
AcDbEntity
  8
0
100
AcDbCircle
 62
7
  6
BYLAYER
 10
42.2796435303
 20
157.4334269311
 40
15.7171117593
100
AcDbArc
 50
359.6844922471
 51
0.000250859
  0
ARC
  5
2BA
100
AcDbEntity
  8
0
100
AcDbCircle
 62
7
  6
BYLAYER
 10
48.8996962935
 20
170.1298430163
 40
14.5911097311
100
AcDbArc
 50
179.6844922472
 51
180.0002508589
  0
ARC
  5
2BB
100
AcDbEntity
  8
0
100
AcDbCircle
 62
7
  6
BYLAYER
 10
41.7085892871
 20
157.4334277818
 40
14.5911097277
100
AcDbArc
 50
359.6844922471
 51
0.0002508589
  0
ARC
  5
2BC
100
AcDbEntity
  8
0
100
AcDbCircle
 62
7
  6
BYLAYER
 10
74.9097983168
 20
197.9412809117
 40
12.4574876178
100
AcDbArc
 50
119.9965972277
 51
121.2139791715
  0
ARC
  5
2BD
100
AcDbEntity
  8
0
100
AcDbCircle
 62
7
  6
BYLAYER
 10
87.1286478988
 20
165.2912126873
 40
5.0226448732
100
AcDbArc
 50
89.8414524052
 51
91.2539160828
  0
ARC
  5
2BE
100
AcDbEntity
  8
0
100
AcDbCircle
 62
7
  6
BYLAYER
 10
36.4995915783
 20
194.5212507106
 40
5.0226448736
100
AcDbArc
 50
89.8414524052
 51
91.2539160827
  0
ARC
  5
2BF
100
AcDbEntity
  8
0
100
AcDbCircle
 62
7
  6
BYLAYER
 10
87.6425798484
 20
191.5925051234
 40
4.8628592742
100
AcDbArc
 50
346.3638806956
 51
357.7470106866
  0
ARC
  5
2C0
100
AcDbEntity
  8
0
100
AcDbCircle
 62
7
  6
BYLAYER
 10
87.7443437993
 20
191.5833798259
 40
4.7608180057
100
AcDbArc
 50
357.8086015546
 51
0.0010589782
  0
ARC
  5
2C1
100
AcDbEntity
  8
0
100
AcDbCircle
 62
7
  6
BYLAYER
 10
35.2355675944
 20
193.712210607
 40
4.7539349716
100
AcDbArc
 50
119.995002405
 51
121.4991744852
  0
ARC
  5
2C2
100
AcDbEntity
  8
0
100
AcDbCircle
 62
7
  6
BYLAYER
 10
87.8315690802
 20
169.801807489
 40
3.4373876868
100
AcDbArc
 50
295.7801775764
 51
299.9554195643
  0
ARC
  5
2C3
100
AcDbEntity
  8
0
100
AcDbCircle
 62
7
  6
BYLAYER
 10
37.2025127597
 20
199.0318455127
 40
3.4373876868
100
AcDbArc
 50
295.7801775764
 51
299.9554195643
  0
ARC
  5
2C4
100
AcDbEntity
  8
0
100
AcDbCircle
 62
7
  6
BYLAYER
 10
35.9013366879
 20
196.0989519162
 40
3.435011391
100
AcDbArc
 50
115.7865460974
 51
119.9617884609
  0
ARC
  5
2C5
100
AcDbEntity
  8
0
100
AcDbCircle
 62
7
  6
BYLAYER
 10
86.5303930084
 20
166.8689138926
 40
3.435011391
100
AcDbArc
 50
115.7865460974
 51
119.9617884609
  0
ARC
  5
2C6
100
AcDbEntity
  8
0
100
AcDbCircle
 62
7
  6
BYLAYER
 10
86.5481277349
 20
167.2424122529
 40
2.9740186883
100
AcDbArc
 50
115.7967661956
 51
119.0670755502
  0
ARC
  5
2C7
100
AcDbEntity
  8
0
100
AcDbCircle
 62
7
  6
BYLAYER
 10
35.9190714143
 20
196.4724502766
 40
2.9740186882
100
AcDbArc
 50
115.7967661955
 51
119.0670755503
  0
ARC
  5
2C8
100
AcDbEntity
  8
0
100
AcDbCircle
 62
7
  6
BYLAYER
 10
87.7289465289
 20
169.9787695351
 40
2.9348456566
100
AcDbArc
 50
295.7801775982
 51
299.9554196335
  0
ARC
  5
2C9
100
AcDbEntity
  8
0
100
AcDbCircle
 62
7
  6
BYLAYER
 10
37.0998902084
 20
199.2088075587
 40
2.9348456566
100
AcDbArc
 50
295.7801775982
 51
299.9554196335
  0
ARC
  5
2CA
100
AcDbEntity
  8
0
100
AcDbCircle
 62
7
  6
BYLAYER
 10
86.4603249487
 20
167.4028875829
 40
2.7910977364
100
AcDbArc
 50
119.092121436
 51
119.9977613277
  0
ARC
  5
2CB
100
AcDbEntity
  8
0
100
AcDbCircle
 62
7
  6
BYLAYER
 10
35.8312686279
 20
196.6329256071
 40
2.7910977358
100
AcDbArc
 50
119.0921214359
 51
119.9977613278
  0
ARC
  5
2CC
100
AcDbEntity
  8
0
100
AcDbCircle
 62
7
  6
BYLAYER
 10
86.3563597646
 20
167.580818515
 40
2.5850227043
100
AcDbArc
 50
119.9738441225
 51
123.5266984909
  0
ARC
  5
2CD
100
AcDbEntity
  8
0
100
AcDbCircle
 62
7
  6
BYLAYER
 10
35.7273034441
 20
196.8108565386
 40
2.5850227042
100
AcDbArc
 50
119.9738441225
 51
123.5266984909
  0
ARC
  5
2CE
100
AcDbEntity
  8
0
100
AcDbCircle
 62
7
  6
BYLAYER
 10
34.5750515422
 20
197.4483302555
 40
1.4944776899
100
AcDbArc
 50
167.270990563
 51
179.9425995077
  0
ARC
  5
2CF
100
AcDbEntity
  8
0
100
AcDbCircle
 62
7
  6
BYLAYER
 10
23.5021291263
 20
208.6886793929
 40
47.292194759
100
AcDbArc
 50
39.817151235
 51
40.4083630227
  0
ARC
  5
2D0
100
AcDbEntity
  8
0
100
AcDbCircle
 62
7
  6
BYLAYER
 10
71.9262666104
 20
238.6337620455
 40
11.9427751351
100
AcDbArc
 50
136.5686561841
 51
136.7669049198
  0
ARC
  5
2D1
100
AcDbEntity
  8
0
100
AcDbCircle
 62
7
  6
BYLAYER
 10
71.0298071921
 20
237.4104384888
 40
11.2732115633
100
AcDbArc
 50
171.293096255
 51
173.1989521641
  0
ARC
  5
2D2
100
AcDbEntity
  8
0
100
AcDbCircle
 62
7
  6
BYLAYER
 10
70.4853531823
 20
237.4762383979
 40
10.7247965592
100
AcDbArc
 50
173.2035545866
 51
174.5264514531
  0
ARC
  5
2D3
100
AcDbEntity
  8
0
100
AcDbCircle
 62
7
  6
BYLAYER
 10
67.118282654
 20
238.7957712988
 40
7.3543916049
100
AcDbArc
 50
179.9975254728
 51
181.073899211
  0
ARC
  5
2D4
100
AcDbEntity
  8
0
100
AcDbCircle
 62
7
  6
BYLAYER
 10
71.5646249762
 20
224.6365588413
 40
6.2974596639
100
AcDbArc
 50
249.1617883416
 51
250.8598260727
  0
ARC
  5
2D5
100
AcDbEntity
  8
0
100
AcDbCircle
 62
7
  6
BYLAYER
 10
66.988111803
 20
227.1169163012
 40
6.1556709232
100
AcDbArc
 50
231.4686883825
 51
250.9043648446
  0
ARC
  5
2D6
100
AcDbEntity
  8
0
100
AcDbCircle
 62
7
  6
BYLAYER
 10
71.5060733513
 20
224.4914783623
 40
6.1410412956
100
AcDbArc
 50
231.4499283654
 51
249.1908246886
  0
ARC
  5
2D7
100
AcDbEntity
  8
0
100
AcDbCircle
 62
7
  6
BYLAYER
 10
52.6623193244
 20
271.3400664044
 40
26.8911846535
100
AcDbArc
 50
290.6963535249
 51
292.7790265251
  0
ARC
  5
2D8
100
AcDbEntity
  8
0
100
AcDbCircle
 62
7
  6
BYLAYER
 10
38.7019629024
 20
251.9617000966
 40
24.3363872499
100
AcDbArc
 50
328.7728964848
 51
331.802282316
  0
ARC
  5
2D9
100
AcDbEntity
  8
0
100
AcDbCircle
 62
7
  6
BYLAYER
 10
70.5326773618
 20
246.6582591584
 40
14.1029602417
100
AcDbArc
 50
212.1645304709
 51
213.5117264078
  0
ARC
  5
2DA
100
AcDbEntity
  8
0
100
AcDbCircle
 62
7
  6
BYLAYER
 10
54.8654694371
 20
251.9517181257
 40
7.250519225
100
AcDbArc
 50
356.8110067597
 51
359.999654737
  0
ARC
  5
2DB
100
AcDbEntity
  8
0
100
AcDbCircle
 62
7
  6
BYLAYER
 10
57.3243154008
 20
246.7363987952
 40
6.55
100
AcDbArc
 50
59.9791573805
 51
119.9998519061
  0
ARC
  5
2DC
100
AcDbEntity
  8
0
100
AcDbCircle
 62
7
  6
BYLAYER
 10
64.3468929431
 20
244.4936037167
 40
6.1254191371
100
AcDbArc
 50
119.4631505929
 51
120.000577985
  0
ARC
  5
2DD
100
AcDbEntity
  8
0
100
AcDbCircle
 62
7
  6
BYLAYER
 10
58.4489351855
 20
250.035778566
 40
3.5550309411
100
AcDbArc
 50
43.1380377932
 51
48.0784179574
  0
ARC
  5
2DE
100
AcDbEntity
  8
0
100
AcDbCircle
 62
7
  6
BYLAYER
 10
59.7800226
 20
241.8463442445
 40
3.5428974124
100
AcDbArc
 50
240.011419041
 51
257.0462467436
  0
ARC
  5
2DF
100
AcDbEntity
  8
0
100
AcDbCircle
 62
7
  6
BYLAYER
 10
62.7882361226
 20
247.0575197717
 40
3.5399856405
100
AcDbArc
 50
50.4133246412
 51
59.984199803
  0
ARC
  5
2E0
100
AcDbEntity
  8
0
100
AcDbCircle
 62
7
  6
BYLAYER
 10
51.8273235152
 20
249.7113919726
 40
3.1976252731
100
AcDbArc
 50
50.7739448952
 51
52.7147049564
  0
ARC
  5
2E1
100
AcDbEntity
  8
0
100
AcDbCircle
 62
7
  6
BYLAYER
 10
55.6209367155
 20
243.3612941227
 40
2.8165645817
100
AcDbArc
 50
209.8093276581
 51
211.1125045332
  0
ARC
  5
2E2
100
AcDbEntity
  8
0
100
AcDbCircle
 62
7
  6
BYLAYER
 10
59.5102913336
 20
250.5221937515
 40
2.1784300397
100
AcDbArc
 50
60.0072954039
 51
61.1842387035
  0
ARC
  5
2E3
100
AcDbEntity
  8
0
100
AcDbCircle
 62
7
  6
BYLAYER
 10
90.194072875
 20
227.6386425341
 40
30.4059868888
100
AcDbArc
 50
155.9707001212
 51
157.8308555088
  0
ARC
  5
2E4
100
AcDbEntity
  8
0
100
AcDbCircle
 62
7
  6
BYLAYER
 10
89.5753533259
 20
227.8919730797
 40
29.7374133769
100
AcDbArc
 50
157.9261545532
 51
158.7929655683
  0
ARC
  5
2E5
100
AcDbEntity
  8
0
100
AcDbCircle
 62
7
  6
BYLAYER
 10
87.0316295489
 20
229.1886600194
 40
28.8560707992
100
AcDbArc
 50
160.3255149344
 51
160.5878115943
  0
ARC
  5
2E6
100
AcDbEntity
  8
0
100
AcDbCircle
 62
7
  6
BYLAYER
 10
88.1050603458
 20
228.4342345057
 40
28.1705447002
100
AcDbArc
 50
158.7394270655
 51
163.8574885891
  0
ARC
  5
2E7
100
AcDbEntity
  8
0
100
AcDbCircle
 62
7
  6
BYLAYER
 10
89.9879868595
 20
227.8785912414
 40
27.4330816344
100
AcDbArc
 50
142.2927178627
 51
157.846478595
  0
ARC
  5
2E8
100
AcDbEntity
  8
0
100
AcDbCircle
 62
7
  6
BYLAYER
 10
90.4310952475
 20
227.6219157576
 40
27.4166404127
100
AcDbArc
 50
145.8046079848
 51
157.5233019365
  0
ARC
  5
2E9
100
AcDbEntity
  8
0
100
AcDbCircle
 62
7
  6
BYLAYER
 10
90.0106826028
 20
227.9289329268
 40
26.8963632519
100
AcDbArc
 50
142.7278482
 51
145.8422340812
  0
ARC
  5
2EA
100
AcDbEntity
  8
0
100
AcDbCircle
 62
7
  6
BYLAYER
 10
89.6872332972
 20
228.172808888
 40
26.4912810364
100
AcDbArc
 50
142.4402996621
 51
142.7239274887
  0
ARC
  5
2EB
100
AcDbEntity
  8
0
100
AcDbCircle
 62
7
  6
BYLAYER
 10
88.9685413171
 20
228.6396361154
 40
26.1610842961
100
AcDbArc
 50
141.1251994854
 51
142.2457977785
  0
ARC
  5
2EC
100
AcDbEntity
  8
0
100
AcDbCircle
 62
7
  6
BYLAYER
 10
88.7477880566
 20
228.4089555498
 40
26.0844540585
100
AcDbArc
 50
157.898196456
 51
159.0428652043
  0
ARC
  5
2ED
100
AcDbEntity
  8
0
100
AcDbCircle
 62
7
  6
BYLAYER
 10
86.0661827139
 20
229.0257374486
 40
26.0475996113
100
AcDbArc
 50
163.8603875279
 51
166.3427365216
  0
ARC
  5
2EE
100
AcDbEntity
  8
0
100
AcDbCircle
 62
7
  6
BYLAYER
 10
88.0837191416
 20
229.3670942153
 40
25.0156678398
100
AcDbArc
 50
137.7947780478
 51
141.1504108242
  0
ARC
  5
2EF
100
AcDbEntity
  8
0
100
AcDbCircle
 62
7
  6
BYLAYER
 10
90.4841053324
 20
232.8908733545
 40
16.7275088877
100
AcDbArc
 50
118.1674083416
 51
120.0074030456
  0
ARC
  5
2F0
100
AcDbEntity
  8
0
100
AcDbCircle
 62
7
  6
BYLAYER
 10
86.0193648586
 20
234.8876219346
 40
14.4961512905
100
AcDbArc
 50
117.5187926862
 51
120.0136651947
  0
ARC
  5
2F1
100
AcDbEntity
  8
0
100
AcDbCircle
 62
7
  6
BYLAYER
 10
81.4938626176
 20
237.5003627635
 40
14.4961512905
100
AcDbArc
 50
117.5187926862
 51
120.0136651947
  0
ARC
  5
2F2
100
AcDbEntity
  8
0
100
AcDbCircle
 62
7
  6
BYLAYER
 10
88.6837841095
 20
234.4474881677
 40
5.0226448729
100
AcDbArc
 50
89.8414524051
 51
91.2539160828
  0
ARC
  5
2F3
100
AcDbEntity
  8
0
100
AcDbCircle
 62
7
  6
BYLAYER
 10
87.4740981018
 20
233.7865623576
 40
4.6528332215
100
AcDbArc
 50
119.9781640306
 51
123.1378625033
  0
ARC
  5
2F4
100
AcDbEntity
  8
0
100
AcDbCircle
 62
7
  6
BYLAYER
 10
89.3867052909
 20
238.9580829691
 40
3.4373876868
100
AcDbArc
 50
295.7801775764
 51
299.9554195643
  0
ARC
  5
2F5
100
AcDbEntity
  8
0
100
AcDbCircle
 62
7
  6
BYLAYER
 10
88.085529219
 20
236.0251893726
 40
3.435011391
100
AcDbArc
 50
115.7865460974
 51
119.9617884609
  0
ARC
  5
2F6
100
AcDbEntity
  8
0
100
AcDbCircle
 62
7
  6
BYLAYER
 10
88.1032639455
 20
236.398687733
 40
2.9740186882
100
AcDbArc
 50
115.7967661955
 51
119.0670755503
  0
ARC
  5
2F7
100
AcDbEntity
  8
0
100
AcDbCircle
 62
7
  6
BYLAYER
 10
89.2840827395
 20
239.1350450152
 40
2.9348456566
100
AcDbArc
 50
295.7801775982
 51
299.9554196335
  0
ARC
  5
2F8
100
AcDbEntity
  8
0
100
AcDbCircle
 62
7
  6
BYLAYER
 10
88.0154611587
 20
236.5591630641
 40
2.791097735
100
AcDbArc
 50
119.0921214357
 51
119.9977613279
  0
ARC
  5
2F9
100
AcDbEntity
  8
0
100
AcDbCircle
 62
7
  6
BYLAYER
 10
87.9114959753
 20
236.7370939951
 40
2.5850227042
100
AcDbArc
 50
119.9738441225
 51
123.5266984909
  0
ARC
  5
2FA
100
AcDbEntity
  8
0
100
AcDbCircle
 62
7
  6
BYLAYER
 10
104.7612579804
 20
219.3491003077
 40
31.9993179624
100
AcDbArc
 50
142.4889055915
 51
157.5116626567
  0
ARC
  5
2FB
100
AcDbEntity
  8
0
100
AcDbCircle
 62
7
  6
BYLAYER
 10
93.8955660627
 20
225.6222721393
 40
31.3821220254
100
AcDbArc
 50
142.4873099463
 51
157.5132583025
  0
ARC
  5
2FC
100
AcDbEntity
  8
0
100
AcDbCircle
 62
7
  6
BYLAYER
 10
98.4210683036
 20
223.0095313104
 40
31.3821220254
100
AcDbArc
 50
142.4873099463
 51
157.5132583025
  0
ARC
  5
2FD
100
AcDbEntity
  8
0
100
AcDbCircle
 62
7
  6
BYLAYER
 10
102.9465705446
 20
220.3967904815
 40
31.3821220254
100
AcDbArc
 50
142.4873099463
 51
157.5132583025
  0
ARC
  5
2FE
100
AcDbEntity
  8
0
100
AcDbCircle
 62
7
  6
BYLAYER
 10
104.4612772486
 20
219.412424478
 40
30.9260826635
100
AcDbArc
 50
142.3287181639
 51
157.5977549136
  0
ARC
  5
2FF
100
AcDbEntity
  8
0
100
AcDbCircle
 62
7
  6
BYLAYER
 10
99.0391618533
 20
222.6529576469
 40
27.4333094629
100
AcDbArc
 50
142.292684625
 51
157.8178176141
  0
ARC
  5
300
100
AcDbEntity
  8
0
100
AcDbCircle
 62
7
  6
BYLAYER
 10
94.5134891004
 20
225.2658504125
 40
27.4330816345
100
AcDbArc
 50
142.2927178627
 51
157.846478595
  0
ARC
  5
301
100
AcDbEntity
  8
0
100
AcDbCircle
 62
7
  6
BYLAYER
 10
94.9565974884
 20
225.0091749286
 40
27.4166404127
100
AcDbArc
 50
145.8046079848
 51
157.5233019365
  0
ARC
  5
302
100
AcDbEntity
  8
0
100
AcDbCircle
 62
7
  6
BYLAYER
 10
99.4820997294
 20
222.3964340997
 40
27.4166404127
100
AcDbArc
 50
145.8046079848
 51
157.5233019365
  0
ARC
  5
303
100
AcDbEntity
  8
0
100
AcDbCircle
 62
7
  6
BYLAYER
 10
94.5361848439
 20
225.3161920978
 40
26.8963632521
100
AcDbArc
 50
142.7278482
 51
145.8422340812
  0
ARC
  5
304
100
AcDbEntity
  8
0
100
AcDbCircle
 62
7
  6
BYLAYER
 10
99.0616870848
 20
222.7034512689
 40
26.8963632521
100
AcDbArc
 50
142.7278482
 51
145.8422340812
  0
ARC
  5
305
100
AcDbEntity
  8
0
100
AcDbCircle
 62
7
  6
BYLAYER
 10
94.2127355383
 20
225.560068059
 40
26.4912810365
100
AcDbArc
 50
142.440299662
 51
142.7239274887
  0
ARC
  5
306
100
AcDbEntity
  8
0
100
AcDbCircle
 62
7
  6
BYLAYER
 10
98.738237775
 20
222.9473272333
 40
26.4912810313
100
AcDbArc
 50
142.440299662
 51
142.7239274887
  0
ARC
  5
307
100
AcDbEntity
  8
0
100
AcDbCircle
 62
7
  6
BYLAYER
 10
93.4940435576
 20
226.0268952868
 40
26.1610842956
100
AcDbArc
 50
141.1251994854
 51
142.2457977785
  0
ARC
  5
308
100
AcDbEntity
  8
0
100
AcDbCircle
 62
7
  6
BYLAYER
 10
98.0195457982
 20
223.4141544581
 40
26.1610842951
100
AcDbArc
 50
141.1251994854
 51
142.2457977785
  0
ARC
  5
309
100
AcDbEntity
  8
0
100
AcDbCircle
 62
7
  6
BYLAYER
 10
97.8042531052
 20
223.1813405745
 40
26.0903164217
100
AcDbArc
 50
157.8683992763
 51
159.0427793008
  0
ARC
  5
30A
100
AcDbEntity
  8
0
100
AcDbCircle
 62
7
  6
BYLAYER
 10
93.2732902978
 20
225.7962147208
 40
26.0844540588
100
AcDbArc
 50
157.898196456
 51
159.0428652043
  0
ARC
  5
30B
100
AcDbEntity
  8
0
100
AcDbCircle
 62
7
  6
BYLAYER
 10
103.2177528617
 20
219.8105776968
 40
21.8736071778
100
AcDbArc
 50
159.2691374862
 51
162.3806787944
  0
ARC
  5
30C
100
AcDbEntity
  8
0
100
AcDbCircle
 62
7
  6
BYLAYER
 10
101.1740830422
 20
213.4410684998
 40
16.2831317096
100
AcDbArc
 50
246.406978034
 51
249.3010314956
  0
ARC
  5
30D
100
AcDbEntity
  8
0
100
AcDbCircle
 62
7
  6
BYLAYER
 10
99.4185469755
 20
214.5917849814
 40
7.5984466199
100
AcDbArc
 50
126.912453204
 51
131.4922750998
  0
ARC
  5
30E
100
AcDbEntity
  8
0
100
AcDbCircle
 62
7
  6
BYLAYER
 10
94.8400109586
 20
216.641908068
 40
4.0847495421
100
AcDbArc
 50
170.1617165981
 51
176.0066648046
  0
ARC
  5
30F
100
AcDbEntity
  8
0
100
AcDbCircle
 62
7
  6
BYLAYER
 10
96.611297919
 20
216.6482521873
 40
4.0555296308
100
AcDbArc
 50
177.6190886405
 51
180.0969668759
  0
ARC
  5
310
100
AcDbEntity
  8
0
100
AcDbCircle
 62
7
  6
BYLAYER
 10
120.1439786009
 20
251.6206235628
 40
5.5434530862
100
AcDbArc
 50
114.9240317075
 51
117.0842121184
  0
ARC
  5
311
100
AcDbEntity
  8
0
100
AcDbCircle
 62
7
  6
BYLAYER
 10
119.9402904297
 20
252.0167436362
 40
5.0980331714
100
AcDbArc
 50
117.0729949877
 51
119.9756253328
  0
ARC
  5
312
100
AcDbEntity
  8
0
100
AcDbCircle
 62
7
  6
BYLAYER
 10
122.2349930679
 20
252.0795386763
 40
5.0261318706
100
AcDbArc
 50
60.0131118414
 51
62.0963369178
  0
ARC
  5
313
100
AcDbEntity
  8
0
100
AcDbCircle
 62
7
  6
BYLAYER
 10
121.2105606213
 20
253.2267192451
 40
5.0226448736
100
AcDbArc
 50
89.8414524052
 51
91.2539160827
  0
ARC
  5
314
100
AcDbEntity
  8
0
100
AcDbCircle
 62
7
  6
BYLAYER
 10
121.9134818027
 20
257.7373140472
 40
3.4373876868
100
AcDbArc
 50
295.7801775764
 51
299.9554195643
  0
ARC
  5
315
100
AcDbEntity
  8
0
100
AcDbCircle
 62
7
  6
BYLAYER
 10
120.6123057308
 20
254.8044204508
 40
3.435011391
100
AcDbArc
 50
115.7865460973
 51
119.961788461
  0
ARC
  5
316
100
AcDbEntity
  8
0
100
AcDbCircle
 62
7
  6
BYLAYER
 10
120.6300404574
 20
255.1779188111
 40
2.9740186883
100
AcDbArc
 50
115.7967661955
 51
119.0670755502
  0
ARC
  5
317
100
AcDbEntity
  8
0
100
AcDbCircle
 62
7
  6
BYLAYER
 10
121.8108592514
 20
257.9142760933
 40
2.9348456566
100
AcDbArc
 50
295.7801775982
 51
299.9554196335
  0
ARC
  5
318
100
AcDbEntity
  8
0
100
AcDbCircle
 62
7
  6
BYLAYER
 10
120.5422376707
 20
255.3383941418
 40
2.7910977355
100
AcDbArc
 50
119.0921214358
 51
119.9977613278
  0
ARC
  5
319
100
AcDbEntity
  8
0
100
AcDbCircle
 62
7
  6
BYLAYER
 10
120.4382724871
 20
255.5163250732
 40
2.5850227042
100
AcDbArc
 50
119.9738441225
 51
123.5266984909
  0
ARC
  5
31A
100
AcDbEntity
  8
0
100
AcDbCircle
 62
7
  6
BYLAYER
 10
123.1476657004
 20
256.1546439107
 40
1.4838780883
100
AcDbArc
 50
0.0251785487
 51
9.5145044363
  0
ARC
  5
31B
100
AcDbEntity
  8
0
100
AcDbCircle
 62
7
  6
BYLAYER
 10
140.9845892269
 20
164.7462799001
 40
15.7155644474
100
AcDbArc
 50
119.6798222552
 51
120.0001100127
  0
ARC
  5
31C
100
AcDbEntity
  8
0
100
AcDbCircle
 62
7
  6
BYLAYER
 10
126.6804516506
 20
164.1284395493
 40
14.5896732599
100
AcDbArc
 50
299.6798222551
 51
300.0001100128
  0
ARC
  5
31D
100
AcDbEntity
  8
0
100
AcDbCircle
 62
7
  6
BYLAYER
 10
141.2701734291
 20
164.2516373871
 40
14.5896732558
100
AcDbArc
 50
119.6798222551
 51
120.0001100129
  0
ARC
  5
31E
100
AcDbEntity
  8
0
100
AcDbCircle
 62
7
  6
BYLAYER
 10
126.9067838598
 20
163.7292242282
 40
14.1307636413
100
AcDbArc
 50
298.2617557573
 51
299.6840139406
  0
ARC
  5
31F
100
AcDbEntity
  8
0
100
AcDbCircle
 62
7
  6
BYLAYER
 10
127.0690682161
 20
163.4294595462
 40
13.7898911556
100
AcDbArc
 50
297.8645102651
 51
298.2575994833
  0
ARC
  5
320
100
AcDbEntity
  8
0
100
AcDbCircle
 62
7
  6
BYLAYER
 10
142.2135240565
 20
161.8450420911
 40
13.4044037807
100
AcDbArc
 50
123.5192415475
 51
125.0127664631
  0
ARC
  5
321
100
AcDbEntity
  8
0
100
AcDbCircle
 62
7
  6
BYLAYER
 10
141.7291199327
 20
162.5803836194
 40
12.5238532468
100
AcDbArc
 50
120.0499910647
 51
123.5293986718
  0
ARC
  5
322
100
AcDbEntity
  8
0
100
AcDbCircle
 62
7
  6
BYLAYER
 10
142.0623044092
 20
162.7248935664
 40
12.1360343661
100
AcDbArc
 50
120.9822338136
 51
121.2323654977
  0
ARC
  5
323
100
AcDbEntity
  8
0
100
AcDbCircle
 62
7
  6
BYLAYER
 10
141.6796094318
 20
163.0552391539
 40
11.941417129
100
AcDbArc
 50
120.5041619351
 51
120.7560850165
  0
ARC
  5
324
100
AcDbEntity
  8
0
100
AcDbCircle
 62
7
  6
BYLAYER
 10
141.9338543934
 20
162.9398505983
 40
11.8856234139
100
AcDbArc
 50
120.0026019041
 51
120.9847899608
  0
ARC
  5
325
100
AcDbEntity
  8
0
100
AcDbCircle
 62
7
  6
BYLAYER
 10
130.8386878264
 20
162.9682428328
 40
11.8036764123
100
AcDbArc
 50
299.5705995255
 51
300.0002570861
  0
ARC
  5
326
100
AcDbEntity
  8
0
100
AcDbCircle
 62
7
  6
BYLAYER
 10
141.6020475431
 20
163.1871117648
 40
11.7884262162
100
AcDbArc
 50
120.0005784414
 51
120.5047059885
  0
ARC
  5
327
100
AcDbEntity
  8
0
100
AcDbCircle
 62
7
  6
BYLAYER
 10
141.3397351439
 20
163.2329861471
 40
11.7639857179
100
AcDbArc
 50
119.7096410161
 51
120.0000551048
  0
ARC
  5
328
100
AcDbEntity
  8
0
100
AcDbCircle
 62
7
  6
BYLAYER
 10
141.5744015447
 20
163.2347842816
 40
11.7333176058
100
AcDbArc
 50
119.7096500462
 51
120.0000641351
  0
ARC
  5
329
100
AcDbEntity
  8
0
100
AcDbCircle
 62
7
  6
BYLAYER
 10
141.8449898163
 20
163.0928182929
 40
11.7087172038
100
AcDbArc
 50
119.5706586213
 51
120.0003161819
  0
ARC
  5
32A
100
AcDbEntity
  8
0
100
AcDbCircle
 62
7
  6
BYLAYER
 10
142.2031246583
 20
162.4725052416
 40
10.3036711419
100
AcDbArc
 50
119.5706586214
 51
120.000316182
  0
ARC
  5
32B
100
AcDbEntity
  8
0
100
AcDbCircle
 62
7
  6
BYLAYER
 10
131.8993550322
 20
162.3558771269
 40
10.3036711419
100
AcDbArc
 50
299.5706586214
 51
300.000316182
  0
ARC
  5
32C
100
AcDbEntity
  8
0
100
AcDbCircle
 62
7
  6
BYLAYER
 10
132.1497068239
 20
161.9094510108
 40
9.7918456211
100
AcDbArc
 50
296.9295704465
 51
299.5856780999
  0
ARC
  5
32D
100
AcDbEntity
  8
0
100
AcDbCircle
 62
7
  6
BYLAYER
 10
138.9933855508
 20
165.5230481301
 40
9.4211196256
100
AcDbArc
 50
112.7077223661
 51
113.0819785393
  0
ARC
  5
32E
100
AcDbEntity
  8
0
100
AcDbCircle
 62
7
  6
BYLAYER
 10
132.342954027
 20
161.5344693199
 40
9.3700051293
100
AcDbArc
 50
296.3349487192
 51
296.9144978511
  0
ARC
  5
32F
100
AcDbEntity
  8
0
100
AcDbCircle
 62
7
  6
BYLAYER
 10
140.5931270182
 20
166.7814067636
 40
5.6774201154
100
AcDbArc
 50
97.8119663174
 51
98.1316209624
  0
ARC
  5
330
100
AcDbEntity
  8
0
100
AcDbCircle
 62
7
  6
BYLAYER
 10
131.7128552171
 20
158.0452801453
 40
5.6013563017
100
AcDbArc
 50
212.6150845476
 51
213.4295214273
  0
ARC
  5
331
100
AcDbEntity
  8
0
100
AcDbCircle
 62
7
  6
BYLAYER
 10
134.9658864318
 20
157.1330731622
 40
5.597239242
100
AcDbArc
 50
202.0100427983
 51
202.9504234128
  0
ARC
  5
332
100
AcDbEntity
  8
0
100
AcDbCircle
 62
7
  6
BYLAYER
 10
132.2009813435
 20
156.2052124154
 40
4.714927612
100
AcDbArc
 50
219.2426171578
 51
220.7850707138
  0
ARC
  5
333
100
AcDbEntity
  8
0
100
AcDbCircle
 62
7
  6
BYLAYER
 10
132.0322698878
 20
156.0553185735
 40
4.4892722029
100
AcDbArc
 50
220.7431045845
 51
228.3076698154
  0
ARC
  5
334
100
AcDbEntity
  8
0
100
AcDbCircle
 62
7
  6
BYLAYER
 10
131.8819453456
 20
155.8913112134
 40
4.2668191929
100
AcDbArc
 50
228.350172106
 51
233.9368893139
  0
ARC
  5
335
100
AcDbEntity
  8
0
100
AcDbCircle
 62
7
  6
BYLAYER
 10
131.8454709645
 20
155.8428450386
 40
4.2061691511
100
AcDbArc
 50
233.9498830073
 51
235.559041283
  0
ARC
  5
336
100
AcDbEntity
  8
0
100
AcDbCircle
 62
7
  6
BYLAYER
 10
131.8329547575
 20
155.8245257111
 40
4.1839824047
100
AcDbArc
 50
235.5585156393
 51
239.9960851166
  0
ARC
  5
337
100
AcDbEntity
  8
0
100
AcDbCircle
 62
7
  6
BYLAYER
 10
140.1498039276
 20
170.230647954
 40
4.1813864754
100
AcDbArc
 50
60.0009909445
 51
64.1629475606
  0
ARC
  5
338
100
AcDbEntity
  8
0
100
AcDbCircle
 62
7
  6
BYLAYER
 10
156.2834738336
 20
195.4196720354
 40
5.0226448731
100
AcDbArc
 50
89.8414524052
 51
91.2539160828
  0
ARC
  5
339
100
AcDbEntity
  8
0
100
AcDbCircle
 62
7
  6
BYLAYER
 10
156.986395015
 20
199.9302668369
 40
3.4373876868
100
AcDbArc
 50
295.7801775764
 51
299.9554195644
  0
ARC
  5
33A
100
AcDbEntity
  8
0
100
AcDbCircle
 62
7
  6
BYLAYER
 10
155.6852189431
 20
196.9973732404
 40
3.4350113911
100
AcDbArc
 50
115.7865460974
 51
119.9617884609
  0
ARC
  5
33B
100
AcDbEntity
  8
0
100
AcDbCircle
 62
7
  6
BYLAYER
 10
155.7029536696
 20
197.3708716008
 40
2.9740186883
100
AcDbArc
 50
115.7967661955
 51
119.0670755502
  0
ARC
  5
33C
100
AcDbEntity
  8
0
100
AcDbCircle
 62
7
  6
BYLAYER
 10
156.8837724636
 20
200.107228883
 40
2.9348456566
100
AcDbArc
 50
295.7801775982
 51
299.9554196335
  0
ARC
  5
33D
100
AcDbEntity
  8
0
100
AcDbCircle
 62
7
  6
BYLAYER
 10
155.6151508835
 20
197.5313469307
 40
2.7910977365
100
AcDbArc
 50
119.0921214359
 51
119.9977613276
  0
ARC
  5
33E
100
AcDbEntity
  8
0
100
AcDbCircle
 62
7
  6
BYLAYER
 10
155.5111856994
 20
197.7092778629
 40
2.5850227043
100
AcDbArc
 50
119.9738441225
 51
123.5266984908
  0
ARC
  5
33F
100
AcDbEntity
  8
0
100
AcDbCircle
 62
7
  6
BYLAYER
 10
203.3361419382
 20
150.3100257861
 40
18.5009374771
100
AcDbArc
 50
34.9807386
 51
36.5623889917
  0
ARC
  5
340
100
AcDbEntity
  8
0
100
AcDbCircle
 62
7
  6
BYLAYER
 10
199.358332357
 20
143.1252929369
 40
13.678192974
100
AcDbArc
 50
30.842992292
 51
33.5243524776
  0
ARC
  5
341
100
AcDbEntity
  8
0
100
AcDbCircle
 62
7
  6
BYLAYER
 10
200.9201815967
 20
144.064406824
 40
11.8557571656
100
AcDbArc
 50
26.3621249255
 51
30.816122593
  0
ARC
  5
342
100
AcDbEntity
  8
0
100
AcDbCircle
 62
7
  6
BYLAYER
 10
207.1900212811
 20
156.6278115304
 40
7.5296897174
100
AcDbArc
 50
292.6990374524
 51
295.418129502
  0
ARC
  5
343
100
AcDbEntity
  8
0
100
AcDbCircle
 62
7
  6
BYLAYER
 10
195.5405631306
 20
152.7888887807
 40
6.1554814842
100
AcDbArc
 50
231.4684348723
 51
250.8845840214
  0
ARC
  5
344
100
AcDbEntity
  8
0
100
AcDbCircle
 62
7
  6
BYLAYER
 10
191.0150608897
 20
155.4016296097
 40
6.1554814842
100
AcDbArc
 50
231.4684348723
 51
250.8845840214
  0
ARC
  5
345
100
AcDbEntity
  8
0
100
AcDbCircle
 62
7
  6
BYLAYER
 10
200.2162667918
 20
168.8737773254
 40
18.1998268499
100
AcDbArc
 50
120.4866724067
 51
121.884361012
  0
ARC
  5
346
100
AcDbEntity
  8
0
100
AcDbCircle
 62
7
  6
BYLAYER
 10
199.9899388764
 20
168.9382042215
 40
18.0563762293
100
AcDbArc
 50
120.0045022639
 51
121.3435207751
  0
ARC
  5
347
100
AcDbEntity
  8
0
100
AcDbCircle
 62
7
  6
BYLAYER
 10
199.7799378856
 20
169.2993785303
 40
17.6385895522
100
AcDbArc
 50
119.4683085036
 51
120.0004541783
  0
ARC
  5
348
100
AcDbEntity
  8
0
100
AcDbCircle
 62
7
  6
BYLAYER
 10
199.9277588049
 20
169.360924792
 40
17.6336579045
100
AcDbArc
 50
120.000507213
 51
120.4818877113
  0
ARC
  5
349
100
AcDbEntity
  8
0
100
AcDbCircle
 62
7
  6
BYLAYER
 10
197.7828003419
 20
160.4124418985
 40
16.8449691458
100
AcDbArc
 50
299.2231360499
 51
300.0011898618
  0
ARC
  5
34A
100
AcDbEntity
  8
0
100
AcDbCircle
 62
7
  6
BYLAYER
 10
200.8455746612
 20
169.1703140367
 40
16.54758001
100
AcDbArc
 50
116.8453378953
 51
120.0110610097
  0
ARC
  5
34B
100
AcDbEntity
  8
0
100
AcDbCircle
 62
7
  6
BYLAYER
 10
198.0934374337
 20
159.8538299188
 40
16.2057977936
100
AcDbArc
 50
296.7323506352
 51
299.2288648942
  0
ARC
  5
34C
100
AcDbEntity
  8
0
100
AcDbCircle
 62
7
  6
BYLAYER
 10
200.3036806347
 20
170.2234860257
 40
15.3632011919
100
AcDbArc
 50
115.2554813788
 51
116.8158824606
  0
ARC
  5
34D
100
AcDbEntity
  8
0
100
AcDbCircle
 62
7
  6
BYLAYER
 10
205.5200305695
 20
165.7868135874
 40
14.494350676
100
AcDbArc
 50
117.5095881208
 51
120.0137694636
  0
ARC
  5
34E
100
AcDbEntity
  8
0
100
AcDbCircle
 62
7
  6
BYLAYER
 10
200.9945283286
 20
168.3995544163
 40
14.494350676
100
AcDbArc
 50
117.5095881207
 51
120.0137694636
  0
ARC
  5
34F
100
AcDbEntity
  8
0
100
AcDbCircle
 62
7
  6
BYLAYER
 10
189.3360662907
 20
161.0177424001
 40
11.3648175116
100
AcDbArc
 50
196.1473828354
 51
200.9414527851
  0
ARC
  5
350
100
AcDbEntity
  8
0
100
AcDbCircle
 62
7
  6
BYLAYER
 10
186.4895586487
 20
158.0143704386
 40
6.1554814842
100
AcDbArc
 50
231.4684348723
 51
250.8845840214
  0
ARC
  5
351
100
AcDbEntity
  8
0
100
AcDbCircle
 62
7
  6
BYLAYER
 10
222.4481140944
 20
151.294409777
 40
31.3821220254
100
AcDbArc
 50
142.4873099463
 51
157.5132583025
  0
ARC
  5
352
100
AcDbEntity
  8
0
100
AcDbCircle
 62
7
  6
BYLAYER
 10
217.9226118535
 20
153.9071506059
 40
31.3821220254
100
AcDbArc
 50
142.4873099463
 51
157.5132583025
  0
ARC
  5
353
100
AcDbEntity
  8
0
100
AcDbCircle
 62
7
  6
BYLAYER
 10
213.3971096125
 20
156.5198914348
 40
31.3821220254
100
AcDbArc
 50
142.4873099463
 51
157.5132583025
  0
ARC
  5
354
100
AcDbEntity
  8
0
100
AcDbCircle
 62
7
  6
BYLAYER
 10
214.0152031622
 20
156.1633177713
 40
27.4333094629
100
AcDbArc
 50
142.292684625
 51
157.8178176141
  0
ARC
  5
355
100
AcDbEntity
  8
0
100
AcDbCircle
 62
7
  6
BYLAYER
 10
218.5407054031
 20
153.5505769424
 40
27.433309463
100
AcDbArc
 50
142.292684625
 51
157.8178176141
  0
ARC
  5
356
100
AcDbEntity
  8
0
100
AcDbCircle
 62
7
  6
BYLAYER
 10
218.9836432792
 20
153.2940533952
 40
27.4166404127
100
AcDbArc
 50
145.8046079848
 51
157.5233019365
  0
ARC
  5
357
100
AcDbEntity
  8
0
100
AcDbCircle
 62
7
  6
BYLAYER
 10
214.4581410383
 20
155.9067942241
 40
27.4166404127
100
AcDbArc
 50
145.8046079848
 51
157.5233019365
  0
ARC
  5
358
100
AcDbEntity
  8
0
100
AcDbCircle
 62
7
  6
BYLAYER
 10
218.5632306347
 20
153.6010705643
 40
26.8963632521
100
AcDbArc
 50
142.7278482
 51
145.8422340812
  0
ARC
  5
359
100
AcDbEntity
  8
0
100
AcDbCircle
 62
7
  6
BYLAYER
 10
214.0377283938
 20
156.2138113933
 40
26.8963632521
100
AcDbArc
 50
142.7278482
 51
145.8422340812
  0
ARC
  5
35A
100
AcDbEntity
  8
0
100
AcDbCircle
 62
7
  6
BYLAYER
 10
218.2397813396
 20
153.8449465175
 40
26.4912810498
100
AcDbArc
 50
142.4402996621
 51
142.7239274886
  0
ARC
  5
35B
100
AcDbEntity
  8
0
100
AcDbCircle
 62
7
  6
BYLAYER
 10
213.7142790934
 20
156.4576873505
 40
26.4912810431
100
AcDbArc
 50
142.4402996621
 51
142.7239274887
  0
ARC
  5
35C
100
AcDbEntity
  8
0
100
AcDbCircle
 62
7
  6
BYLAYER
 10
217.5167886615
 20
154.3151503265
 40
26.1556165882
100
AcDbArc
 50
141.0979895736
 51
142.2458776585
  0
ARC
  5
35D
100
AcDbEntity
  8
0
100
AcDbCircle
 62
7
  6
BYLAYER
 10
217.2976963645
 20
154.0821880902
 40
26.0815967684
100
AcDbArc
 50
157.8682646206
 51
159.0849687098
  0
ARC
  5
35E
100
AcDbEntity
  8
0
100
AcDbCircle
 62
7
  6
BYLAYER
 10
219.2592261285
 20
153.368254537
 40
12.8462569317
100
AcDbArc
 50
140.336602954
 51
141.7205580545
  0
ARC
  5
35F
100
AcDbEntity
  8
0
100
AcDbCircle
 62
7
  6
BYLAYER
 10
220.7711139967
 20
152.983463051
 40
8.6798225981
100
AcDbArc
 50
131.9028832461
 51
132.1716055168
  0
ARC
  5
360
100
AcDbEntity
  8
0
100
AcDbCircle
 62
7
  6
BYLAYER
 10
218.9921455076
 20
154.0660131015
 40
7.4240497658
100
AcDbArc
 50
127.4800896844
 51
127.7779556826
  0
ARC
  5
361
100
AcDbEntity
  8
0
100
AcDbCircle
 62
7
  6
BYLAYER
 10
213.5485278302
 20
154.1237025783
 40
7.1300805212
100
AcDbArc
 50
179.9738526926
 51
183.4390537848
  0
ARC
  5
362
100
AcDbEntity
  8
0
100
AcDbCircle
 62
7
  6
BYLAYER
 10
220.1716851021
 20
152.7185530292
 40
6.55
100
AcDbArc
 50
302.420985113
 51
315.1846797723
  0
ARC
  5
363
100
AcDbEntity
  8
0
100
AcDbCircle
 62
7
  6
BYLAYER
 10
218.3741008452
 20
154.9747801261
 40
6.3243864108
100
AcDbArc
 50
120.0003402095
 51
120.5320093529
  0
ARC
  5
364
100
AcDbEntity
  8
0
100
AcDbCircle
 62
7
  6
BYLAYER
 10
219.3245238944
 20
154.9616413647
 40
6.2252001078
100
AcDbArc
 50
120.0005653868
 51
120.5322345301
  0
ARC
  5
365
100
AcDbEntity
  8
0
100
AcDbCircle
 62
7
  6
BYLAYER
 10
228.9210310206
 20
153.5632259987
 40
4.6465700406
100
AcDbArc
 50
196.3383705661
 51
201.9772969507
  0
ARC
  5
366
100
AcDbEntity
  8
0
100
AcDbCircle
 62
7
  6
BYLAYER
 10
217.0229439874
 20
156.4877482528
 40
4.3904804937
100
AcDbArc
 50
114.4214704602
 51
115.1505330888
  0
ARC
  5
367
100
AcDbEntity
  8
0
100
AcDbCircle
 62
7
  6
BYLAYER
 10
209.5219629653
 20
154.0319337826
 40
3.9427128378
100
AcDbArc
 50
275.4765110881
 51
276.0931081399
  0
ARC
  5
368
100
AcDbEntity
  8
0
100
AcDbCircle
 62
7
  6
BYLAYER
 10
209.0325742125
 20
159.098769433
 40
31.4434245697
100
AcDbArc
 50
142.513834649
 51
147.7193878278
  0
ARC
  5
369
100
AcDbEntity
  8
0
100
AcDbCircle
 62
7
  6
BYLAYER
 10
208.4981622406
 20
159.4898256358
 40
30.8562781937
100
AcDbArc
 50
142.4592695536
 51
147.7976633207
  0
ARC
  5
36A
100
AcDbEntity
  8
0
100
AcDbCircle
 62
7
  6
BYLAYER
 10
209.4895308894
 20
158.7762101109
 40
27.4330822749
100
AcDbArc
 50
142.292717772
 51
157.8463994873
  0
ARC
  5
36B
100
AcDbEntity
  8
0
100
AcDbCircle
 62
7
  6
BYLAYER
 10
209.9326387973
 20
158.5195350531
 40
27.4166404127
100
AcDbArc
 50
145.8046079848
 51
157.5233019365
  0
ARC
  5
36C
100
AcDbEntity
  8
0
100
AcDbCircle
 62
7
  6
BYLAYER
 10
209.5122261528
 20
158.8265522222
 40
26.8963632521
100
AcDbArc
 50
142.7278482
 51
145.8422340812
  0
ARC
  5
36D
100
AcDbEntity
  8
0
100
AcDbCircle
 62
7
  6
BYLAYER
 10
209.1887768471
 20
159.0704281835
 40
26.4912810364
100
AcDbArc
 50
142.4402996621
 51
142.7239274887
  0
ARC
  5
36E
100
AcDbEntity
  8
0
100
AcDbCircle
 62
7
  6
BYLAYER
 10
212.9912864203
 20
156.9278911556
 40
26.1556165879
100
AcDbArc
 50
141.0979895736
 51
142.2458776585
  0
ARC
  5
36F
100
AcDbEntity
  8
0
100
AcDbCircle
 62
7
  6
BYLAYER
 10
208.4657841794
 20
159.5406319845
 40
26.1556165879
100
AcDbArc
 50
141.0979895736
 51
142.2458776585
  0
ARC
  5
370
100
AcDbEntity
  8
0
100
AcDbCircle
 62
7
  6
BYLAYER
 10
212.7721941227
 20
156.6949289195
 40
26.0815967675
100
AcDbArc
 50
157.8682646206
 51
159.0849687098
  0
ARC
  5
371
100
AcDbEntity
  8
0
100
AcDbCircle
 62
7
  6
BYLAYER
 10
208.241233312
 20
159.3097991703
 40
26.0757376907
100
AcDbArc
 50
157.8979826982
 51
159.0850576978
  0
ARC
  5
372
100
AcDbEntity
  8
0
100
AcDbCircle
 62
7
  6
BYLAYER
 10
210.204479149
 20
159.8781184359
 40
24.8112463757
100
AcDbArc
 50
130.5764672312
 51
134.1278895054
  0
ARC
  5
373
100
AcDbEntity
  8
0
100
AcDbCircle
 62
7
  6
BYLAYER
 10
210.0455328104
 20
163.1740727585
 40
14.4943506759
100
AcDbArc
 50
117.5095881207
 51
120.0137694636
  0
ARC
  5
374
100
AcDbEntity
  8
0
100
AcDbCircle
 62
7
  6
BYLAYER
 10
214.2020215764
 20
161.5422859183
 40
3.38647266
100
AcDbArc
 50
28.7218248051
 51
35.1505186218
  0
ARC
  5
375
100
AcDbEntity
  8
0
100
AcDbCircle
 62
7
  6
BYLAYER
 10
190.5655004445
 20
179.5832009403
 40
5.525637601
100
AcDbArc
 50
82.9889895917
 51
84.4211027949
  0
ARC
  5
376
100
AcDbEntity
  8
0
100
AcDbCircle
 62
7
  6
BYLAYER
 10
190.5887555399
 20
179.7641620556
 40
5.3431911573
100
AcDbArc
 50
79.4854069937
 51
82.9996385557
  0
ARC
  5
377
100
AcDbEntity
  8
0
100
AcDbCircle
 62
7
  6
BYLAYER
 10
190.6147852194
 20
179.910951062
 40
5.1941170506
100
AcDbArc
 50
78.5833596099
 51
79.4722324578
  0
ARC
  5
378
100
AcDbEntity
  8
0
100
AcDbCircle
 62
7
  6
BYLAYER
 10
188.8102503454
 20
214.1989031131
 40
5.0226448734
100
AcDbArc
 50
89.8414524052
 51
91.2539160827
  0
ARC
  5
379
100
AcDbEntity
  8
0
100
AcDbCircle
 62
7
  6
BYLAYER
 10
189.9713503097
 20
213.2897984601
 40
4.7516182121
100
AcDbArc
 50
58.4628476826
 51
60.005664785
  0
ARC
  5
37A
100
AcDbEntity
  8
0
100
AcDbCircle
 62
7
  6
BYLAYER
 10
189.5131715268
 20
218.709497915
 40
3.4373876868
100
AcDbArc
 50
295.7801775764
 51
299.9554195643
  0
ARC
  5
37B
100
AcDbEntity
  8
0
100
AcDbCircle
 62
7
  6
BYLAYER
 10
188.2119954549
 20
215.7766043186
 40
3.435011391
100
AcDbArc
 50
115.7865460974
 51
119.9617884609
  0
ARC
  5
37C
100
AcDbEntity
  8
0
100
AcDbCircle
 62
7
  6
BYLAYER
 10
188.2297301814
 20
216.150102679
 40
2.9740186882
100
AcDbArc
 50
115.7967661955
 51
119.0670755503
  0
ARC
  5
37D
100
AcDbEntity
  8
0
100
AcDbCircle
 62
7
  6
BYLAYER
 10
189.4105489754
 20
218.8864599611
 40
2.9348456566
100
AcDbArc
 50
295.7801775982
 51
299.9554196335
  0
ARC
  5
37E
100
AcDbEntity
  8
0
100
AcDbCircle
 62
7
  6
BYLAYER
 10
188.1419273947
 20
216.3105780098
 40
2.7910977354
100
AcDbArc
 50
119.0921214358
 51
119.9977613279
  0
ARC
  5
37F
100
AcDbEntity
  8
0
100
AcDbCircle
 62
7
  6
BYLAYER
 10
188.0379622112
 20
216.488508941
 40
2.5850227042
100
AcDbArc
 50
119.9738441225
 51
123.5266984909
  0
ARC
  5
380
100
AcDbEntity
  8
0
100
AcDbCircle
 62
7
  6
BYLAYER
 10
190.7473554244
 20
217.1268277785
 40
1.4838780883
100
AcDbArc
 50
0.0251785487
 51
9.5145044363
  0
SPLINE
  5
381
100
AcDbEntity
  8
0
100
AcDbSpline
 62
7
  6
BYLAYER
 70
0
 71
3
 72
11
 73
7
 74
0
 42
0.0000001
 43
0.0000001
 44
0.0000000001
 40
0.0
 40
0.0
 40
0.0
 40
0.0
 40
0.2880905876
 40
0.5467877205
 40
0.7805913936
 40
1.0
 40
1.0
 40
1.0
 40
1.0
 10
32.7517017964
 20
197.7656422903
 30
0.0
 10
32.5384804442
 20
197.6349591466
 30
0.0
 10
32.1520253161
 20
197.3541248514
 30
0.0
 10
31.6925981458
 20
196.8480942813
 30
0.0
 10
31.4033053686
 20
196.2929664815
 30
0.0
 10
31.3359557062
 20
195.8970565165
 30
0.0
 10
31.3359557415
 20
195.706594451
 30
0.0
  0
SPLINE
  5
382
100
AcDbEntity
  8
0
100
AcDbSpline
 62
7
  6
BYLAYER
 70
0
 71
3
 72
11
 73
7
 74
0
 42
0.0000001
 43
0.0000001
 44
0.0000000001
 40
0.0
 40
0.0
 40
0.0
 40
0.0
 40
0.2862688735
 40
0.544251397
 40
0.7788231153
 40
1.0
 40
1.0
 40
1.0
 40
1.0
 10
84.930601568
 20
237.6826478764
 30
0.0
 10
84.7330387347
 20
237.5535625323
 30
0.0
 10
84.3753521303
 20
237.2780111833
 30
0.0
 10
83.9525891848
 20
236.7876770346
 30
0.0
 10
83.6876223458
 20
236.2543433276
 30
0.0
 10
83.6262138144
 20
235.8764035969
 30
0.0
 10
83.6262138482
 20
235.6940685305
 30
0.0
  0
SPLINE
  5
383
100
AcDbEntity
  8
0
100
AcDbSpline
 62
7
  6
BYLAYER
 70
0
 71
3
 72
11
 73
7
 74
0
 42
0.0000001
 43
0.0000001
 44
0.0000000001
 40
0.0
 40
0.0
 40
0.0
 40
0.0
 40
0.2895416688
 40
0.549118971
 40
0.7822562702
 40
1.0
 40
1.0
 40
1.0
 40
1.0
 10
83.7349272247
 20
248.4312208637
 30
0.0
 10
83.5945974765
 20
248.3502019294
 30
0.0
 10
83.3399453836
 20
248.1746106091
 30
0.0
 10
83.035331134
 20
247.8548162726
 30
0.0
 10
82.8426058484
 20
247.5007699846
 30
0.0
 10
82.7978573568
 20
247.2467081713
 30
0.0
 10
82.7978573946
 20
247.1248504505
 30
0.0
  0
SPLINE
  5
384
100
AcDbEntity
  8
0
100
AcDbSpline
 62
7
  6
BYLAYER
 70
0
 71
3
 72
11
 73
7
 74
0
 42
0.0000001
 43
0.0000001
 44
0.0000000001
 40
0.0
 40
0.0
 40
0.0
 40
0.0
 40
0.2372531816
 40
0.5000006935
 40
0.7627478297
 40
1.0
 40
1.0
 40
1.0
 40
1.0
 10
103.533853508
 20
257.2493054652
 30
0.0
 10
103.2125900832
 20
257.434782794
 30
0.0
 10
102.4655439622
 20
257.7054807142
 30
0.0
 10
101.2711075951
 20
257.8348968434
 30
0.0
 10
100.0766734425
 20
257.705475007
 30
0.0
 10
99.3296308265
 20
257.4347734422
 30
0.0
 10
99.0083701085
 20
257.2492945873
 30
0.0
  0
SPLINE
  5
385
100
AcDbEntity
  8
0
100
AcDbSpline
 62
7
  6
BYLAYER
 70
0
 71
3
 72
11
 73
7
 74
0
 42
0.0000001
 43
0.0000001
 44
0.0000000001
 40
0.0
 40
0.0
 40
0.0
 40
0.0
 40
0.2372524156
 40
0.4999996414
 40
0.7627470637
 40
1.0
 40
1.0
 40
1.0
 40
1.0
 10
113.4333708187
 20
254.1466866088
 30
0.0
 10
113.1121097686
 20
253.9612075622
 30
0.0
 10
112.3650665857
 20
253.6905059328
 30
0.0
 10
111.1706320198
 20
253.5610843527
 30
0.0
 10
109.9761960661
 20
253.6905007383
 30
0.0
 10
109.2291505119
 20
253.9611985938
 30
0.0
 10
108.9078874192
 20
254.1466757309
 30
0.0
  0
SPLINE
  5
386
100
AcDbEntity
  8
0
100
AcDbSpline
 62
7
  6
BYLAYER
 70
0
 71
3
 72
11
 73
7
 74
0
 42
0.0000001
 43
0.0000001
 44
0.0000000001
 40
0.0
 40
0.0
 40
0.0
 40
0.0
 40
0.2895421522
 40
0.5491196247
 40
0.782256727
 40
1.0
 40
1.0
 40
1.0
 40
1.0
 10
188.3870205257
 20
208.2604149228
 30
0.0
 10
188.2466881512
 20
208.3414340241
 30
0.0
 10
187.9920312202
 20
208.5170260143
 30
0.0
 10
187.6874107947
 20
208.8368227219
 30
0.0
 10
187.494681339
 20
209.1908724357
 30
0.0
 10
187.4499318271
 20
209.4449371791
 30
0.0
 10
187.4499318542
 20
209.566796214
 30
0.0
  0
SPLINE
  5
387
100
AcDbEntity
  8
0
100
AcDbSpline
 62
7
  6
BYLAYER
 70
0
 71
3
 72
16
 73
12
 74
0
 42
0.0000001
 43
0.0000001
 44
0.0000000001
 40
0.0
 40
0.0
 40
0.0
 40
0.0
 40
0.127390918
 40
0.265694896
 40
0.4087787492
 40
0.5491887364
 40
0.6801918574
 40
0.7977225912
 40
0.9023075364
 40
0.9516057094
 40
1.0
 40
1.0
 40
1.0
 40
1.0
 10
95.7585800727
 20
221.2626512104
 30
0.0
 10
96.5160536782
 20
221.69997619
 30
0.0
 10
98.2186829615
 20
222.4043743277
 30
0.0
 10
100.9849167194
 20
222.9538274256
 30
0.0
 10
103.8943181474
 20
223.0242103033
 30
0.0
 10
106.7245414408
 20
222.6099253197
 30
0.0
 10
109.266649961
 20
221.7327008717
 30
0.0
 10
111.3428766824
 20
220.4316372712
 30
0.0
 10
112.5683775868
 20
218.9632359314
 30
0.0
 10
113.0700985779
 20
217.65590785
 30
0.0
 10
113.1544865292
 20
216.9824096426
 30
0.0
 10
113.1550448528
 20
216.650139535
 30
0.0
  0
SPLINE
  5
388
100
AcDbEntity
  8
0
100
AcDbSpline
 62
7
  6
BYLAYER
 70
0
 71
3
 72
10
 73
6
 74
0
 42
0.0000001
 43
0.0000001
 44
0.0000000001
 40
0.0
 40
0.0
 40
0.0
 40
0.0
 40
0.2207111742
 40
0.4542184964
 40
1.0
 40
1.0
 40
1.0
 40
1.0
 10
111.3556302402
 20
216.6393355643
 30
0.0
 10
111.3555927665
 20
216.4769912583
 30
0.0
 10
111.3188789989
 20
216.1416234628
 30
0.0
 10
111.0794550103
 20
215.441454075
 30
0.0
 10
110.7346477426
 20
214.9651073591
 30
0.0
 10
110.4599653379
 20
214.6723416591
 30
0.0
  0
SPLINE
  5
389
100
AcDbEntity
  8
0
100
AcDbSpline
 62
7
  6
BYLAYER
 70
0
 71
3
 72
9
 73
5
 74
0
 42
0.0000001
 43
0.0000001
 44
0.0000000001
 40
0.0
 40
0.0
 40
0.0
 40
0.0
 40
0.2292444346
 40
1.0
 40
1.0
 40
1.0
 40
1.0
 10
110.4599653379
 20
214.6723416591
 30
0.0
 10
110.3668578643
 20
214.5731045977
 30
0.0
 10
109.9410724696
 20
214.1586700592
 30
0.0
 10
109.4484610996
 20
213.816480341
 30
0.0
 10
109.0522429054
 20
213.5877250254
 30
0.0
  0
SPLINE
  5
38A
100
AcDbEntity
  8
0
100
AcDbSpline
 62
7
  6
BYLAYER
 70
0
 71
3
 72
16
 73
12
 74
0
 42
0.0000001
 43
0.0000001
 44
0.0000000001
 40
0.0
 40
0.0
 40
0.0
 40
0.0
 40
0.042879056
 40
0.0875257941
 40
0.1869331954
 40
0.3042498362
 40
0.4379791091
 40
0.5823874059
 40
0.7296112401
 40
0.8712556243
 40
1.0
 40
1.0
 40
1.0
 40
1.0
 10
109.5554094734
 20
216.9414615975
 30
0.0
 10
109.555422182
 20
217.1321967937
 30
0.0
 10
109.5042904747
 20
217.5231698501
 30
0.0
 10
109.1948464205
 20
218.3027566958
 30
0.0
 10
108.4108016016
 20
219.2029678056
 30
0.0
 10
107.0651031392
 20
220.0196566988
 30
0.0
 10
105.3855222214
 20
220.5818130264
 30
0.0
 10
103.5025921014
 20
220.8459773441
 30
0.0
 10
101.5667566363
 20
220.7924870034
 30
0.0
 10
99.73663487
 20
220.4263412053
 30
0.0
 10
98.6137326259
 20
219.9630146073
 30
0.0
 10
98.117774316
 20
219.6766746528
 30
0.0
  0
SPLINE
  5
38B
100
AcDbEntity
  8
0
100
AcDbSpline
 62
7
  6
BYLAYER
 70
0
 71
3
 72
10
 73
6
 74
0
 42
0.0000001
 43
0.0000001
 44
0.0000000001
 40
0.0
 40
0.0
 40
0.0
 40
0.0
 40
0.2388691171
 40
0.4828642229
 40
1.0
 40
1.0
 40
1.0
 40
1.0
 10
92.5592693218
 20
216.8167301789
 30
0.0
 10
92.5725462713
 20
217.1359196452
 30
0.0
 10
92.6784535762
 20
217.7802921789
 30
0.0
 10
93.1895889319
 20
219.0255555903
 30
0.0
 10
93.8665549296
 20
219.8249486115
 30
0.0
 10
94.3844312309
 20
220.2833638226
 30
0.0
  0
SPLINE
  5
38C
100
AcDbEntity
  8
0
100
AcDbSpline
 62
7
  6
BYLAYER
 70
0
 71
3
 72
9
 73
5
 74
0
 42
0.0000001
 43
0.0000001
 44
0.0000000001
 40
0.0
 40
0.0
 40
0.0
 40
0.0
 40
0.2453728314
 40
1.0
 40
1.0
 40
1.0
 40
1.0
 10
94.8549653581
 20
220.6671544235
 30
0.0
 10
94.9257012669
 20
220.7204139754
 30
0.0
 10
95.2175192433
 20
220.9327480023
 30
0.0
 10
95.5227498878
 20
221.1264954024
 30
0.0
 10
95.7585800727
 20
221.2626512104
 30
0.0
  0
SPLINE
  5
38D
100
AcDbEntity
  8
0
100
AcDbSpline
 62
7
  6
BYLAYER
 70
0
 71
3
 72
9
 73
5
 74
0
 42
0.0000001
 43
0.0000001
 44
0.0000000001
 40
0.0
 40
0.0
 40
0.0
 40
0.0
 40
0.2388971874
 40
1.0
 40
1.0
 40
1.0
 40
1.0
 10
109.0522429054
 20
213.5877250254
 30
0.0
 10
108.9441215023
 20
213.5253014768
 30
0.0
 10
108.4853287361
 20
213.2748072302
 30
0.0
 10
108.0044708849
 20
213.0655640545
 30
0.0
 10
107.6316925192
 20
212.9268443002
 30
0.0
  0
SPLINE
  5
38E
100
AcDbEntity
  8
0
100
AcDbSpline
 62
7
  6
BYLAYER
 70
0
 71
3
 72
12
 73
8
 74
0
 42
0.0000001
 43
0.0000001
 44
0.0000000001
 40
0.0
 40
0.0
 40
0.0
 40
0.0
 40
0.2618123178
 40
0.5372837581
 40
0.7927956277
 40
0.903904958
 40
1.0
 40
1.0
 40
1.0
 40
1.0
 10
107.6316925192
 20
212.9268443002
 30
0.0
 10
106.5684509828
 20
212.5311866702
 30
0.0
 10
104.2585823871
 20
212.0496773058
 30
0.0
 10
100.8013063601
 20
212.1229014723
 30
0.0
 10
98.0689822971
 20
212.8255876366
 30
0.0
 10
96.2887065908
 20
213.7647330679
 30
0.0
 10
95.5802078251
 20
214.3300859914
 30
0.0
 10
95.2914585834
 20
214.6300995348
 30
0.0
  0
SPLINE
  5
38F
100
AcDbEntity
  8
0
100
AcDbSpline
 62
7
  6
BYLAYER
 70
0
 71
3
 72
10
 73
6
 74
0
 42
0.0000001
 43
0.0000001
 44
0.0000000001
 40
0.0
 40
0.0
 40
0.0
 40
0.0
 40
0.5465551049
 40
0.7797003659
 40
1.0
 40
1.0
 40
1.0
 40
1.0
 10
95.2914585834
 20
214.6300995348
 30
0.0
 10
95.0037423359
 20
214.9290397862
 30
0.0
 10
94.6398645676
 20
215.4164663252
 30
0.0
 10
94.3928563529
 20
216.1394599405
 30
0.0
 10
94.355150106
 20
216.484957236
 30
0.0
 10
94.3551887087
 20
216.6521926184
 30
0.0
  0
SPLINE
  5
390
100
AcDbEntity
  8
0
100
AcDbSpline
 62
7
  6
BYLAYER
 70
0
 71
3
 72
11
 73
7
 74
0
 42
0.0000001
 43
0.0000001
 44
0.0000000001
 40
0.0
 40
0.0
 40
0.0
 40
0.0
 40
0.2177789834
 40
0.4509229909
 40
0.7102587605
 40
1.0
 40
1.0
 40
1.0
 40
1.0
 10
114.9553368566
 20
217.3806162677
 30
0.0
 10
114.9554186195
 20
216.9197565613
 30
0.0
 10
114.7849929252
 20
215.9591315521
 30
0.0
 10
114.0568539316
 20
214.6207998173
 30
0.0
 10
112.9057430014
 20
213.4108005648
 30
0.0
 10
111.9424369675
 20
212.7474741954
 30
0.0
 10
111.4114371487
 20
212.4409031371
 30
0.0
  0
SPLINE
  5
391
100
AcDbEntity
  8
0
100
AcDbSpline
 62
7
  6
BYLAYER
 70
0
 71
3
 72
17
 73
13
 74
0
 42
0.0000001
 43
0.0000001
 44
0.0000000001
 40
0.0
 40
0.0
 40
0.0
 40
0.0
 40
0.0429751319
 40
0.088203147
 40
0.1368908005
 40
0.1897525673
 40
0.3084231262
 40
0.4425197699
 40
0.5863176411
 40
0.7322722349
 40
0.872459393
 40
1.0
 40
1.0
 40
1.0
 40
1.0
 10
117.1337010081
 20
217.8346607451
 30
0.0
 10
117.095597407
 20
218.2345847327
 30
0.0
 10
116.9119904874
 20
219.0482902989
 30
0.0
 10
116.344847443
 20
220.2061589878
 30
0.0
 10
115.4996886387
 20
221.2975089784
 30
0.0
 10
113.9720777715
 20
222.6897106354
 30
0.0
 10
111.4560178766
 20
224.1146136974
 30
0.0
 10
107.8976951335
 20
225.2240690069
 30
0.0
 10
103.9477874105
 20
225.7234408866
 30
0.0
 10
99.913195107
 20
225.5724759211
 30
0.0
 10
96.1089288717
 20
224.7855257559
 30
0.0
 10
93.7762695172
 20
223.814586459
 30
0.0
 10
92.7437404049
 20
223.2184590564
 30
0.0
  0
SPLINE
  5
392
100
AcDbEntity
  8
0
100
AcDbSpline
 62
7
  6
BYLAYER
 70
0
 71
3
 72
11
 73
7
 74
0
 42
0.0000001
 43
0.0000001
 44
0.0000000001
 40
0.0
 40
0.0
 40
0.0
 40
0.0
 40
0.2897052857
 40
0.5490919933
 40
0.7822182543
 40
1.0
 40
1.0
 40
1.0
 40
1.0
 10
32.8589898407
 20
151.4522001269
 30
0.0
 10
32.6308167879
 20
151.5839329202
 30
0.0
 10
32.2168532393
 20
151.8690539165
 30
0.0
 10
31.7221084619
 20
152.389001425
 30
0.0
 10
31.4091487528
 20
152.9641906522
 30
0.0
 10
31.335955686
 20
153.3770099341
 30
0.0
 10
31.3359557415
 20
153.575069727
 30
0.0
  0
SPLINE
  5
393
100
AcDbEntity
  8
0
100
AcDbSpline
 62
7
  6
BYLAYER
 70
0
 71
3
 72
11
 73
7
 74
0
 42
0.0000001
 43
0.0000001
 44
0.0000000001
 40
0.0
 40
0.0
 40
0.0
 40
0.0
 40
0.2372398078
 40
0.4999994051
 40
0.7627593222
 40
1.0
 40
1.0
 40
1.0
 40
1.0
 10
90.8419566855
 20
122.2221797799
 30
0.0
 10
90.3199334512
 20
121.9207913241
 30
0.0
 10
89.1059751404
 20
121.480994308
 30
0.0
 10
87.1650076507
 20
121.2702826112
 30
0.0
 10
85.2240369507
 20
121.4809852842
 30
0.0
 10
84.010073483
 20
121.9207763067
 30
0.0
 10
83.4880461612
 20
122.2221621033
 30
0.0
  0
SPLINE
  5
394
100
AcDbEntity
  8
0
100
AcDbSpline
 62
7
  6
BYLAYER
 70
0
 71
3
 72
11
 73
7
 74
0
 42
0.0000001
 43
0.0000001
 44
0.0000000001
 40
0.0
 40
0.0
 40
0.0
 40
0.0
 40
0.2372531816
 40
0.5000006935
 40
0.7627478297
 40
1.0
 40
1.0
 40
1.0
 40
1.0
 10
150.2033426609
 20
153.8815247906
 30
0.0
 10
149.8820792361
 20
154.0670021193
 30
0.0
 10
149.1350331151
 20
154.3377000395
 30
0.0
 10
147.940596748
 20
154.4671161687
 30
0.0
 10
146.7461625954
 20
154.3376943324
 30
0.0
 10
145.9991199794
 20
154.0669927675
 30
0.0
 10
145.6778592614
 20
153.8815139126
 30
0.0
  0
SPLINE
  5
395
100
AcDbEntity
  8
0
100
AcDbSpline
 62
7
  6
BYLAYER
 70
0
 71
3
 72
11
 73
7
 74
0
 42
0.0000001
 43
0.0000001
 44
0.0000000001
 40
0.0
 40
0.0
 40
0.0
 40
0.0
 40
0.2372398078
 40
0.4999994051
 40
0.7627593222
 40
1.0
 40
1.0
 40
1.0
 40
1.0
 10
170.5680674176
 20
147.0231005107
 30
0.0
 10
169.9657329165
 20
146.6753446002
 30
0.0
 10
168.5650117887
 20
146.1678865047
 30
0.0
 10
166.325433916
 20
145.9247576238
 30
0.0
 10
164.085852339
 20
146.1678760926
 30
0.0
 10
162.6851252609
 20
146.6753272725
 30
0.0
 10
162.0827860434
 20
147.0230801146
 30
0.0
  0
SPLINE
  5
396
100
AcDbEntity
  8
0
100
AcDbSpline
 62
7
  6
BYLAYER
 70
0
 71
3
 72
11
 73
7
 74
0
 42
0.0000001
 43
0.0000001
 44
0.0000000001
 40
0.0
 40
0.0
 40
0.0
 40
0.0
 40
0.2177727442
 40
0.4509315174
 40
0.7102280125
 40
1.0
 40
1.0
 40
1.0
 40
1.0
 10
117.8552986764
 20
205.7862819288
 30
0.0
 10
117.8553119646
 20
205.2149820141
 30
0.0
 10
117.6443231147
 20
204.024062135
 30
0.0
 10
116.7414829214
 20
202.3651108283
 30
0.0
 10
115.3146448476
 20
200.8649697848
 30
0.0
 10
114.1203924285
 20
200.0427594455
 30
0.0
 10
113.4620553517
 20
199.6626706257
 30
0.0
  0
SPLINE
  5
397
100
AcDbEntity
  8
0
100
AcDbSpline
 62
7
  6
BYLAYER
 70
0
 71
3
 72
11
 73
7
 74
0
 42
0.0000001
 43
0.0000001
 44
0.0000000001
 40
0.0
 40
0.0
 40
0.0
 40
0.0
 40
0.2574982908
 40
0.5071913843
 40
0.753818833
 40
1.0
 40
1.0
 40
1.0
 40
1.0
 10
39.333288968
 20
259.4038573349
 30
0.0
 10
38.6415953606
 20
259.0045102282
 30
0.0
 10
37.3451354307
 20
258.0919448004
 30
0.0
 10
35.7629026156
 20
256.3391059933
 30
0.0
 10
34.7141631125
 20
254.2541148857
 30
0.0
 10
34.465988662
 20
252.7152692262
 30
0.0
 10
34.465988662
 20
251.9516744342
 30
0.0
  0
SPLINE
  5
398
100
AcDbEntity
  8
0
100
AcDbSpline
 62
7
  6
BYLAYER
 70
0
 71
3
 72
15
 73
11
 74
0
 42
0.0000001
 43
0.0000001
 44
0.0000000001
 40
0.0
 40
0.0
 40
0.0
 40
0.0
 40
0.1288244605
 40
0.2705976782
 40
0.4178986235
 40
0.5623949216
 40
0.69620836
 40
0.8136001012
 40
0.9130679301
 40
1.0
 40
1.0
 40
1.0
 40
1.0
 10
166.3961318151
 20
164.1696246091
 30
0.0
 10
166.1666687826
 20
164.0371448563
 30
0.0
 10
165.6470429285
 20
163.8228020467
 30
0.0
 10
164.8002732591
 20
163.6533014492
 30
0.0
 10
163.9045679924
 20
163.6286267692
 30
0.0
 10
163.0334439987
 20
163.7509446178
 30
0.0
 10
162.2563210066
 20
164.010609378
 30
0.0
 10
161.6338552976
 20
164.3899090019
 30
0.0
 10
161.2121003259
 20
164.8694661015
 30
0.0
 10
161.1042340204
 20
165.2563729745
 30
0.0
 10
161.1042271165
 20
165.4351711722
 30
0.0
  0
SPLINE
  5
399
100
AcDbEntity
  8
0
100
AcDbSpline
 62
7
  6
BYLAYER
 70
0
 71
3
 72
9
 73
5
 74
0
 42
0.0000001
 43
0.0000001
 44
0.0000000001
 40
0.0
 40
0.0
 40
0.0
 40
0.0
 40
0.4748853909
 40
1.0
 40
1.0
 40
1.0
 40
1.0
 10
176.2602533071
 20
166.6803394128
 30
0.0
 10
176.2602533071
 20
168.079573236
 30
0.0
 10
176.7171118126
 20
171.0281705416
 30
0.0
 10
177.7928365999
 20
173.793270953
 30
0.0
 10
178.4876303944
 20
175.1757289335
 30
0.0
  0
SPLINE
  5
39A
100
AcDbEntity
  8
0
100
AcDbSpline
 62
7
  6
BYLAYER
 70
0
 71
3
 72
14
 73
10
 74
0
 42
0.0000001
 43
0.0000001
 44
0.0000000001
 40
0.0
 40
0.0
 40
0.0
 40
0.0
 40
0.1148135861
 40
0.2299399546
 40
0.3468347367
 40
0.4679881101
 40
0.5950286042
 40
0.7276980587
 40
1.0
 40
1.0
 40
1.0
 40
1.0
 10
34.465988662
 20
251.9516744342
 30
0.0
 10
34.465988662
 20
251.1439429687
 30
0.0
 10
34.7448545716
 20
249.514250035
 30
0.0
 10
35.9140559597
 20
247.3321135467
 30
0.0
 10
37.6637171865
 20
245.5303413274
 30
0.0
 10
39.8379301774
 20
244.1302494772
 30
0.0
 10
42.3329933341
 20
243.1166359513
 30
0.0
 10
45.9883911735
 20
242.2685845672
 30
0.0
 10
48.8855025074
 20
242.2202690693
 30
0.0
 10
50.7873826712
 20
242.4498489393
 30
0.0
  0
SPLINE
  5
39B
100
AcDbEntity
  8
0
100
AcDbSpline
 62
7
  6
BYLAYER
 70
0
 71
3
 72
17
 73
13
 74
0
 42
0.0000001
 43
0.0000001
 44
0.0000000001
 40
0.0
 40
0.0
 40
0.0
 40
0.0
 40
0.0570988292
 40
0.1140176967
 40
0.1712213376
 40
0.228893058
 40
0.3476665757
 40
0.4739173662
 40
0.6069009282
 40
0.7423305521
 40
0.8746655012
 40
1.0
 40
1.0
 40
1.0
 40
1.0
 10
62.115988662
 20
251.9516744342
 30
0.0
 10
62.115988662
 20
252.4833011353
 30
0.0
 10
61.9983033315
 20
253.5486855682
 30
0.0
 10
61.4806133106
 20
255.0682123746
 30
0.0
 10
60.6690479811
 20
256.4583382554
 30
0.0
 10
59.2391011162
 20
258.1113728001
 30
0.0
 10
56.9006871515
 20
259.7593620061
 30
0.0
 10
53.5909343259
 20
261.0304113879
 30
0.0
 10
49.9472409634
 20
261.6501663387
 30
0.0
 10
46.1963321736
 20
261.6106553241
 30
0.0
 10
42.5828363285
 20
260.9165921864
 30
0.0
 10
40.3438940791
 20
259.987326985
 30
0.0
 10
39.333288968
 20
259.4038573349
 30
0.0
  0
SPLINE
  5
39C
100
AcDbEntity
  8
0
100
AcDbSpline
 62
7
  6
BYLAYER
 70
0
 71
3
 72
14
 73
10
 74
0
 42
0.0000001
 43
0.0000001
 44
0.0000000001
 40
0.0
 40
0.0
 40
0.0
 40
0.0
 40
0.0878171322
 40
0.2032555272
 40
0.3368213815
 40
0.4802181285
 40
0.7659794883
 40
0.8937753866
 40
1.0
 40
1.0
 40
1.0
 40
1.0
 10
53.7643944538
 20
252.2555153119
 30
0.0
 10
53.5100514795
 20
252.4492503946
 30
0.0
 10
52.8645329816
 20
252.8223362311
 30
0.0
 10
51.7145933847
 20
253.2589749087
 30
0.0
 10
50.3165392312
 20
253.575674435
 30
0.0
 10
48.2743052909
 20
253.7741956638
 30
0.0
 10
46.2270995211
 20
253.616418411
 30
0.0
 10
44.4005972423
 20
253.1053305959
 30
0.0
 10
43.6182003517
 20
252.7556166683
 30
0.0
 10
43.2832712843
 20
252.5622464353
 30
0.0
  0
SPLINE
  5
39D
100
AcDbEntity
  8
0
100
AcDbSpline
 62
7
  6
BYLAYER
 70
0
 71
3
 72
9
 73
5
 74
0
 42
0.0000001
 43
0.0000001
 44
0.0000000001
 40
0.0
 40
0.0
 40
0.0
 40
0.0
 40
0.6079671793
 40
1.0
 40
1.0
 40
1.0
 40
1.0
 10
43.2832712843
 20
252.5622464353
 30
0.0
 10
43.0966918967
 20
252.4545254186
 30
0.0
 10
42.7990305178
 20
252.2596917346
 30
0.0
 10
42.5356793154
 20
252.0194284947
 30
0.0
 10
42.4444309982
 20
251.91467454
 30
0.0
  0
SPLINE
  5
39E
100
AcDbEntity
  8
0
100
AcDbSpline
 62
7
  6
BYLAYER
 70
0
 71
3
 72
25
 73
21
 74
0
 42
0.0000001
 43
0.0000001
 44
0.0000000001
 40
0.0
 40
0.0
 40
0.0
 40
0.0
 40
0.000566207
 40
0.0022620938
 40
0.0065153963
 40
0.0136739094
 40
0.0240954449
 40
0.0378245856
 40
0.054718009
 40
0.0746610003
 40
0.1231486808
 40
0.1817497433
 40
0.2488255589
 40
0.3227704809
 40
0.4020958433
 40
0.485434723
 40
0.5714958063
 40
0.6590548668
 40
0.833768279
 40
1.0
 40
1.0
 40
1.0
 40
1.0
 10
42.3380095462
 20
252.1323445498
 30
0.0
 10
42.3374060924
 20
252.1340256961
 30
0.0
 10
42.3332599626
 20
252.143330876
 30
0.0
 10
42.3508711802
 20
252.1065616165
 30
0.0
 10
42.3669352047
 20
252.0867786665
 30
0.0
 10
42.4122592856
 20
252.0233342121
 30
0.0
 10
42.4755094393
 20
251.9527568974
 30
0.0
 10
42.566982591
 20
251.8587601048
 30
0.0
 10
42.6850930746
 20
251.7522507702
 30
0.0
 10
42.8953911803
 20
251.5836022836
 30
0.0
 10
43.2306369367
 20
251.3627279234
 30
0.0
 10
43.7166307982
 20
251.1048289515
 30
0.0
 10
44.2977225929
 20
250.8601826592
 30
0.0
 10
44.9582377535
 20
250.6415002114
 30
0.0
 10
45.6829048233
 20
250.4599765254
 30
0.0
 10
46.4558825198
 20
250.3218804668
 30
0.0
 10
47.2621054131
 20
250.2321571208
 30
0.0
 10
48.3603805665
 20
250.1804555335
 30
0.0
 10
49.7142868904
 20
250.2438258043
 30
0.0
 10
50.7773939265
 20
250.4304885821
 30
0.0
 10
51.2857411251
 20
250.5592421141
 30
0.0
  0
SPLINE
  5
39F
100
AcDbEntity
  8
0
100
AcDbSpline
 62
7
  6
BYLAYER
 70
0
 71
3
 72
17
 73
13
 74
0
 42
0.0000001
 43
0.0000001
 44
0.0000000001
 40
0.0
 40
0.0
 40
0.0
 40
0.0
 40
0.1286925008
 40
0.2702767168
 40
0.4174328896
 40
0.5617777402
 40
0.6954481996
 40
0.8127106303
 40
0.8646767575
 40
0.9125094166
 40
0.9571395785
 40
1.0
 40
1.0
 40
1.0
 40
1.0
 10
36.1824367549
 20
167.741565279
 30
0.0
 10
36.1824367549
 20
166.7756673391
 30
0.0
 10
36.4526245897
 20
164.7447904917
 30
0.0
 10
37.461246319
 20
161.7629168024
 30
0.0
 10
39.0152681339
 20
158.8903766843
 30
0.0
 10
40.9899547956
 20
156.3627553883
 30
0.0
 10
43.2239139293
 20
154.3841937849
 30
0.0
 10
45.2459961505
 20
153.2787803941
 30
0.0
 10
46.8276726516
 20
152.85773499
 30
0.0
 10
47.9163072156
 20
152.7779153058
 30
0.0
 10
48.9300380134
 20
152.926239148
 30
0.0
 10
49.5440988873
 20
153.1816079413
 30
0.0
 10
49.8227175163
 20
153.3424016826
 30
0.0
  0
SPLINE
  5
3A0
100
AcDbEntity
  8
0
100
AcDbSpline
 62
7
  6
BYLAYER
 70
0
 71
3
 72
11
 73
7
 74
0
 42
0.0000001
 43
0.0000001
 44
0.0000000001
 40
0.0
 40
0.0
 40
0.0
 40
0.0
 40
0.2897016594
 40
0.5490895814
 40
0.7822189142
 40
1.0
 40
1.0
 40
1.0
 40
1.0
 10
50.0417873678
 20
159.7400464904
 30
0.0
 10
50.0417873678
 20
159.319502373
 30
0.0
 10
49.9780271421
 20
158.5197124865
 30
0.0
 10
49.6541387773
 20
157.4208349933
 30
0.0
 10
49.1087786063
 20
156.5291588236
 30
0.0
 10
48.5965184586
 20
156.0985381167
 30
0.0
 10
48.322743911
 20
155.9404476673
 30
0.0
  0
SPLINE
  5
3A1
100
AcDbEntity
  8
0
100
AcDbSpline
 62
7
  6
BYLAYER
 70
0
 71
3
 72
9
 73
5
 74
0
 42
0.0000001
 43
0.0000001
 44
0.0000000001
 40
0.0
 40
0.0
 40
0.0
 40
0.0
 40
0.4893406638
 40
1.0
 40
1.0
 40
1.0
 40
1.0
 10
59.8865120222
 20
239.116976419
 30
0.0
 10
60.0920730491
 20
240.4606608896
 30
0.0
 10
60.9779608768
 20
243.1387277765
 30
0.0
 10
62.49507314
 20
245.5050717788
 30
0.0
 10
63.4170283893
 20
246.583147304
 30
0.0
  0
SPLINE
  5
3A2
100
AcDbEntity
  8
0
100
AcDbSpline
 62
7
  6
BYLAYER
 70
0
 71
3
 72
9
 73
5
 74
0
 42
0.0000001
 43
0.0000001
 44
0.0000000001
 40
0.0
 40
0.0
 40
0.0
 40
0.0
 40
0.2626163761
 40
1.0
 40
1.0
 40
1.0
 40
1.0
 10
63.4170283893
 20
246.583147304
 30
0.0
 10
63.6187204504
 20
246.8189931054
 30
0.0
 10
64.4142579979
 20
247.692452397
 30
0.0
 10
65.3232477464
 20
248.4679187156
 30
0.0
 10
66.0533706679
 20
248.9434890462
 30
0.0
  0
SPLINE
  5
3A3
100
AcDbEntity
  8
0
100
AcDbSpline
 62
7
  6
BYLAYER
 70
0
 71
3
 72
9
 73
5
 74
0
 42
0.0000001
 43
0.0000001
 44
0.0000000001
 40
0.0
 40
0.0
 40
0.0
 40
0.0
 40
0.2520947935
 40
1.0
 40
1.0
 40
1.0
 40
1.0
 10
65.0226827842
 20
220.890232428
 30
0.0
 10
64.8215129094
 20
220.9306161286
 30
0.0
 10
64.0300547316
 20
221.1215547209
 30
0.0
 10
63.2691415911
 20
221.4408544803
 30
0.0
 10
62.7419631387
 20
221.7452142161
 30
0.0
  0
SPLINE
  5
3A4
100
AcDbEntity
  8
0
100
AcDbSpline
 62
7
  6
BYLAYER
 70
0
 71
3
 72
13
 73
9
 74
0
 42
0.0000001
 43
0.0000001
 44
0.0000000001
 40
0.0
 40
0.0
 40
0.0
 40
0.0
 40
0.1048357364
 40
0.212063825
 40
0.3243732249
 40
0.4436288592
 40
0.7064276843
 40
1.0
 40
1.0
 40
1.0
 40
1.0
 10
62.7419631387
 20
221.7452142161
 30
0.0
 10
62.1783357409
 20
222.0706172844
 30
0.0
 10
61.1224912775
 20
222.8874297483
 30
0.0
 10
59.8871361317
 20
224.5016408578
 30
0.0
 10
59.0107362626
 20
226.4309347999
 30
0.0
 10
58.3010703407
 20
229.4326024706
 30
0.0
 10
58.3608345978
 20
233.6859381563
 30
0.0
 10
59.2102463561
 20
237.0604305583
 30
0.0
 10
59.815969335
 20
238.7793149025
 30
0.0
  0
SPLINE
  5
3A5
100
AcDbEntity
  8
0
100
AcDbSpline
 62
7
  6
BYLAYER
 70
0
 71
3
 72
9
 73
5
 74
0
 42
0.0000001
 43
0.0000001
 44
0.0000000001
 40
0.0
 40
0.0
 40
0.0
 40
0.0
 40
0.502051387
 40
1.0
 40
1.0
 40
1.0
 40
1.0
 10
59.8601598136
 20
238.9038056378
 30
0.0
 10
60.5623166558
 20
240.8676176549
 30
0.0
 10
62.3790067028
 20
244.6376705773
 30
0.0
 10
64.8889275814
 20
247.9883955091
 30
0.0
 10
66.3035490095
 20
249.497577015
 30
0.0
  0
SPLINE
  5
3A6
100
AcDbEntity
  8
0
100
AcDbSpline
 62
7
  6
BYLAYER
 70
0
 71
3
 72
9
 73
5
 74
0
 42
0.0000001
 43
0.0000001
 44
0.0000000001
 40
0.0
 40
0.0
 40
0.0
 40
0.0
 40
0.2622226398
 40
1.0
 40
1.0
 40
1.0
 40
1.0
 10
66.3035490095
 20
249.497577015
 30
0.0
 10
66.7010361415
 20
249.9216340923
 30
0.0
 10
68.2669669497
 20
251.4896200971
 30
0.0
 10
70.0427628834
 20
252.8595083926
 30
0.0
 10
71.4589784728
 20
253.6771559637
 30
0.0
  0
SPLINE
  5
3A7
100
AcDbEntity
  8
0
100
AcDbSpline
 62
7
  6
BYLAYER
 70
0
 71
3
 72
11
 73
7
 74
0
 42
0.0000001
 43
0.0000001
 44
0.0000000001
 40
0.0
 40
0.0
 40
0.0
 40
0.0
 40
0.2771205156
 40
0.5322065412
 40
0.7705055928
 40
1.0
 40
1.0
 40
1.0
 40
1.0
 10
71.4589784728
 20
253.6771559637
 30
0.0
 10
72.3160233382
 20
254.1719680938
 30
0.0
 10
74.0457137387
 20
254.9903923566
 30
0.0
 10
76.748708775
 20
255.6258801036
 30
0.0
 10
79.3640356213
 20
255.5396441508
 30
0.0
 10
80.9662315478
 20
254.950415893
 30
0.0
 10
81.6759870915
 20
254.540647609
 30
0.0
  0
SPLINE
  5
3A8
100
AcDbEntity
  8
0
100
AcDbSpline
 62
7
  6
BYLAYER
 70
0
 71
3
 72
9
 73
5
 74
0
 42
0.0000001
 43
0.0000001
 44
0.0000000001
 40
0.0
 40
0.0
 40
0.0
 40
0.0
 40
0.4970976674
 40
1.0
 40
1.0
 40
1.0
 40
1.0
 10
81.6759870915
 20
254.540647609
 30
0.0
 10
82.1080938693
 20
254.2911762883
 30
0.0
 10
82.9275888493
 20
253.6979523103
 30
0.0
 10
83.6116442204
 20
252.953912091
 30
0.0
 10
83.9177398181
 20
252.552532316
 30
0.0
  0
SPLINE
  5
3A9
100
AcDbEntity
  8
0
100
AcDbSpline
 62
7
  6
BYLAYER
 70
0
 71
3
 72
9
 73
5
 74
0
 42
0.0000001
 43
0.0000001
 44
0.0000000001
 40
0.0
 40
0.0
 40
0.0
 40
0.0
 40
0.2509621468
 40
1.0
 40
1.0
 40
1.0
 40
1.0
 10
68.9653206156
 20
218.4179340402
 30
0.0
 10
68.8168065911
 20
218.4598660613
 30
0.0
 10
68.2301977184
 20
218.6446931439
 30
0.0
 10
67.6663536635
 20
218.902180339
 30
0.0
 10
67.2674653797
 20
219.1324733872
 30
0.0
  0
SPLINE
  5
3AA
100
AcDbEntity
  8
0
100
AcDbSpline
 62
7
  6
BYLAYER
 70
0
 71
3
 72
9
 73
5
 74
0
 42
0.0000001
 43
0.0000001
 44
0.0000000001
 40
0.0
 40
0.0
 40
0.0
 40
0.0
 40
0.5202670778
 40
1.0
 40
1.0
 40
1.0
 40
1.0
 10
69.0096398843
 20
244.7410043412
 30
0.0
 10
70.0100639407
 20
246.040892512
 30
0.0
 10
72.1375234309
 20
248.3900407365
 30
0.0
 10
74.6746185383
 20
250.3081703693
 30
0.0
 10
75.9844807137
 20
251.0644151348
 30
0.0
  0
SPLINE
  5
3AB
100
AcDbEntity
  8
0
100
AcDbSpline
 62
7
  6
BYLAYER
 70
0
 71
3
 72
14
 73
10
 74
0
 42
0.0000001
 43
0.0000001
 44
0.0000000001
 40
0.0
 40
0.0
 40
0.0
 40
0.0
 40
0.103293084
 40
0.2093281324
 40
0.3209895137
 40
0.4403065402
 40
0.5684290518
 40
0.7053230234
 40
1.0
 40
1.0
 40
1.0
 40
1.0
 10
67.2674653797
 20
219.1324733872
 30
0.0
 10
66.6659337429
 20
219.4797599829
 30
0.0
 10
65.5431012388
 20
220.3652508547
 30
0.0
 10
64.261961467
 20
222.1304912775
 30
0.0
 10
63.3926941733
 20
224.243056677
 30
0.0
 10
62.9319930064
 20
226.6265979223
 30
0.0
 10
62.8622137022
 20
229.2200977879
 30
0.0
 10
63.2840350479
 20
232.9684865186
 30
0.0
 10
64.1370074416
 20
235.7754451781
 30
0.0
 10
64.8922656667
 20
237.6073951326
 30
0.0
  0
SPLINE
  5
3AC
100
AcDbEntity
  8
0
100
AcDbSpline
 62
7
  6
BYLAYER
 70
0
 71
3
 72
9
 73
5
 74
0
 42
0.0000001
 43
0.0000001
 44
0.0000000001
 40
0.0
 40
0.0
 40
0.0
 40
0.0
 40
0.239765706
 40
1.0
 40
1.0
 40
1.0
 40
1.0
 10
190.6029983736
 20
184.3275395755
 30
0.0
 10
190.3052982284
 20
184.1423890871
 30
0.0
 10
189.0855324227
 20
183.3352059498
 30
0.0
 10
187.9530524935
 20
182.3990533241
 30
0.0
 10
187.143580248
 20
181.637212845
 30
0.0
  0
SPLINE
  5
3AD
100
AcDbEntity
  8
0
100
AcDbSpline
 62
7
  6
BYLAYER
 70
0
 71
3
 72
9
 73
5
 74
0
 42
0.0000001
 43
0.0000001
 44
0.0000000001
 40
0.0
 40
0.0
 40
0.0
 40
0.0
 40
0.2441518049
 40
1.0
 40
1.0
 40
1.0
 40
1.0
 10
187.143580248
 20
181.637212845
 30
0.0
 10
186.8721409646
 20
181.3817458603
 30
0.0
 10
185.7831964242
 20
180.3113022294
 30
0.0
 10
184.7846412012
 20
179.1498333393
 30
0.0
 10
184.0822071066
 20
178.2342895448
 30
0.0
  0
SPLINE
  5
3AE
100
AcDbEntity
  8
0
100
AcDbSpline
 62
7
  6
BYLAYER
 70
0
 71
3
 72
9
 73
5
 74
0
 42
0.0000001
 43
0.0000001
 44
0.0000000001
 40
0.0
 40
0.0
 40
0.0
 40
0.0
 40
0.5086214198
 40
1.0
 40
1.0
 40
1.0
 40
1.0
 10
182.4489635996
 20
175.8916427861
 30
0.0
 10
181.5708392432
 20
174.5031491029
 30
0.0
 10
180.049136973
 20
171.6385519922
 30
0.0
 10
178.9839534767
 20
168.5716538566
 30
0.0
 10
178.5993347958
 20
167.0317876081
 30
0.0
  0
SPLINE
  5
3AF
100
AcDbEntity
  8
0
100
AcDbSpline
 62
7
  6
BYLAYER
 70
0
 71
3
 72
9
 73
5
 74
0
 42
0.0000001
 43
0.0000001
 44
0.0000000001
 40
0.0
 40
0.0
 40
0.0
 40
0.0
 40
0.5365547164
 40
1.0
 40
1.0
 40
1.0
 40
1.0
 10
178.5993347958
 20
167.0317876081
 30
0.0
 10
178.1983111795
 20
165.4262422661
 30
0.0
 10
177.7239768694
 20
162.3551281077
 30
0.0
 10
178.0217180804
 20
159.2299853632
 30
0.0
 10
178.4196166297
 20
157.8571012921
 30
0.0
  0
SPLINE
  5
3B0
100
AcDbEntity
  8
0
100
AcDbSpline
 62
7
  6
BYLAYER
 70
0
 71
3
 72
11
 73
7
 74
0
 42
0.0000001
 43
0.0000001
 44
0.0000000001
 40
0.0
 40
0.0
 40
0.0
 40
0.0
 40
0.2771205156
 40
0.5322065412
 40
0.7705055928
 40
1.0
 40
1.0
 40
1.0
 40
1.0
 10
75.9844807137
 20
251.0644151348
 30
0.0
 10
76.8415255791
 20
251.5592272649
 30
0.0
 10
78.5712159797
 20
252.3776515276
 30
0.0
 10
81.2742110159
 20
253.0131392747
 30
0.0
 10
83.8895378622
 20
252.9269033218
 30
0.0
 10
85.4917337887
 20
252.3376750641
 30
0.0
 10
86.2014893324
 20
251.9279067801
 30
0.0
  0
SPLINE
  5
3B1
100
AcDbEntity
  8
0
100
AcDbSpline
 62
7
  6
BYLAYER
 70
0
 71
3
 72
9
 73
5
 74
0
 42
0.0000001
 43
0.0000001
 44
0.0000000001
 40
0.0
 40
0.0
 40
0.0
 40
0.0
 40
0.748953992
 40
1.0
 40
1.0
 40
1.0
 40
1.0
 10
86.2014893324
 20
251.9279067801
 30
0.0
 10
86.6169177134
 20
251.6880645185
 30
0.0
 10
87.1416551339
 20
251.3111826565
 30
0.0
 10
87.6100351343
 20
250.8741321411
 30
0.0
 10
87.7241212817
 20
250.760827069
 30
0.0
  0
SPLINE
  5
3B2
100
AcDbEntity
  8
0
100
AcDbSpline
 62
7
  6
BYLAYER
 70
0
 71
3
 72
9
 73
5
 74
0
 42
0.0000001
 43
0.0000001
 44
0.0000000001
 40
0.0
 40
0.0
 40
0.0
 40
0.0
 40
0.259838872
 40
1.0
 40
1.0
 40
1.0
 40
1.0
 10
217.7292229062
 20
161.9960797868
 30
0.0
 10
217.7262348291
 20
162.1141741849
 30
0.0
 10
217.7053844239
 20
162.5683217934
 30
0.0
 10
217.6455385271
 20
163.0211289757
 30
0.0
 10
217.5750665838
 20
163.3501711429
 30
0.0
  0
SPLINE
  5
3B3
100
AcDbEntity
  8
0
100
AcDbSpline
 62
7
  6
BYLAYER
 70
0
 71
3
 72
9
 73
5
 74
0
 42
0.0000001
 43
0.0000001
 44
0.0000000001
 40
0.0
 40
0.0
 40
0.0
 40
0.0
 40
0.2634776076
 40
1.0
 40
1.0
 40
1.0
 40
1.0
 10
217.5750665838
 20
163.3501711429
 30
0.0
 10
217.5463735866
 20
163.4841422746
 30
0.0
 10
217.421113836
 20
163.9887305252
 30
0.0
 10
217.2253204663
 20
164.477652133
 30
0.0
 10
217.0358922876
 20
164.8105209008
 30
0.0
  0
SPLINE
  5
3B4
100
AcDbEntity
  8
0
100
AcDbSpline
 62
7
  6
BYLAYER
 70
0
 71
3
 72
9
 73
5
 74
0
 42
0.0000001
 43
0.0000001
 44
0.0000000001
 40
0.0
 40
0.0
 40
0.0
 40
0.0
 40
0.5118963406
 40
1.0
 40
1.0
 40
1.0
 40
1.0
 10
217.0358922876
 20
164.8105209008
 30
0.0
 10
216.849627737
 20
165.137830448
 30
0.0
 10
216.3951839249
 20
165.7332693786
 30
0.0
 10
215.7657971014
 20
166.145418924
 30
0.0
 10
215.4361548323
 20
166.2878421917
 30
0.0
  0
SPLINE
  5
3B5
100
AcDbEntity
  8
0
100
AcDbSpline
 62
7
  6
BYLAYER
 70
0
 71
3
 72
9
 73
5
 74
0
 42
0.0000001
 43
0.0000001
 44
0.0000000001
 40
0.0
 40
0.0
 40
0.0
 40
0.0
 40
0.2551979434
 40
1.0
 40
1.0
 40
1.0
 40
1.0
 10
217.3894781364
 20
162.6998376508
 30
0.0
 10
217.3735903848
 20
162.7409395782
 30
0.0
 10
217.3088138322
 20
162.9010069202
 30
0.0
 10
217.2337522468
 20
163.0569609072
 30
0.0
 10
217.1718333954
 20
163.1696810261
 30
0.0
  0
SPLINE
  5
3B6
100
AcDbEntity
  8
0
100
AcDbSpline
 62
7
  6
BYLAYER
 70
0
 71
3
 72
9
 73
5
 74
0
 42
0.0000001
 43
0.0000001
 44
0.0000000001
 40
0.0
 40
0.0
 40
0.0
 40
0.0
 40
0.2576568779
 40
1.0
 40
1.0
 40
1.0
 40
1.0
 10
216.9709452367
 20
163.4919676463
 30
0.0
 10
216.9102303945
 20
163.5779904631
 30
0.0
 10
216.6585914439
 20
163.9001336576
 30
0.0
 10
216.3379025069
 20
164.169432494
 30
0.0
 10
216.0751972348
 20
164.321128476
 30
0.0
  0
SPLINE
  5
3B7
100
AcDbEntity
  8
0
100
AcDbSpline
 62
7
  6
BYLAYER
 70
0
 71
3
 72
10
 73
6
 74
0
 42
0.0000001
 43
0.0000001
 44
0.0000000001
 40
0.0
 40
0.0
 40
0.0
 40
0.0
 40
0.297778321
 40
0.6875960108
 40
1.0
 40
1.0
 40
1.0
 40
1.0
 10
210.0227191756
 20
150.2065901469
 30
0.0
 10
209.7252003236
 20
150.5561987188
 30
0.0
 10
209.0486098779
 20
151.3722569112
 30
0.0
 10
208.1268019287
 20
152.6106805291
 30
0.0
 10
207.5827539374
 20
153.5501670946
 30
0.0
 10
207.3691163357
 20
153.9818066894
 30
0.0
  0
SPLINE
  5
3B8
100
AcDbEntity
  8
0
100
AcDbSpline
 62
7
  6
BYLAYER
 70
0
 71
3
 72
10
 73
6
 74
0
 42
0.0000001
 43
0.0000001
 44
0.0000000001
 40
0.0
 40
0.0
 40
0.0
 40
0.0
 40
0.2297434146
 40
0.4728285273
 40
1.0
 40
1.0
 40
1.0
 40
1.0
 10
210.0227191756
 20
160.8211215696
 30
0.0
 10
210.3770566781
 20
161.1325693286
 30
0.0
 10
211.1332830822
 20
161.7441106271
 30
0.0
 10
212.8594061633
 20
162.8635331448
 30
0.0
 10
214.3177655201
 20
163.501375689
 30
0.0
 10
215.3299248555
 20
163.8852199073
 30
0.0
  0
SPLINE
  5
3B9
100
AcDbEntity
  8
0
100
AcDbSpline
 62
7
  6
BYLAYER
 70
0
 71
3
 72
10
 73
6
 74
0
 42
0.0000001
 43
0.0000001
 44
0.0000000001
 40
0.0
 40
0.0
 40
0.0
 40
0.0
 40
0.5067833638
 40
0.7554507228
 40
1.0
 40
1.0
 40
1.0
 40
1.0
 10
207.3691163357
 20
153.9818066894
 30
0.0
 10
207.6226390624
 20
155.2007732723
 30
0.0
 10
208.1127097036
 20
157.0032983524
 30
0.0
 10
209.1182476628
 20
159.2490009245
 30
0.0
 10
209.7117873097
 20
160.3070355849
 30
0.0
 10
210.0227191756
 20
160.8211215696
 30
0.0
  0
SPLINE
  5
3BA
100
AcDbEntity
  8
0
100
AcDbSpline
 62
7
  6
BYLAYER
 70
0
 71
3
 72
9
 73
5
 74
0
 42
0.0000001
 43
0.0000001
 44
0.0000000001
 40
0.0
 40
0.0
 40
0.0
 40
0.0
 40
0.2352058167
 40
1.0
 40
1.0
 40
1.0
 40
1.0
 10
218.1962556119
 20
161.3309925828
 30
0.0
 10
218.0959105792
 20
161.4664603518
 30
0.0
 10
217.6621670097
 20
162.0371498117
 30
0.0
 10
217.2054743802
 20
162.5900389732
 30
0.0
 10
216.8502107646
 20
163.0075022851
 30
0.0
  0
SPLINE
  5
3BB
100
AcDbEntity
  8
0
100
AcDbSpline
 62
7
  6
BYLAYER
 70
0
 71
3
 72
9
 73
5
 74
0
 42
0.0000001
 43
0.0000001
 44
0.0000000001
 40
0.0
 40
0.0
 40
0.0
 40
0.0
 40
0.2520870623
 40
1.0
 40
1.0
 40
1.0
 40
1.0
 10
211.5430050847
 20
149.3288725247
 30
0.0
 10
211.6329467504
 20
149.3629813722
 30
0.0
 10
211.9891181048
 20
149.4998991729
 30
0.0
 10
212.342641821
 20
149.6437735695
 30
0.0
 10
212.604927789
 20
149.756263223
 30
0.0
  0
SPLINE
  5
3BC
100
AcDbEntity
  8
0
100
AcDbSpline
 62
7
  6
BYLAYER
 70
0
 71
3
 72
9
 73
5
 74
0
 42
0.0000001
 43
0.0000001
 44
0.0000000001
 40
0.0
 40
0.0
 40
0.0
 40
0.0
 40
0.5202670778
 40
1.0
 40
1.0
 40
1.0
 40
1.0
 10
73.5351421252
 20
242.1282635122
 30
0.0
 10
74.5355661816
 20
243.4281516831
 30
0.0
 10
76.6630256718
 20
245.7772999076
 30
0.0
 10
79.2001207792
 20
247.6954295404
 30
0.0
 10
80.5099829546
 20
248.4516743058
 30
0.0
  0
SPLINE
  5
3BD
100
AcDbEntity
  8
0
100
AcDbSpline
 62
7
  6
BYLAYER
 70
0
 71
3
 72
13
 73
9
 74
0
 42
0.0000001
 43
0.0000001
 44
0.0000000001
 40
0.0
 40
0.0
 40
0.0
 40
0.0
 40
0.104256656
 40
0.213465015
 40
0.3288215122
 40
0.4509372966
 40
0.714751929
 40
1.0
 40
1.0
 40
1.0
 40
1.0
 10
69.3285439914
 20
218.8139090632
 30
0.0
 10
68.9957948427
 20
219.2933944806
 30
0.0
 10
68.4137044545
 20
220.3468204419
 30
0.0
 10
67.8200917581
 20
222.0974063911
 30
0.0
 10
67.4821690806
 20
224.0152540277
 30
0.0
 10
67.3615823557
 20
226.825471816
 30
0.0
 10
67.8583955929
 20
230.5788217043
 30
0.0
 10
68.8091364701
 20
233.5183614315
 30
0.0
 10
69.4177679076
 20
234.9946543036
 30
0.0
  0
SPLINE
  5
3BE
100
AcDbEntity
  8
0
100
AcDbSpline
 62
7
  6
BYLAYER
 70
0
 71
3
 72
9
 73
5
 74
0
 42
0.0000001
 43
0.0000001
 44
0.0000000001
 40
0.0
 40
0.0
 40
0.0
 40
0.0
 40
0.5238723128
 40
1.0
 40
1.0
 40
1.0
 40
1.0
 10
80.5099829546
 20
248.4516743058
 30
0.0
 10
81.5073850908
 20
249.0275212603
 30
0.0
 10
83.5231303886
 20
249.9517460332
 30
0.0
 10
85.7265561291
 20
250.3328621369
 30
0.0
 10
86.7732917065
 20
250.3325507421
 30
0.0
  0
SPLINE
  5
3BF
100
AcDbEntity
  8
0
100
AcDbSpline
 62
7
  6
BYLAYER
 70
0
 71
3
 72
17
 73
13
 74
0
 42
0.0000001
 43
0.0000001
 44
0.0000000001
 40
0.0
 40
0.0
 40
0.0
 40
0.0
 40
0.1286903123
 40
0.2702748608
 40
0.4174292735
 40
0.5617763116
 40
0.6954483957
 40
0.8127147386
 40
0.8646780511
 40
0.9125120892
 40
0.9571416084
 40
1.0
 40
1.0
 40
1.0
 40
1.0
 10
88.3315805611
 20
185.7660370784
 30
0.0
 10
87.2767277211
 20
185.1570211426
 30
0.0
 10
84.8884261512
 20
184.1716049035
 30
0.0
 10
80.9959696805
 20
183.3928919335
 30
0.0
 10
76.8789689067
 20
183.2788006145
 30
0.0
 10
72.8733760488
 20
183.841656545
 30
0.0
 10
69.3040159234
 20
185.0339603346
 30
0.0
 10
66.821468112
 20
186.5449713951
 30
0.0
 10
65.3646374916
 20
188.007146415
 30
0.0
 10
64.5907349942
 20
189.1455003183
 30
0.0
 10
64.1137539155
 20
190.3462167101
 30
0.0
 10
64.0053817712
 20
191.1778186545
 30
0.0
 10
64.0053721514
 20
191.5834678422
 30
0.0
  0
SPLINE
  5
3C0
100
AcDbEntity
  8
0
100
AcDbSpline
 62
7
  6
BYLAYER
 70
0
 71
3
 72
11
 73
7
 74
0
 42
0.0000001
 43
0.0000001
 44
0.0000000001
 40
0.0
 40
0.0
 40
0.0
 40
0.0
 40
0.2193249703
 40
0.4561355911
 40
0.7158392115
 40
1.0
 40
1.0
 40
1.0
 40
1.0
 10
92.3683676352
 20
190.44606275
 30
0.0
 10
92.2593719215
 20
189.9956362932
 30
0.0
 10
91.9002602723
 20
189.0876599044
 30
0.0
 10
91.0186666532
 20
187.8446297405
 30
0.0
 10
89.8105521195
 20
186.7084651689
 30
0.0
 10
88.8515623708
 20
186.0662469242
 30
0.0
 10
88.3315805611
 20
185.7660370784
 30
0.0
  0
SPLINE
  5
3C1
100
AcDbEntity
  8
0
100
AcDbSpline
 62
7
  6
BYLAYER
 70
0
 71
3
 72
17
 73
13
 74
0
 42
0.0000001
 43
0.0000001
 44
0.0000000001
 40
0.0
 40
0.0
 40
0.0
 40
0.0
 40
0.1275849052
 40
0.2664605145
 40
0.4102606032
 40
0.5513620258
 40
0.6828095994
 40
0.8002225455
 40
0.8536925198
 40
0.9042317276
 40
0.9526181573
 40
1.0
 40
1.0
 40
1.0
 40
1.0
 10
68.386065358
 20
208.6965321443
 30
0.0
 10
69.4354451505
 20
209.3023882335
 30
0.0
 10
71.7975672281
 20
210.2790560763
 30
0.0
 10
75.6375659492
 20
211.0429085204
 30
0.0
 10
79.6805866913
 20
211.1437557064
 30
0.0
 10
83.614203777
 20
210.571841167
 30
0.0
 10
87.1398045378
 20
209.3653607522
 30
0.0
 10
89.6086562861
 20
207.8224227487
 30
0.0
 10
91.081421898
 20
206.3075181104
 30
0.0
 10
91.8851569552
 20
205.091837672
 30
0.0
 10
92.3897849005
 20
203.7846857422
 30
0.0
 10
92.5052669778
 20
202.8713170613
 30
0.0
 10
92.5052669778
 20
202.4213154508
 30
0.0
  0
SPLINE
  5
3C2
100
AcDbEntity
  8
0
100
AcDbSpline
 62
7
  6
BYLAYER
 70
0
 71
3
 72
11
 73
7
 74
0
 42
0.0000001
 43
0.0000001
 44
0.0000000001
 40
0.0
 40
0.0
 40
0.0
 40
0.0
 40
0.2283297455
 40
0.4661060466
 40
0.7216004124
 40
1.0
 40
1.0
 40
1.0
 40
1.0
 10
64.0052669778
 20
202.4213154508
 30
0.0
 10
64.0052669778
 20
203.0298873263
 30
0.0
 10
64.2221265511
 20
204.280834917
 30
0.0
 10
65.142401208
 20
205.9995439048
 30
0.0
 10
66.5650356662
 20
207.5107317993
 30
0.0
 10
67.7434527341
 20
208.3255217876
 30
0.0
 10
68.386065358
 20
208.6965321443
 30
0.0
  0
SPLINE
  5
3C3
100
AcDbEntity
  8
0
100
AcDbSpline
 62
7
  6
BYLAYER
 70
0
 71
3
 72
13
 73
9
 74
0
 42
0.0000001
 43
0.0000001
 44
0.0000000001
 40
0.0
 40
0.0
 40
0.0
 40
0.0
 40
0.1031038481
 40
0.2106472157
 40
0.3276405969
 40
0.4558439317
 40
0.7329037434
 40
1.0
 40
1.0
 40
1.0
 40
1.0
 10
39.9205746023
 20
197.4498274643
 30
0.0
 10
39.9205746023
 20
197.6764036942
 30
0.0
 10
39.8072238551
 20
198.1446298267
 30
0.0
 10
39.3566193337
 20
198.7255476974
 30
0.0
 10
38.7098762424
 20
199.1693848967
 30
0.0
 10
37.6314038752
 20
199.5839187329
 30
0.0
 10
36.132668852
 20
199.7188746372
 30
0.0
 10
34.935385158
 20
199.4475848007
 30
0.0
 10
34.4070391348
 20
199.1919081201
 30
0.0
  0
SPLINE
  5
3C4
100
AcDbEntity
  8
0
100
AcDbSpline
 62
7
  6
BYLAYER
 70
0
 71
3
 72
11
 73
7
 74
0
 42
0.0000001
 43
0.0000001
 44
0.0000000001
 40
0.0
 40
0.0
 40
0.0
 40
0.0
 40
0.2290139466
 40
0.4809230207
 40
0.7428447497
 40
1.0
 40
1.0
 40
1.0
 40
1.0
 10
59.763891056
 20
238.796088925
 30
0.0
 10
59.763891056
 20
239.4762871355
 30
0.0
 10
59.9531479098
 20
240.9062958272
 30
0.0
 10
60.6605435173
 20
243.007242077
 30
0.0
 10
61.7507194401
 20
245.0325784021
 30
0.0
 10
62.7019155374
 20
246.2577117444
 30
0.0
 10
63.2250819193
 20
246.8141815273
 30
0.0
  0
SPLINE
  5
3C5
100
AcDbEntity
  8
0
100
AcDbSpline
 62
7
  6
BYLAYER
 70
0
 71
3
 72
9
 73
5
 74
0
 42
0.0000001
 43
0.0000001
 44
0.0000000001
 40
0.0
 40
0.0
 40
0.0
 40
0.0
 40
0.5250790975
 40
1.0
 40
1.0
 40
1.0
 40
1.0
 10
63.2534389627
 20
246.8442394081
 30
0.0
 10
63.6592158251
 20
247.272865427
 30
0.0
 10
64.4934728865
 20
248.0339219572
 30
0.0
 10
65.4531741201
 20
248.6365875849
 30
0.0
 10
65.936021748
 20
248.8643048253
 30
0.0
  0
SPLINE
  5
3C6
100
AcDbEntity
  8
0
100
AcDbSpline
 62
7
  6
BYLAYER
 70
0
 71
3
 72
9
 73
5
 74
0
 42
0.0000001
 43
0.0000001
 44
0.0000000001
 40
0.0
 40
0.0
 40
0.0
 40
0.0
 40
0.5220396932
 40
1.0
 40
1.0
 40
1.0
 40
1.0
 10
34.1858153241
 20
199.0749038155
 30
0.0
 10
33.9270506849
 20
198.9255068732
 30
0.0
 10
33.4633233503
 20
198.5702416064
 30
0.0
 10
33.1774952075
 20
198.0444854805
 30
0.0
 10
33.1173034683
 20
197.777623618
 30
0.0
  0
SPLINE
  5
3C7
100
AcDbEntity
  8
0
100
AcDbSpline
 62
7
  6
BYLAYER
 70
0
 71
3
 72
9
 73
5
 74
0
 42
0.0000001
 43
0.0000001
 44
0.0000000001
 40
0.0
 40
0.0
 40
0.0
 40
0.0
 40
0.2605667546
 40
1.0
 40
1.0
 40
1.0
 40
1.0
 10
59.2997520565
 20
238.1239495442
 30
0.0
 10
59.2524841268
 20
238.1877621283
 30
0.0
 10
59.0725128793
 20
238.4337150346
 30
0.0
 10
58.8984179484
 20
238.6840025374
 30
0.0
 10
58.7740121101
 20
238.8719070551
 30
0.0
  0
SPLINE
  5
3C8
100
AcDbEntity
  8
0
100
AcDbSpline
 62
7
  6
BYLAYER
 70
0
 71
3
 72
9
 73
5
 74
0
 42
0.0000001
 43
0.0000001
 44
0.0000000001
 40
0.0
 40
0.0
 40
0.0
 40
0.0
 40
0.2684770739
 40
1.0
 40
1.0
 40
1.0
 40
1.0
 10
58.5941987515
 20
239.1505154195
 30
0.0
 10
58.5356252501
 20
239.24370366
 30
0.0
 10
58.3216715175
 20
239.5934331836
 30
0.0
 10
58.1252193797
 20
239.9538834055
 30
0.0
 10
57.9921868984
 20
240.2226660818
 30
0.0
  0
SPLINE
  5
3C9
100
AcDbEntity
  8
0
100
AcDbSpline
 62
7
  6
BYLAYER
 70
0
 71
3
 72
13
 73
9
 74
0
 42
0.0000001
 43
0.0000001
 44
0.0000000001
 40
0.0
 40
0.0
 40
0.0
 40
0.0
 40
0.1031038481
 40
0.2106472157
 40
0.3276405969
 40
0.4558439317
 40
0.7329037434
 40
1.0
 40
1.0
 40
1.0
 40
1.0
 10
92.1047671335
 20
237.3760649207
 30
0.0
 10
92.1047671335
 20
237.6026411506
 30
0.0
 10
91.9914163863
 20
238.0708672832
 30
0.0
 10
91.5408118649
 20
238.6517851538
 30
0.0
 10
90.8940687736
 20
239.0956223531
 30
0.0
 10
89.8155964064
 20
239.5101561893
 30
0.0
 10
88.3168613832
 20
239.6451120936
 30
0.0
 10
87.1195776892
 20
239.3738222571
 30
0.0
 10
86.591231666
 20
239.1181455766
 30
0.0
  0
SPLINE
  5
3CA
100
AcDbEntity
  8
0
100
AcDbSpline
 62
7
  6
BYLAYER
 70
0
 71
3
 72
9
 73
5
 74
0
 42
0.0000001
 43
0.0000001
 44
0.0000000001
 40
0.0
 40
0.0
 40
0.0
 40
0.0
 40
0.2440807657
 40
1.0
 40
1.0
 40
1.0
 40
1.0
 10
60.6457897383
 20
247.061980962
 30
0.0
 10
60.755550706
 20
247.1584562353
 30
0.0
 10
61.2101310062
 20
247.5480815431
 30
0.0
 10
61.6871168588
 20
247.9118698962
 30
0.0
 10
62.0600455568
 20
248.1682852391
 30
0.0
  0
SPLINE
  5
3CB
100
AcDbEntity
  8
0
100
AcDbSpline
 62
7
  6
BYLAYER
 70
0
 71
3
 72
9
 73
5
 74
0
 42
0.0000001
 43
0.0000001
 44
0.0000000001
 40
0.0
 40
0.0
 40
0.0
 40
0.0
 40
0.4825081801
 40
1.0
 40
1.0
 40
1.0
 40
1.0
 10
62.0600455568
 20
248.1682852391
 30
0.0
 10
62.6386324277
 20
248.5661053901
 30
0.0
 10
63.904202401
 20
249.2963088067
 30
0.0
 10
65.2488630958
 20
249.8590490888
 30
0.0
 10
65.9529954182
 20
250.1260792997
 30
0.0
  0
SPLINE
  5
3CC
100
AcDbEntity
  8
0
100
AcDbSpline
 62
7
  6
BYLAYER
 70
0
 71
3
 72
10
 73
6
 74
0
 42
0.0000001
 43
0.0000001
 44
0.0000000001
 40
0.0
 40
0.0
 40
0.0
 40
0.0
 40
0.5067833592
 40
0.755450734
 40
1.0
 40
1.0
 40
1.0
 40
1.0
 10
57.9921868984
 20
240.2226660818
 30
0.0
 10
58.2457096236
 20
241.4416326577
 30
0.0
 10
58.7357808867
 20
243.2441575022
 30
0.0
 10
59.7413174978
 20
245.4898607126
 30
0.0
 10
60.3348578855
 20
246.547894999
 30
0.0
 10
60.6457897383
 20
247.061980962
 30
0.0
  0
SPLINE
  5
3CD
100
AcDbEntity
  8
0
100
AcDbSpline
 62
7
  6
BYLAYER
 70
0
 71
3
 72
9
 73
5
 74
0
 42
0.0000001
 43
0.0000001
 44
0.0000000001
 40
0.0
 40
0.0
 40
0.0
 40
0.0
 40
0.5214212888
 40
1.0
 40
1.0
 40
1.0
 40
1.0
 10
86.3700078553
 20
239.0011412719
 30
0.0
 10
86.1235500078
 20
238.8588496167
 30
0.0
 10
85.6806802485
 20
238.5232658234
 30
0.0
 10
85.392568271
 20
238.0345355349
 30
0.0
 10
85.3216192972
 20
237.7831542154
 30
0.0
  0
SPLINE
  5
3CE
100
AcDbEntity
  8
0
100
AcDbSpline
 62
7
  6
BYLAYER
 70
0
 71
3
 72
8
 73
4
 74
0
 42
0.0000001
 43
0.0000001
 44
0.0000000001
 40
0.0
 40
0.0
 40
0.0
 40
0.0
 40
1.0
 40
1.0
 40
1.0
 40
1.0
 10
85.3216192972
 20
237.7831542154
 30
0.0
 10
85.2844030192
 20
237.6512921662
 30
0.0
 10
85.2647671335
 20
237.5130782462
 30
0.0
 10
85.2647671335
 20
237.3760649207
 30
0.0
  0
SPLINE
  5
3CF
100
AcDbEntity
  8
0
100
AcDbSpline
 62
7
  6
BYLAYER
 70
0
 71
3
 72
13
 73
9
 74
0
 42
0.0000001
 43
0.0000001
 44
0.0000000001
 40
0.0
 40
0.0
 40
0.0
 40
0.0
 40
0.1031038481
 40
0.2106472157
 40
0.3276405969
 40
0.4558439317
 40
0.7329037434
 40
1.0
 40
1.0
 40
1.0
 40
1.0
 10
90.5496309228
 20
168.2197894406
 30
0.0
 10
90.5496309228
 20
168.4463656705
 30
0.0
 10
90.4362801757
 20
168.9145918031
 30
0.0
 10
89.9856756542
 20
169.4955096737
 30
0.0
 10
89.3389325629
 20
169.939346873
 30
0.0
 10
88.2604601957
 20
170.3538807093
 30
0.0
 10
86.7617251726
 20
170.4888366136
 30
0.0
 10
85.5644414785
 20
170.2175467771
 30
0.0
 10
85.0360954553
 20
169.9618700965
 30
0.0
  0
SPLINE
  5
3D0
100
AcDbEntity
  8
0
100
AcDbSpline
 62
7
  6
BYLAYER
 70
0
 71
3
 72
10
 73
6
 74
0
 42
0.0000001
 43
0.0000001
 44
0.0000000001
 40
0.0
 40
0.0
 40
0.0
 40
0.0
 40
0.5202271435
 40
0.7621607859
 40
1.0
 40
1.0
 40
1.0
 40
1.0
 10
84.8148716446
 20
169.8448657919
 30
0.0
 10
84.5073462618
 20
169.6673169891
 30
0.0
 10
84.0866808986
 20
169.3238903491
 30
0.0
 10
83.7655105517
 20
168.7120355835
 30
0.0
 10
83.7096309228
 20
168.382134898
 30
0.0
 10
83.7096309228
 20
168.2197894406
 30
0.0
  0
SPLINE
  5
3D1
100
AcDbEntity
  8
0
100
AcDbSpline
 62
7
  6
BYLAYER
 70
0
 71
3
 72
13
 73
9
 74
0
 42
0.0000001
 43
0.0000001
 44
0.0000000001
 40
0.0
 40
0.0
 40
0.0
 40
0.0
 40
0.1031038481
 40
0.2106472157
 40
0.3276405969
 40
0.4558439317
 40
0.7329037434
 40
1.0
 40
1.0
 40
1.0
 40
1.0
 10
159.7044568575
 20
198.3482487885
 30
0.0
 10
159.7044568575
 20
198.5748250184
 30
0.0
 10
159.5911061104
 20
199.043051151
 30
0.0
 10
159.140501589
 20
199.6239690217
 30
0.0
 10
158.4937584976
 20
200.067806221
 30
0.0
 10
157.4152861305
 20
200.4823400572
 30
0.0
 10
155.9165511073
 20
200.6172959615
 30
0.0
 10
154.7192674132
 20
200.346006125
 30
0.0
 10
154.19092139
 20
200.0903294444
 30
0.0
  0
SPLINE
  5
3D2
100
AcDbEntity
  8
0
100
AcDbSpline
 62
7
  6
BYLAYER
 70
0
 71
3
 72
10
 73
6
 74
0
 42
0.0000001
 43
0.0000001
 44
0.0000000001
 40
0.0
 40
0.0
 40
0.0
 40
0.0
 40
0.5202271435
 40
0.7621607859
 40
1.0
 40
1.0
 40
1.0
 40
1.0
 10
153.9696975793
 20
199.9733251398
 30
0.0
 10
153.6621721965
 20
199.7957763371
 30
0.0
 10
153.2415068333
 20
199.452349697
 30
0.0
 10
152.9203364864
 20
198.8404949314
 30
0.0
 10
152.8644568575
 20
198.5105942459
 30
0.0
 10
152.8644568575
 20
198.3482487885
 30
0.0
  0
SPLINE
  5
3D3
100
AcDbEntity
  8
0
100
AcDbSpline
 62
7
  6
BYLAYER
 70
0
 71
3
 72
13
 73
9
 74
0
 42
0.0000001
 43
0.0000001
 44
0.0000000001
 40
0.0
 40
0.0
 40
0.0
 40
0.0
 40
0.102851538
 40
0.21192494
 40
0.3306070186
 40
0.4598445165
 40
0.7356712719
 40
1.0
 40
1.0
 40
1.0
 40
1.0
 10
124.6111312472
 20
256.3999249209
 30
0.0
 10
124.5751653015
 20
256.614718804
 30
0.0
 10
124.3996014807
 20
257.0437593476
 30
0.0
 10
123.9104998115
 20
257.5599573531
 30
0.0
 10
123.2555452594
 20
257.9516667858
 30
0.0
 10
122.1997426641
 20
258.3107786917
 30
0.0
 10
120.7624041439
 20
258.4110098718
 30
0.0
 10
119.6218232217
 20
258.1411823282
 30
0.0
 10
119.1180081778
 20
257.8973766546
 30
0.0
  0
SPLINE
  5
3D4
100
AcDbEntity
  8
0
100
AcDbSpline
 62
7
  6
BYLAYER
 70
0
 71
3
 72
10
 73
6
 74
0
 42
0.0000001
 43
0.0000001
 44
0.0000000001
 40
0.0
 40
0.0
 40
0.0
 40
0.0
 40
0.5202271435
 40
0.7621607859
 40
1.0
 40
1.0
 40
1.0
 40
1.0
 10
118.8967843671
 20
257.78037235
 30
0.0
 10
118.5892589843
 20
257.6028235473
 30
0.0
 10
118.1685936211
 20
257.2593969072
 30
0.0
 10
117.8474232742
 20
256.6475421416
 30
0.0
 10
117.7915436453
 20
256.3176414561
 30
0.0
 10
117.7915436453
 20
256.1552959988
 30
0.0
  0
SPLINE
  5
3D5
100
AcDbEntity
  8
0
100
AcDbSpline
 62
7
  6
BYLAYER
 70
0
 71
3
 72
13
 73
9
 74
0
 42
0.0000001
 43
0.0000001
 44
0.0000000001
 40
0.0
 40
0.0
 40
0.0
 40
0.0
 40
0.102851538
 40
0.21192494
 40
0.3306070186
 40
0.4598445165
 40
0.7356712719
 40
1.0
 40
1.0
 40
1.0
 40
1.0
 10
192.2108209712
 20
217.3721087888
 30
0.0
 10
192.1748550256
 20
217.5869026719
 30
0.0
 10
191.9992912047
 20
218.0159432154
 30
0.0
 10
191.5101895356
 20
218.5321412209
 30
0.0
 10
190.8552349834
 20
218.9238506537
 30
0.0
 10
189.7994323881
 20
219.2829625596
 30
0.0
 10
188.362093868
 20
219.3831937397
 30
0.0
 10
187.2215129458
 20
219.1133661961
 30
0.0
 10
186.7176979018
 20
218.8695605225
 30
0.0
  0
SPLINE
  5
3D6
100
AcDbEntity
  8
0
100
AcDbSpline
 62
7
  6
BYLAYER
 70
0
 71
3
 72
10
 73
6
 74
0
 42
0.0000001
 43
0.0000001
 44
0.0000000001
 40
0.0
 40
0.0
 40
0.0
 40
0.0
 40
0.5202271435
 40
0.7621607859
 40
1.0
 40
1.0
 40
1.0
 40
1.0
 10
186.4964740912
 20
218.7525562179
 30
0.0
 10
186.1889487083
 20
218.5750074151
 30
0.0
 10
185.7682833451
 20
218.2315807751
 30
0.0
 10
185.4471129982
 20
217.6197260095
 30
0.0
 10
185.3912333694
 20
217.289825324
 30
0.0
 10
185.3912333694
 20
217.1274798666
 30
0.0
  0
SPLINE
  5
3D7
100
AcDbEntity
  8
0
100
AcDbSpline
 62
7
  6
BYLAYER
 70
0
 71
3
 72
13
 73
9
 74
0
 42
0.0000001
 43
0.0000001
 44
0.0000000001
 40
0.0
 40
0.0
 40
0.0
 40
0.0
 40
0.114257849
 40
0.2375711538
 40
0.5000540617
 40
0.7625124518
 40
0.8857760369
 40
1.0
 40
1.0
 40
1.0
 40
1.0
 10
113.4620553517
 20
199.6626706257
 30
0.0
 10
112.7355988052
 20
199.2432532466
 30
0.0
 10
111.1467246669
 20
198.5034161602
 30
0.0
 10
107.625404308
 20
197.4343769387
 30
0.0
 10
102.8491603915
 20
196.9157300372
 30
0.0
 10
98.0735446362
 20
197.4367485949
 30
0.0
 10
94.5535308481
 20
198.5073890785
 30
0.0
 10
92.9657085881
 20
199.248065531
 30
0.0
 10
92.2397808497
 20
199.6679008118
 30
0.0
  0
SPLINE
  5
3D8
100
AcDbEntity
  8
0
100
AcDbSpline
 62
7
  6
BYLAYER
 70
0
 71
3
 72
11
 73
7
 74
0
 42
0.0000001
 43
0.0000001
 44
0.0000000001
 40
0.0
 40
0.0
 40
0.0
 40
0.0
 40
0.2877776961
 40
0.5474397751
 40
0.7820641996
 40
1.0
 40
1.0
 40
1.0
 40
1.0
 10
92.7437404049
 20
223.2184590564
 30
0.0
 10
92.1578224596
 20
222.8801811922
 30
0.0
 10
91.0880809343
 20
222.151612408
 30
0.0
 10
89.7818835691
 20
220.8384574903
 30
0.0
 10
88.9019633256
 20
219.3925360092
 30
0.0
 10
88.6257025834
 20
218.3447136953
 30
0.0
 10
88.5771116843
 20
217.8346609442
 30
0.0
  0
SPLINE
  5
3D9
100
AcDbEntity
  8
0
100
AcDbSpline
 62
7
  6
BYLAYER
 70
0
 71
3
 72
9
 73
5
 74
0
 42
0.0000001
 43
0.0000001
 44
0.0000000001
 40
0.0
 40
0.0
 40
0.0
 40
0.0
 40
0.2407342602
 40
1.0
 40
1.0
 40
1.0
 40
1.0
 10
111.4114371487
 20
212.4409031371
 30
0.0
 10
111.2562459264
 20
212.3513039779
 30
0.0
 10
110.6027598146
 20
211.9944842648
 30
0.0
 10
109.9176886797
 20
211.6966488324
 30
0.0
 10
109.3877050821
 20
211.5002992437
 30
0.0
  0
SPLINE
  5
3DA
100
AcDbEntity
  8
0
100
AcDbSpline
 62
7
  6
BYLAYER
 70
0
 71
3
 72
16
 73
12
 74
0
 42
0.0000001
 43
0.0000001
 44
0.0000000001
 40
0.0
 40
0.0
 40
0.0
 40
0.0
 40
0.1385183892
 40
0.2847000184
 40
0.4317920756
 40
0.5729112148
 40
0.7020708209
 40
0.8154063655
 40
0.9127521045
 40
0.9571130736
 40
1.0
 40
1.0
 40
1.0
 40
1.0
 10
109.3877050821
 20
211.5002992437
 30
0.0
 10
108.4404535829
 20
211.1493592463
 30
0.0
 10
106.4197347109
 20
210.6197470699
 30
0.0
 10
103.2738163548
 20
210.3176759858
 30
0.0
 10
100.098254695
 20
210.4952471623
 30
0.0
 10
97.1096221961
 20
211.1402754859
 30
0.0
 10
94.5061420704
 20
212.2130812236
 30
0.0
 10
92.4554348693
 20
213.647372561
 30
0.0
 10
91.2885770671
 20
215.1528006062
 30
0.0
 10
90.8308651913
 20
216.429289329
 30
0.0
 10
90.7555375805
 20
217.0678555982
 30
0.0
 10
90.7554820924
 20
217.3806162658
 30
0.0
  0
SPLINE
  5
3DB
100
AcDbEntity
  8
0
100
AcDbSpline
 62
7
  6
BYLAYER
 70
0
 71
3
 72
11
 73
7
 74
0
 42
0.0000001
 43
0.0000001
 44
0.0000000001
 40
0.0
 40
0.0
 40
0.0
 40
0.0
 40
0.2897018509
 40
0.5490865835
 40
0.7822158751
 40
1.0
 40
1.0
 40
1.0
 40
1.0
 10
98.117774316
 20
219.6766746528
 30
0.0
 10
97.8237890415
 20
219.5069431886
 30
0.0
 10
97.2904225097
 20
219.1395829989
 30
0.0
 10
96.6529612617
 20
218.4696665464
 30
0.0
 10
96.2497245747
 20
217.7285557578
 30
0.0
 10
96.1554264789
 20
217.1966548844
 30
0.0
 10
96.1554094755
 20
216.9414615975
 30
0.0
  0
SPLINE
  5
3DC
100
AcDbEntity
  8
0
100
AcDbSpline
 62
7
  6
BYLAYER
 70
0
 71
3
 72
17
 73
13
 74
0
 42
0.0000001
 43
0.0000001
 44
0.0000000001
 40
0.0
 40
0.0
 40
0.0
 40
0.0
 40
0.1253480694
 40
0.2576998325
 40
0.3931389265
 40
0.5261230341
 40
0.6523667095
 40
0.7711260622
 40
0.8287917172
 40
0.8859799536
 40
0.9429079123
 40
1.0
 40
1.0
 40
1.0
 40
1.0
 10
238.1627115349
 20
140.0510944895
 30
0.0
 10
237.1519973875
 20
139.4675618877
 30
0.0
 10
234.9127702416
 20
138.5382277451
 30
0.0
 10
231.2988870531
 20
137.8441997083
 30
0.0
 10
227.5477216442
 20
137.804854127
 30
0.0
 10
223.9040416938
 20
138.4248405899
 30
0.0
 10
220.5945394804
 20
139.6959992544
 30
0.0
 10
218.2564640588
 20
141.3440378909
 30
0.0
 10
216.8268573352
 20
142.9968913544
 30
0.0
 10
216.0151423595
 20
144.3868106024
 30
0.0
 10
215.4978210672
 20
145.9063410344
 30
0.0
 10
215.3800118409
 20
146.9717136609
 30
0.0
 10
215.3800118409
 20
147.5032773902
 30
0.0
  0
SPLINE
  5
3DD
100
AcDbEntity
  8
0
100
AcDbSpline
 62
7
  6
BYLAYER
 70
0
 71
3
 72
8
 73
4
 74
0
 42
0.0000001
 43
0.0000001
 44
0.0000000001
 40
0.0
 40
0.0
 40
0.0
 40
0.0
 40
1.0
 40
1.0
 40
1.0
 40
1.0
 10
215.3800118409
 20
147.5032773902
 30
0.0
 10
215.3800118409
 20
148.2654722254
 30
0.0
 10
215.5041186269
 20
149.0362838519
 30
0.0
 10
215.7382652125
 20
149.7616226301
 30
0.0
  0
SPLINE
  5
3DE
100
AcDbEntity
  8
0
100
AcDbSpline
 62
7
  6
BYLAYER
 70
0
 71
3
 72
14
 73
10
 74
0
 42
0.0000001
 43
0.0000001
 44
0.0000000001
 40
0.0
 40
0.0
 40
0.0
 40
0.0
 40
0.2723240834
 40
0.4049959878
 40
0.5320343086
 40
0.6531836171
 40
0.7700682595
 40
0.8851804961
 40
1.0
 40
1.0
 40
1.0
 40
1.0
 10
226.7086172687
 20
157.0051003735
 30
0.0
 10
228.6106541951
 20
157.2346858594
 30
0.0
 10
231.5079519143
 20
157.1863759097
 30
0.0
 10
235.1634751299
 20
156.3381495185
 30
0.0
 10
237.6584873637
 20
155.3244926158
 30
0.0
 10
239.8325767419
 20
153.9244001934
 30
0.0
 10
241.5819654642
 20
152.122664185
 30
0.0
 10
242.7512134635
 20
149.9407091476
 30
0.0
 10
243.0300118409
 20
148.3110507133
 30
0.0
 10
243.0300118409
 20
147.5032773902
 30
0.0
  0
SPLINE
  5
3DF
100
AcDbEntity
  8
0
100
AcDbSpline
 62
7
  6
BYLAYER
 70
0
 71
3
 72
10
 73
6
 74
0
 42
0.0000001
 43
0.0000001
 44
0.0000000001
 40
0.0
 40
0.0
 40
0.0
 40
0.0
 40
0.4690803097
 40
0.7286020343
 40
1.0
 40
1.0
 40
1.0
 40
1.0
 10
72.1736180104
 20
220.5276206882
 30
0.0
 10
71.8545033873
 20
222.3939114218
 30
0.0
 10
71.9395775923
 20
225.3987349515
 30
0.0
 10
72.81528166
 20
229.3398561679
 30
0.0
 10
73.5257364572
 20
231.3691461834
 30
0.0
 10
73.9432701486
 20
232.3819134747
 30
0.0
  0
SPLINE
  5
3E0
100
AcDbEntity
  8
0
100
AcDbSpline
 62
7
  6
BYLAYER
 70
0
 71
3
 72
11
 73
7
 74
0
 42
0.0000001
 43
0.0000001
 44
0.0000000001
 40
0.0
 40
0.0
 40
0.0
 40
0.0
 40
0.2461701336
 40
0.4928051241
 40
0.7425046234
 40
1.0
 40
1.0
 40
1.0
 40
1.0
 10
243.0300118409
 20
147.5032773902
 30
0.0
 10
243.0300118409
 20
146.7397170692
 30
0.0
 10
242.7818168072
 20
145.200893341
 30
0.0
 10
241.7331460821
 20
143.1158564416
 30
0.0
 10
240.1508550973
 20
141.3630167516
 30
0.0
 10
238.8543970895
 20
140.4504369469
 30
0.0
 10
238.1627115349
 20
140.0510944895
 30
0.0
  0
SPLINE
  5
3E1
100
AcDbEntity
  8
0
100
AcDbSpline
 62
7
  6
BYLAYER
 70
0
 71
3
 72
9
 73
5
 74
0
 42
0.0000001
 43
0.0000001
 44
0.0000000001
 40
0.0
 40
0.0
 40
0.0
 40
0.0
 40
0.2586514942
 40
1.0
 40
1.0
 40
1.0
 40
1.0
 10
78.0606443661
 20
239.5155226833
 30
0.0
 10
78.4154668059
 20
239.9765566711
 30
0.0
 10
79.8380207165
 20
241.7186244858
 30
0.0
 10
81.4671561097
 20
243.2979007224
 30
0.0
 10
82.785173558
 20
244.3192988183
 30
0.0
  0
SPLINE
  5
3E2
100
AcDbEntity
  8
0
100
AcDbSpline
 62
7
  6
BYLAYER
 70
0
 71
3
 72
12
 73
8
 74
0
 42
0.0000001
 43
0.0000001
 44
0.0000000001
 40
0.0
 40
0.0
 40
0.0
 40
0.0
 40
0.2752127693
 40
0.5590508157
 40
0.814550265
 40
0.9190447243
 40
1.0
 40
1.0
 40
1.0
 40
1.0
 10
226.2103061996
 20
148.8957208893
 30
0.0
 10
226.9932815356
 20
149.0940315431
 30
0.0
 10
228.6321269959
 20
149.3180090514
 30
0.0
 10
231.0310398007
 20
149.2017971644
 30
0.0
 10
232.8842037646
 20
148.7518289461
 30
0.0
 10
234.0658617976
 20
148.217101596
 30
0.0
 10
234.5284214645
 20
147.925028202
 30
0.0
 10
234.7154855095
 20
147.7785512209
 30
0.0
  0
SPLINE
  5
3E3
100
AcDbEntity
  8
0
100
AcDbSpline
 62
7
  6
BYLAYER
 70
0
 71
3
 72
9
 73
5
 74
0
 42
0.0000001
 43
0.0000001
 44
0.0000000001
 40
0.0
 40
0.0
 40
0.0
 40
0.0
 40
0.302573233
 40
1.0
 40
1.0
 40
1.0
 40
1.0
 10
234.7154855095
 20
147.7785512209
 30
0.0
 10
234.7505972141
 20
147.7510576612
 30
0.0
 10
234.8646432206
 20
147.6577142846
 30
0.0
 10
234.9718961939
 20
147.555777075
 30
0.0
 10
235.0403909576
 20
147.4791318566
 30
0.0
  0
SPLINE
  5
3E4
100
AcDbEntity
  8
0
100
AcDbSpline
 62
7
  6
BYLAYER
 70
0
 71
3
 72
15
 73
11
 74
0
 42
0.0000001
 43
0.0000001
 44
0.0000000001
 40
0.0
 40
0.0
 40
0.0
 40
0.0
 40
0.0176797026
 40
0.0304325653
 40
0.0807241711
 40
0.176057007
 40
0.3173926429
 40
0.5028062899
 40
0.7308712274
 40
1.0
 40
1.0
 40
1.0
 40
1.0
 10
235.1525346715
 20
147.667714579
 30
0.0
 10
235.1546756913
 20
147.6748913534
 30
0.0
 10
235.1647845639
 20
147.6992823335
 30
0.0
 10
235.1419902643
 20
147.651089452
 30
0.0
 10
235.1092043674
 20
147.6123908827
 30
0.0
 10
235.02767896
 20
147.5080881616
 30
0.0
 10
234.9040727704
 20
147.3854458028
 30
0.0
 10
234.7247411825
 20
147.2301725355
 30
0.0
 10
234.4906400209
 20
147.0611116917
 30
0.0
 10
234.3114615498
 20
146.9497081868
 30
0.0
 10
234.2127292185
 20
146.8927053891
 30
0.0
  0
SPLINE
  5
3E5
100
AcDbEntity
  8
0
100
AcDbSpline
 62
7
  6
BYLAYER
 70
0
 71
3
 72
17
 73
13
 74
0
 42
0.0000001
 43
0.0000001
 44
0.0000000001
 40
0.0
 40
0.0
 40
0.0
 40
0.0
 40
0.1170472936
 40
0.259276522
 40
0.4145602819
 40
0.5721680114
 40
0.7215582905
 40
0.851367372
 40
0.9049459184
 40
0.9485854865
 40
0.9806025754
 40
1.0
 40
1.0
 40
1.0
 40
1.0
 10
234.2127292185
 20
146.8927053891
 30
0.0
 10
233.8231028346
 20
146.6677558342
 30
0.0
 10
232.9003826243
 20
146.2725557791
 30
0.0
 10
231.3482281198
 20
145.8891916615
 30
0.0
 10
229.6014273423
 20
145.7170606852
 30
0.0
 10
227.8201322641
 20
145.7843171555
 30
0.0
 10
226.1621356081
 20
146.0808237231
 30
0.0
 10
224.9446627307
 20
146.4964948471
 30
0.0
 10
224.168605869
 20
146.8982755824
 30
0.0
 10
223.7524931754
 20
147.1718963293
 30
0.0
 10
223.4745430322
 20
147.4103104011
 30
0.0
 10
223.340702977
 20
147.5567673188
 30
0.0
 10
223.296103337
 20
147.6165160335
 30
0.0
  0
SPLINE
  5
3E6
100
AcDbEntity
  8
0
100
AcDbSpline
 62
7
  6
BYLAYER
 70
0
 71
3
 72
9
 73
5
 74
0
 42
0.0000001
 43
0.0000001
 44
0.0000000001
 40
0.0
 40
0.0
 40
0.0
 40
0.0
 40
0.2175937881
 40
1.0
 40
1.0
 40
1.0
 40
1.0
 10
223.3828043828
 20
147.4936212139
 30
0.0
 10
223.3937242714
 20
147.5056356631
 30
0.0
 10
223.4446385564
 20
147.5601851889
 30
0.0
 10
223.4984947821
 20
147.6119702318
 30
0.0
 10
223.5419017732
 20
147.6510067895
 30
0.0
  0
SPLINE
  5
3E7
100
AcDbEntity
  8
0
100
AcDbSpline
 62
7
  6
BYLAYER
 70
0
 71
3
 72
11
 73
7
 74
0
 42
0.0000001
 43
0.0000001
 44
0.0000000001
 40
0.0
 40
0.0
 40
0.0
 40
0.0
 40
0.2177434119
 40
0.4508805377
 40
0.710457812
 40
1.0
 40
1.0
 40
1.0
 40
1.0
 10
194.6981431083
 20
203.8514038948
 30
0.0
 10
194.6981430704
 20
203.9732630094
 30
0.0
 10
194.6533936392
 20
204.2273278635
 30
0.0
 10
194.4606640113
 20
204.5813774746
 30
0.0
 10
194.1560438117
 20
204.90117428
 30
0.0
 10
193.9013868308
 20
205.0767660759
 30
0.0
 10
193.7610544368
 20
205.1577851884
 30
0.0
  0
SPLINE
  5
3E8
100
AcDbEntity
  8
0
100
AcDbSpline
 62
7
  6
BYLAYER
 70
0
 71
3
 72
11
 73
7
 74
0
 42
0.0000001
 43
0.0000001
 44
0.0000000001
 40
0.0
 40
0.0
 40
0.0
 40
0.0
 40
0.2194496708
 40
0.4532707975
 40
0.711950929
 40
1.0
 40
1.0
 40
1.0
 40
1.0
 10
193.8697866546
 20
215.2821858148
 30
0.0
 10
193.8697866194
 20
215.4724574177
 30
0.0
 10
193.8025799307
 20
215.8679448737
 30
0.0
 10
193.5138688959
 20
216.4225658616
 30
0.0
 10
193.0553142241
 20
216.9282382384
 30
0.0
 10
192.6695409834
 20
217.2089569776
 30
0.0
 10
192.4566905472
 20
217.3396082751
 30
0.0
  0
SPLINE
  5
3E9
100
AcDbEntity
  8
0
100
AcDbSpline
 62
7
  6
BYLAYER
 70
0
 71
3
 72
11
 73
7
 74
0
 42
0.0000001
 43
0.0000001
 44
0.0000000001
 40
0.0
 40
0.0
 40
0.0
 40
0.0
 40
0.2177438688
 40
0.4508811915
 40
0.7104582954
 40
1.0
 40
1.0
 40
1.0
 40
1.0
 10
90.0460686486
 20
241.4094581313
 30
0.0
 10
90.0460686215
 20
241.2876003308
 30
0.0
 10
90.0013202106
 20
241.0335384068
 30
0.0
 10
89.8085947527
 20
240.6794922216
 30
0.0
 10
89.503980729
 20
240.3596977872
 30
0.0
 10
89.2493285863
 20
240.1841066612
 30
0.0
 10
89.1089988186
 20
240.1030877156
 30
0.0
  0
SPLINE
  5
3EA
100
AcDbEntity
  8
0
100
AcDbSpline
 62
7
  6
BYLAYER
 70
0
 71
3
 72
11
 73
7
 74
0
 42
0.0000001
 43
0.0000001
 44
0.0000000001
 40
0.0
 40
0.0
 40
0.0
 40
0.0
 40
0.2177438688
 40
0.4508811915
 40
0.7104582954
 40
1.0
 40
1.0
 40
1.0
 40
1.0
 10
88.6319316294
 20
230.7951509229
 30
0.0
 10
88.6319316023
 20
230.6732931223
 30
0.0
 10
88.5871831914
 20
230.4192311984
 30
0.0
 10
88.3944577335
 20
230.0651850131
 30
0.0
 10
88.0898437098
 20
229.7453905788
 30
0.0
 10
87.8351915671
 20
229.5697994528
 30
0.0
 10
87.6948617993
 20
229.4887805072
 30
0.0
  0
SPLINE
  5
3EB
100
AcDbEntity
  8
0
100
AcDbSpline
 62
7
  6
BYLAYER
 70
0
 71
3
 72
11
 73
7
 74
0
 42
0.0000001
 43
0.0000001
 44
0.0000000001
 40
0.0
 40
0.0
 40
0.0
 40
0.0
 40
0.2177817009
 40
0.4509079353
 40
0.7102947134
 40
1.0
 40
1.0
 40
1.0
 40
1.0
 10
203.4379479649
 20
183.8061612716
 30
0.0
 10
203.4379479225
 20
184.0346917541
 30
0.0
 10
203.3534945911
 20
184.5110216178
 30
0.0
 10
202.992387208
 20
185.1747015263
 30
0.0
 10
202.4215277794
 20
185.774640931
 30
0.0
 10
201.9438775266
 20
186.1036268181
 30
0.0
 10
201.6806009274
 20
186.2556261949
 30
0.0
  0
SPLINE
  5
3EC
100
AcDbEntity
  8
0
100
AcDbSpline
 62
7
  6
BYLAYER
 70
0
 71
3
 72
11
 73
7
 74
0
 42
0.0000001
 43
0.0000001
 44
0.0000000001
 40
0.0
 40
0.0
 40
0.0
 40
0.0
 40
0.2177227832
 40
0.4508712161
 40
0.7104668615
 40
1.0
 40
1.0
 40
1.0
 40
1.0
 10
169.6020436887
 20
166.761964224
 30
0.0
 10
169.6020482465
 20
166.6439254903
 30
0.0
 10
169.5586401318
 20
166.3978178071
 30
0.0
 10
169.371971922
 20
166.0548193278
 30
0.0
 10
169.0768565604
 20
165.7450118825
 30
0.0
 10
168.8301602116
 20
165.5749031706
 30
0.0
 10
168.694219286
 20
165.4964181091
 30
0.0
  0
SPLINE
  5
3ED
100
AcDbEntity
  8
0
100
AcDbSpline
 62
7
  6
BYLAYER
 70
0
 71
3
 72
12
 73
8
 74
0
 42
0.0000001
 43
0.0000001
 44
0.0000000001
 40
0.0
 40
0.0
 40
0.0
 40
0.0
 40
0.1100496209
 40
0.2215549697
 40
0.4555900662
 40
0.7136937114
 40
1.0
 40
1.0
 40
1.0
 40
1.0
 10
141.5016387718
 20
179.1859349251
 30
0.0
 10
141.8827920369
 20
178.9658809632
 30
0.0
 10
142.6059294032
 20
178.4409758351
 30
0.0
 10
143.8424734628
 20
177.0884746024
 30
0.0
 10
144.9248940116
 20
174.8731726578
 30
0.0
 10
145.4252543276
 20
171.7698693491
 30
0.0
 10
145.2929481188
 20
169.5801625274
 30
0.0
 10
145.1273433857
 20
168.4471926968
 30
0.0
  0
SPLINE
  5
3EE
100
AcDbEntity
  8
0
100
AcDbSpline
 62
7
  6
BYLAYER
 70
0
 71
3
 72
9
 73
5
 74
0
 42
0.0000001
 43
0.0000001
 44
0.0000000001
 40
0.0
 40
0.0
 40
0.0
 40
0.0
 40
0.2568574842
 40
1.0
 40
1.0
 40
1.0
 40
1.0
 10
135.8709913026
 20
152.4085350316
 30
0.0
 10
135.6965186707
 20
152.2705777215
 30
0.0
 10
135.0083723848
 20
151.7449075679
 30
0.0
 10
134.2840857385
 20
151.2658424958
 30
0.0
 10
133.7267781845
 20
150.9440827501
 30
0.0
  0
SPLINE
  5
3EF
100
AcDbEntity
  8
0
100
AcDbSpline
 62
7
  6
BYLAYER
 70
0
 71
3
 72
11
 73
7
 74
0
 42
0.0000001
 43
0.0000001
 44
0.0000000001
 40
0.0
 40
0.0
 40
0.0
 40
0.0
 40
0.2778648791
 40
0.5331974338
 40
0.7711986494
 40
1.0
 40
1.0
 40
1.0
 40
1.0
 10
133.6502151469
 20
150.900163769
 30
0.0
 10
132.8999283187
 20
150.4725623281
 30
0.0
 10
131.3881454914
 20
149.766902232
 30
0.0
 10
129.0314358536
 20
149.2236688596
 30
0.0
 10
126.7582568487
 20
149.3053392355
 30
0.0
 10
125.3677538104
 20
149.8183777602
 30
0.0
 10
124.7519229695
 20
150.1739198186
 30
0.0
  0
SPLINE
  5
3F0
100
AcDbEntity
  8
0
100
AcDbSpline
 62
7
  6
BYLAYER
 70
0
 71
3
 72
14
 73
10
 74
0
 42
0.0000001
 43
0.0000001
 44
0.0000000001
 40
0.0
 40
0.0
 40
0.0
 40
0.0
 40
0.1147202433
 40
0.2299591223
 40
0.3481007403
 40
0.472310069
 40
0.6030938749
 40
0.7377540443
 40
1.0
 40
1.0
 40
1.0
 40
1.0
 10
212.9369262083
 20
149.3322027785
 30
0.0
 10
212.5296339356
 20
149.567347762
 30
0.0
 10
211.8034524394
 20
150.2143657466
 30
0.0
 10
211.1555135768
 20
151.5168943548
 30
0.0
 10
210.9357532252
 20
152.9853120533
 30
0.0
 10
211.081384987
 20
154.5195538167
 30
0.0
 10
211.5428388247
 20
156.0591047974
 30
0.0
 10
212.511120931
 20
157.9987770621
 30
0.0
 10
213.5944131901
 20
159.2753170342
 30
0.0
 10
214.4441503535
 20
159.9339134929
 30
0.0
  0
SPLINE
  5
3F1
100
AcDbEntity
  8
0
100
AcDbSpline
 62
7
  6
BYLAYER
 70
0
 71
3
 72
9
 73
5
 74
0
 42
0.0000001
 43
0.0000001
 44
0.0000000001
 40
0.0
 40
0.0
 40
0.0
 40
0.0
 40
0.2536761435
 40
1.0
 40
1.0
 40
1.0
 40
1.0
 10
214.4747173777
 20
159.9574779461
 30
0.0
 10
214.5303655645
 20
160.000147341
 30
0.0
 10
214.7521055026
 20
160.1652201258
 30
0.0
 10
214.9834852137
 20
160.3174549316
 30
0.0
 10
215.1611882813
 20
160.4222617764
 30
0.0
  0
SPLINE
  5
3F2
100
AcDbEntity
  8
0
100
AcDbSpline
 62
7
  6
BYLAYER
 70
0
 71
3
 72
10
 73
6
 74
0
 42
0.0000001
 43
0.0000001
 44
0.0000000001
 40
0.0
 40
0.0
 40
0.0
 40
0.0
 40
0.504318839
 40
0.7522225509
 40
1.0
 40
1.0
 40
1.0
 40
1.0
 10
215.2118751182
 20
160.4518406447
 30
0.0
 10
215.8613453841
 20
160.8268102393
 30
0.0
 10
216.9633787112
 20
161.2211902451
 30
0.0
 10
218.4653423694
 20
161.1292804341
 30
0.0
 10
219.1677217878
 20
160.8614241577
 30
0.0
 10
219.4868150743
 20
160.6771997306
 30
0.0
  0
SPLINE
  5
3F3
100
AcDbEntity
  8
0
100
AcDbSpline
 62
7
  6
BYLAYER
 70
0
 71
3
 72
9
 73
5
 74
0
 42
0.0000001
 43
0.0000001
 44
0.0000000001
 40
0.0
 40
0.0
 40
0.0
 40
0.0
 40
0.2547374459
 40
1.0
 40
1.0
 40
1.0
 40
1.0
 10
134.1824245044
 20
173.6293509964
 30
0.0
 10
134.2743887328
 20
173.6824462515
 30
0.0
 10
134.6383145314
 20
173.8857691598
 30
0.0
 10
135.014053399
 20
174.0681613187
 30
0.0
 10
135.2998564954
 20
174.1899586591
 30
0.0
  0
SPLINE
  5
3F4
100
AcDbEntity
  8
0
100
AcDbSpline
 62
7
  6
BYLAYER
 70
0
 71
3
 72
9
 73
5
 74
0
 42
0.0000001
 43
0.0000001
 44
0.0000000001
 40
0.0
 40
0.0
 40
0.0
 40
0.0
 40
0.5202654492
 40
1.0
 40
1.0
 40
1.0
 40
1.0
 10
135.3565471696
 20
174.2138997333
 30
0.0
 10
135.9793626076
 20
174.4745238517
 30
0.0
 10
137.2368572324
 20
174.8514142125
 30
0.0
 10
138.5617991853
 20
174.8459763433
 30
0.0
 10
139.1734359643
 20
174.7299176847
 30
0.0
  0
SPLINE
  5
3F5
100
AcDbEntity
  8
0
100
AcDbSpline
 62
7
  6
BYLAYER
 70
0
 71
3
 72
15
 73
11
 74
0
 42
0.0000001
 43
0.0000001
 44
0.0000000001
 40
0.0
 40
0.0
 40
0.0
 40
0.0
 40
0.1006020359
 40
0.2120446258
 40
0.335359843
 40
0.4683595946
 40
0.6066481222
 40
0.744780358
 40
0.8773257637
 40
1.0
 40
1.0
 40
1.0
 40
1.0
 10
126.9947738615
 20
155.0261907559
 30
0.0
 10
126.603608445
 20
155.637467174
 30
0.0
 10
126.0309498131
 20
157.0920841929
 30
0.0
 10
125.8155448905
 20
159.523336349
 30
0.0
 10
126.1494297994
 20
162.171958419
 30
0.0
 10
126.9949733747
 20
164.9029975017
 30
0.0
 10
128.2947494025
 20
167.5672468093
 30
0.0
 10
129.9712341841
 20
170.0086108683
 30
0.0
 10
131.925729057
 20
172.0812785215
 30
0.0
 10
133.4160397599
 20
173.1868811991
 30
0.0
 10
134.1824245044
 20
173.6293509964
 30
0.0
  0
SPLINE
  5
3F6
100
AcDbEntity
  8
0
100
AcDbSpline
 62
7
  6
BYLAYER
 70
0
 71
3
 72
9
 73
5
 74
0
 42
0.0000001
 43
0.0000001
 44
0.0000000001
 40
0.0
 40
0.0
 40
0.0
 40
0.0
 40
0.2456980371
 40
1.0
 40
1.0
 40
1.0
 40
1.0
 10
208.0753602636
 20
150.4646908609
 30
0.0
 10
208.162211026
 20
150.4145399386
 30
0.0
 10
208.5270942675
 20
150.2303542826
 30
0.0
 10
208.9331252248
 20
150.1317834248
 30
0.0
 10
209.2397385749
 20
150.1037163834
 30
0.0
  0
SPLINE
  5
3F7
100
AcDbEntity
  8
0
100
AcDbSpline
 62
7
  6
BYLAYER
 70
0
 71
3
 72
9
 73
5
 74
0
 42
0.0000001
 43
0.0000001
 44
0.0000000001
 40
0.0
 40
0.0
 40
0.0
 40
0.0
 40
0.2441530504
 40
1.0
 40
1.0
 40
1.0
 40
1.0
 10
209.2397385749
 20
150.1037163834
 30
0.0
 10
209.2931528938
 20
150.0988268967
 30
0.0
 10
209.5124143445
 20
150.0843035928
 30
0.0
 10
209.7329531147
 20
150.0913722662
 30
0.0
 10
209.8982463039
 20
150.1072178221
 30
0.0
  0
SPLINE
  5
3F8
100
AcDbEntity
  8
0
100
AcDbSpline
 62
7
  6
BYLAYER
 70
0
 71
3
 72
9
 73
5
 74
0
 42
0.0000001
 43
0.0000001
 44
0.0000000001
 40
0.0
 40
0.0
 40
0.0
 40
0.0
 40
0.7479017529
 40
1.0
 40
1.0
 40
1.0
 40
1.0
 10
129.4578374114
 20
152.3644698467
 30
0.0
 10
129.1868135183
 20
152.5209420245
 30
0.0
 10
128.8452477273
 20
152.7696283567
 30
0.0
 10
128.5430044272
 20
153.059136205
 30
0.0
 10
128.4692483317
 20
153.1345523029
 30
0.0
  0
SPLINE
  5
3F9
100
AcDbEntity
  8
0
100
AcDbSpline
 62
7
  6
BYLAYER
 70
0
 71
3
 72
15
 73
11
 74
0
 42
0.0000001
 43
0.0000001
 44
0.0000000001
 40
0.0
 40
0.0
 40
0.0
 40
0.0
 40
0.0936713435
 40
0.1988803064
 40
0.3180160203
 40
0.4495953836
 40
0.589401381
 40
0.7317206406
 40
0.870397897
 40
1.0
 40
1.0
 40
1.0
 40
1.0
 10
128.4692483317
 20
153.1345523029
 30
0.0
 10
127.9760848956
 20
153.6388151947
 30
0.0
 10
127.1688525053
 20
154.9527415655
 30
0.0
 10
126.6595031696
 20
157.3231374545
 30
0.0
 10
126.7486831189
 20
160.0226056173
 30
0.0
 10
127.4089337815
 20
162.9032927744
 30
0.0
 10
128.5903046355
 20
165.7990386219
 30
0.0
 10
130.2182710109
 20
168.5314627039
 30
0.0
 10
132.1889454884
 20
170.9286745942
 30
0.0
 10
133.7233009525
 20
172.2637289809
 30
0.0
 10
134.5226275123
 20
172.823573462
 30
0.0
  0
SPLINE
  5
3FA
100
AcDbEntity
  8
0
100
AcDbSpline
 62
7
  6
BYLAYER
 70
0
 71
3
 72
11
 73
7
 74
0
 42
0.0000001
 43
0.0000001
 44
0.0000000001
 40
0.0
 40
0.0
 40
0.0
 40
0.0
 40
0.2263876689
 40
0.461526402
 40
0.7170027895
 40
1.0
 40
1.0
 40
1.0
 40
1.0
 10
205.9576608788
 20
149.8702331871
 30
0.0
 10
206.2197230846
 20
149.6754415698
 30
0.0
 10
206.8204224163
 20
149.3599772036
 30
0.0
 10
207.8527912156
 20
149.1785452266
 30
0.0
 10
208.9744747299
 20
149.2835754523
 30
0.0
 10
209.7190455899
 20
149.5239434186
 30
0.0
 10
210.0956573421
 20
149.6813371498
 30
0.0
  0
SPLINE
  5
3FB
100
AcDbEntity
  8
0
100
AcDbSpline
 62
7
  6
BYLAYER
 70
0
 71
3
 72
17
 73
13
 74
0
 42
0.0000001
 43
0.0000001
 44
0.0000000001
 40
0.0
 40
0.0
 40
0.0
 40
0.0
 40
0.0502281099
 40
0.100980359
 40
0.2073588156
 40
0.264716769
 40
0.3252442809
 40
0.4552823211
 40
0.5942822427
 40
0.7359168003
 40
0.873064135
 40
1.0
 40
1.0
 40
1.0
 40
1.0
 10
142.2404692136
 20
173.8519310871
 30
0.0
 10
142.6036731398
 20
173.6422399464
 30
0.0
 10
143.2847371038
 20
173.1284655648
 30
0.0
 10
144.3915050315
 20
171.7798528615
 30
0.0
 10
145.0439584142
 20
170.0583433476
 30
0.0
 10
145.2816735
 20
168.1983372208
 30
0.0
 10
145.2666489851
 20
166.1221320893
 30
0.0
 10
144.7500190681
 20
163.3962960727
 30
0.0
 10
143.4876330108
 20
160.1902704772
 30
0.0
 10
141.6670398479
 20
157.1940133828
 30
0.0
 10
139.42525672
 20
154.6321615819
 30
0.0
 10
137.6584525989
 20
153.2759211887
 30
0.0
 10
136.7405718999
 20
152.7459856834
 30
0.0
  0
SPLINE
  5
3FC
100
AcDbEntity
  8
0
100
AcDbSpline
 62
7
  6
BYLAYER
 70
0
 71
3
 72
11
 73
7
 74
0
 42
0.0000001
 43
0.0000001
 44
0.0000000001
 40
0.0
 40
0.0
 40
0.0
 40
0.0
 40
0.271466926
 40
0.5248270932
 40
0.765472594
 40
1.0
 40
1.0
 40
1.0
 40
1.0
 10
136.6637505918
 20
152.7020156473
 30
0.0
 10
136.0931970321
 20
152.3782886077
 30
0.0
 10
134.9341397005
 20
151.8422148642
 30
0.0
 10
133.112760795
 20
151.4331291742
 30
0.0
 10
131.3302611855
 20
151.5087283038
 30
0.0
 10
130.2314884251
 20
151.9178123305
 30
0.0
 10
129.7406813014
 20
152.2011735449
 30
0.0
  0
SPLINE
  5
3FD
100
AcDbEntity
  8
0
100
AcDbSpline
 62
7
  6
BYLAYER
 70
0
 71
3
 72
14
 73
10
 74
0
 42
0.0000001
 43
0.0000001
 44
0.0000000001
 40
0.0
 40
0.0
 40
0.0
 40
0.0
 40
0.2946804804
 40
0.4315745358
 40
0.5596965608
 40
0.6790126299
 40
0.7906709664
 40
0.896707134
 40
1.0
 40
1.0
 40
1.0
 40
1.0
 10
193.4450097231
 20
163.2800019072
 30
0.0
 10
192.6896993875
 20
161.4479940979
 30
0.0
 10
191.8366396121
 20
158.6409574718
 30
0.0
 10
191.4147743325
 20
154.8924580234
 30
0.0
 10
191.484513329
 20
152.2988989868
 30
0.0
 10
191.945222689
 20
149.9153311156
 30
0.0
 10
192.8144363131
 20
147.8027015607
 30
0.0
 10
194.09561544
 20
146.0374363757
 30
0.0
 10
195.2184679297
 20
145.1519056137
 30
0.0
 10
195.8200134114
 20
144.8046110248
 30
0.0
  0
SPLINE
  5
3FE
100
AcDbEntity
  8
0
100
AcDbSpline
 62
7
  6
BYLAYER
 70
0
 71
3
 72
11
 73
7
 74
0
 42
0.0000001
 43
0.0000001
 44
0.0000000001
 40
0.0
 40
0.0
 40
0.0
 40
0.0
 40
0.2776495748
 40
0.5351646225
 40
0.7744615125
 40
1.0
 40
1.0
 40
1.0
 40
1.0
 10
135.5094470745
 20
173.4505739738
 30
0.0
 10
135.9522378647
 20
173.7032340524
 30
0.0
 10
136.8390499996
 20
174.1356402426
 30
0.0
 10
138.2062043572
 20
174.5517341333
 30
0.0
 10
139.5339621164
 20
174.6925002893
 30
0.0
 10
140.3911764037
 20
174.5897462282
 30
0.0
 10
140.7924571838
 20
174.4874227237
 30
0.0
  0
SPLINE
  5
3FF
100
AcDbEntity
  8
0
100
AcDbSpline
 62
7
  6
BYLAYER
 70
0
 71
3
 72
9
 73
5
 74
0
 42
0.0000001
 43
0.0000001
 44
0.0000000001
 40
0.0
 40
0.0
 40
0.0
 40
0.0
 40
0.2521371003
 40
1.0
 40
1.0
 40
1.0
 40
1.0
 10
140.7924571838
 20
174.4874227237
 30
0.0
 10
140.895023953
 20
174.4612689885
 30
0.0
 10
141.2982776016
 20
174.3442038631
 30
0.0
 10
141.6857285227
 20
174.1722035288
 30
0.0
 10
141.9576253235
 20
174.0152273889
 30
0.0
  0
SPLINE
  5
400
100
AcDbEntity
  8
0
100
AcDbSpline
 62
7
  6
BYLAYER
 70
0
 71
3
 72
9
 73
5
 74
0
 42
0.0000001
 43
0.0000001
 44
0.0000000001
 40
0.0
 40
0.0
 40
0.0
 40
0.0
 40
0.479733988
 40
1.0
 40
1.0
 40
1.0
 40
1.0
 10
204.5370287454
 20
176.7365527724
 30
0.0
 10
203.2273357697
 20
175.9804056939
 30
0.0
 10
200.6905511887
 20
174.0625694173
 30
0.0
 10
198.5632902368
 20
171.7138062687
 30
0.0
 10
197.5629509894
 20
170.414129034
 30
0.0
  0
SPLINE
  5
401
100
AcDbEntity
  8
0
100
AcDbSpline
 62
7
  6
BYLAYER
 70
0
 71
3
 72
11
 73
7
 74
0
 42
0.0000001
 43
0.0000001
 44
0.0000000001
 40
0.0
 40
0.0
 40
0.0
 40
0.0
 40
0.2294930429
 40
0.4677929937
 40
0.7228796768
 40
1.0
 40
1.0
 40
1.0
 40
1.0
 10
195.8200134114
 20
144.8046110248
 30
0.0
 10
196.5297647266
 20
144.3948451821
 30
0.0
 10
198.1319587305
 20
143.8056188886
 30
0.0
 10
200.74728621
 20
143.7193746218
 30
0.0
 10
203.4502858738
 20
144.3548667
 30
0.0
 10
205.1799777707
 20
145.1732908899
 30
0.0
 10
206.0370220301
 20
145.6681026702
 30
0.0
  0
SPLINE
  5
402
100
AcDbEntity
  8
0
100
AcDbSpline
 62
7
  6
BYLAYER
 70
0
 71
3
 72
11
 73
7
 74
0
 42
0.0000001
 43
0.0000001
 44
0.0000000001
 40
0.0
 40
0.0
 40
0.0
 40
0.0
 40
0.2778701101
 40
0.5332042197
 40
0.7712031878
 40
1.0
 40
1.0
 40
1.0
 40
1.0
 10
33.9573506138
 20
170.7066969282
 30
0.0
 10
33.962110709
 20
171.5704265959
 30
0.0
 10
34.1067768866
 20
173.2328111983
 30
0.0
 10
34.8146399192
 20
175.5458516268
 30
0.0
 10
36.02205949
 20
177.4740214752
 30
0.0
 10
37.1617855374
 20
178.4218764644
 30
0.0
 10
37.7777048871
 20
178.7774755442
 30
0.0
  0
SPLINE
  5
403
100
AcDbEntity
  8
0
100
AcDbSpline
 62
7
  6
BYLAYER
 70
0
 71
3
 72
9
 73
5
 74
0
 42
0.0000001
 43
0.0000001
 44
0.0000000001
 40
0.0
 40
0.0
 40
0.0
 40
0.0
 40
0.2381032898
 40
1.0
 40
1.0
 40
1.0
 40
1.0
 10
206.0370220301
 20
145.6681026702
 30
0.0
 10
206.4519847625
 20
145.9076800853
 30
0.0
 10
208.154051878
 20
146.9840107585
 30
0.0
 10
209.6927992473
 20
148.308722511
 30
0.0
 10
210.7664188552
 20
149.4033220991
 30
0.0
  0
SPLINE
  5
404
100
AcDbEntity
  8
0
100
AcDbSpline
 62
7
  6
BYLAYER
 70
0
 71
3
 72
13
 73
9
 74
0
 42
0.0000001
 43
0.0000001
 44
0.0000000001
 40
0.0
 40
0.0
 40
0.0
 40
0.0
 40
0.2922510438
 40
0.5538165844
 40
0.6730630189
 40
0.7858829502
 40
0.8940158599
 40
1.0
 40
1.0
 40
1.0
 40
1.0
 10
218.0276542048
 20
161.6171810638
 30
0.0
 10
218.53151552
 20
163.2479635991
 30
0.0
 10
219.2099195956
 20
166.4345954038
 30
0.0
 10
219.1263463203
 20
170.4191248365
 30
0.0
 10
218.3716161718
 20
173.2160012988
 30
0.0
 10
217.495767036
 20
175.0150849446
 30
0.0
 10
216.2969146173
 20
176.522435516
 30
0.0
 10
215.2900963515
 20
177.2905576186
 30
0.0
 10
214.7540373641
 20
177.6000444177
 30
0.0
  0
SPLINE
  5
405
100
AcDbEntity
  8
0
100
AcDbSpline
 62
7
  6
BYLAYER
 70
0
 71
3
 72
17
 73
13
 74
0
 42
0.0000001
 43
0.0000001
 44
0.0000000001
 40
0.0
 40
0.0
 40
0.0
 40
0.0
 40
0.0474707382
 40
0.0959306936
 40
0.1465259103
 40
0.2000280605
 40
0.3174474492
 40
0.4488518759
 40
0.5898877782
 40
0.7336188638
 40
0.8724381846
 40
1.0
 40
1.0
 40
1.0
 40
1.0
 10
54.5276298994
 20
149.7655812233
 30
0.0
 10
54.0686533607
 20
149.5005925769
 30
0.0
 10
53.0693028719
 20
149.0805021518
 30
0.0
 10
51.4396150513
 20
148.8252225783
 30
0.0
 10
49.7277654708
 20
148.9284772542
 30
0.0
 10
47.318693651
 20
149.5369454766
 30
0.0
 10
44.2964152808
 20
151.1425749315
 30
0.0
 10
40.9963046116
 20
154.021314742
 30
0.0
 10
38.1028694749
 20
157.6878390199
 30
0.0
 10
35.8299550294
 20
161.8610255615
 30
0.0
 10
34.3510211677
 20
166.2176383351
 30
0.0
 10
33.9571111672
 20
169.1955280884
 30
0.0
 10
33.9571111672
 20
170.6196721165
 30
0.0
  0
SPLINE
  5
406
100
AcDbEntity
  8
0
100
AcDbSpline
 62
7
  6
BYLAYER
 70
0
 71
3
 72
11
 73
7
 74
0
 42
0.0000001
 43
0.0000001
 44
0.0000000001
 40
0.0
 40
0.0
 40
0.0
 40
0.0
 40
0.2294930429
 40
0.4677929937
 40
0.7228796768
 40
1.0
 40
1.0
 40
1.0
 40
1.0
 10
214.7540373641
 20
177.6000444177
 30
0.0
 10
214.0442860489
 20
178.0098102605
 30
0.0
 10
212.442092045
 20
178.599036554
 30
0.0
 10
209.8267645655
 20
178.6852808208
 30
0.0
 10
207.1237649018
 20
178.0497887425
 30
0.0
 10
205.3940730048
 20
177.2313645527
 30
0.0
 10
204.5370287454
 20
176.7365527724
 30
0.0
  0
SPLINE
  5
407
100
AcDbEntity
  8
0
100
AcDbSpline
 62
7
  6
BYLAYER
 70
0
 71
3
 72
11
 73
7
 74
0
 42
0.0000001
 43
0.0000001
 44
0.0000000001
 40
0.0
 40
0.0
 40
0.0
 40
0.0
 40
0.2177807831
 40
0.4509257127
 40
0.7102607875
 40
1.0
 40
1.0
 40
1.0
 40
1.0
 10
38.5228357818
 20
172.9144878233
 30
0.0
 10
38.1500522552
 20
172.6993505292
 30
0.0
 10
37.4526789046
 20
172.1129363412
 30
0.0
 10
36.7102404929
 20
170.8990766028
 30
0.0
 10
36.269112657
 20
169.4030472232
 30
0.0
 10
36.1824367549
 20
168.3141881884
 30
0.0
 10
36.1824367549
 20
167.741565279
 30
0.0
  0
SPLINE
  5
408
100
AcDbEntity
  8
0
100
AcDbSpline
 62
7
  6
BYLAYER
 70
0
 71
3
 72
17
 73
13
 74
0
 42
0.0000001
 43
0.0000001
 44
0.0000000001
 40
0.0
 40
0.0
 40
0.0
 40
0.0
 40
0.0428592926
 40
0.087485474
 40
0.1353198781
 40
0.1872819044
 40
0.3045421965
 40
0.4382074305
 40
0.582548911
 40
0.7297129633
 40
0.8713059682
 40
1.0
 40
1.0
 40
1.0
 40
1.0
 10
40.0228093871
 20
170.3164418385
 30
0.0
 10
40.2274226026
 20
170.4345952442
 30
0.0
 10
40.6785290364
 20
170.6219105787
 30
0.0
 10
41.4230401433
 20
170.7311903472
 30
0.0
 10
42.2226220784
 20
170.6722790776
 30
0.0
 10
43.3843958479
 20
170.3632855189
 30
0.0
 10
44.8695433718
 20
169.5511978271
 30
0.0
 10
46.5103954055
 20
168.0980533994
 30
0.0
 10
47.9609039536
 20
166.241539163
 30
0.0
 10
49.1024363143
 20
164.1315895186
 30
0.0
 10
49.8433252566
 20
161.9412759357
 30
0.0
 10
50.0417873678
 20
160.449517668
 30
0.0
 10
50.0417873678
 20
159.7400464904
 30
0.0
  0
SPLINE
  5
409
100
AcDbEntity
  8
0
100
AcDbSpline
 62
7
  6
BYLAYER
 70
0
 71
3
 72
14
 73
10
 74
0
 42
0.0000001
 43
0.0000001
 44
0.0000000001
 40
0.0
 40
0.0
 40
0.0
 40
0.0
 40
0.2946804804
 40
0.4315745358
 40
0.5596965608
 40
0.6790126299
 40
0.7906709664
 40
0.896707134
 40
1.0
 40
1.0
 40
1.0
 40
1.0
 10
188.9195074822
 20
165.8927427362
 30
0.0
 10
188.1641971466
 20
164.0607349268
 30
0.0
 10
187.3111373711
 20
161.2536983007
 30
0.0
 10
186.8892720916
 20
157.5051988523
 30
0.0
 10
186.959011088
 20
154.9116398157
 30
0.0
 10
187.4197204481
 20
152.5280719446
 30
0.0
 10
188.2889340722
 20
150.4154423896
 30
0.0
 10
189.570113199
 20
148.6501772046
 30
0.0
 10
190.6929656888
 20
147.7646464427
 30
0.0
 10
191.2945111705
 20
147.4173518538
 30
0.0
  0
SPLINE
  5
40A
100
AcDbEntity
  8
0
100
AcDbSpline
 62
7
  6
BYLAYER
 70
0
 71
3
 72
9
 73
5
 74
0
 42
0.0000001
 43
0.0000001
 44
0.0000000001
 40
0.0
 40
0.0
 40
0.0
 40
0.0
 40
0.479733988
 40
1.0
 40
1.0
 40
1.0
 40
1.0
 10
200.0115265045
 20
179.3492936013
 30
0.0
 10
198.7018335287
 20
178.5931465228
 30
0.0
 10
196.1650489478
 20
176.6753102462
 30
0.0
 10
194.0377879959
 20
174.3265470976
 30
0.0
 10
193.0374487485
 20
173.0268698629
 30
0.0
  0
SPLINE
  5
40B
100
AcDbEntity
  8
0
100
AcDbSpline
 62
7
  6
BYLAYER
 70
0
 71
3
 72
9
 73
5
 74
0
 42
0.0000001
 43
0.0000001
 44
0.0000000001
 40
0.0
 40
0.0
 40
0.0
 40
0.0
 40
0.747908111
 40
1.0
 40
1.0
 40
1.0
 40
1.0
 10
191.2945111705
 20
147.4173518538
 30
0.0
 10
191.8215455464
 20
147.1130752986
 30
0.0
 10
192.5822292779
 20
146.7938342889
 30
0.0
 10
193.3734548629
 20
146.6028935366
 30
0.0
 10
193.5745634214
 20
146.5625053627
 30
0.0
  0
SPLINE
  5
40C
100
AcDbEntity
  8
0
100
AcDbSpline
 62
7
  6
BYLAYER
 70
0
 71
3
 72
9
 73
5
 74
0
 42
0.0000001
 43
0.0000001
 44
0.0000000001
 40
0.0
 40
0.0
 40
0.0
 40
0.0
 40
0.5029174222
 40
1.0
 40
1.0
 40
1.0
 40
1.0
 10
212.4705883158
 20
178.2242860924
 30
0.0
 10
212.1644537447
 20
178.6257572664
 30
0.0
 10
211.4803084646
 20
179.3699368187
 30
0.0
 10
210.66069826
 20
179.9632813878
 30
0.0
 10
210.2285351232
 20
180.2127852467
 30
0.0
  0
SPLINE
  5
40D
100
AcDbEntity
  8
0
100
AcDbSpline
 62
7
  6
BYLAYER
 70
0
 71
3
 72
11
 73
7
 74
0
 42
0.0000001
 43
0.0000001
 44
0.0000000001
 40
0.0
 40
0.0
 40
0.0
 40
0.0
 40
0.2294930429
 40
0.4677929937
 40
0.7228796768
 40
1.0
 40
1.0
 40
1.0
 40
1.0
 10
210.2285351232
 20
180.2127852467
 30
0.0
 10
209.518783808
 20
180.6225510894
 30
0.0
 10
207.9165898041
 20
181.2117773829
 30
0.0
 10
205.3012623246
 20
181.2980216497
 30
0.0
 10
202.5982626608
 20
180.6625295715
 30
0.0
 10
200.8685707639
 20
179.8441053816
 30
0.0
 10
200.0115265045
 20
179.3492936013
 30
0.0
  0
SPLINE
  5
40E
100
AcDbEntity
  8
0
100
AcDbSpline
 62
7
  6
BYLAYER
 70
0
 71
3
 72
9
 73
5
 74
0
 42
0.0000001
 43
0.0000001
 44
0.0000000001
 40
0.0
 40
0.0
 40
0.0
 40
0.0
 40
0.4916169397
 40
1.0
 40
1.0
 40
1.0
 40
1.0
 10
178.5915515678
 20
167.0389300944
 30
0.0
 10
178.9586693689
 20
168.5860376101
 30
0.0
 10
179.9988811639
 20
171.6672924192
 30
0.0
 10
181.5119862341
 20
174.5422461644
 30
0.0
 10
182.3884610962
 20
175.9334690921
 30
0.0
  0
SPLINE
  5
40F
100
AcDbEntity
  8
0
100
AcDbSpline
 62
7
  6
BYLAYER
 70
0
 71
3
 72
9
 73
5
 74
0
 42
0.0000001
 43
0.0000001
 44
0.0000000001
 40
0.0
 40
0.0
 40
0.0
 40
0.0
 40
0.2550711683
 40
1.0
 40
1.0
 40
1.0
 40
1.0
 10
184.031590308
 20
178.2913351985
 30
0.0
 10
184.2696881848
 20
178.6008614899
 30
0.0
 10
185.2266432575
 20
179.795971563
 30
0.0
 10
186.2783617876
 20
180.9161627194
 30
0.0
 10
187.1133885515
 20
181.6929537852
 30
0.0
  0
SPLINE
  5
410
100
AcDbEntity
  8
0
100
AcDbSpline
 62
7
  6
BYLAYER
 70
0
 71
3
 72
9
 73
5
 74
0
 42
0.0000001
 43
0.0000001
 44
0.0000000001
 40
0.0
 40
0.0
 40
0.0
 40
0.0
 40
0.2587562444
 40
1.0
 40
1.0
 40
1.0
 40
1.0
 10
187.1133885515
 20
181.6929537852
 30
0.0
 10
187.3907240962
 20
181.9509476395
 30
0.0
 10
188.4848209948
 20
182.9234237487
 30
0.0
 10
189.6708214507
 20
183.7951579493
 30
0.0
 10
190.5975899017
 20
184.3595045322
 30
0.0
  0
SPLINE
  5
411
100
AcDbEntity
  8
0
100
AcDbSpline
 62
7
  6
BYLAYER
 70
0
 71
3
 72
10
 73
6
 74
0
 42
0.0000001
 43
0.0000001
 44
0.0000000001
 40
0.0
 40
0.0
 40
0.0
 40
0.0
 40
0.5107947952
 40
0.7566559351
 40
1.0
 40
1.0
 40
1.0
 40
1.0
 10
178.7219389083
 20
156.9557998866
 30
0.0
 10
179.0675486487
 20
156.0556370914
 30
0.0
 10
179.7718275014
 20
154.7763507716
 30
0.0
 10
181.0878021696
 20
153.4118174115
 30
0.0
 10
181.8456854709
 20
152.8725105028
 30
0.0
 10
182.2435066886
 20
152.6428335116
 30
0.0
  0
SPLINE
  5
412
100
AcDbEntity
  8
0
100
AcDbSpline
 62
7
  6
BYLAYER
 70
0
 71
3
 72
9
 73
5
 74
0
 42
0.0000001
 43
0.0000001
 44
0.0000000001
 40
0.0
 40
0.0
 40
0.0
 40
0.0
 40
0.747908111
 40
1.0
 40
1.0
 40
1.0
 40
1.0
 10
182.2435066886
 20
152.6428335116
 30
0.0
 10
182.7705410646
 20
152.3385569564
 30
0.0
 10
183.531224796
 20
152.0193159468
 30
0.0
 10
184.322450381
 20
151.8283751945
 30
0.0
 10
184.5235589395
 20
151.7879870206
 30
0.0
  0
SPLINE
  5
413
100
AcDbEntity
  8
0
100
AcDbSpline
 62
7
  6
BYLAYER
 70
0
 71
3
 72
9
 73
5
 74
0
 42
0.0000001
 43
0.0000001
 44
0.0000000001
 40
0.0
 40
0.0
 40
0.0
 40
0.0
 40
0.5029174222
 40
1.0
 40
1.0
 40
1.0
 40
1.0
 10
203.4195838339
 20
183.4497677503
 30
0.0
 10
203.1134492628
 20
183.8512389243
 30
0.0
 10
202.4293039827
 20
184.5954184766
 30
0.0
 10
201.6096937782
 20
185.1887630457
 30
0.0
 10
201.1775306413
 20
185.4382669045
 30
0.0
  0
SPLINE
  5
414
100
AcDbEntity
  8
0
100
AcDbSpline
 62
7
  6
BYLAYER
 70
0
 71
3
 72
10
 73
6
 74
0
 42
0.0000001
 43
0.0000001
 44
0.0000000001
 40
0.0
 40
0.0
 40
0.0
 40
0.0
 40
0.2410774847
 40
0.48574858
 40
1.0
 40
1.0
 40
1.0
 40
1.0
 10
201.1775306413
 20
185.4382669045
 30
0.0
 10
200.717727803
 20
185.7037281914
 30
0.0
 10
199.7288043016
 20
186.1379509617
 30
0.0
 10
197.5584328717
 20
186.5799787203
 30
0.0
 10
195.8495903533
 20
186.4134089883
 30
0.0
 10
194.7498891863
 20
186.1426194296
 30
0.0
  0
SPLINE
  5
415
100
AcDbEntity
  8
0
100
AcDbSpline
 62
7
  6
BYLAYER
 70
0
 71
3
 72
9
 73
5
 74
0
 42
0.0000001
 43
0.0000001
 44
0.0000000001
 40
0.0
 40
0.0
 40
0.0
 40
0.0
 40
0.2359507147
 40
1.0
 40
1.0
 40
1.0
 40
1.0
 10
194.7228206271
 20
186.1359664237
 30
0.0
 10
194.4236376345
 20
186.0615075676
 30
0.0
 10
193.1688552174
 20
185.6931033608
 30
0.0
 10
191.9754614996
 20
185.1310860916
 30
0.0
 10
191.1108562066
 20
184.6319089726
 30
0.0
  0
SPLINE
  5
416
100
AcDbEntity
  8
0
100
AcDbSpline
 62
7
  6
BYLAYER
 70
0
 71
3
 72
14
 73
10
 74
0
 42
0.0000001
 43
0.0000001
 44
0.0000000001
 40
0.0
 40
0.0
 40
0.0
 40
0.0
 40
0.2946804804
 40
0.4315745358
 40
0.5596965608
 40
0.6790126299
 40
0.7906709664
 40
0.896707134
 40
1.0
 40
1.0
 40
1.0
 40
1.0
 10
184.3940052412
 20
168.5054835651
 30
0.0
 10
183.6386949056
 20
166.6734757557
 30
0.0
 10
182.7856351302
 20
163.8664391297
 30
0.0
 10
182.3637698506
 20
160.1179396812
 30
0.0
 10
182.4335088471
 20
157.5243806446
 30
0.0
 10
182.8942182071
 20
155.1408127735
 30
0.0
 10
183.7634318312
 20
153.0281832185
 30
0.0
 10
185.0446109581
 20
151.2629180336
 30
0.0
 10
186.1674634479
 20
150.3773872716
 30
0.0
 10
186.7690089295
 20
150.0300926827
 30
0.0
  0
SPLINE
  5
417
100
AcDbEntity
  8
0
100
AcDbSpline
 62
7
  6
BYLAYER
 70
0
 71
3
 72
9
 73
5
 74
0
 42
0.0000001
 43
0.0000001
 44
0.0000000001
 40
0.0
 40
0.0
 40
0.0
 40
0.0
 40
0.479733988
 40
1.0
 40
1.0
 40
1.0
 40
1.0
 10
195.4860242635
 20
181.9620344303
 30
0.0
 10
194.1763312878
 20
181.2058873517
 30
0.0
 10
191.6395467068
 20
179.2880510752
 30
0.0
 10
189.512285755
 20
176.9392879265
 30
0.0
 10
188.5119465075
 20
175.6396106918
 30
0.0
  0
SPLINE
  5
418
100
AcDbEntity
  8
0
100
AcDbSpline
 62
7
  6
BYLAYER
 70
0
 71
3
 72
9
 73
5
 74
0
 42
0.0000001
 43
0.0000001
 44
0.0000000001
 40
0.0
 40
0.0
 40
0.0
 40
0.0
 40
0.747908111
 40
1.0
 40
1.0
 40
1.0
 40
1.0
 10
186.7690089295
 20
150.0300926827
 30
0.0
 10
187.2960433055
 20
149.7258161275
 30
0.0
 10
188.056727037
 20
149.4065751179
 30
0.0
 10
188.847952622
 20
149.2156343656
 30
0.0
 10
189.0490611805
 20
149.1752461916
 30
0.0
  0
SPLINE
  5
419
100
AcDbEntity
  8
0
100
AcDbSpline
 62
7
  6
BYLAYER
 70
0
 71
3
 72
9
 73
5
 74
0
 42
0.0000001
 43
0.0000001
 44
0.0000000001
 40
0.0
 40
0.0
 40
0.0
 40
0.0
 40
0.5029174222
 40
1.0
 40
1.0
 40
1.0
 40
1.0
 10
207.9450860749
 20
180.8370269214
 30
0.0
 10
207.6389515038
 20
181.2384980953
 30
0.0
 10
206.9548062236
 20
181.9826776477
 30
0.0
 10
206.1351960191
 20
182.5760222167
 30
0.0
 10
205.7030328822
 20
182.8255260756
 30
0.0
  0
SPLINE
  5
41A
100
AcDbEntity
  8
0
100
AcDbSpline
 62
7
  6
BYLAYER
 70
0
 71
3
 72
11
 73
7
 74
0
 42
0.0000001
 43
0.0000001
 44
0.0000000001
 40
0.0
 40
0.0
 40
0.0
 40
0.0
 40
0.2294930429
 40
0.4677929937
 40
0.7228796768
 40
1.0
 40
1.0
 40
1.0
 40
1.0
 10
205.7030328822
 20
182.8255260756
 30
0.0
 10
204.993281567
 20
183.2352919184
 30
0.0
 10
203.3910875632
 20
183.8245182118
 30
0.0
 10
200.7757600836
 20
183.9107624787
 30
0.0
 10
198.0727604199
 20
183.2752704004
 30
0.0
 10
196.343068523
 20
182.4568462105
 30
0.0
 10
195.4860242635
 20
181.9620344303
 30
0.0
  0
SPLINE
  5
41B
100
AcDbEntity
  8
0
100
AcDbSpline
 62
7
  6
BYLAYER
 70
0
 71
3
 72
9
 73
5
 74
0
 42
0.0000001
 43
0.0000001
 44
0.0000000001
 40
0.0
 40
0.0
 40
0.0
 40
0.0
 40
0.4774876405
 40
1.0
 40
1.0
 40
1.0
 40
1.0
 10
198.2698387988
 20
178.3375474626
 30
0.0
 10
197.2287729383
 20
177.7364913956
 30
0.0
 10
195.194115446
 20
176.2207363317
 30
0.0
 10
193.4625663145
 20
174.3770698832
 30
0.0
 10
192.636433349
 20
173.3533663554
 30
0.0
  0
SPLINE
  5
41C
100
AcDbEntity
  8
0
100
AcDbSpline
 62
7
  6
BYLAYER
 70
0
 71
3
 72
10
 73
6
 74
0
 42
0.0000001
 43
0.0000001
 44
0.0000000001
 40
0.0
 40
0.0
 40
0.0
 40
0.0
 40
0.536170117
 40
0.7787589367
 40
1.0
 40
1.0
 40
1.0
 40
1.0
 10
188.4090915039
 20
166.0056174402
 30
0.0
 10
187.7700769948
 20
164.3333515094
 30
0.0
 10
187.0819542144
 20
161.7903075846
 30
0.0
 10
186.8795945945
 20
158.4489252302
 30
0.0
 10
187.0322601327
 20
156.8978126557
 30
0.0
 10
187.1785343791
 20
156.1737460721
 30
0.0
  0
SPLINE
  5
41D
100
AcDbEntity
  8
0
100
AcDbSpline
 62
7
  6
BYLAYER
 70
0
 71
3
 72
11
 73
7
 74
0
 42
0.0000001
 43
0.0000001
 44
0.0000000001
 40
0.0
 40
0.0
 40
0.0
 40
0.0
 40
0.2895416688
 40
0.549118971
 40
0.7822562702
 40
1.0
 40
1.0
 40
1.0
 40
1.0
 10
193.7610732782
 20
202.5450334816
 30
0.0
 10
193.9014030264
 20
202.6260524159
 30
0.0
 10
194.1560551193
 20
202.8016437362
 30
0.0
 10
194.4606693688
 20
203.1214380727
 30
0.0
 10
194.6533946545
 20
203.4754843607
 30
0.0
 10
194.6981431461
 20
203.729546174
 30
0.0
 10
194.6981431083
 20
203.8514038948
 30
0.0
  0
SPLINE
  5
41E
100
AcDbEntity
  8
0
100
AcDbSpline
 62
7
  6
BYLAYER
 70
0
 71
3
 72
12
 73
8
 74
0
 42
0.0000001
 43
0.0000001
 44
0.0000000001
 40
0.0
 40
0.0
 40
0.0
 40
0.0
 40
0.2919506105
 40
0.5497376293
 40
0.7803065018
 40
0.8903997173
 40
1.0
 40
1.0
 40
1.0
 40
1.0
 10
201.6200227503
 20
178.2738595079
 30
0.0
 10
202.5089119226
 20
178.7870568474
 30
0.0
 10
204.2755622764
 20
179.6101521354
 30
0.0
 10
206.9941824398
 20
180.1633334658
 30
0.0
 10
209.1315677501
 20
179.929417088
 30
0.0
 10
210.601784382
 20
179.3202685372
 30
0.0
 10
211.2512837044
 20
178.8921700928
 30
0.0
 10
211.5517744935
 20
178.6509755954
 30
0.0
  0
SPLINE
  5
41F
100
AcDbEntity
  8
0
100
AcDbSpline
 62
7
  6
BYLAYER
 70
0
 71
3
 72
17
 73
13
 74
0
 42
0.0000001
 43
0.0000001
 44
0.0000000001
 40
0.0
 40
0.0
 40
0.0
 40
0.0
 40
0.0431377285
 40
0.0887669619
 40
0.1379627269
 40
0.1913362787
 40
0.310770241
 40
0.4450642884
 40
0.5885127795
 40
0.7337571567
 40
0.873129489
 40
1.0
 40
1.0
 40
1.0
 40
1.0
 10
191.7060324514
 20
147.973670533
 30
0.0
 10
191.3057927499
 20
148.2925398069
 30
0.0
 10
190.5614499124
 20
149.0536665227
 30
0.0
 10
189.7017394068
 20
150.4595807402
 30
0.0
 10
189.087959732
 20
152.1172919246
 30
0.0
 10
188.5913575869
 20
154.7134331558
 30
0.0
 10
188.6863453467
 20
158.3961570512
 30
0.0
 10
189.7788044699
 20
163.0045982242
 30
0.0
 10
191.7683430704
 20
167.636599671
 30
0.0
 10
194.5059711704
 20
171.9402795154
 30
0.0
 10
197.7807822614
 20
175.5895720868
 30
0.0
 10
200.3166246011
 20
177.5213467275
 30
0.0
 10
201.6200227503
 20
178.2738595079
 30
0.0
  0
SPLINE
  5
420
100
AcDbEntity
  8
0
100
AcDbSpline
 62
7
  6
BYLAYER
 70
0
 71
3
 72
9
 73
5
 74
0
 42
0.0000001
 43
0.0000001
 44
0.0000000001
 40
0.0
 40
0.0
 40
0.0
 40
0.0
 40
0.4774876405
 40
1.0
 40
1.0
 40
1.0
 40
1.0
 10
202.7953410397
 20
175.7248066336
 30
0.0
 10
201.7542751792
 20
175.1237505667
 30
0.0
 10
199.7196176869
 20
173.6079955028
 30
0.0
 10
197.9880685554
 20
171.7643290543
 30
0.0
 10
197.16193559
 20
170.7406255265
 30
0.0
  0
SPLINE
  5
421
100
AcDbEntity
  8
0
100
AcDbSpline
 62
7
  6
BYLAYER
 70
0
 71
3
 72
10
 73
6
 74
0
 42
0.0000001
 43
0.0000001
 44
0.0000000001
 40
0.0
 40
0.0
 40
0.0
 40
0.0
 40
0.536170117
 40
0.7787589367
 40
1.0
 40
1.0
 40
1.0
 40
1.0
 10
192.9345937449
 20
163.3928766113
 30
0.0
 10
192.2955792357
 20
161.7206106804
 30
0.0
 10
191.6074564553
 20
159.1775667557
 30
0.0
 10
191.4050968354
 20
155.8361844012
 30
0.0
 10
191.5577623737
 20
154.2850718268
 30
0.0
 10
191.70403662
 20
153.5610052432
 30
0.0
  0
SPLINE
  5
422
100
AcDbEntity
  8
0
100
AcDbSpline
 62
7
  6
BYLAYER
 70
0
 71
3
 72
15
 73
11
 74
0
 42
0.0000001
 43
0.0000001
 44
0.0000000001
 40
0.0
 40
0.0
 40
0.0
 40
0.0
 40
0.1480445194
 40
0.2818746287
 40
0.4029853076
 40
0.5153743354
 40
0.6251190574
 40
0.7390723013
 40
0.8629068846
 40
1.0
 40
1.0
 40
1.0
 40
1.0
 10
206.2055878656
 20
175.5195692446
 30
0.0
 10
206.9375727387
 20
175.9421783855
 30
0.0
 10
208.3941944721
 20
176.6467912091
 30
0.0
 10
210.6300875604
 20
177.252743453
 30
0.0
 10
212.7487762279
 20
177.3258128776
 30
0.0
 10
214.6784437976
 20
176.8421464871
 30
0.0
 10
216.3303353109
 20
175.8036554611
 30
0.0
 10
217.6257548807
 20
174.2635005977
 30
0.0
 10
218.527890881
 20
172.3000975766
 30
0.0
 10
218.8432201806
 20
170.8327835311
 30
0.0
 10
218.9429746395
 20
170.056468541
 30
0.0
  0
SPLINE
  5
423
100
AcDbEntity
  8
0
100
AcDbSpline
 62
7
  6
BYLAYER
 70
0
 71
3
 72
9
 73
5
 74
0
 42
0.0000001
 43
0.0000001
 44
0.0000000001
 40
0.0
 40
0.0
 40
0.0
 40
0.0
 40
0.2358466014
 40
1.0
 40
1.0
 40
1.0
 40
1.0
 10
218.9429746395
 20
170.056468541
 30
0.0
 10
218.9894391743
 20
169.6948695179
 30
0.0
 10
219.1253336043
 20
168.153913185
 30
0.0
 10
219.0345730323
 20
166.5974412173
 30
0.0
 10
218.8716140281
 20
165.4275062375
 30
0.0
  0
SPLINE
  5
424
100
AcDbEntity
  8
0
100
AcDbSpline
 62
7
  6
BYLAYER
 70
0
 71
3
 72
9
 73
5
 74
0
 42
0.0000001
 43
0.0000001
 44
0.0000000001
 40
0.0
 40
0.0
 40
0.0
 40
0.0
 40
0.2429492046
 40
1.0
 40
1.0
 40
1.0
 40
1.0
 10
218.8716140281
 20
165.4275062375
 30
0.0
 10
218.8299347746
 20
165.1282775032
 30
0.0
 10
218.6327043818
 20
163.900268495
 30
0.0
 10
218.3368966434
 20
162.6886743116
 30
0.0
 10
218.0665514973
 20
161.7869019471
 30
0.0
  0
SPLINE
  5
425
100
AcDbEntity
  8
0
100
AcDbSpline
 62
7
  6
BYLAYER
 70
0
 71
3
 72
9
 73
5
 74
0
 42
0.0000001
 43
0.0000001
 44
0.0000000001
 40
0.0
 40
0.0
 40
0.0
 40
0.0
 40
0.2629816615
 40
1.0
 40
1.0
 40
1.0
 40
1.0
 10
210.6413564353
 20
149.296888096
 30
0.0
 10
210.2919393498
 20
148.9468668587
 30
0.0
 10
208.9262175914
 20
147.6544048704
 30
0.0
 10
207.4059677173
 20
146.5174810987
 30
0.0
 10
206.2055878656
 20
145.8244456051
 30
0.0
  0
SPLINE
  5
426
100
AcDbEntity
  8
0
100
AcDbSpline
 62
7
  6
BYLAYER
 70
0
 71
3
 72
9
 73
5
 74
0
 42
0.0000001
 43
0.0000001
 44
0.0000000001
 40
0.0
 40
0.0
 40
0.0
 40
0.0
 40
0.2615997389
 40
1.0
 40
1.0
 40
1.0
 40
1.0
 10
205.383183636
 20
145.3801475113
 30
0.0
 10
205.1553921473
 20
145.2655288311
 30
0.0
 10
204.2742124748
 20
144.8489198687
 30
0.0
 10
203.3487974558
 20
144.521791699
 30
0.0
 10
202.649697433
 20
144.3504980223
 30
0.0
  0
SPLINE
  5
427
100
AcDbEntity
  8
0
100
AcDbSpline
 62
7
  6
BYLAYER
 70
0
 71
3
 72
21
 73
17
 74
0
 42
0.0000001
 43
0.0000001
 44
0.0000000001
 40
0.0
 40
0.0
 40
0.0
 40
0.0
 40
0.0514918719
 40
0.0986101819
 40
0.1434782104
 40
0.18883967
 40
0.2372952343
 40
0.2906544761
 40
0.3497500452
 40
0.4145695059
 40
0.4844642505
 40
0.5583347252
 40
0.7120130593
 40
0.8631428496
 40
0.9340140633
 40
1.0
 40
1.0
 40
1.0
 40
1.0
 10
202.649697433
 20
144.3504980223
 30
0.0
 10
201.9506604967
 20
144.1792198031
 30
0.0
 10
200.5718488455
 20
143.9831559842
 30
0.0
 10
198.5542842952
 20
144.2195597815
 30
0.0
 10
196.7719208462
 20
145.0149406322
 30
0.0
 10
195.3144702404
 20
146.338911233
 30
0.0
 10
194.2371300419
 20
148.11959288
 30
0.0
 10
193.5587034594
 20
150.2820775898
 30
0.0
 10
193.2854357628
 20
152.7574261101
 30
0.0
 10
193.4186008521
 20
155.4725527596
 30
0.0
 10
193.9514285412
 20
158.3468125038
 30
0.0
 10
195.1884086973
 20
162.3241954589
 30
0.0
 10
197.5717455988
 20
167.0939532462
 30
0.0
 10
200.8299565891
 20
171.2669962688
 30
0.0
 10
203.8253062119
 20
173.9684660021
 30
0.0
 10
205.4068501372
 20
175.0584205548
 30
0.0
 10
206.2055878656
 20
175.5195692446
 30
0.0
  0
SPLINE
  5
428
100
AcDbEntity
  8
0
100
AcDbSpline
 62
7
  6
BYLAYER
 70
0
 71
3
 72
17
 73
13
 74
0
 42
0.0000001
 43
0.0000001
 44
0.0000000001
 40
0.0
 40
0.0
 40
0.0
 40
0.0
 40
0.1272905143
 40
0.2671684517
 40
0.4128551919
 40
0.5565203481
 40
0.6906977861
 40
0.8096606982
 40
0.8627164467
 40
0.9115939909
 40
0.9569713574
 40
1.0
 40
1.0
 40
1.0
 40
1.0
 10
211.0146141615
 20
165.6523505724
 30
0.0
 10
210.3323956797
 20
165.2584738994
 30
0.0
 10
209.0057868299
 20
164.245598284
 30
0.0
 10
207.2961331814
 20
162.3312943839
 30
0.0
 10
205.8717535069
 20
160.0749258434
 30
0.0
 10
204.844220746
 20
157.6500690886
 30
0.0
 10
204.2916937385
 20
155.243859286
 30
0.0
 10
204.2630279514
 20
153.3268887
 30
0.0
 10
204.5428796805
 20
151.9833895168
 30
0.0
 10
204.8791409469
 20
151.1303377205
 30
0.0
 10
205.3446358038
 20
150.4121946115
 30
0.0
 10
205.7439443571
 20
150.0290893135
 30
0.0
 10
205.9576608788
 20
149.8702331871
 30
0.0
  0
SPLINE
  5
429
100
AcDbEntity
  8
0
100
AcDbSpline
 62
7
  6
BYLAYER
 70
0
 71
3
 72
17
 73
13
 74
0
 42
0.0000001
 43
0.0000001
 44
0.0000000001
 40
0.0
 40
0.0
 40
0.0
 40
0.0
 40
0.0431396875
 40
0.0886926819
 40
0.1375964296
 40
0.1903992696
 40
0.3079639237
 40
0.4399421789
 40
0.5816009087
 40
0.7266196948
 40
0.8681633892
 40
1.0
 40
1.0
 40
1.0
 40
1.0
 10
114.890910787
 20
217.3657012167
 30
0.0
 10
114.83449314
 20
217.6803274286
 30
0.0
 10
114.6424268791
 20
218.3154025285
 30
0.0
 10
114.147209864
 20
219.2136343935
 30
0.0
 10
113.4517597671
 20
220.0613774483
 30
0.0
 10
112.2332386524
 20
221.144175171
 30
0.0
 10
110.268990693
 20
222.2692902731
 30
0.0
 10
107.5031677002
 20
223.1832127496
 30
0.0
 10
104.4236075996
 20
223.6544522285
 30
0.0
 10
101.2383254391
 20
223.6504396989
 30
0.0
 10
98.1632153961
 20
223.173029997
 30
0.0
 10
96.2284693071
 20
222.5270235185
 30
0.0
 10
95.3401675027
 20
222.1206385612
 30
0.0
  0
SPLINE
  5
42A
100
AcDbEntity
  8
0
100
AcDbSpline
 62
7
  6
BYLAYER
 70
0
 71
3
 72
9
 73
5
 74
0
 42
0.0000001
 43
0.0000001
 44
0.0000000001
 40
0.0
 40
0.0
 40
0.0
 40
0.0
 40
0.2553152189
 40
1.0
 40
1.0
 40
1.0
 40
1.0
 10
95.3401675027
 20
222.1206385612
 30
0.0
 10
95.2495773248
 20
222.0791948927
 30
0.0
 10
94.8965781264
 20
221.9129450657
 30
0.0
 10
94.5510184471
 20
221.7307588397
 30
0.0
 10
94.2993818002
 20
221.5854772211
 30
0.0
  0
SPLINE
  5
42B
100
AcDbEntity
  8
0
100
AcDbSpline
 62
7
  6
BYLAYER
 70
0
 71
3
 72
17
 73
13
 74
0
 42
0.0000001
 43
0.0000001
 44
0.0000000001
 40
0.0
 40
0.0
 40
0.0
 40
0.0
 40
0.1286933065
 40
0.2702801751
 40
0.4174384432
 40
0.5617797022
 40
0.6954488753
 40
0.8127120148
 40
0.8646745954
 40
0.9125103814
 40
0.9571382807
 40
1.0
 40
1.0
 40
1.0
 40
1.0
 10
205.3577834637
 20
154.7393175693
 30
0.0
 10
205.3577834637
 20
155.4231388848
 30
0.0
 10
205.549061171
 20
156.86093683
 30
0.0
 10
206.2631290178
 20
158.972015717
 30
0.0
 10
207.3633272784
 20
161.0056569506
 30
0.0
 10
208.7613548296
 20
162.7950869924
 30
0.0
 10
210.3428813984
 20
164.195761253
 30
0.0
 10
211.7743499375
 20
164.9785807637
 30
0.0
 10
212.8941502588
 20
165.2764042635
 30
0.0
 10
213.6648461025
 20
165.3332513402
 30
0.0
 10
214.382469666
 20
165.2278996932
 30
0.0
 10
214.8173059343
 20
165.0473808424
 30
0.0
 10
215.0145278287
 20
164.9334814136
 30
0.0
  0
SPLINE
  5
42C
100
AcDbEntity
  8
0
100
AcDbSpline
 62
7
  6
BYLAYER
 70
0
 71
3
 72
17
 73
13
 74
0
 42
0.0000001
 43
0.0000001
 44
0.0000000001
 40
0.0
 40
0.0
 40
0.0
 40
0.0
 40
0.1272855511
 40
0.2671603192
 40
0.4128493567
 40
0.5565183318
 40
0.6906959689
 40
0.809660017
 40
0.8627158625
 40
0.9115937128
 40
0.9569710269
 40
1.0
 40
1.0
 40
1.0
 40
1.0
 10
209.8164106565
 20
166.2132397612
 30
0.0
 10
209.1457276486
 20
165.8260230575
 30
0.0
 10
207.8415356516
 20
164.8302725138
 30
0.0
 10
206.1607228417
 20
162.9483124745
 30
0.0
 10
204.7603550787
 20
160.7299998141
 30
0.0
 10
203.7501190532
 20
158.3460241541
 30
0.0
 10
203.206906947
 20
155.9803802858
 30
0.0
 10
203.17869847
 20
154.095736543
 30
0.0
 10
203.45385484
 20
152.7749007762
 30
0.0
 10
203.7844194937
 20
151.9362271044
 30
0.0
 10
204.2420859254
 20
151.2302117224
 30
0.0
 10
204.6346507346
 20
150.8535592252
 30
0.0
 10
204.844768381
 20
150.6973886
 30
0.0
  0
SPLINE
  5
42D
100
AcDbEntity
  8
0
100
AcDbSpline
 62
7
  6
BYLAYER
 70
0
 71
3
 72
11
 73
7
 74
0
 42
0.0000001
 43
0.0000001
 44
0.0000000001
 40
0.0
 40
0.0
 40
0.0
 40
0.0
 40
0.2859264788
 40
0.5437847477
 40
0.7785024673
 40
1.0
 40
1.0
 40
1.0
 40
1.0
 10
206.4312873591
 20
153.6959920272
 30
0.0
 10
206.4530029185
 20
153.3374536558
 30
0.0
 10
206.5475722846
 20
152.6565453188
 30
0.0
 10
206.876770938
 20
151.7269945186
 30
0.0
 10
207.3815764747
 20
150.9724809547
 30
0.0
 10
207.8343922354
 20
150.6038349343
 30
0.0
 10
208.0753602636
 20
150.4646908609
 30
0.0
  0
SPLINE
  5
42E
100
AcDbEntity
  8
0
100
AcDbSpline
 62
7
  6
BYLAYER
 70
0
 71
3
 72
15
 73
11
 74
0
 42
0.0000001
 43
0.0000001
 44
0.0000000001
 40
0.0
 40
0.0
 40
0.0
 40
0.0
 40
0.1288260749
 40
0.2706003581
 40
0.4179159639
 40
0.5624116325
 40
0.6962117904
 40
0.8135960651
 40
0.9130643396
 40
1.0
 40
1.0
 40
1.0
 40
1.0
 10
191.2295486294
 20
213.9676512652
 30
0.0
 10
190.9763959369
 20
213.821494363
 30
0.0
 10
190.4031247168
 20
213.5850266393
 30
0.0
 10
189.4689084098
 20
213.3980154022
 30
0.0
 10
188.4807070259
 20
213.3708224457
 30
0.0
 10
187.519661065
 20
213.5057736532
 30
0.0
 10
186.6623681444
 20
213.7922371862
 30
0.0
 10
185.9756917298
 20
214.2106677134
 30
0.0
 10
185.5103962159
 20
214.7397166098
 30
0.0
 10
185.3914009262
 20
215.1665721096
 30
0.0
 10
185.3913870524
 20
215.3638350273
 30
0.0
  0
SPLINE
  5
42F
100
AcDbEntity
  8
0
100
AcDbSpline
 62
7
  6
BYLAYER
 70
0
 71
3
 72
11
 73
7
 74
0
 42
0.0000001
 43
0.0000001
 44
0.0000000001
 40
0.0
 40
0.0
 40
0.0
 40
0.0
 40
0.2247456792
 40
0.4609789764
 40
0.7176310144
 40
1.0
 40
1.0
 40
1.0
 40
1.0
 10
113.1553670001
 20
216.6496201443
 30
0.0
 10
113.1557952924
 20
216.31995095
 30
0.0
 10
113.056161271
 20
215.6401710484
 30
0.0
 10
112.6205875573
 20
214.669648573
 30
0.0
 10
111.9188898239
 20
213.7636746282
 30
0.0
 10
111.3183613299
 20
213.2420211287
 30
0.0
 10
110.9857935813
 20
212.9951288154
 30
0.0
  0
SPLINE
  5
430
100
AcDbEntity
  8
0
100
AcDbSpline
 62
7
  6
BYLAYER
 70
0
 71
3
 72
9
 73
5
 74
0
 42
0.0000001
 43
0.0000001
 44
0.0000000001
 40
0.0
 40
0.0
 40
0.0
 40
0.0
 40
0.2441273118
 40
1.0
 40
1.0
 40
1.0
 40
1.0
 10
110.9857935813
 20
212.9951288154
 30
0.0
 10
110.9196269923
 20
212.9460079301
 30
0.0
 10
110.6454982914
 20
212.7489861253
 30
0.0
 10
110.3596062041
 20
212.5684586615
 30
0.0
 10
110.1386396435
 20
212.4408843198
 30
0.0
  0
SPLINE
  5
431
100
AcDbEntity
  8
0
100
AcDbSpline
 62
7
  6
BYLAYER
 70
0
 71
3
 72
15
 73
11
 74
0
 42
0.0000001
 43
0.0000001
 44
0.0000000001
 40
0.0
 40
0.0
 40
0.0
 40
0.0
 40
0.1288260749
 40
0.2706003581
 40
0.4179159639
 40
0.5624116325
 40
0.6962117904
 40
0.8135960651
 40
0.9130643396
 40
1.0
 40
1.0
 40
1.0
 40
1.0
 10
123.6298589053
 20
252.9954673973
 30
0.0
 10
123.3767062128
 20
252.8493104951
 30
0.0
 10
122.8034349928
 20
252.6128427715
 30
0.0
 10
121.8692186857
 20
252.4258315343
 30
0.0
 10
120.8810173019
 20
252.3986385779
 30
0.0
 10
119.919971341
 20
252.5335897853
 30
0.0
 10
119.0626784203
 20
252.8200533183
 30
0.0
 10
118.3760020058
 20
253.2384838456
 30
0.0
 10
117.9107064919
 20
253.7675327419
 30
0.0
 10
117.7917112022
 20
254.1943882418
 30
0.0
 10
117.7916973283
 20
254.3916511594
 30
0.0
  0
SPLINE
  5
432
100
AcDbEntity
  8
0
100
AcDbSpline
 62
7
  6
BYLAYER
 70
0
 71
3
 72
11
 73
7
 74
0
 42
0.0000001
 43
0.0000001
 44
0.0000000001
 40
0.0
 40
0.0
 40
0.0
 40
0.0
 40
0.1275487356
 40
0.2924024208
 40
0.5782643246
 40
1.0
 40
1.0
 40
1.0
 40
1.0
 10
53.0611610799
 20
241.7636004513
 30
0.0
 10
53.069571264
 20
241.7564087274
 30
0.0
 10
53.0997318963
 20
241.7475638202
 30
0.0
 10
53.131830494
 20
241.7959539389
 30
0.0
 10
53.1562935903
 20
241.8640226822
 30
0.0
 10
53.170115269
 20
241.9252272521
 30
0.0
 10
53.1770366551
 20
241.9611553644
 30
0.0
  0
SPLINE
  5
433
100
AcDbEntity
  8
0
100
AcDbSpline
 62
7
  6
BYLAYER
 70
0
 71
3
 72
10
 73
6
 74
0
 42
0.0000001
 43
0.0000001
 44
0.0000000001
 40
0.0
 40
0.0
 40
0.0
 40
0.0
 40
0.5067833639
 40
0.7554507228
 40
1.0
 40
1.0
 40
1.0
 40
1.0
 10
211.5430050847
 20
159.9434039474
 30
0.0
 10
211.2894823579
 20
158.7244373643
 30
0.0
 10
210.7994117164
 20
156.9219122843
 30
0.0
 10
209.7938737579
 20
154.6762097119
 30
0.0
 10
209.2003341106
 20
153.6181750518
 30
0.0
 10
208.8894022447
 20
153.1040890672
 30
0.0
  0
SPLINE
  5
434
100
AcDbEntity
  8
0
100
AcDbSpline
 62
7
  6
BYLAYER
 70
0
 71
3
 72
10
 73
6
 74
0
 42
0.0000001
 43
0.0000001
 44
0.0000000001
 40
0.0
 40
0.0
 40
0.0
 40
0.0
 40
0.2297434146
 40
0.4728285273
 40
1.0
 40
1.0
 40
1.0
 40
1.0
 10
216.8502107646
 20
163.0075022851
 30
0.0
 10
216.495873262
 20
162.696054526
 30
0.0
 10
215.7396468576
 20
162.0845132278
 30
0.0
 10
214.0135237769
 20
160.9650907096
 30
0.0
 10
212.55516442
 20
160.3272481656
 30
0.0
 10
211.5430050847
 20
159.9434039474
 30
0.0
  0
SPLINE
  5
435
100
AcDbEntity
  8
0
100
AcDbSpline
 62
7
  6
BYLAYER
 70
0
 71
3
 72
11
 73
7
 74
0
 42
0.0000001
 43
0.0000001
 44
0.0000000001
 40
0.0
 40
0.0
 40
0.0
 40
0.0
 40
0.2897915675
 40
0.5490588783
 40
0.7822305956
 40
1.0
 40
1.0
 40
1.0
 40
1.0
 10
59.7645148825
 20
158.4541061302
 30
0.0
 10
59.7645148825
 20
157.6051439718
 30
0.0
 10
59.6362520011
 20
155.9910956977
 30
0.0
 10
58.9819689838
 20
153.7736577383
 30
0.0
 10
57.8819174189
 20
151.9741283371
 30
0.0
 10
56.8478272007
 20
151.10527903
 30
0.0
 10
56.2953612898
 20
150.7862404286
 30
0.0
  0
SPLINE
  5
436
100
AcDbEntity
  8
0
100
AcDbSpline
 62
7
  6
BYLAYER
 70
0
 71
3
 72
9
 73
5
 74
0
 42
0.0000001
 43
0.0000001
 44
0.0000000001
 40
0.0
 40
0.0
 40
0.0
 40
0.0
 40
0.2733579056
 40
1.0
 40
1.0
 40
1.0
 40
1.0
 10
208.8894022447
 20
153.1040890672
 30
0.0
 10
209.0703299453
 20
152.8914844723
 30
0.0
 10
209.7256892994
 20
152.1085576501
 30
0.0
 10
210.3515072892
 20
151.2984067111
 30
0.0
 10
210.7611737482
 20
150.6796407739
 30
0.0
  0
SPLINE
  5
437
100
AcDbEntity
  8
0
100
AcDbSpline
 62
7
  6
BYLAYER
 70
0
 71
3
 72
11
 73
7
 74
0
 42
0.0000001
 43
0.0000001
 44
0.0000000001
 40
0.0
 40
0.0
 40
0.0
 40
0.0
 40
0.2311977771
 40
0.4937715119
 40
0.7597591223
 40
1.0
 40
1.0
 40
1.0
 40
1.0
 10
215.1569988173
 20
160.4619862412
 30
0.0
 10
214.5713916654
 20
160.1870550229
 30
0.0
 10
213.4441418089
 20
159.338661654
 30
0.0
 10
212.1238899224
 20
157.6502992533
 30
0.0
 10
211.2084556941
 20
155.6841923829
 30
0.0
 10
210.9414802338
 20
154.2670724219
 30
0.0
 10
210.9414802338
 20
153.5948347129
 30
0.0
  0
SPLINE
  5
438
100
AcDbEntity
  8
0
100
AcDbSpline
 62
7
  6
BYLAYER
 70
0
 71
3
 72
15
 73
11
 74
0
 42
0.0000001
 43
0.0000001
 44
0.0000000001
 40
0.0
 40
0.0
 40
0.0
 40
0.0
 40
0.1288260749
 40
0.2706003581
 40
0.4179159639
 40
0.5624116325
 40
0.6962117904
 40
0.8135960651
 40
0.9130643396
 40
1.0
 40
1.0
 40
1.0
 40
1.0
 10
158.7027721175
 20
195.1884201871
 30
0.0
 10
158.449619425
 20
195.0422632849
 30
0.0
 10
157.876348205
 20
194.8057955613
 30
0.0
 10
156.9421318979
 20
194.6187843241
 30
0.0
 10
155.9539305141
 20
194.5915913676
 30
0.0
 10
154.9928845532
 20
194.7265425751
 30
0.0
 10
154.1355916326
 20
195.0130061081
 30
0.0
 10
153.448915218
 20
195.4314366353
 30
0.0
 10
152.9836197041
 20
195.9604855317
 30
0.0
 10
152.8646244144
 20
196.3873410315
 30
0.0
 10
152.8646105405
 20
196.5846039492
 30
0.0
  0
SPLINE
  5
439
100
AcDbEntity
  8
0
100
AcDbSpline
 62
7
  6
BYLAYER
 70
0
 71
3
 72
9
 73
5
 74
0
 42
0.0000001
 43
0.0000001
 44
0.0000000001
 40
0.0
 40
0.0
 40
0.0
 40
0.0
 40
0.2778768523
 40
1.0
 40
1.0
 40
1.0
 40
1.0
 10
216.2118706413
 20
160.3527920867
 30
0.0
 10
216.3972236523
 20
160.4598050587
 30
0.0
 10
217.0812081964
 20
160.8093758418
 30
0.0
 10
217.8633016566
 20
161.0077290177
 30
0.0
 10
218.4188432537
 20
160.9807721966
 30
0.0
  0
SPLINE
  5
43A
100
AcDbEntity
  8
0
100
AcDbSpline
 62
7
  6
BYLAYER
 70
0
 71
3
 72
9
 73
5
 74
0
 42
0.0000001
 43
0.0000001
 44
0.0000000001
 40
0.0
 40
0.0
 40
0.0
 40
0.0
 40
0.2592608356
 40
1.0
 40
1.0
 40
1.0
 40
1.0
 10
218.4188432537
 20
160.9807721966
 30
0.0
 10
218.5151871524
 20
160.9760972537
 30
0.0
 10
218.8854597004
 20
160.9387453512
 30
0.0
 10
219.2481408841
 20
160.8149836923
 30
0.0
 10
219.4868153373
 20
160.6772001862
 30
0.0
  0
SPLINE
  5
43B
100
AcDbEntity
  8
0
100
AcDbSpline
 62
7
  6
BYLAYER
 70
0
 71
3
 72
11
 73
7
 74
0
 42
0.0000001
 43
0.0000001
 44
0.0000000001
 40
0.0
 40
0.0
 40
0.0
 40
0.0
 40
0.2897910554
 40
0.5490581157
 40
0.7822300284
 40
1.0
 40
1.0
 40
1.0
 40
1.0
 10
131.3590065578
 20
179.376944745
 30
0.0
 10
132.0942009051
 20
179.8014068656
 30
0.0
 10
133.5560820409
 20
180.4973216301
 30
0.0
 10
135.8034926857
 20
181.0393939712
 30
0.0
 10
137.9118764846
 20
180.9864950205
 30
0.0
 10
139.1813236253
 20
180.5253999144
 30
0.0
 10
139.7338362705
 20
180.2064879585
 30
0.0
  0
SPLINE
  5
43C
100
AcDbEntity
  8
0
100
AcDbSpline
 62
7
  6
BYLAYER
 70
0
 71
3
 72
9
 73
5
 74
0
 42
0.0000001
 43
0.0000001
 44
0.0000000001
 40
0.0
 40
0.0
 40
0.0
 40
0.0
 40
0.4520053872
 40
1.0
 40
1.0
 40
1.0
 40
1.0
 10
224.4620885895
 20
148.2269674365
 30
0.0
 10
224.3556293225
 20
148.1654527403
 30
0.0
 10
224.1518393096
 20
147.9807451925
 30
0.0
 10
223.9526342908
 20
147.7971693272
 30
0.0
 10
223.8413973828
 20
147.6979392321
 30
0.0
  0
SPLINE
  5
43D
100
AcDbEntity
  8
0
100
AcDbSpline
 62
7
  6
BYLAYER
 70
0
 71
3
 72
8
 73
4
 74
0
 42
0.0000001
 43
0.0000001
 44
0.0000000001
 40
0.0
 40
0.0
 40
0.0
 40
0.0
 40
1.0
 40
1.0
 40
1.0
 40
1.0
 10
223.8413973828
 20
147.6979392321
 30
0.0
 10
223.7316867439
 20
147.600070662
 30
0.0
 10
223.6199275499
 20
147.5043411378
 30
0.0
 10
223.504593623
 20
147.413166763
 30
0.0
  0
SPLINE
  5
43E
100
AcDbEntity
  8
0
100
AcDbSpline
 62
7
  6
BYLAYER
 70
0
 71
3
 72
11
 73
7
 74
0
 42
0.0000001
 43
0.0000001
 44
0.0000000001
 40
0.0
 40
0.0
 40
0.0
 40
0.0
 40
0.2501295071
 40
0.4957419166
 40
0.7423790787
 40
1.0
 40
1.0
 40
1.0
 40
1.0
 10
216.0244174017
 20
152.7049920762
 30
0.0
 10
215.7656654821
 20
152.5274933702
 30
0.0
 10
215.2982525688
 20
152.1006991292
 30
0.0
 10
214.8416930034
 20
151.266415503
 30
0.0
 10
214.7250269862
 20
150.3099794595
 30
0.0
 10
214.8851977289
 20
149.6831955322
 30
0.0
 10
215.0102037359
 20
149.3851723019
 30
0.0
  0
SPLINE
  5
43F
100
AcDbEntity
  8
0
100
AcDbSpline
 62
7
  6
BYLAYER
 70
0
 71
3
 72
9
 73
5
 74
0
 42
0.0000001
 43
0.0000001
 44
0.0000000001
 40
0.0
 40
0.0
 40
0.0
 40
0.0
 40
0.2455028136
 40
1.0
 40
1.0
 40
1.0
 40
1.0
 10
215.0102037359
 20
149.3851723019
 30
0.0
 10
215.0332473536
 20
149.330234675
 30
0.0
 10
215.1330364675
 20
149.1089601195
 30
0.0
 10
215.2553804023
 20
148.8981094416
 30
0.0
 10
215.3571401838
 20
148.7459033124
 30
0.0
  0
SPLINE
  5
440
100
AcDbEntity
  8
0
100
AcDbSpline
 62
7
  6
BYLAYER
 70
0
 71
3
 72
10
 73
6
 74
0
 42
0.0000001
 43
0.0000001
 44
0.0000000001
 40
0.0
 40
0.0
 40
0.0
 40
0.0
 40
0.2967093493
 40
0.5689387399
 40
1.0
 40
1.0
 40
1.0
 40
1.0
 10
216.0244172289
 20
152.7049917365
 30
0.0
 10
216.1190982135
 20
152.5473431239
 30
0.0
 10
216.2828534081
 20
152.2326693386
 30
0.0
 10
216.4893316099
 20
151.6508441544
 30
0.0
 10
216.5284228422
 20
151.1904636762
 30
0.0
 10
216.4529286604
 20
150.9341873087
 30
0.0
  0
SPLINE
  5
441
100
AcDbEntity
  8
0
100
AcDbSpline
 62
7
  6
BYLAYER
 70
0
 71
3
 72
9
 73
5
 74
0
 42
0.0000001
 43
0.0000001
 44
0.0000000001
 40
0.0
 40
0.0
 40
0.0
 40
0.0
 40
0.5194558143
 40
1.0
 40
1.0
 40
1.0
 40
1.0
 10
219.8157753352
 20
154.0251912586
 30
0.0
 10
219.106445019
 20
154.0577002818
 30
0.0
 10
217.7156293601
 20
153.88710498
 30
0.0
 10
216.4885530286
 20
153.1697877703
 30
0.0
 10
216.0244063564
 20
152.704960045
 30
0.0
  0
SPLINE
  5
442
100
AcDbEntity
  8
0
100
AcDbSpline
 62
7
  6
BYLAYER
 70
0
 71
3
 72
9
 73
5
 74
0
 42
0.0000001
 43
0.0000001
 44
0.0000000001
 40
0.0
 40
0.0
 40
0.0
 40
0.0
 40
0.5617025685
 40
1.0
 40
1.0
 40
1.0
 40
1.0
 10
219.8157757991
 20
154.0251905833
 30
0.0
 10
219.7953139948
 20
153.6778171009
 30
0.0
 10
219.7515180554
 20
153.0598527214
 30
0.0
 10
219.6897922399
 20
152.4431299012
 30
0.0
 10
219.6527631428
 20
152.1741407226
 30
0.0
  0
SPLINE
  5
443
100
AcDbEntity
  8
0
100
AcDbSpline
 62
7
  6
BYLAYER
 70
0
 71
3
 72
10
 73
6
 74
0
 42
0.0000001
 43
0.0000001
 44
0.0000000001
 40
0.0
 40
0.0
 40
0.0
 40
0.0
 40
0.2605074786
 40
0.5360685029
 40
1.0
 40
1.0
 40
1.0
 40
1.0
 10
224.6121184117
 20
151.8243012679
 30
0.0
 10
224.9897785629
 20
152.0437881931
 30
0.0
 10
225.6229158663
 20
152.7286448349
 30
0.0
 10
226.3821685054
 20
154.2298054212
 30
0.0
 10
226.6356611281
 20
155.4682031218
 30
0.0
 10
226.7009012619
 20
156.2433643659
 30
0.0
  0
SPLINE
  5
444
100
AcDbEntity
  8
0
100
AcDbSpline
 62
7
  6
BYLAYER
 70
0
 71
3
 72
9
 73
5
 74
0
 42
0.0000001
 43
0.0000001
 44
0.0000000001
 40
0.0
 40
0.0
 40
0.0
 40
0.0
 40
0.4879941259
 40
1.0
 40
1.0
 40
1.0
 40
1.0
 10
224.6498375322
 20
156.8161211741
 30
0.0
 10
224.9340891353
 20
156.6097469817
 30
0.0
 10
225.6039182225
 20
156.3012839058
 30
0.0
 10
226.3327364625
 20
156.2264660392
 30
0.0
 10
226.7009012566
 20
156.2433611557
 30
0.0
  0
SPLINE
  5
445
100
AcDbEntity
  8
0
100
AcDbSpline
 62
7
  6
BYLAYER
 70
0
 71
3
 72
9
 73
5
 74
0
 42
0.0000001
 43
0.0000001
 44
0.0000000001
 40
0.0
 40
0.0
 40
0.0
 40
0.0
 40
0.2338557181
 40
1.0
 40
1.0
 40
1.0
 40
1.0
 10
224.6121184116
 20
148.4855500513
 30
0.0
 10
224.5453403585
 20
148.4469121795
 30
0.0
 10
224.2657246046
 20
148.2712726072
 30
0.0
 10
224.0097094736
 20
148.0611081693
 30
0.0
 10
223.8186072361
 20
147.895683207
 30
0.0
  0
SPLINE
  5
446
100
AcDbEntity
  8
0
100
AcDbSpline
 62
7
  6
BYLAYER
 70
0
 71
3
 72
8
 73
4
 74
0
 42
0.0000001
 43
0.0000001
 44
0.0000000001
 40
0.0
 40
0.0
 40
0.0
 40
0.0
 40
1.0
 40
1.0
 40
1.0
 40
1.0
 10
223.8186072361
 20
147.895683207
 30
0.0
 10
223.725780248
 20
147.8153288312
 30
0.0
 10
223.6340604491
 20
147.7336987132
 30
0.0
 10
223.5425570912
 20
147.6518402321
 30
0.0
  0
SPLINE
  5
447
100
AcDbEntity
  8
0
100
AcDbSpline
 62
7
  6
BYLAYER
 70
0
 71
3
 72
9
 73
5
 74
0
 42
0.0000001
 43
0.0000001
 44
0.0000000001
 40
0.0
 40
0.0
 40
0.0
 40
0.0
 40
0.2554037507
 40
1.0
 40
1.0
 40
1.0
 40
1.0
 10
224.4620868674
 20
148.2269772707
 30
0.0
 10
224.4723895229
 20
148.2502830199
 30
0.0
 10
224.5150707809
 20
148.3404636503
 30
0.0
 10
224.5675165355
 20
148.4261514324
 30
0.0
 10
224.6121384753
 20
148.4855446241
 30
0.0
  0
SPLINE
  5
448
100
AcDbEntity
  8
0
100
AcDbSpline
 62
7
  6
BYLAYER
 70
0
 71
3
 72
13
 73
9
 74
0
 42
0.0000001
 43
0.0000001
 44
0.0000000001
 40
0.0
 40
0.0
 40
0.0
 40
0.0
 40
0.1132894827
 40
0.2202502079
 40
0.3301561147
 40
0.448226682
 40
0.712020518
 40
1.0
 40
1.0
 40
1.0
 40
1.0
 10
224.6121184119
 20
151.8243012672
 30
0.0
 10
224.446553342
 20
151.7293273442
 30
0.0
 10
224.09475038
 20
151.5888968544
 30
0.0
 10
223.5328496958
 20
151.5575955995
 30
0.0
 10
222.9729089265
 20
151.6396178625
 30
0.0
 10
222.1672438249
 20
151.833284845
 30
0.0
 10
221.0719105282
 20
152.1071608607
 30
0.0
 10
220.1377634155
 20
152.1877407637
 30
0.0
 10
219.6527632284
 20
152.174144265
 30
0.0
  0
SPLINE
  5
449
100
AcDbEntity
  8
0
100
AcDbSpline
 62
7
  6
BYLAYER
 70
0
 71
3
 72
11
 73
7
 74
0
 42
0.0000001
 43
0.0000001
 44
0.0000000001
 40
0.0
 40
0.0
 40
0.0
 40
0.0
 40
0.3354266403
 40
0.6076353573
 40
0.8272405996
 40
1.0
 40
1.0
 40
1.0
 40
1.0
 10
224.6121184119
 20
148.4855500516
 30
0.0
 10
224.7732738811
 20
148.5783988211
 30
0.0
 10
225.0824648658
 20
148.7205195143
 30
0.0
 10
225.5335972267
 20
148.8166545143
 30
0.0
 10
225.9002446499
 20
148.8487040609
 30
0.0
 10
226.1175695556
 20
148.8723647313
 30
0.0
 10
226.210439904
 20
148.8958448415
 30
0.0
  0
SPLINE
  5
44A
100
AcDbEntity
  8
0
100
AcDbSpline
 62
7
  6
BYLAYER
 70
0
 71
3
 72
9
 73
5
 74
0
 42
0.0000001
 43
0.0000001
 44
0.0000000001
 40
0.0
 40
0.0
 40
0.0
 40
0.0
 40
0.2521599694
 40
1.0
 40
1.0
 40
1.0
 40
1.0
 10
216.4529220331
 20
150.9341922469
 30
0.0
 10
216.3719753235
 20
150.8515916396
 30
0.0
 10
216.0699424392
 20
150.506101451
 30
0.0
 10
215.8452804384
 20
150.0917516604
 30
0.0
 10
215.7396522765
 20
149.7654300806
 30
0.0
  0
SPLINE
  5
44B
100
AcDbEntity
  8
0
100
AcDbSpline
 62
7
  6
BYLAYER
 70
0
 71
3
 72
9
 73
5
 74
0
 42
0.0000001
 43
0.0000001
 44
0.0000000001
 40
0.0
 40
0.0
 40
0.0
 40
0.0
 40
0.5205578762
 40
1.0
 40
1.0
 40
1.0
 40
1.0
 10
219.6527631473
 20
152.1741420917
 30
0.0
 10
219.0466419501
 20
152.1570683963
 30
0.0
 10
217.8763530244
 20
151.9591506916
 30
0.0
 10
216.8438655343
 20
151.3330068429
 30
0.0
 10
216.4529290044
 20
150.9341886276
 30
0.0
  0
SPLINE
  5
44C
100
AcDbEntity
  8
0
100
AcDbSpline
 62
7
  6
BYLAYER
 70
0
 71
3
 72
11
 73
7
 74
0
 42
0.0000001
 43
0.0000001
 44
0.0000000001
 40
0.0
 40
0.0
 40
0.0
 40
0.0
 40
0.2372405738
 40
0.5000004574
 40
0.7627600882
 40
1.0
 40
1.0
 40
1.0
 40
1.0
 10
162.0827860434
 20
163.3939535781
 30
0.0
 10
162.6851249969
 20
163.0462008884
 30
0.0
 10
164.0858516337
 20
162.5387497478
 30
0.0
 10
166.3254328859
 20
162.2956310872
 30
0.0
 10
168.5650110834
 20
162.5387597763
 30
0.0
 10
169.9657326525
 20
163.0462179112
 30
0.0
 10
170.5680674176
 20
163.3939739742
 30
0.0
  0
SPLINE
  5
44D
100
AcDbEntity
  8
0
100
AcDbSpline
 62
7
  6
BYLAYER
 70
0
 71
3
 72
11
 73
7
 74
0
 42
0.0000001
 43
0.0000001
 44
0.0000000001
 40
0.0
 40
0.0
 40
0.0
 40
0.0
 40
0.2372398078
 40
0.4999994051
 40
0.7627593222
 40
1.0
 40
1.0
 40
1.0
 40
1.0
 10
160.1028481957
 20
168.7827492144
 30
0.0
 10
159.5808249615
 20
168.4813607586
 30
0.0
 10
158.3668666507
 20
168.0415637424
 30
0.0
 10
156.425899161
 20
167.8308520457
 30
0.0
 10
154.4849284609
 20
168.0415547187
 30
0.0
 10
153.2709649933
 20
168.4813457412
 30
0.0
 10
152.7489376715
 20
168.7827315377
 30
0.0
  0
SPLINE
  5
44E
100
AcDbEntity
  8
0
100
AcDbSpline
 62
7
  6
BYLAYER
 70
0
 71
3
 72
15
 73
11
 74
0
 42
0.0000001
 43
0.0000001
 44
0.0000000001
 40
0.0
 40
0.0
 40
0.0
 40
0.0
 40
0.0464598412
 40
0.1055665226
 40
0.2398618094
 40
0.381499539
 40
0.5228170925
 40
0.659016442
 40
0.7862377924
 40
1.0
 40
1.0
 40
1.0
 40
1.0
 10
224.4620882287
 20
152.2561207121
 30
0.0
 10
224.5243040188
 20
152.2921046397
 30
0.0
 10
224.622704815
 20
152.4359683714
 30
0.0
 10
224.7309384783
 20
152.7889328484
 30
0.0
 10
224.7931450899
 20
153.3078768421
 30
0.0
 10
224.8208600035
 20
153.9518997527
 30
0.0
 10
224.8176171108
 20
154.6007944497
 30
0.0
 10
224.7945687323
 20
155.226511942
 30
0.0
 10
224.7467073025
 20
155.9631884006
 30
0.0
 10
224.6949335884
 20
156.4885256517
 30
0.0
 10
224.6498344795
 20
156.816121732
 30
0.0
  0
SPLINE
  5
44F
100
AcDbEntity
  8
0
100
AcDbSpline
 62
7
  6
BYLAYER
 70
0
 71
3
 72
18
 73
14
 74
0
 42
0.0000001
 43
0.0000001
 44
0.0000000001
 40
0.0
 40
0.0
 40
0.0
 40
0.0
 40
0.1422500195
 40
0.2836989073
 40
0.4228555829
 40
0.5582610605
 40
0.6881148261
 40
0.8098276047
 40
0.8661997986
 40
0.9178819696
 40
0.9414917103
 40
0.9629454876
 40
1.0
 40
1.0
 40
1.0
 40
1.0
 10
219.8157756504
 20
154.0251928847
 30
0.0
 10
220.0556592987
 20
154.0141701164
 30
0.0
 10
220.5331813975
 20
153.9639224294
 30
0.0
 10
221.2317294742
 20
153.8102672903
 30
0.0
 10
221.8980251143
 20
153.5841213135
 30
0.0
 10
222.5199936464
 20
153.2998851863
 30
0.0
 10
223.0860574945
 20
152.9721599265
 30
0.0
 10
223.5165018589
 20
152.6803251882
 30
0.0
 10
223.8331107251
 20
152.4563117592
 30
0.0
 10
224.0207831492
 20
152.3367732716
 30
0.0
 10
224.1680670335
 20
152.2648399067
 30
0.0
 10
224.2983356513
 20
152.2194849392
 30
0.0
 10
224.4078924849
 20
152.2248838806
 30
0.0
 10
224.4620887321
 20
152.2561189835
 30
0.0
  0
SPLINE
  5
450
100
AcDbEntity
  8
0
100
AcDbSpline
 62
7
  6
BYLAYER
 70
0
 71
3
 72
10
 73
6
 74
0
 42
0.0000001
 43
0.0000001
 44
0.0000000001
 40
0.0
 40
0.0
 40
0.0
 40
0.0
 40
0.228770925
 40
0.4798705417
 40
1.0
 40
1.0
 40
1.0
 40
1.0
 10
220.1716851021
 20
158.0666438614
 30
0.0
 10
219.7165812698
 20
157.8038911097
 30
0.0
 10
218.8295111652
 20
157.1320967183
 30
0.0
 10
217.2809797136
 20
155.4270183671
 30
0.0
 10
216.4139081797
 20
153.834509061
 30
0.0
 10
216.0244174017
 20
152.7049920762
 30
0.0
  0
SPLINE
  5
451
100
AcDbEntity
  8
0
100
AcDbSpline
 62
7
  6
BYLAYER
 70
0
 71
3
 72
11
 73
7
 74
0
 42
0.0000001
 43
0.0000001
 44
0.0000000001
 40
0.0
 40
0.0
 40
0.0
 40
0.0
 40
0.2372531816
 40
0.5000006935
 40
0.7627478297
 40
1.0
 40
1.0
 40
1.0
 40
1.0
 10
168.5881130837
 20
171.068927354
 30
0.0
 10
168.2668496588
 20
171.2544046827
 30
0.0
 10
167.5198035378
 20
171.5251026029
 30
0.0
 10
166.3253671707
 20
171.6545187321
 30
0.0
 10
165.1309330182
 20
171.5250968958
 30
0.0
 10
164.3838904022
 20
171.2543953309
 30
0.0
 10
164.0626296841
 20
171.068916476
 30
0.0
  0
SPLINE
  5
452
100
AcDbEntity
  8
0
100
AcDbSpline
 62
7
  6
BYLAYER
 70
0
 71
3
 72
18
 73
14
 74
0
 42
0.0000001
 43
0.0000001
 44
0.0000000001
 40
0.0
 40
0.0
 40
0.0
 40
0.0
 40
0.110432224
 40
0.1581753487
 40
0.2034149269
 40
0.249155008
 40
0.2982269913
 40
0.3525441668
 40
0.4129426773
 40
0.5504119054
 40
0.7030161025
 40
0.8574647481
 40
1.0
 40
1.0
 40
1.0
 40
1.0
 10
186.6101882622
 20
218.6434576486
 30
0.0
 10
186.3964116047
 20
218.5016743972
 30
0.0
 10
186.1113709272
 20
218.2451783467
 30
0.0
 10
185.9121467291
 20
217.8097945899
 30
0.0
 10
185.8750754169
 20
217.4837885468
 30
0.0
 10
185.9463802194
 20
217.1606603973
 30
0.0
 10
186.1205000866
 20
216.8561723284
 30
0.0
 10
186.3859657812
 20
216.5793856443
 30
0.0
 10
186.8693801666
 20
216.2433058058
 30
0.0
 10
187.6414702738
 20
215.9505824406
 30
0.0
 10
188.6724352574
 20
215.8147531866
 30
0.0
 10
189.7207749806
 20
215.8945116317
 30
0.0
 10
190.3889406241
 20
216.0994990761
 30
0.0
 10
190.6869708553
 20
216.2437215684
 30
0.0
  0
SPLINE
  5
453
100
AcDbEntity
  8
0
100
AcDbSpline
 62
7
  6
BYLAYER
 70
0
 71
3
 72
15
 73
11
 74
0
 42
0.0000001
 43
0.0000001
 44
0.0000000001
 40
0.0
 40
0.0
 40
0.0
 40
0.0
 40
0.1245707085
 40
0.2301942972
 40
0.3256923029
 40
0.4263497722
 40
0.5439685064
 40
0.6817599822
 40
0.8362319364
 40
1.0
 40
1.0
 40
1.0
 40
1.0
 10
190.8759937668
 20
216.343668072
 30
0.0
 10
191.0623738513
 20
216.4512740216
 30
0.0
 10
191.3870573681
 20
216.6910682206
 30
0.0
 10
191.7099866466
 20
217.1722085197
 30
0.0
 10
191.7615957507
 20
217.7157070689
 30
0.0
 10
191.523442764
 20
218.225447794
 30
0.0
 10
191.0611626459
 20
218.6469594372
 30
0.0
 10
190.423553993
 20
218.969435228
 30
0.0
 10
189.6579892492
 20
219.1737115066
 30
0.0
 10
189.1070794288
 20
219.2207468917
 30
0.0
 10
188.8241488778
 20
219.2215287567
 30
0.0
  0
SPLINE
  5
454
100
AcDbEntity
  8
0
100
AcDbSpline
 62
7
  6
BYLAYER
 70
0
 71
3
 72
9
 73
5
 74
0
 42
0.0000001
 43
0.0000001
 44
0.0000000001
 40
0.0
 40
0.0
 40
0.0
 40
0.0
 40
0.2635923742
 40
1.0
 40
1.0
 40
1.0
 40
1.0
 10
188.7003387164
 20
219.2203452325
 30
0.0
 10
188.540886932
 20
219.2168543338
 30
0.0
 10
187.9376812494
 20
219.1748626474
 30
0.0
 10
187.3365749954
 20
219.0218303858
 30
0.0
 10
186.9354958834
 20
218.827740582
 30
0.0
  0
SPLINE
  5
455
100
AcDbEntity
  8
0
100
AcDbSpline
 62
7
  6
BYLAYER
 70
0
 71
3
 72
9
 73
5
 74
0
 42
0.0000001
 43
0.0000001
 44
0.0000000001
 40
0.0
 40
0.0
 40
0.0
 40
0.0
 40
0.5254566064
 40
1.0
 40
1.0
 40
1.0
 40
1.0
 10
176.3336241644
 20
167.4263485586
 30
0.0
 10
175.9040113936
 20
167.417964136
 30
0.0
 10
175.0823467669
 20
167.494600781
 30
0.0
 10
174.2982187683
 20
167.7722708802
 30
0.0
 10
173.9621469948
 20
167.9662976196
 30
0.0
  0
SPLINE
  5
456
100
AcDbEntity
  8
0
100
AcDbSpline
 62
7
  6
BYLAYER
 70
0
 71
3
 72
11
 73
7
 74
0
 42
0.0000001
 43
0.0000001
 44
0.0000000001
 40
0.0
 40
0.0
 40
0.0
 40
0.0
 40
0.289572729
 40
0.5491104531
 40
0.7822476031
 40
1.0
 40
1.0
 40
1.0
 40
1.0
 10
191.2295486248
 20
215.7312964835
 30
0.0
 10
191.3795445191
 20
215.8178961364
 30
0.0
 10
191.6517356437
 20
216.0055197749
 30
0.0
 10
191.9772463532
 20
216.3473498079
 30
0.0
 10
192.1832259192
 20
216.7257110638
 30
0.0
 10
192.2310994888
 20
216.9972371818
 30
0.0
 10
192.2311284813
 20
217.1274798744
 30
0.0
  0
SPLINE
  5
457
100
AcDbEntity
  8
0
100
AcDbSpline
 62
7
  6
BYLAYER
 70
0
 71
3
 72
18
 73
14
 74
0
 42
0.0000001
 43
0.0000001
 44
0.0000000001
 40
0.0
 40
0.0
 40
0.0
 40
0.0
 40
0.110432224
 40
0.1581753487
 40
0.2034149269
 40
0.249155008
 40
0.2982269913
 40
0.3525441668
 40
0.4129426773
 40
0.5504119054
 40
0.7030161025
 40
0.8574647481
 40
1.0
 40
1.0
 40
1.0
 40
1.0
 10
119.0104985382
 20
257.6712737807
 30
0.0
 10
118.7967218806
 20
257.5294905294
 30
0.0
 10
118.5116812031
 20
257.2729944789
 30
0.0
 10
118.3124570051
 20
256.8376107221
 30
0.0
 10
118.2753856928
 20
256.5116046789
 30
0.0
 10
118.3466904953
 20
256.1884765294
 30
0.0
 10
118.5208103625
 20
255.8839884605
 30
0.0
 10
118.7862760571
 20
255.6072017765
 30
0.0
 10
119.2696904425
 20
255.2711219379
 30
0.0
 10
120.0417805497
 20
254.9783985727
 30
0.0
 10
121.0727455334
 20
254.8425693188
 30
0.0
 10
122.1210852565
 20
254.9223277638
 30
0.0
 10
122.7892509001
 20
255.1273152083
 30
0.0
 10
123.0872811313
 20
255.2715377005
 30
0.0
  0
SPLINE
  5
458
100
AcDbEntity
  8
0
100
AcDbSpline
 62
7
  6
BYLAYER
 70
0
 71
3
 72
15
 73
11
 74
0
 42
0.0000001
 43
0.0000001
 44
0.0000000001
 40
0.0
 40
0.0
 40
0.0
 40
0.0
 40
0.1245707085
 40
0.2301942972
 40
0.3256923029
 40
0.4263497722
 40
0.5439685064
 40
0.6817599822
 40
0.8362319364
 40
1.0
 40
1.0
 40
1.0
 40
1.0
 10
123.2763040428
 20
255.3714842041
 30
0.0
 10
123.4626841272
 20
255.4790901537
 30
0.0
 10
123.787367644
 20
255.7188843528
 30
0.0
 10
124.1102969225
 20
256.2000246518
 30
0.0
 10
124.1619060267
 20
256.7435232011
 30
0.0
 10
123.9237530399
 20
257.2532639262
 30
0.0
 10
123.4614729219
 20
257.6747755693
 30
0.0
 10
122.823864269
 20
257.9972513601
 30
0.0
 10
122.0582995251
 20
258.2015276388
 30
0.0
 10
121.5073897048
 20
258.2485630239
 30
0.0
 10
121.2244591537
 20
258.2493448888
 30
0.0
  0
SPLINE
  5
459
100
AcDbEntity
  8
0
100
AcDbSpline
 62
7
  6
BYLAYER
 70
0
 71
3
 72
9
 73
5
 74
0
 42
0.0000001
 43
0.0000001
 44
0.0000000001
 40
0.0
 40
0.0
 40
0.0
 40
0.0
 40
0.2635923742
 40
1.0
 40
1.0
 40
1.0
 40
1.0
 10
121.1006489924
 20
258.2481613646
 30
0.0
 10
120.9411972079
 20
258.2446704659
 30
0.0
 10
120.3379915253
 20
258.2026787795
 30
0.0
 10
119.7368852713
 20
258.049646518
 30
0.0
 10
119.3358061594
 20
257.8555567141
 30
0.0
  0
SPLINE
  5
45A
100
AcDbEntity
  8
0
100
AcDbSpline
 62
7
  6
BYLAYER
 70
0
 71
3
 72
15
 73
11
 74
0
 42
0.0000001
 43
0.0000001
 44
0.0000000001
 40
0.0
 40
0.0
 40
0.0
 40
0.0
 40
0.1288218741
 40
0.2705886523
 40
0.4178845195
 40
0.5623782844
 40
0.6961921667
 40
0.8135857567
 40
0.9130583171
 40
1.0
 40
1.0
 40
1.0
 40
1.0
 10
89.5479461828
 20
165.0599608391
 30
0.0
 10
89.294801785
 20
164.9138087259
 30
0.0
 10
88.7215576042
 20
164.6773455594
 30
0.0
 10
87.7874129222
 20
164.4903483706
 30
0.0
 10
86.799280671
 20
164.4631104987
 30
0.0
 10
85.8382488216
 20
164.598036238
 30
0.0
 10
84.9808995219
 20
164.8844825564
 30
0.0
 10
84.2941561001
 20
165.3029231065
 30
0.0
 10
83.828808128
 20
165.8319850333
 30
0.0
 10
83.7097986977
 20
166.2588681277
 30
0.0
 10
83.7097928928
 20
166.4561446802
 30
0.0
  0
SPLINE
  5
45B
100
AcDbEntity
  8
0
100
AcDbSpline
 62
7
  6
BYLAYER
 70
0
 71
3
 72
9
 73
5
 74
0
 42
0.0000001
 43
0.0000001
 44
0.0000000001
 40
0.0
 40
0.0
 40
0.0
 40
0.0
 40
0.5426865967
 40
1.0
 40
1.0
 40
1.0
 40
1.0
 10
123.6298589007
 20
254.7591126156
 30
0.0
 10
123.8558870719
 20
254.8896092619
 30
0.0
 10
124.2486527533
 20
255.1799334483
 30
0.0
 10
124.5153010553
 20
255.6018733467
 30
0.0
 10
124.5795242916
 20
255.8122234745
 30
0.0
  0
SPLINE
  5
45C
100
AcDbEntity
  8
0
100
AcDbSpline
 62
7
  6
BYLAYER
 70
0
 71
3
 72
8
 73
4
 74
0
 42
0.0000001
 43
0.0000001
 44
0.0000000001
 40
0.0
 40
0.0
 40
0.0
 40
0.0
 40
1.0
 40
1.0
 40
1.0
 40
1.0
 10
124.5795242916
 20
255.8122234745
 30
0.0
 10
124.6132978639
 20
255.922841931
 30
0.0
 10
124.631413011
 20
256.0396366081
 30
0.0
 10
124.6314387572
 20
256.1552960065
 30
0.0
  0
SPLINE
  5
45D
100
AcDbEntity
  8
0
100
AcDbSpline
 62
7
  6
BYLAYER
 70
0
 71
3
 72
9
 73
5
 74
0
 42
0.0000001
 43
0.0000001
 44
0.0000000001
 40
0.0
 40
0.0
 40
0.0
 40
0.0
 40
0.2453667042
 40
1.0
 40
1.0
 40
1.0
 40
1.0
 10
109.5553988556
 20
216.6390448237
 30
0.0
 10
109.5551307605
 20
216.5523852766
 30
0.0
 10
109.5335503364
 20
216.1993426253
 30
0.0
 10
109.4274694349
 20
215.8532587764
 30
0.0
 10
109.3121814879
 20
215.6129578167
 30
0.0
  0
SPLINE
  5
45E
100
AcDbEntity
  8
0
100
AcDbSpline
 62
7
  6
BYLAYER
 70
0
 71
3
 72
9
 73
5
 74
0
 42
0.0000001
 43
0.0000001
 44
0.0000000001
 40
0.0
 40
0.0
 40
0.0
 40
0.0
 40
0.2248053475
 40
1.0
 40
1.0
 40
1.0
 40
1.0
 10
109.3121814879
 20
215.6129578167
 30
0.0
 10
109.2330578696
 20
215.4480361412
 30
0.0
 10
108.80631685
 20
214.7497048996
 30
0.0
 10
108.139300948
 20
214.2259303841
 30
0.0
 10
107.5930446329
 20
213.9105510361
 30
0.0
  0
SPLINE
  5
45F
100
AcDbEntity
  8
0
100
AcDbSpline
 62
7
  6
BYLAYER
 70
0
 71
3
 72
18
 73
14
 74
0
 42
0.0000001
 43
0.0000001
 44
0.0000000001
 40
0.0
 40
0.0
 40
0.0
 40
0.0
 40
0.110432224
 40
0.1581753487
 40
0.2034149269
 40
0.249155008
 40
0.2982269913
 40
0.3525441668
 40
0.4129426773
 40
0.5504119054
 40
0.7030161025
 40
0.8574647481
 40
1.0
 40
1.0
 40
1.0
 40
1.0
 10
154.0834117504
 20
199.8642265705
 30
0.0
 10
153.8696350928
 20
199.7224433191
 30
0.0
 10
153.5845944153
 20
199.4659472686
 30
0.0
 10
153.3853702173
 20
199.0305635119
 30
0.0
 10
153.348298905
 20
198.7045574687
 30
0.0
 10
153.4196037075
 20
198.3814293192
 30
0.0
 10
153.5937235748
 20
198.0769412503
 30
0.0
 10
153.8591892693
 20
197.8001545662
 30
0.0
 10
154.3426036548
 20
197.4640747277
 30
0.0
 10
155.1146937619
 20
197.1713513625
 30
0.0
 10
156.1456587456
 20
197.0355221085
 30
0.0
 10
157.1939984687
 20
197.1152805536
 30
0.0
 10
157.8621641123
 20
197.320267998
 30
0.0
 10
158.1601943435
 20
197.4644904903
 30
0.0
  0
SPLINE
  5
460
100
AcDbEntity
  8
0
100
AcDbSpline
 62
7
  6
BYLAYER
 70
0
 71
3
 72
15
 73
11
 74
0
 42
0.0000001
 43
0.0000001
 44
0.0000000001
 40
0.0
 40
0.0
 40
0.0
 40
0.0
 40
0.1245707085
 40
0.2301942972
 40
0.3256923029
 40
0.4263497722
 40
0.5439685064
 40
0.6817599822
 40
0.8362319364
 40
1.0
 40
1.0
 40
1.0
 40
1.0
 10
158.349217255
 20
197.5644369939
 30
0.0
 10
158.5355973394
 20
197.6720429435
 30
0.0
 10
158.8602808562
 20
197.9118371425
 30
0.0
 10
159.1832101348
 20
198.3929774416
 30
0.0
 10
159.2348192389
 20
198.9364759909
 30
0.0
 10
158.9966662522
 20
199.4462167159
 30
0.0
 10
158.5343861341
 20
199.8677283591
 30
0.0
 10
157.8967774812
 20
200.1902041499
 30
0.0
 10
157.1312127373
 20
200.3944804286
 30
0.0
 10
156.580302917
 20
200.4415158136
 30
0.0
 10
156.297372366
 20
200.4422976786
 30
0.0
  0
SPLINE
  5
461
100
AcDbEntity
  8
0
100
AcDbSpline
 62
7
  6
BYLAYER
 70
0
 71
3
 72
9
 73
5
 74
0
 42
0.0000001
 43
0.0000001
 44
0.0000000001
 40
0.0
 40
0.0
 40
0.0
 40
0.0
 40
0.2635923742
 40
1.0
 40
1.0
 40
1.0
 40
1.0
 10
156.1735622046
 20
200.4411141544
 30
0.0
 10
156.0141104202
 20
200.4376232557
 30
0.0
 10
155.4109047375
 20
200.3956315693
 30
0.0
 10
154.8097984835
 20
200.2425993077
 30
0.0
 10
154.4087193716
 20
200.0485095039
 30
0.0
  0
SPLINE
  5
462
100
AcDbEntity
  8
0
100
AcDbSpline
 62
7
  6
BYLAYER
 70
0
 71
3
 72
15
 73
11
 74
0
 42
0.0000001
 43
0.0000001
 44
0.0000000001
 40
0.0
 40
0.0
 40
0.0
 40
0.0
 40
0.1288244605
 40
0.2705976782
 40
0.4178986235
 40
0.5623949216
 40
0.69620836
 40
0.8136001012
 40
0.9130679301
 40
1.0
 40
1.0
 40
1.0
 40
1.0
 10
164.3101389901
 20
168.0275107872
 30
0.0
 10
164.5396020226
 20
168.1599905399
 30
0.0
 10
165.0592278767
 20
168.3743333496
 30
0.0
 10
165.9059975461
 20
168.543833947
 30
0.0
 10
166.8017028127
 20
168.568508627
 30
0.0
 10
167.6728268065
 20
168.4461907784
 30
0.0
 10
168.4499497986
 20
168.1865260182
 30
0.0
 10
169.0724155075
 20
167.8072263944
 30
0.0
 10
169.4941704793
 20
167.3276692947
 30
0.0
 10
169.6020367848
 20
166.9407624217
 30
0.0
 10
169.6020436887
 20
166.761964224
 30
0.0
  0
SPLINE
  5
463
100
AcDbEntity
  8
0
100
AcDbSpline
 62
7
  6
BYLAYER
 70
0
 71
3
 72
11
 73
7
 74
0
 42
0.0000001
 43
0.0000001
 44
0.0000000001
 40
0.0
 40
0.0
 40
0.0
 40
0.0
 40
0.289572729
 40
0.5491104531
 40
0.7822476031
 40
1.0
 40
1.0
 40
1.0
 40
1.0
 10
158.7027721129
 20
196.9520654054
 30
0.0
 10
158.8527680073
 20
197.0386650583
 30
0.0
 10
159.1249591319
 20
197.2262886969
 30
0.0
 10
159.4504698413
 20
197.5681187298
 30
0.0
 10
159.6564494074
 20
197.9464799858
 30
0.0
 10
159.704322977
 20
198.2180061037
 30
0.0
 10
159.7043519694
 20
198.3482487963
 30
0.0
  0
SPLINE
  5
464
100
AcDbEntity
  8
0
100
AcDbSpline
 62
7
  6
BYLAYER
 70
0
 71
3
 72
15
 73
11
 74
0
 42
0.0000001
 43
0.0000001
 44
0.0000000001
 40
0.0
 40
0.0
 40
0.0
 40
0.0
 40
0.1288260749
 40
0.2706003581
 40
0.4179159639
 40
0.5624116325
 40
0.6962117904
 40
0.8135960651
 40
0.9130643396
 40
1.0
 40
1.0
 40
1.0
 40
1.0
 10
91.1030823935
 20
234.2162363192
 30
0.0
 10
90.849929701
 20
234.070079417
 30
0.0
 10
90.2766584809
 20
233.8336116934
 30
0.0
 10
89.3424421739
 20
233.6466004562
 30
0.0
 10
88.35424079
 20
233.6194074998
 30
0.0
 10
87.3931948291
 20
233.7543587072
 30
0.0
 10
86.5359019085
 20
234.0408222402
 30
0.0
 10
85.8492254939
 20
234.4592527675
 30
0.0
 10
85.38392998
 20
234.9883016638
 30
0.0
 10
85.2649346903
 20
235.4151571637
 30
0.0
 10
85.2649208165
 20
235.6124200813
 30
0.0
  0
SPLINE
  5
465
100
AcDbEntity
  8
0
100
AcDbSpline
 62
7
  6
BYLAYER
 70
0
 71
3
 72
18
 73
14
 74
0
 42
0.0000001
 43
0.0000001
 44
0.0000000001
 40
0.0
 40
0.0
 40
0.0
 40
0.0
 40
0.110432224
 40
0.1581753487
 40
0.2034149269
 40
0.249155008
 40
0.2982269913
 40
0.3525441668
 40
0.4129426773
 40
0.5504119054
 40
0.7030161025
 40
0.8574647481
 40
1.0
 40
1.0
 40
1.0
 40
1.0
 10
84.9285858157
 20
169.7357672226
 30
0.0
 10
84.7148091581
 20
169.5939839712
 30
0.0
 10
84.4297684806
 20
169.3374879207
 30
0.0
 10
84.2305442826
 20
168.9021041639
 30
0.0
 10
84.1934729703
 20
168.5760981208
 30
0.0
 10
84.2647777728
 20
168.2529699713
 30
0.0
 10
84.43889764
 20
167.9484819024
 30
0.0
 10
84.7043633346
 20
167.6716952183
 30
0.0
 10
85.1877777201
 20
167.3356153798
 30
0.0
 10
85.9598678272
 20
167.0428920146
 30
0.0
 10
86.9908328109
 20
166.9070627606
 30
0.0
 10
88.039172534
 20
166.9868212057
 30
0.0
 10
88.7073381776
 20
167.1918086501
 30
0.0
 10
89.0053684088
 20
167.3360311424
 30
0.0
  0
SPLINE
  5
466
100
AcDbEntity
  8
0
100
AcDbSpline
 62
7
  6
BYLAYER
 70
0
 71
3
 72
15
 73
11
 74
0
 42
0.0000001
 43
0.0000001
 44
0.0000000001
 40
0.0
 40
0.0
 40
0.0
 40
0.0
 40
0.1245707085
 40
0.2301942972
 40
0.3256923029
 40
0.4263497722
 40
0.5439685064
 40
0.6817599822
 40
0.8362319364
 40
1.0
 40
1.0
 40
1.0
 40
1.0
 10
89.1943913203
 20
167.435977646
 30
0.0
 10
89.3807714047
 20
167.5435835956
 30
0.0
 10
89.7054549215
 20
167.7833777946
 30
0.0
 10
90.0283842
 20
168.2645180936
 30
0.0
 10
90.0799933042
 20
168.8080166429
 30
0.0
 10
89.8418403175
 20
169.317757368
 30
0.0
 10
89.3795601994
 20
169.7392690111
 30
0.0
 10
88.7419515465
 20
170.061744802
 30
0.0
 10
87.9763868026
 20
170.2660210806
 30
0.0
 10
87.4254769823
 20
170.3130564657
 30
0.0
 10
87.1425464312
 20
170.3138383306
 30
0.0
  0
SPLINE
  5
467
100
AcDbEntity
  8
0
100
AcDbSpline
 62
7
  6
BYLAYER
 70
0
 71
3
 72
9
 73
5
 74
0
 42
0.0000001
 43
0.0000001
 44
0.0000000001
 40
0.0
 40
0.0
 40
0.0
 40
0.0
 40
0.2635923742
 40
1.0
 40
1.0
 40
1.0
 40
1.0
 10
87.0187362699
 20
170.3126548065
 30
0.0
 10
86.8592844854
 20
170.3091639078
 30
0.0
 10
86.2560788028
 20
170.2671722214
 30
0.0
 10
85.6549725488
 20
170.1141399598
 30
0.0
 10
85.2538934369
 20
169.920050156
 30
0.0
  0
SPLINE
  5
468
100
AcDbEntity
  8
0
100
AcDbSpline
 62
7
  6
BYLAYER
 70
0
 71
3
 72
11
 73
7
 74
0
 42
0.0000001
 43
0.0000001
 44
0.0000000001
 40
0.0
 40
0.0
 40
0.0
 40
0.0
 40
0.289572729
 40
0.5491104531
 40
0.7822476031
 40
1.0
 40
1.0
 40
1.0
 40
1.0
 10
89.5479461782
 20
166.8236060575
 30
0.0
 10
89.6979420725
 20
166.9102057103
 30
0.0
 10
89.9701331971
 20
167.0978293489
 30
0.0
 10
90.2956439066
 20
167.4396593819
 30
0.0
 10
90.5016234726
 20
167.8180206378
 30
0.0
 10
90.5494970422
 20
168.0895467558
 30
0.0
 10
90.5495260347
 20
168.2197894484
 30
0.0
  0
SPLINE
  5
469
100
AcDbEntity
  8
0
100
AcDbSpline
 62
7
  6
BYLAYER
 70
0
 71
3
 72
18
 73
14
 74
0
 42
0.0000001
 43
0.0000001
 44
0.0000000001
 40
0.0
 40
0.0
 40
0.0
 40
0.0
 40
0.110432224
 40
0.1581753487
 40
0.2034149269
 40
0.249155008
 40
0.2982269913
 40
0.3525441668
 40
0.4129426773
 40
0.5504119054
 40
0.7030161025
 40
0.8574647481
 40
1.0
 40
1.0
 40
1.0
 40
1.0
 10
86.4837220264
 20
238.8920427026
 30
0.0
 10
86.2699453688
 20
238.7502594513
 30
0.0
 10
85.9849046913
 20
238.4937634008
 30
0.0
 10
85.7856804932
 20
238.058379644
 30
0.0
 10
85.748609181
 20
237.7323736008
 30
0.0
 10
85.8199139835
 20
237.4092454514
 30
0.0
 10
85.9940338507
 20
237.1047573824
 30
0.0
 10
86.2594995453
 20
236.8279706984
 30
0.0
 10
86.7429139307
 20
236.4918908599
 30
0.0
 10
87.5150040379
 20
236.1991674947
 30
0.0
 10
88.5459690215
 20
236.0633382407
 30
0.0
 10
89.5943087447
 20
236.1430966858
 30
0.0
 10
90.2624743883
 20
236.3480841302
 30
0.0
 10
90.5605046195
 20
236.4923066224
 30
0.0
  0
SPLINE
  5
46A
100
AcDbEntity
  8
0
100
AcDbSpline
 62
7
  6
BYLAYER
 70
0
 71
3
 72
15
 73
11
 74
0
 42
0.0000001
 43
0.0000001
 44
0.0000000001
 40
0.0
 40
0.0
 40
0.0
 40
0.0
 40
0.1245707085
 40
0.2301942972
 40
0.3256923029
 40
0.4263497722
 40
0.5439685064
 40
0.6817599822
 40
0.8362319364
 40
1.0
 40
1.0
 40
1.0
 40
1.0
 10
90.7495275309
 20
236.592253126
 30
0.0
 10
90.9359076154
 20
236.6998590756
 30
0.0
 10
91.2605911322
 20
236.9396532747
 30
0.0
 10
91.5835204107
 20
237.4207935737
 30
0.0
 10
91.6351295148
 20
237.964292123
 30
0.0
 10
91.3969765281
 20
238.4740328481
 30
0.0
 10
90.93469641
 20
238.8955444912
 30
0.0
 10
90.2970877571
 20
239.218020282
 30
0.0
 10
89.5315230133
 20
239.4222965607
 30
0.0
 10
88.980613193
 20
239.4693319458
 30
0.0
 10
88.6976826419
 20
239.4701138107
 30
0.0
  0
SPLINE
  5
46B
100
AcDbEntity
  8
0
100
AcDbSpline
 62
7
  6
BYLAYER
 70
0
 71
3
 72
9
 73
5
 74
0
 42
0.0000001
 43
0.0000001
 44
0.0000000001
 40
0.0
 40
0.0
 40
0.0
 40
0.0
 40
0.2635923742
 40
1.0
 40
1.0
 40
1.0
 40
1.0
 10
88.5738724805
 20
239.4689302865
 30
0.0
 10
88.4144206961
 20
239.4654393878
 30
0.0
 10
87.8112150135
 20
239.4234477014
 30
0.0
 10
87.2101087595
 20
239.2704154399
 30
0.0
 10
86.8090296475
 20
239.076325636
 30
0.0
  0
SPLINE
  5
46C
100
AcDbEntity
  8
0
100
AcDbSpline
 62
7
  6
BYLAYER
 70
0
 71
3
 72
11
 73
7
 74
0
 42
0.0000001
 43
0.0000001
 44
0.0000000001
 40
0.0
 40
0.0
 40
0.0
 40
0.0
 40
0.289572729
 40
0.5491104531
 40
0.7822476031
 40
1.0
 40
1.0
 40
1.0
 40
1.0
 10
91.1030823889
 20
235.9798815375
 30
0.0
 10
91.2530782832
 20
236.0664811904
 30
0.0
 10
91.5252694078
 20
236.254104829
 30
0.0
 10
91.8507801173
 20
236.595934862
 30
0.0
 10
92.0567596833
 20
236.9742961179
 30
0.0
 10
92.1046332529
 20
237.2458222358
 30
0.0
 10
92.1046622454
 20
237.3760649285
 30
0.0
  0
SPLINE
  5
46D
100
AcDbEntity
  8
0
100
AcDbSpline
 62
7
  6
BYLAYER
 70
0
 71
3
 72
18
 73
14
 74
0
 42
0.0000001
 43
0.0000001
 44
0.0000000001
 40
0.0
 40
0.0
 40
0.0
 40
0.0
 40
0.110432224
 40
0.1581753487
 40
0.2034149269
 40
0.249155008
 40
0.2982269913
 40
0.3525441668
 40
0.4129426773
 40
0.5504119054
 40
0.7030161025
 40
0.8574647481
 40
1.0
 40
1.0
 40
1.0
 40
1.0
 10
34.2995294952
 20
198.9658052462
 30
0.0
 10
34.0857528376
 20
198.8240219949
 30
0.0
 10
33.8007121601
 20
198.5675259444
 30
0.0
 10
33.6014879621
 20
198.1321421876
 30
0.0
 10
33.5644166498
 20
197.8061361444
 30
0.0
 10
33.6357214523
 20
197.4830079949
 30
0.0
 10
33.8098413195
 20
197.178519926
 30
0.0
 10
34.0753070141
 20
196.901733242
 30
0.0
 10
34.5587213995
 20
196.5656534034
 30
0.0
 10
35.3308115067
 20
196.2729300382
 30
0.0
 10
36.3617764903
 20
196.1371007843
 30
0.0
 10
37.4101162135
 20
196.2168592293
 30
0.0
 10
38.0782818571
 20
196.4218466738
 30
0.0
 10
38.3763120883
 20
196.566069166
 30
0.0
  0
SPLINE
  5
46E
100
AcDbEntity
  8
0
100
AcDbSpline
 62
7
  6
BYLAYER
 70
0
 71
3
 72
15
 73
11
 74
0
 42
0.0000001
 43
0.0000001
 44
0.0000000001
 40
0.0
 40
0.0
 40
0.0
 40
0.0
 40
0.1245707085
 40
0.2301942972
 40
0.3256923029
 40
0.4263497722
 40
0.5439685064
 40
0.6817599822
 40
0.8362319364
 40
1.0
 40
1.0
 40
1.0
 40
1.0
 10
38.5653349997
 20
196.6660156696
 30
0.0
 10
38.7517150842
 20
196.7736216192
 30
0.0
 10
39.076398601
 20
197.0134158183
 30
0.0
 10
39.3993278795
 20
197.4945561173
 30
0.0
 10
39.4509369836
 20
198.0380546666
 30
0.0
 10
39.2127839969
 20
198.5477953916
 30
0.0
 10
38.7505038789
 20
198.9693070348
 30
0.0
 10
38.112895226
 20
199.2917828256
 30
0.0
 10
37.3473304821
 20
199.4960591043
 30
0.0
 10
36.7964206618
 20
199.5430944893
 30
0.0
 10
36.5134901107
 20
199.5438763543
 30
0.0
  0
SPLINE
  5
46F
100
AcDbEntity
  8
0
100
AcDbSpline
 62
7
  6
BYLAYER
 70
0
 71
3
 72
9
 73
5
 74
0
 42
0.0000001
 43
0.0000001
 44
0.0000000001
 40
0.0
 40
0.0
 40
0.0
 40
0.0
 40
0.2635923742
 40
1.0
 40
1.0
 40
1.0
 40
1.0
 10
36.3896799494
 20
199.5426928301
 30
0.0
 10
36.2302281649
 20
199.5392019314
 30
0.0
 10
35.6270224823
 20
199.497210245
 30
0.0
 10
35.0259162283
 20
199.3441779835
 30
0.0
 10
34.6248371163
 20
199.1500881796
 30
0.0
  0
SPLINE
  5
470
100
AcDbEntity
  8
0
100
AcDbSpline
 62
7
  6
BYLAYER
 70
0
 71
3
 72
11
 73
7
 74
0
 42
0.0000001
 43
0.0000001
 44
0.0000000001
 40
0.0
 40
0.0
 40
0.0
 40
0.0
 40
0.289572729
 40
0.5491104531
 40
0.7822476031
 40
1.0
 40
1.0
 40
1.0
 40
1.0
 10
38.9188898577
 20
196.0536440811
 30
0.0
 10
39.068885752
 20
196.140243734
 30
0.0
 10
39.3410768766
 20
196.3278673726
 30
0.0
 10
39.6665875861
 20
196.6696974056
 30
0.0
 10
39.8725671521
 20
197.0480586615
 30
0.0
 10
39.9204407217
 20
197.3195847794
 30
0.0
 10
39.9204697142
 20
197.449827472
 30
0.0
  0
SPLINE
  5
471
100
AcDbEntity
  8
0
100
AcDbSpline
 62
7
  6
BYLAYER
 70
0
 71
3
 72
15
 73
11
 74
0
 42
0.0000001
 43
0.0000001
 44
0.0000000001
 40
0.0
 40
0.0
 40
0.0
 40
0.0
 40
0.1288218741
 40
0.2705886523
 40
0.4178845195
 40
0.5623782844
 40
0.6961921667
 40
0.8135857567
 40
0.9130583171
 40
1.0
 40
1.0
 40
1.0
 40
1.0
 10
38.9188898623
 20
194.2899988628
 30
0.0
 10
38.6657454645
 20
194.1438467495
 30
0.0
 10
38.0925012837
 20
193.9073835831
 30
0.0
 10
37.1583566017
 20
193.7203863942
 30
0.0
 10
36.1702243505
 20
193.6931485224
 30
0.0
 10
35.2091925011
 20
193.8280742617
 30
0.0
 10
34.3518432014
 20
194.1145205801
 30
0.0
 10
33.6650997796
 20
194.5329611301
 30
0.0
 10
33.1997518075
 20
195.062023057
 30
0.0
 10
33.0807423772
 20
195.4889061513
 30
0.0
 10
33.0807365723
 20
195.6861827039
 30
0.0
  0
SPLINE
  5
472
100
AcDbEntity
  8
0
100
AcDbSpline
 62
7
  6
BYLAYER
 70
0
 71
3
 72
9
 73
5
 74
0
 42
0.0000001
 43
0.0000001
 44
0.0000000001
 40
0.0
 40
0.0
 40
0.0
 40
0.0
 40
0.2562063226
 40
1.0
 40
1.0
 40
1.0
 40
1.0
 10
79.3782646437
 20
238.8339662124
 30
0.0
 10
79.6392595494
 20
239.1733368158
 30
0.0
 10
80.6853695658
 20
240.4764426827
 30
0.0
 10
81.841978095
 20
241.6922432598
 30
0.0
 10
82.7626636787
 20
242.527177478
 30
0.0
  0
SPLINE
  5
473
100
AcDbEntity
  8
0
100
AcDbSpline
 62
7
  6
BYLAYER
 70
0
 71
3
 72
11
 73
7
 74
0
 42
0.0000001
 43
0.0000001
 44
0.0000000001
 40
0.0
 40
0.0
 40
0.0
 40
0.0
 40
0.2502869922
 40
0.5071168386
 40
0.7602935812
 40
1.0
 40
1.0
 40
1.0
 40
1.0
 10
108.1928489224
 20
197.5594549519
 30
0.0
 10
107.1429835536
 20
197.3002599337
 30
0.0
 10
104.9710419552
 20
196.945618144
 30
0.0
 10
101.6765022045
 20
196.8804178046
 30
0.0
 10
98.4503563273
 20
197.2705938795
 30
0.0
 10
96.3874367102
 20
197.8427696795
 30
0.0
 10
95.4186798267
 20
198.2090065219
 30
0.0
  0
SPLINE
  5
474
100
AcDbEntity
  8
0
100
AcDbSpline
 62
7
  6
BYLAYER
 70
0
 71
3
 72
9
 73
5
 74
0
 42
0.0000001
 43
0.0000001
 44
0.0000000001
 40
0.0
 40
0.0
 40
0.0
 40
0.0
 40
0.2359709305
 40
1.0
 40
1.0
 40
1.0
 40
1.0
 10
68.6816952434
 20
208.7301515595
 30
0.0
 10
68.9827833569
 20
208.9039838252
 30
0.0
 10
70.2889118363
 20
209.5881144544
 30
0.0
 10
71.6937346657
 20
210.0748651368
 30
0.0
 10
72.784494119
 20
210.3530593728
 30
0.0
  0
SPLINE
  5
475
100
AcDbEntity
  8
0
100
AcDbSpline
 62
7
  6
BYLAYER
 70
0
 71
3
 72
17
 73
13
 74
0
 42
0.0000001
 43
0.0000001
 44
0.0000000001
 40
0.0
 40
0.0
 40
0.0
 40
0.0
 40
0.1635740778
 40
0.3143061983
 40
0.4471026281
 40
0.5609707247
 40
0.6124796068
 40
0.6618935949
 40
0.7109144225
 40
0.7613117762
 40
0.871462991
 40
1.0
 40
1.0
 40
1.0
 40
1.0
 10
80.7066199524
 20
210.8903842197
 30
0.0
 10
81.8821940792
 20
210.7653773719
 30
0.0
 10
84.1277552928
 20
210.3502312752
 30
0.0
 10
87.1717597895
 20
209.2085209403
 30
0.0
 10
89.6075817108
 20
207.6377666604
 30
0.0
 10
91.0390643547
 20
205.9616908245
 30
0.0
 10
91.6440194639
 20
204.5193906005
 30
0.0
 10
91.8306678109
 20
203.4418212706
 30
0.0
 10
91.7579837947
 20
202.3583968466
 30
0.0
 10
91.305956807
 20
200.8996059716
 30
0.0
 10
90.0471085818
 20
199.1656233102
 30
0.0
 10
88.6333583096
 20
198.14028004
 30
0.0
 10
87.8288387122
 20
197.6757932065
 30
0.0
  0
SPLINE
  5
476
100
AcDbEntity
  8
0
100
AcDbSpline
 62
7
  6
BYLAYER
 70
0
 71
3
 72
11
 73
7
 74
0
 42
0.0000001
 43
0.0000001
 44
0.0000000001
 40
0.0
 40
0.0
 40
0.0
 40
0.0
 40
0.2897730581
 40
0.5490651526
 40
0.7822233799
 40
1.0
 40
1.0
 40
1.0
 40
1.0
 10
88.3315805611
 20
196.6038846989
 30
0.0
 10
88.957004529
 20
196.9649712397
 30
0.0
 10
90.0915456992
 20
197.7460627035
 30
0.0
 10
91.447030806
 20
199.1711936518
 30
0.0
 10
92.3047712649
 20
200.7471804838
 30
0.0
 10
92.5051899866
 20
201.8785696275
 30
0.0
 10
92.5051860496
 20
202.4213154506
 30
0.0
  0
SPLINE
  5
477
100
AcDbEntity
  8
0
100
AcDbSpline
 62
7
  6
BYLAYER
 70
0
 71
3
 72
21
 73
17
 74
0
 42
0.0000001
 43
0.0000001
 44
0.0000000001
 40
0.0
 40
0.0
 40
0.0
 40
0.0
 40
0.0596587545
 40
0.1130327061
 40
0.1611820685
 40
0.2064328693
 40
0.251994726
 40
0.3009782861
 40
0.3554717873
 40
0.416306795
 40
0.483268028
 40
0.5553845319
 40
0.7085922842
 40
0.8615572124
 40
0.9334028009
 40
1.0
 40
1.0
 40
1.0
 40
1.0
 10
68.4538836514
 20
208.5953957778
 30
0.0
 10
67.8788046859
 20
208.2468786417
 30
0.0
 10
66.8386707681
 20
207.4960282148
 30
0.0
 10
65.6107281832
 20
206.1347764373
 30
0.0
 10
64.8547886723
 20
204.6357725689
 30
0.0
 10
64.6282887067
 20
203.0549177898
 30
0.0
 10
64.95684511
 20
201.483226559
 30
0.0
 10
65.8049722021
 20
200.0067090438
 30
0.0
 10
67.1146916694
 20
198.6749962186
 30
0.0
 10
68.8299044591
 20
197.5235982592
 30
0.0
 10
70.88851975
 20
196.5865034793
 30
0.0
 10
74.0550290382
 20
195.6470443187
 30
0.0
 10
78.3347011895
 20
195.1995129537
 30
0.0
 10
82.6090532382
 20
195.6757860928
 30
0.0
 10
85.757814629
 20
196.6375653553
 30
0.0
 10
87.1787558134
 20
197.3004699103
 30
0.0
 10
87.8288387122
 20
197.6757932065
 30
0.0
  0
SPLINE
  5
478
100
AcDbEntity
  8
0
100
AcDbSpline
 62
7
  6
BYLAYER
 70
0
 71
3
 72
9
 73
5
 74
0
 42
0.0000001
 43
0.0000001
 44
0.0000000001
 40
0.0
 40
0.0
 40
0.0
 40
0.0
 40
0.4733480863
 40
1.0
 40
1.0
 40
1.0
 40
1.0
 10
73.9574432953
 20
221.55438959
 30
0.0
 10
73.8868661598
 20
223.1129232087
 30
0.0
 10
74.2155647743
 20
226.4296748586
 30
0.0
 10
75.2089752757
 20
229.5931837656
 30
0.0
 10
75.8691519946
 20
231.1985588048
 30
0.0
  0
SPLINE
  5
479
100
AcDbEntity
  8
0
100
AcDbSpline
 62
7
  6
BYLAYER
 70
0
 71
3
 72
9
 73
5
 74
0
 42
0.0000001
 43
0.0000001
 44
0.0000000001
 40
0.0
 40
0.0
 40
0.0
 40
0.0
 40
0.2550366044
 40
1.0
 40
1.0
 40
1.0
 40
1.0
 10
79.9823566729
 20
238.3122931643
 30
0.0
 10
80.1966157437
 20
238.5892457836
 30
0.0
 10
81.0558163197
 20
239.6601924905
 30
0.0
 10
81.9918312105
 20
240.670166401
 30
0.0
 10
82.7313079881
 20
241.3767877764
 30
0.0
  0
SPLINE
  5
47A
100
AcDbEntity
  8
0
100
AcDbSpline
 62
7
  6
BYLAYER
 70
0
 71
3
 72
17
 73
13
 74
0
 42
0.0000001
 43
0.0000001
 44
0.0000000001
 40
0.0
 40
0.0
 40
0.0
 40
0.0
 40
0.0428588705
 40
0.0874882997
 40
0.1353223328
 40
0.1872856408
 40
0.3045518466
 40
0.4382226938
 40
0.5825694618
 40
0.7297273024
 40
0.8713109533
 40
1.0
 40
1.0
 40
1.0
 40
1.0
 10
64.005347906
 20
202.421315451
 30
0.0
 10
64.0053508486
 20
202.0156610039
 30
0.0
 10
64.1137269248
 20
201.1840539031
 30
0.0
 10
64.5906944718
 20
199.9833259819
 30
0.0
 10
65.3646091503
 20
198.8449770208
 30
0.0
 10
66.8214378587
 20
197.3827987157
 30
0.0
 10
69.3039812301
 20
195.8717936925
 30
0.0
 10
72.8733306578
 20
194.6794875291
 30
0.0
 10
76.878949642
 20
194.1166344318
 30
0.0
 10
80.9959803195
 20
194.2307238799
 30
0.0
 10
84.8884518379
 20
195.0094603691
 30
0.0
 10
87.2767362062
 20
195.9948736619
 30
0.0
 10
88.3315805611
 20
196.6038846989
 30
0.0
  0
SPLINE
  5
47B
100
AcDbEntity
  8
0
100
AcDbSpline
 62
7
  6
BYLAYER
 70
0
 71
3
 72
9
 73
5
 74
0
 42
0.0000001
 43
0.0000001
 44
0.0000000001
 40
0.0
 40
0.0
 40
0.0
 40
0.0
 40
0.4802907803
 40
1.0
 40
1.0
 40
1.0
 40
1.0
 10
82.7931426613
 20
244.5252859381
 30
0.0
 10
81.8466548335
 20
243.9302859561
 30
0.0
 10
80.0008336401
 20
242.4887646035
 30
0.0
 10
78.411913875
 20
240.7751681614
 30
0.0
 10
77.6526378071
 20
239.8333928808
 30
0.0
  0
SPLINE
  5
47C
100
AcDbEntity
  8
0
100
AcDbSpline
 62
7
  6
BYLAYER
 70
0
 71
3
 72
10
 73
6
 74
0
 42
0.0000001
 43
0.0000001
 44
0.0000000001
 40
0.0
 40
0.0
 40
0.0
 40
0.0
 40
0.53596711
 40
0.7786084246
 40
1.0
 40
1.0
 40
1.0
 40
1.0
 10
73.4398701318
 20
232.5130849619
 30
0.0
 10
72.8009750074
 20
230.8448286489
 30
0.0
 10
72.1117298524
 20
228.3076321613
 30
0.0
 10
71.9033986244
 20
224.9725313021
 30
0.0
 10
72.0516263142
 20
223.423140427
 30
0.0
 10
72.1952914385
 20
222.6993489026
 30
0.0
  0
SPLINE
  5
47D
100
AcDbEntity
  8
0
100
AcDbSpline
 62
7
  6
BYLAYER
 70
0
 71
3
 72
15
 73
11
 74
0
 42
0.0000001
 43
0.0000001
 44
0.0000000001
 40
0.0
 40
0.0
 40
0.0
 40
0.0
 40
0.09661385
 40
0.2078201263
 40
0.3326314478
 40
0.467463598
 40
0.6072270777
 40
0.7461853931
 40
0.8786892703
 40
1.0
 40
1.0
 40
1.0
 40
1.0
 10
70.3519176552
 20
219.3813277122
 30
0.0
 10
69.8695314765
 20
220.3143716176
 30
0.0
 10
69.205127205
 20
222.5177384459
 30
0.0
 10
69.0817822985
 20
226.1580607987
 30
0.0
 10
69.7379769605
 20
230.1584962381
 30
0.0
 10
71.1348574535
 20
234.2876526013
 30
0.0
 10
73.1874511184
 20
238.3049905311
 30
0.0
 10
75.7745850825
 20
241.9708576857
 30
0.0
 10
78.7395845931
 20
245.0659107864
 30
0.0
 10
80.9763072521
 20
246.7168108668
 30
0.0
 10
82.1184792004
 20
247.3762402124
 30
0.0
  0
SPLINE
  5
47E
100
AcDbEntity
  8
0
100
AcDbSpline
 62
7
  6
BYLAYER
 70
0
 71
3
 72
9
 73
5
 74
0
 42
0.0000001
 43
0.0000001
 44
0.0000000001
 40
0.0
 40
0.0
 40
0.0
 40
0.0
 40
0.4774700882
 40
1.0
 40
1.0
 40
1.0
 40
1.0
 10
78.7682952489
 20
247.4399281671
 30
0.0
 10
77.7255714467
 20
246.8379148927
 30
0.0
 10
75.6878262724
 20
245.3192950107
 30
0.0
 10
73.9541538709
 20
243.471933717
 30
0.0
 10
73.1271355662
 20
242.4461337097
 30
0.0
  0
SPLINE
  5
47F
100
AcDbEntity
  8
0
100
AcDbSpline
 62
7
  6
BYLAYER
 70
0
 71
3
 72
10
 73
6
 74
0
 42
0.0000001
 43
0.0000001
 44
0.0000000001
 40
0.0
 40
0.0
 40
0.0
 40
0.0
 40
0.53596711
 40
0.7786084246
 40
1.0
 40
1.0
 40
1.0
 40
1.0
 10
68.9143678909
 20
235.1258257909
 30
0.0
 10
68.2754727665
 20
233.4575694778
 30
0.0
 10
67.5862276115
 20
230.9203729902
 30
0.0
 10
67.3778963834
 20
227.585272131
 30
0.0
 10
67.5261240733
 20
226.0358812559
 30
0.0
 10
67.6697891975
 20
225.3120897316
 30
0.0
  0
SPLINE
  5
480
100
AcDbEntity
  8
0
100
AcDbSpline
 62
7
  6
BYLAYER
 70
0
 71
3
 72
11
 73
7
 74
0
 42
0.0000001
 43
0.0000001
 44
0.0000000001
 40
0.0
 40
0.0
 40
0.0
 40
0.0
 40
0.2911997306
 40
0.5499222092
 40
0.7818422184
 40
1.0
 40
1.0
 40
1.0
 40
1.0
 10
77.5929769595
 20
249.9889810413
 30
0.0
 10
78.4417218289
 20
250.4790011951
 30
0.0
 10
80.1286838805
 20
251.2733598178
 30
0.0
 10
82.7246501161
 20
251.8469812138
 30
0.0
 10
85.143951887
 20
251.6834667066
 30
0.0
 10
86.5627736664
 20
251.0497183822
 30
0.0
 10
87.1670244445
 20
250.6326350029
 30
0.0
  0
SPLINE
  5
481
100
AcDbEntity
  8
0
100
AcDbSpline
 62
7
  6
BYLAYER
 70
0
 71
3
 72
17
 73
13
 74
0
 42
0.0000001
 43
0.0000001
 44
0.0000000001
 40
0.0
 40
0.0
 40
0.0
 40
0.0
 40
0.0431377285
 40
0.0887669619
 40
0.1379627269
 40
0.1913362787
 40
0.310770241
 40
0.4450642884
 40
0.5885127795
 40
0.7337571567
 40
0.873129489
 40
1.0
 40
1.0
 40
1.0
 40
1.0
 10
67.6789866607
 20
219.6887920664
 30
0.0
 10
67.2787469591
 20
220.0076613403
 30
0.0
 10
66.5344041216
 20
220.7687880561
 30
0.0
 10
65.674693616
 20
222.1747022736
 30
0.0
 10
65.0609139413
 20
223.832413458
 30
0.0
 10
64.5643117961
 20
226.4285546892
 30
0.0
 10
64.6592995559
 20
230.1112785846
 30
0.0
 10
65.7517586791
 20
234.7197197576
 30
0.0
 10
67.7412972796
 20
239.3517212044
 30
0.0
 10
70.4789253797
 20
243.6554010488
 30
0.0
 10
73.7537364706
 20
247.3046936202
 30
0.0
 10
76.2895788103
 20
249.2364682609
 30
0.0
 10
77.5929769595
 20
249.9889810413
 30
0.0
  0
SPLINE
  5
482
100
AcDbEntity
  8
0
100
AcDbSpline
 62
7
  6
BYLAYER
 70
0
 71
3
 72
9
 73
5
 74
0
 42
0.0000001
 43
0.0000001
 44
0.0000000001
 40
0.0
 40
0.0
 40
0.0
 40
0.0
 40
0.2433600858
 40
1.0
 40
1.0
 40
1.0
 40
1.0
 10
74.242793008
 20
250.052668996
 30
0.0
 10
74.102770486
 20
249.9718274378
 30
0.0
 10
73.5327975743
 20
249.630330112
 30
0.0
 10
72.9842832787
 20
249.2533723366
 30
0.0
 10
72.5818037351
 20
248.9521834477
 30
0.0
  0
SPLINE
  5
483
100
AcDbEntity
  8
0
100
AcDbSpline
 62
7
  6
BYLAYER
 70
0
 71
3
 72
9
 73
5
 74
0
 42
0.0000001
 43
0.0000001
 44
0.0000000001
 40
0.0
 40
0.0
 40
0.0
 40
0.0
 40
0.2412832836
 40
1.0
 40
1.0
 40
1.0
 40
1.0
 10
72.5818037351
 20
248.9521834477
 30
0.0
 10
72.3168671273
 20
248.7539225329
 30
0.0
 10
71.2408712299
 20
247.9029381511
 30
0.0
 10
70.2526705321
 20
246.9429818401
 30
0.0
 10
69.5535289825
 20
246.1723222751
 30
0.0
  0
SPLINE
  5
484
100
AcDbEntity
  8
0
100
AcDbSpline
 62
7
  6
BYLAYER
 70
0
 71
3
 72
9
 73
5
 74
0
 42
0.0000001
 43
0.0000001
 44
0.0000000001
 40
0.0
 40
0.0
 40
0.0
 40
0.0
 40
0.259962845
 40
1.0
 40
1.0
 40
1.0
 40
1.0
 10
64.3888656499
 20
237.7385666198
 30
0.0
 10
64.2192706204
 20
237.2957271492
 30
0.0
 10
63.6142285996
 20
235.5750002997
 30
0.0
 10
63.1997992044
 20
233.7834251655
 30
0.0
 10
63.0376977009
 20
232.4432755602
 30
0.0
  0
SPLINE
  5
485
100
AcDbEntity
  8
0
100
AcDbSpline
 62
7
  6
BYLAYER
 70
0
 71
3
 72
9
 73
5
 74
0
 42
0.0000001
 43
0.0000001
 44
0.0000000001
 40
0.0
 40
0.0
 40
0.0
 40
0.0
 40
0.2670251535
 40
1.0
 40
1.0
 40
1.0
 40
1.0
 10
63.0376977009
 20
232.4432755602
 30
0.0
 10
62.9892826917
 20
232.0430118109
 30
0.0
 10
62.8567760004
 20
230.5395729441
 30
0.0
 10
62.9288183189
 20
229.0103714981
 30
0.0
 10
63.1442869566
 20
227.9248305605
 30
0.0
  0
SPLINE
  5
486
100
AcDbEntity
  8
0
100
AcDbSpline
 62
7
  6
BYLAYER
 70
0
 71
3
 72
12
 73
8
 74
0
 42
0.0000001
 43
0.0000001
 44
0.0000000001
 40
0.0
 40
0.0
 40
0.0
 40
0.0
 40
0.2919523547
 40
0.5497377906
 40
0.7803044127
 40
0.8903978403
 40
1.0
 40
1.0
 40
1.0
 40
1.0
 10
73.0674747186
 20
252.6017218703
 30
0.0
 10
73.956442595
 20
253.1149646494
 30
0.0
 10
75.7232482602
 20
253.9381163698
 30
0.0
 10
78.4421132418
 20
254.4912498836
 30
0.0
 10
80.5796559391
 20
254.2571443753
 30
0.0
 10
82.0499246012
 20
253.6477742355
 30
0.0
 10
82.6994263379
 20
253.2195476515
 30
0.0
 10
82.9999130804
 20
252.978286751
 30
0.0
  0
SPLINE
  5
487
100
AcDbEntity
  8
0
100
AcDbSpline
 62
7
  6
BYLAYER
 70
0
 71
3
 72
13
 73
9
 74
0
 42
0.0000001
 43
0.0000001
 44
0.0000000001
 40
0.0
 40
0.0
 40
0.0
 40
0.0
 40
0.0995331627
 40
0.2039305137
 40
0.3153147595
 40
0.4350443373
 40
0.7008731317
 40
1.0
 40
1.0
 40
1.0
 40
1.0
 10
63.1534844197
 20
222.3015328954
 30
0.0
 10
62.7965070009
 20
222.585935292
 30
0.0
 10
62.1278050087
 20
223.2514116277
 30
0.0
 10
61.3256210207
 20
224.4643998614
 30
0.0
 10
60.7166954837
 20
225.8853075883
 30
0.0
 10
60.1542621471
 20
228.1014421792
 30
0.0
 10
60.0186513743
 20
231.2703674628
 30
0.0
 10
60.4313507899
 20
233.8429975552
 30
0.0
 10
60.7550658111
 20
235.1759249774
 30
0.0
  0
SPLINE
  5
488
100
AcDbEntity
  8
0
100
AcDbSpline
 62
7
  6
BYLAYER
 70
0
 71
3
 72
9
 73
5
 74
0
 42
0.0000001
 43
0.0000001
 44
0.0000000001
 40
0.0
 40
0.0
 40
0.0
 40
0.0
 40
0.507741491
 40
1.0
 40
1.0
 40
1.0
 40
1.0
 10
62.4231496449
 20
240.0200746658
 30
0.0
 10
63.2224556945
 20
241.8132033176
 30
0.0
 10
65.1333527257
 20
245.2021824366
 30
0.0
 10
67.6347561662
 20
248.1881906053
 30
0.0
 10
69.0088868842
 20
249.5051911945
 30
0.0
  0
SPLINE
  5
489
100
AcDbEntity
  8
0
100
AcDbSpline
 62
7
  6
BYLAYER
 70
0
 71
3
 72
9
 73
5
 74
0
 42
0.0000001
 43
0.0000001
 44
0.0000000001
 40
0.0
 40
0.0
 40
0.0
 40
0.0
 40
0.2621129464
 40
1.0
 40
1.0
 40
1.0
 40
1.0
 10
69.0088868842
 20
249.5051911945
 30
0.0
 10
69.3313156437
 20
249.8142148272
 30
0.0
 10
70.5918133253
 20
250.9603508237
 30
0.0
 10
71.9786545589
 20
251.9730950104
 30
0.0
 10
73.0674747186
 20
252.6017218703
 30
0.0
  0
SPLINE
  5
48A
100
AcDbEntity
  8
0
100
AcDbSpline
 62
7
  6
BYLAYER
 70
0
 71
3
 72
9
 73
5
 74
0
 42
0.0000001
 43
0.0000001
 44
0.0000000001
 40
0.0
 40
0.0
 40
0.0
 40
0.0
 40
0.4999332341
 40
1.0
 40
1.0
 40
1.0
 40
1.0
 10
55.3446904073
 20
252.9245792674
 30
0.0
 10
55.7156366137
 20
253.1645062903
 30
0.0
 10
56.5165588533
 20
253.5631141996
 30
0.0
 10
57.401517463
 20
253.7187692473
 30
0.0
 10
57.8432372744
 20
253.7311766548
 30
0.0
  0
SPLINE
  5
48B
100
AcDbEntity
  8
0
100
AcDbSpline
 62
7
  6
BYLAYER
 70
0
 71
3
 72
15
 73
11
 74
0
 42
0.0000001
 43
0.0000001
 44
0.0000000001
 40
0.0
 40
0.0
 40
0.0
 40
0.0
 40
0.1443711785
 40
0.273656739
 40
0.3901835483
 40
0.4992686341
 40
0.6084893604
 40
0.725356366
 40
0.8551414222
 40
1.0
 40
1.0
 40
1.0
 40
1.0
 10
144.9698357308
 20
170.7001485025
 30
0.0
 10
144.9611683804
 20
171.4737192503
 30
0.0
 10
144.8277250955
 20
172.9438522637
 30
0.0
 10
144.2083023326
 20
174.9598756041
 30
0.0
 10
143.1844434926
 20
176.5944881799
 30
0.0
 10
141.7758219037
 20
177.7605957322
 30
0.0
 10
140.053061806
 20
178.378757227
 30
0.0
 10
138.1200121803
 20
178.4301863424
 30
0.0
 10
136.061347973
 20
177.941183941
 30
0.0
 10
134.7204527261
 20
177.3115821339
 30
0.0
 10
134.0460568368
 20
176.9272322517
 30
0.0
  0
SPLINE
  5
48C
100
AcDbEntity
  8
0
100
AcDbSpline
 62
7
  6
BYLAYER
 70
0
 71
3
 72
15
 73
11
 74
0
 42
0.0000001
 43
0.0000001
 44
0.0000000001
 40
0.0
 40
0.0
 40
0.0
 40
0.0
 40
0.0867579777
 40
0.1852575162
 40
0.3008947512
 40
0.4327553845
 40
0.5759067671
 40
0.7232496487
 40
0.8670286408
 40
1.0
 40
1.0
 40
1.0
 40
1.0
 10
33.0806794904
 20
197.4498274565
 30
0.0
 10
33.0806372681
 20
197.260152307
 30
0.0
 10
33.1897736464
 20
196.8513768416
 30
0.0
 10
33.6214748459
 20
196.3365990634
 30
0.0
 10
34.2638718376
 20
195.9221779484
 30
0.0
 10
35.0715723708
 20
195.6277381066
 30
0.0
 10
35.9861213994
 20
195.4718245261
 30
0.0
 10
36.9397474071
 20
195.4657545878
 30
0.0
 10
37.8596137133
 20
195.609928982
 30
0.0
 10
38.4358201512
 20
195.8099515946
 30
0.0
 10
38.6975000139
 20
195.9365834528
 30
0.0
  0
SPLINE
  5
48D
100
AcDbEntity
  8
0
100
AcDbSpline
 62
7
  6
BYLAYER
 70
0
 71
3
 72
8
 73
4
 74
0
 42
0.0000001
 43
0.0000001
 44
0.0000000001
 40
0.0
 40
0.0
 40
0.0
 40
0.0
 40
1.0
 40
1.0
 40
1.0
 40
1.0
 10
62.1660756474
 20
246.1842633398
 30
0.0
 10
62.0559558559
 20
245.65479465
 30
0.0
 10
61.9325068883
 20
245.1277665694
 30
0.0
 10
61.7907426317
 20
244.605879266
 30
0.0
  0
SPLINE
  5
48E
100
AcDbEntity
  8
0
100
AcDbSpline
 62
7
  6
BYLAYER
 70
0
 71
3
 72
21
 73
17
 74
0
 42
0.0000001
 43
0.0000001
 44
0.0000000001
 40
0.0
 40
0.0
 40
0.0
 40
0.0
 40
0.0665795333
 40
0.1383850886
 40
0.291285053
 40
0.4446040172
 40
0.5168862061
 40
0.5840929164
 40
0.6452381395
 40
0.700066213
 40
0.7493354103
 40
0.7950346065
 40
0.8401950016
 40
0.8880226425
 40
0.9409042527
 40
1.0
 40
1.0
 40
1.0
 40
1.0
 10
133.9753125409
 20
176.8866510528
 30
0.0
 10
133.2331258711
 20
176.458151937
 30
0.0
 10
131.7663403191
 20
175.4325977561
 30
0.0
 10
129.0154523292
 20
172.872034633
 30
0.0
 10
126.0962671361
 20
168.9226412063
 30
0.0
 10
124.0806362611
 20
164.4388140738
 30
0.0
 10
123.1827533149
 20
160.7686198444
 30
0.0
 10
122.9168943707
 20
158.190198365
 30
0.0
 10
123.0565124295
 20
155.8240422445
 30
0.0
 10
123.6036760329
 20
153.7505550683
 30
0.0
 10
124.5553407643
 20
152.0446201203
 30
0.0
 10
125.8971015958
 20
150.7897402323
 30
0.0
 10
127.5690163293
 20
150.0705564356
 30
0.0
 10
129.468838634
 20
149.9183556787
 30
0.0
 10
131.5075939183
 20
150.3109802357
 30
0.0
 10
132.8417412163
 20
150.88291269
 30
0.0
 10
133.5142193833
 20
151.2384331532
 30
0.0
  0
SPLINE
  5
48F
100
AcDbEntity
  8
0
100
AcDbSpline
 62
7
  6
BYLAYER
 70
0
 71
3
 72
9
 73
5
 74
0
 42
0.0000001
 43
0.0000001
 44
0.0000000001
 40
0.0
 40
0.0
 40
0.0
 40
0.0
 40
0.4886532628
 40
1.0
 40
1.0
 40
1.0
 40
1.0
 10
96.1554094755
 20
216.9414615975
 30
0.0
 10
96.1553959378
 20
216.7382817662
 30
0.0
 10
96.2136439757
 20
216.3207274421
 30
0.0
 10
96.3779596449
 20
215.9337127472
 30
0.0
 10
96.4821147911
 20
215.7483559793
 30
0.0
  0
SPLINE
  5
490
100
AcDbEntity
  8
0
100
AcDbSpline
 62
7
  6
BYLAYER
 70
0
 71
3
 72
14
 73
10
 74
0
 42
0.0000001
 43
0.0000001
 44
0.0000000001
 40
0.0
 40
0.0
 40
0.0
 40
0.0
 40
0.2033499156
 40
0.3277352007
 40
0.4628862906
 40
0.6035729833
 40
0.7437934968
 40
0.8776182932
 40
1.0
 40
1.0
 40
1.0
 40
1.0
 10
96.4821147911
 20
215.7483559793
 30
0.0
 10
96.8832188246
 20
215.0345425005
 30
0.0
 10
97.9947731529
 20
214.1639447951
 30
0.0
 10
99.7211487046
 20
213.477206878
 30
0.0
 10
101.3067275508
 20
213.1354489488
 30
0.0
 10
102.9837723783
 20
213.0330526442
 30
0.0
 10
104.6543377283
 20
213.1727095867
 30
0.0
 10
106.2124437576
 20
213.5464218336
 30
0.0
 10
107.1662928264
 20
213.9598647425
 30
0.0
 10
107.5930446329
 20
214.2062485422
 30
0.0
  0
SPLINE
  5
491
100
AcDbEntity
  8
0
100
AcDbSpline
 62
7
  6
BYLAYER
 70
0
 71
3
 72
11
 73
7
 74
0
 42
0.0000001
 43
0.0000001
 44
0.0000000001
 40
0.0
 40
0.0
 40
0.0
 40
0.0
 40
0.2177502078
 40
0.4508984047
 40
0.7104716927
 40
1.0
 40
1.0
 40
1.0
 40
1.0
 10
39.9204126324
 20
195.6861817826
 30
0.0
 10
39.9204164647
 20
195.5559418582
 30
0.0
 10
39.8725495992
 20
195.284406528
 30
0.0
 10
39.6665758219
 20
194.9060144492
 30
0.0
 10
39.3410192476
 20
194.5642325164
 30
0.0
 10
39.0688610631
 20
194.3765842588
 30
0.0
 10
38.9188898623
 20
194.2899988628
 30
0.0
  0
SPLINE
  5
492
100
AcDbEntity
  8
0
100
AcDbSpline
 62
7
  6
BYLAYER
 70
0
 71
3
 72
12
 73
8
 74
0
 42
0.0000001
 43
0.0000001
 44
0.0000000001
 40
0.0
 40
0.0
 40
0.0
 40
0.0
 40
0.2692488965
 40
0.5405288397
 40
0.6694323915
 40
0.7901744568
 40
1.0
 40
1.0
 40
1.0
 40
1.0
 10
83.5927064258
 20
183.3566408387
 30
0.0
 10
81.9861890291
 20
182.9600173113
 30
0.0
 10
78.6574237237
 20
182.5553801088
 30
0.0
 10
74.526563415
 20
182.9135291777
 30
0.0
 10
71.4230433957
 20
183.7385126913
 30
0.0
 10
68.8094198058
 20
184.8071148208
 30
0.0
 10
67.0802146406
 20
185.984318453
 30
0.0
 10
66.2162137747
 20
186.9416260119
 30
0.0
  0
SPLINE
  5
493
100
AcDbEntity
  8
0
100
AcDbSpline
 62
7
  6
BYLAYER
 70
0
 71
3
 72
9
 73
5
 74
0
 42
0.0000001
 43
0.0000001
 44
0.0000000001
 40
0.0
 40
0.0
 40
0.0
 40
0.0
 40
0.2558151483
 40
1.0
 40
1.0
 40
1.0
 40
1.0
 10
66.2162137747
 20
186.9416260119
 30
0.0
 10
66.1602221637
 20
187.0036643669
 30
0.0
 10
65.9453174702
 20
187.2497137725
 30
0.0
 10
65.7467892158
 20
187.5102010553
 30
0.0
 10
65.6105770749
 20
187.7115669784
 30
0.0
  0
SPLINE
  5
494
100
AcDbEntity
  8
0
100
AcDbSpline
 62
7
  6
BYLAYER
 70
0
 71
3
 72
16
 73
12
 74
0
 42
0.0000001
 43
0.0000001
 44
0.0000000001
 40
0.0
 40
0.0
 40
0.0
 40
0.0
 40
0.1244411132
 40
0.2608291391
 40
0.4034061106
 40
0.5454185849
 40
0.680209482
 40
0.8022611185
 40
0.8575149807
 40
0.9087180523
 40
1.0
 40
1.0
 40
1.0
 40
1.0
 10
133.1267808707
 20
178.3563428588
 30
0.0
 10
131.9990771624
 20
177.7052667056
 30
0.0
 10
129.7985744243
 20
176.05174939
 30
0.0
 10
126.9235380954
 20
172.9370168769
 30
0.0
 10
124.4727214407
 20
169.2551046401
 30
0.0
 10
122.6166226473
 20
165.2587723989
 30
0.0
 10
121.4822164048
 20
161.2226942885
 30
0.0
 10
121.1924017396
 20
157.9422854748
 30
0.0
 10
121.4261974499
 20
155.5546090034
 30
0.0
 10
121.9118124226
 20
153.5410326458
 30
0.0
 10
122.6165975747
 20
152.1741761648
 30
0.0
 10
123.2354814668
 20
151.446612051
 30
0.0
  0
SPLINE
  5
495
100
AcDbEntity
  8
0
100
AcDbSpline
 62
7
  6
BYLAYER
 70
0
 71
3
 72
9
 73
5
 74
0
 42
0.0000001
 43
0.0000001
 44
0.0000000001
 40
0.0
 40
0.0
 40
0.0
 40
0.0
 40
0.2547916344
 40
1.0
 40
1.0
 40
1.0
 40
1.0
 10
123.2354814668
 20
151.446612051
 30
0.0
 10
123.3447224188
 20
151.3181876446
 30
0.0
 10
123.7933146657
 20
150.8314674099
 30
0.0
 10
124.3248616085
 20
150.4204700581
 30
0.0
 10
124.7519455115
 20
150.1739588665
 30
0.0
  0
SPLINE
  5
496
100
AcDbEntity
  8
0
100
AcDbSpline
 62
7
  6
BYLAYER
 70
0
 71
3
 72
14
 73
10
 74
0
 42
0.0000001
 43
0.0000001
 44
0.0000000001
 40
0.0
 40
0.0
 40
0.0
 40
0.0
 40
0.1235177047
 40
0.2587395597
 40
0.4002765702
 40
0.5418062582
 40
0.6770085465
 40
0.8004958953
 40
1.0
 40
1.0
 40
1.0
 40
1.0
 10
61.2841298616
 20
249.7983414021
 30
0.0
 10
60.8556500129
 20
249.5509599228
 30
0.0
 10
60.0183381504
 20
248.9260371078
 30
0.0
 10
58.9181031195
 20
247.751050569
 30
0.0
 10
57.9716626844
 20
246.3602197369
 30
0.0
 10
57.2411372233
 20
244.8467544401
 30
0.0
 10
56.7749452343
 20
243.3008641185
 30
0.0
 10
56.5558638813
 20
241.4859250808
 30
0.0
 10
56.814575485
 20
240.1110597864
 30
0.0
 10
57.2749412258
 20
239.4578486277
 30
0.0
  0
SPLINE
  5
497
100
AcDbEntity
  8
0
100
AcDbSpline
 62
7
  6
BYLAYER
 70
0
 71
3
 72
9
 73
5
 74
0
 42
0.0000001
 43
0.0000001
 44
0.0000000001
 40
0.0
 40
0.0
 40
0.0
 40
0.0
 40
0.2577050983
 40
1.0
 40
1.0
 40
1.0
 40
1.0
 10
57.2749412258
 20
239.4578486277
 30
0.0
 10
57.3246856471
 20
239.3872664619
 30
0.0
 10
57.5308448069
 20
239.1229894291
 30
0.0
 10
57.7937671111
 20
238.9020833623
 30
0.0
 10
58.0091870585
 20
238.7777549173
 30
0.0
  0
SPLINE
  5
498
100
AcDbEntity
  8
0
100
AcDbSpline
 62
7
  6
BYLAYER
 70
0
 71
3
 72
15
 73
11
 74
0
 42
0.0000001
 43
0.0000001
 44
0.0000000001
 40
0.0
 40
0.0
 40
0.0
 40
0.0
 40
0.0867579777
 40
0.1852575162
 40
0.3008947512
 40
0.4327553845
 40
0.5759067671
 40
0.7232496487
 40
0.8670286408
 40
1.0
 40
1.0
 40
1.0
 40
1.0
 10
85.2648720216
 20
237.3760649129
 30
0.0
 10
85.2648297993
 20
237.1863897634
 30
0.0
 10
85.3739661775
 20
236.777614298
 30
0.0
 10
85.8056673771
 20
236.2628365198
 30
0.0
 10
86.4480643687
 20
235.8484154048
 30
0.0
 10
87.255764902
 20
235.553975563
 30
0.0
 10
88.1703139306
 20
235.3980619825
 30
0.0
 10
89.1239399383
 20
235.3919920442
 30
0.0
 10
90.0438062445
 20
235.5361664385
 30
0.0
 10
90.6200126824
 20
235.7361890511
 30
0.0
 10
90.8816925451
 20
235.8628209093
 30
0.0
  0
SPLINE
  5
499
100
AcDbEntity
  8
0
100
AcDbSpline
 62
7
  6
BYLAYER
 70
0
 71
3
 72
11
 73
7
 74
0
 42
0.0000001
 43
0.0000001
 44
0.0000000001
 40
0.0
 40
0.0
 40
0.0
 40
0.0
 40
0.2892635197
 40
0.5488151913
 40
0.7822604511
 40
1.0
 40
1.0
 40
1.0
 40
1.0
 10
57.3243154008
 20
252.0844896274
 30
0.0
 10
57.6075895571
 20
252.2480370616
 30
0.0
 10
58.171297691
 20
252.516919247
 30
0.0
 10
59.0374654679
 20
252.7305315075
 30
0.0
 10
59.8515881413
 20
252.7186905613
 30
0.0
 10
60.3445537658
 20
252.5495539175
 30
0.0
 10
60.560283102
 20
252.430877781
 30
0.0
  0
SPLINE
  5
49A
100
AcDbEntity
  8
0
100
AcDbSpline
 62
7
  6
BYLAYER
 70
0
 71
3
 72
10
 73
6
 74
0
 42
0.0000001
 43
0.0000001
 44
0.0000000001
 40
0.0
 40
0.0
 40
0.0
 40
0.0
 40
0.5201294649
 40
0.7712290787
 40
1.0
 40
1.0
 40
1.0
 40
1.0
 10
53.1770470378
 20
246.722835921
 30
0.0
 10
53.5665378194
 20
247.8523532897
 30
0.0
 10
54.4336093007
 20
249.444863243
 30
0.0
 10
55.9821411124
 20
251.1499421925
 30
0.0
 10
56.8692114429
 20
251.8217368033
 30
0.0
 10
57.3243154008
 20
252.0844896274
 30
0.0
  0
SPLINE
  5
49B
100
AcDbEntity
  8
0
100
AcDbSpline
 62
7
  6
BYLAYER
 70
0
 71
3
 72
11
 73
7
 74
0
 42
0.0000001
 43
0.0000001
 44
0.0000000001
 40
0.0
 40
0.0
 40
0.0
 40
0.0
 40
0.2177228452
 40
0.4508747288
 40
0.7104738623
 40
1.0
 40
1.0
 40
1.0
 40
1.0
 10
92.1046134505
 20
235.612419318
 30
0.0
 10
92.1046226094
 20
235.4821960743
 30
0.0
 10
92.0567290508
 20
235.2106818948
 30
0.0
 10
91.8507932876
 20
234.8322727731
 30
0.0
 10
91.5252095125
 20
234.4904901125
 30
0.0
 10
91.2530521085
 20
234.3028208574
 30
0.0
 10
91.1030823935
 20
234.2162363192
 30
0.0
  0
SPLINE
  5
49C
100
AcDbEntity
  8
0
100
AcDbSpline
 62
7
  6
BYLAYER
 70
0
 71
3
 72
9
 73
5
 74
0
 42
0.0000001
 43
0.0000001
 44
0.0000000001
 40
0.0
 40
0.0
 40
0.0
 40
0.0
 40
0.4938908014
 40
1.0
 40
1.0
 40
1.0
 40
1.0
 10
52.8461629928
 20
250.4229609811
 30
0.0
 10
52.5638444622
 20
250.1920788452
 30
0.0
 10
51.9050536412
 20
249.8257155716
 30
0.0
 10
51.1684346173
 20
249.6790857576
 30
0.0
 10
50.7950992462
 20
249.6619532991
 30
0.0
  0
SPLINE
  5
49D
100
AcDbEntity
  8
0
100
AcDbSpline
 62
7
  6
BYLAYER
 70
0
 71
3
 72
9
 73
5
 74
0
 42
0.0000001
 43
0.0000001
 44
0.0000000001
 40
0.0
 40
0.0
 40
0.0
 40
0.0
 40
0.5630165939
 40
1.0
 40
1.0
 40
1.0
 40
1.0
 10
53.1770366392
 20
246.722805765
 30
0.0
 10
53.1378168684
 20
247.419011069
 30
0.0
 10
53.0490211919
 20
248.6545071832
 30
0.0
 10
52.919944596
 20
249.8868005267
 30
0.0
 10
52.846161909
 20
250.4229617078
 30
0.0
  0
SPLINE
  5
49E
100
AcDbEntity
  8
0
100
AcDbSpline
 62
7
  6
BYLAYER
 70
0
 71
3
 72
9
 73
5
 74
0
 42
0.0000001
 43
0.0000001
 44
0.0000000001
 40
0.0
 40
0.0
 40
0.0
 40
0.0
 40
0.2229707521
 40
1.0
 40
1.0
 40
1.0
 40
1.0
 10
53.1770466568
 20
246.722836048
 30
0.0
 10
53.0019247585
 20
246.7067629865
 30
0.0
 10
52.2159389059
 20
246.6411179586
 30
0.0
 10
51.4285804252
 20
246.5925245673
 30
0.0
 10
50.8164813789
 20
246.5622718079
 30
0.0
  0
SPLINE
  5
49F
100
AcDbEntity
  8
0
100
AcDbSpline
 62
7
  6
BYLAYER
 70
0
 71
3
 72
13
 73
9
 74
0
 42
0.0000001
 43
0.0000001
 44
0.0000000001
 40
0.0
 40
0.0
 40
0.0
 40
0.0
 40
0.0516760923
 40
0.1262454498
 40
0.2275372717
 40
0.3544204946
 40
0.6634290735
 40
1.0
 40
1.0
 40
1.0
 40
1.0
 10
53.1770471852
 20
241.9611369863
 30
0.0
 10
53.2365734869
 20
242.0191533029
 30
0.0
 10
53.3319039672
 20
242.2071997008
 30
0.0
 10
53.4049516104
 20
242.5656285851
 30
0.0
 10
53.4472670276
 20
243.0519513589
 30
0.0
 10
53.4638059136
 20
243.9159356174
 30
0.0
 10
53.4068864582
 20
245.158403697
 30
0.0
 10
53.2793343547
 20
246.1912055502
 30
0.0
 10
53.1770470378
 20
246.722835921
 30
0.0
  0
SPLINE
  5
4A0
100
AcDbEntity
  8
0
100
AcDbSpline
 62
7
  6
BYLAYER
 70
0
 71
3
 72
9
 73
5
 74
0
 42
0.0000001
 43
0.0000001
 44
0.0000000001
 40
0.0
 40
0.0
 40
0.0
 40
0.0
 40
0.4992392743
 40
1.0
 40
1.0
 40
1.0
 40
1.0
 10
53.1770505784
 20
241.9611379887
 30
0.0
 10
52.8524738967
 20
242.221477783
 30
0.0
 10
52.0871666395
 20
242.612414188
 30
0.0
 10
51.2302015724
 20
242.6714121243
 30
0.0
 10
50.8164800604
 20
242.6164742413
 30
0.0
  0
SPLINE
  5
4A1
100
AcDbEntity
  8
0
100
AcDbSpline
 62
7
  6
BYLAYER
 70
0
 71
3
 72
15
 73
11
 74
0
 42
0.0000001
 43
0.0000001
 44
0.0000000001
 40
0.0
 40
0.0
 40
0.0
 40
0.0
 40
0.0867579777
 40
0.1852575162
 40
0.3008947512
 40
0.4327553845
 40
0.5759067671
 40
0.7232496487
 40
0.8670286408
 40
1.0
 40
1.0
 40
1.0
 40
1.0
 10
83.7097358109
 20
168.2197894328
 30
0.0
 10
83.7096935886
 20
168.0301142834
 30
0.0
 10
83.8188299669
 20
167.6213388179
 30
0.0
 10
84.2505311664
 20
167.1065610398
 30
0.0
 10
84.8929281581
 20
166.6921399247
 30
0.0
 10
85.7006286914
 20
166.397700083
 30
0.0
 10
86.6151777199
 20
166.2417865024
 30
0.0
 10
87.5688037276
 20
166.2357165642
 30
0.0
 10
88.4886700338
 20
166.3798909584
 30
0.0
 10
89.0648764717
 20
166.579913571
 30
0.0
 10
89.3265563345
 20
166.7065454292
 30
0.0
  0
SPLINE
  5
4A2
100
AcDbEntity
  8
0
100
AcDbSpline
 62
7
  6
BYLAYER
 70
0
 71
3
 72
11
 73
7
 74
0
 42
0.0000001
 43
0.0000001
 44
0.0000000001
 40
0.0
 40
0.0
 40
0.0
 40
0.0
 40
0.2177502078
 40
0.4508984047
 40
0.7104716927
 40
1.0
 40
1.0
 40
1.0
 40
1.0
 10
90.5494689529
 20
166.456143759
 30
0.0
 10
90.5494727852
 20
166.3259038346
 30
0.0
 10
90.5016059197
 20
166.0543685043
 30
0.0
 10
90.2956321425
 20
165.6759764256
 30
0.0
 10
89.9700755681
 20
165.3341944928
 30
0.0
 10
89.6979173837
 20
165.1465462351
 30
0.0
 10
89.5479461828
 20
165.0599608391
 30
0.0
  0
SPLINE
  5
4A3
100
AcDbEntity
  8
0
100
AcDbSpline
 62
7
  6
BYLAYER
 70
0
 71
3
 72
10
 73
6
 74
0
 42
0.0000001
 43
0.0000001
 44
0.0000000001
 40
0.0
 40
0.0
 40
0.0
 40
0.0
 40
0.5243926709
 40
0.7719686387
 40
1.0
 40
1.0
 40
1.0
 40
1.0
 10
178.4876303944
 20
175.1757289335
 30
0.0
 10
179.4000573834
 20
176.9912200657
 30
0.0
 10
181.0867026523
 20
179.5164621803
 30
0.0
 10
183.8529088966
 20
182.2421597035
 30
0.0
 10
185.35916582
 20
183.3237763629
 30
0.0
 10
186.1243518363
 20
183.7655540783
 30
0.0
  0
SPLINE
  5
4A4
100
AcDbEntity
  8
0
100
AcDbSpline
 62
7
  6
BYLAYER
 70
0
 71
3
 72
11
 73
7
 74
0
 42
0.0000001
 43
0.0000001
 44
0.0000000001
 40
0.0
 40
0.0
 40
0.0
 40
0.0
 40
0.2032330819
 40
0.404418148
 40
0.6603629678
 40
1.0
 40
1.0
 40
1.0
 40
1.0
 10
51.2855046863
 20
250.5590916374
 30
0.0
 10
51.2131901042
 20
250.5407906388
 30
0.0
 10
51.0694353605
 20
250.485282684
 30
0.0
 10
50.9135414911
 20
250.2876192025
 30
0.0
 10
50.8319116997
 20
250.0033296536
 30
0.0
 10
50.8055535784
 20
249.7861773488
 30
0.0
 10
50.795099241
 20
249.6619565539
 30
0.0
  0
SPLINE
  5
4A5
100
AcDbEntity
  8
0
100
AcDbSpline
 62
7
  6
BYLAYER
 70
0
 71
3
 72
9
 73
5
 74
0
 42
0.0000001
 43
0.0000001
 44
0.0000000001
 40
0.0
 40
0.0
 40
0.0
 40
0.0
 40
0.2541111943
 40
1.0
 40
1.0
 40
1.0
 40
1.0
 10
61.0430782794
 20
252.4665650326
 30
0.0
 10
61.0827425857
 20
252.4241810913
 30
0.0
 10
61.235321927
 20
252.2541766223
 30
0.0
 10
61.3730534441
 20
252.070536214
 30
0.0
 10
61.4639723609
 20
251.9264308273
 30
0.0
  0
SPLINE
  5
4A6
100
AcDbEntity
  8
0
100
AcDbSpline
 62
7
  6
BYLAYER
 70
0
 71
3
 72
9
 73
5
 74
0
 42
0.0000001
 43
0.0000001
 44
0.0000000001
 40
0.0
 40
0.0
 40
0.0
 40
0.0
 40
0.5086090704
 40
1.0
 40
1.0
 40
1.0
 40
1.0
 10
57.8432373526
 20
253.7311724173
 30
0.0
 10
58.2523186513
 20
253.7426471962
 30
0.0
 10
59.0633891297
 20
253.6559021825
 30
0.0
 10
59.8221502717
 20
253.3547510425
 30
0.0
 10
60.1646903079
 20
253.1572720129
 30
0.0
  0
SPLINE
  5
4A7
100
AcDbEntity
  8
0
100
AcDbSpline
 62
7
  6
BYLAYER
 70
0
 71
3
 72
9
 73
5
 74
0
 42
0.0000001
 43
0.0000001
 44
0.0000000001
 40
0.0
 40
0.0
 40
0.0
 40
0.0
 40
0.2539001201
 40
1.0
 40
1.0
 40
1.0
 40
1.0
 10
60.1646903079
 20
253.1572720129
 30
0.0
 10
60.2243945531
 20
253.1228516966
 30
0.0
 10
60.4560761794
 20
252.9813887391
 30
0.0
 10
60.6734736511
 20
252.8163000794
 30
0.0
 10
60.8240971235
 20
252.6809346598
 30
0.0
  0
SPLINE
  5
4A8
100
AcDbEntity
  8
0
100
AcDbSpline
 62
7
  6
BYLAYER
 70
0
 71
3
 72
15
 73
11
 74
0
 42
0.0000001
 43
0.0000001
 44
0.0000000001
 40
0.0
 40
0.0
 40
0.0
 40
0.0
 40
0.0867579777
 40
0.1852575162
 40
0.3008947512
 40
0.4327553845
 40
0.5759067671
 40
0.7232496487
 40
0.8670286408
 40
1.0
 40
1.0
 40
1.0
 40
1.0
 10
152.8645617456
 20
198.3482487807
 30
0.0
 10
152.8645195233
 20
198.1585736313
 30
0.0
 10
152.9736559016
 20
197.7497981659
 30
0.0
 10
153.4053571012
 20
197.2350203877
 30
0.0
 10
154.0477540928
 20
196.8205992726
 30
0.0
 10
154.8554546261
 20
196.5261594309
 30
0.0
 10
155.7700036546
 20
196.3702458503
 30
0.0
 10
156.7236296623
 20
196.3641759121
 30
0.0
 10
157.6434959686
 20
196.5083503063
 30
0.0
 10
158.2197024064
 20
196.7083729189
 30
0.0
 10
158.4813822692
 20
196.8350047771
 30
0.0
  0
SPLINE
  5
4A9
100
AcDbEntity
  8
0
100
AcDbSpline
 62
7
  6
BYLAYER
 70
0
 71
3
 72
11
 73
7
 74
0
 42
0.0000001
 43
0.0000001
 44
0.0000000001
 40
0.0
 40
0.0
 40
0.0
 40
0.0
 40
0.1567710694
 40
0.3786295805
 40
0.6623168565
 40
1.0
 40
1.0
 40
1.0
 40
1.0
 10
50.8164826569
 20
242.616466371
 30
0.0
 10
50.8233833785
 20
242.6937839545
 30
0.0
 10
50.8199853294
 20
242.8817806302
 30
0.0
 10
50.8060528391
 20
243.2091457365
 30
0.0
 10
50.7939039695
 20
243.6266229271
 30
0.0
 10
50.7906279218
 20
243.9342715617
 30
0.0
 10
50.7906279591
 20
244.1014747845
 30
0.0
  0
SPLINE
  5
4AA
100
AcDbEntity
  8
0
100
AcDbSpline
 62
7
  6
BYLAYER
 70
0
 71
3
 72
10
 73
6
 74
0
 42
0.0000001
 43
0.0000001
 44
0.0000000001
 40
0.0
 40
0.0
 40
0.0
 40
0.0
 40
0.5615978893
 40
0.8018677066
 40
1.0
 40
1.0
 40
1.0
 40
1.0
 10
50.8164826218
 20
246.5622721235
 30
0.0
 10
50.8015909785
 20
247.1425351988
 30
0.0
 10
50.7762007759
 20
247.971035443
 30
0.0
 10
50.7649787836
 20
249.0044571213
 30
0.0
 10
50.7778966607
 20
249.45789235
 30
0.0
 10
50.7951008648
 20
249.6619531919
 30
0.0
  0
SPLINE
  5
4AB
100
AcDbEntity
  8
0
100
AcDbSpline
 62
7
  6
BYLAYER
 70
0
 71
3
 72
9
 73
5
 74
0
 42
0.0000001
 43
0.0000001
 44
0.0000000001
 40
0.0
 40
0.0
 40
0.0
 40
0.0
 40
0.4795292134
 40
1.0
 40
1.0
 40
1.0
 40
1.0
 10
50.7906279371
 20
244.1014747821
 30
0.0
 10
50.7906280249
 20
244.4948411806
 30
0.0
 10
50.8084630373
 20
245.3149098228
 30
0.0
 10
50.8274549622
 20
246.135462047
 30
0.0
 10
50.8164826058
 20
246.5622725366
 30
0.0
  0
SPLINE
  5
4AC
100
AcDbEntity
  8
0
100
AcDbSpline
 62
7
  6
BYLAYER
 70
0
 71
3
 72
11
 73
7
 74
0
 42
0.0000001
 43
0.0000001
 44
0.0000000001
 40
0.0
 40
0.0
 40
0.0
 40
0.0
 40
0.2177228452
 40
0.4508747288
 40
0.7104738623
 40
1.0
 40
1.0
 40
1.0
 40
1.0
 10
159.7043031746
 20
196.5846031859
 30
0.0
 10
159.7043123334
 20
196.4543799422
 30
0.0
 10
159.6564187749
 20
196.1828657627
 30
0.0
 10
159.4504830117
 20
195.804456641
 30
0.0
 10
159.1248992366
 20
195.4626739804
 30
0.0
 10
158.8527418325
 20
195.2750047252
 30
0.0
 10
158.7027721175
 20
195.1884201871
 30
0.0
  0
SPLINE
  5
4AD
100
AcDbEntity
  8
0
100
AcDbSpline
 62
7
  6
BYLAYER
 70
0
 71
3
 72
9
 73
5
 74
0
 42
0.0000001
 43
0.0000001
 44
0.0000000001
 40
0.0
 40
0.0
 40
0.0
 40
0.0
 40
0.2745947832
 40
1.0
 40
1.0
 40
1.0
 40
1.0
 10
186.1243518363
 20
183.7655540783
 30
0.0
 10
186.4776515399
 20
183.9695305397
 30
0.0
 10
187.7948389609
 20
184.6511222826
 30
0.0
 10
189.2728853969
 20
185.0749307672
 30
0.0
 10
190.350110567
 20
185.1071271903
 30
0.0
  0
SPLINE
  5
4AE
100
AcDbEntity
  8
0
100
AcDbSpline
 62
7
  6
BYLAYER
 70
0
 71
3
 72
9
 73
5
 74
0
 42
0.0000001
 43
0.0000001
 44
0.0000000001
 40
0.0
 40
0.0
 40
0.0
 40
0.0
 40
0.2540032862
 40
1.0
 40
1.0
 40
1.0
 40
1.0
 10
190.350110567
 20
185.1071271903
 30
0.0
 10
190.4138583398
 20
185.1090325025
 30
0.0
 10
190.6649244302
 20
185.1127224417
 30
0.0
 10
190.9162626252
 20
185.1008824165
 30
0.0
 10
191.1026826956
 20
185.0826651075
 30
0.0
  0
SPLINE
  5
4AF
100
AcDbEntity
  8
0
100
AcDbSpline
 62
7
  6
BYLAYER
 70
0
 71
3
 72
9
 73
5
 74
0
 42
0.0000001
 43
0.0000001
 44
0.0000000001
 40
0.0
 40
0.0
 40
0.0
 40
0.0
 40
0.235950468
 40
1.0
 40
1.0
 40
1.0
 40
1.0
 10
60.9975321115
 20
252.1532028759
 30
0.0
 10
60.9980523174
 20
252.1781335967
 30
0.0
 10
61.0039059928
 20
252.2837145635
 30
0.0
 10
61.0231263195
 20
252.388316827
 30
0.0
 10
61.0430718234
 20
252.4665623635
 30
0.0
  0
SPLINE
  5
4B0
100
AcDbEntity
  8
0
100
AcDbSpline
 62
7
  6
BYLAYER
 70
0
 71
3
 72
15
 73
11
 74
0
 42
0.0000001
 43
0.0000001
 44
0.0000000001
 40
0.0
 40
0.0
 40
0.0
 40
0.0
 40
0.0867579777
 40
0.1852575162
 40
0.3008947512
 40
0.4327553845
 40
0.5759067671
 40
0.7232496487
 40
0.8670286408
 40
1.0
 40
1.0
 40
1.0
 40
1.0
 10
117.7916485334
 20
256.155295991
 30
0.0
 10
117.7916063111
 20
255.9656208415
 30
0.0
 10
117.9007426894
 20
255.5568453761
 30
0.0
 10
118.3324438889
 20
255.0420675979
 30
0.0
 10
118.9748408806
 20
254.6276464829
 30
0.0
 10
119.7825414138
 20
254.3332066411
 30
0.0
 10
120.6970904424
 20
254.1772930606
 30
0.0
 10
121.6507164501
 20
254.1712231223
 30
0.0
 10
122.5705827563
 20
254.3153975165
 30
0.0
 10
123.1467891942
 20
254.5154201292
 30
0.0
 10
123.408469057
 20
254.6420519874
 30
0.0
  0
SPLINE
  5
4B1
100
AcDbEntity
  8
0
100
AcDbSpline
 62
7
  6
BYLAYER
 70
0
 71
3
 72
11
 73
7
 74
0
 42
0.0000001
 43
0.0000001
 44
0.0000000001
 40
0.0
 40
0.0
 40
0.0
 40
0.0
 40
0.2177228452
 40
0.4508747288
 40
0.7104738623
 40
1.0
 40
1.0
 40
1.0
 40
1.0
 10
124.6313899624
 20
254.3916503961
 30
0.0
 10
124.6313991212
 20
254.2614271524
 30
0.0
 10
124.5835055627
 20
253.9899129729
 30
0.0
 10
124.3775697994
 20
253.6115038512
 30
0.0
 10
124.0519860243
 20
253.2697211906
 30
0.0
 10
123.7798286203
 20
253.0820519354
 30
0.0
 10
123.6298589053
 20
252.9954673973
 30
0.0
  0
SPLINE
  5
4B2
100
AcDbEntity
  8
0
100
AcDbSpline
 62
7
  6
BYLAYER
 70
0
 71
3
 72
11
 73
7
 74
0
 42
0.0000001
 43
0.0000001
 44
0.0000000001
 40
0.0
 40
0.0
 40
0.0
 40
0.0
 40
0.1038695767
 40
0.3086422922
 40
0.6113694006
 40
1.0
 40
1.0
 40
1.0
 40
1.0
 10
57.7158288925
 20
253.1877861305
 30
0.0
 10
57.7316283121
 20
253.1991269928
 30
0.0
 10
57.753397222
 20
253.257629742
 30
0.0
 10
57.7832993837
 20
253.3648549836
 30
0.0
 10
57.813987253
 20
253.5315871458
 30
0.0
 10
57.8333139228
 20
253.6590867763
 30
0.0
 10
57.843237355
 20
253.7311732921
 30
0.0
  0
SPLINE
  5
4B3
100
AcDbEntity
  8
0
100
AcDbSpline
 62
7
  6
BYLAYER
 70
0
 71
3
 72
14
 73
10
 74
0
 42
0.0000001
 43
0.0000001
 44
0.0000000001
 40
0.0
 40
0.0
 40
0.0
 40
0.0
 40
0.1170575955
 40
0.2441559604
 40
0.5133565167
 40
0.6474938997
 40
0.7754764248
 40
0.8937592177
 40
1.0
 40
1.0
 40
1.0
 40
1.0
 10
137.0512398452
 20
171.3957177727
 30
0.0
 10
136.4489975465
 20
171.0480150949
 30
0.0
 10
135.2633881304
 20
170.1970052724
 30
0.0
 10
133.0850394343
 20
168.0518498945
 30
0.0
 10
131.308025422
 20
165.3975720778
 30
0.0
 10
130.0649762058
 20
162.489818032
 30
0.0
 10
129.4617267763
 20
160.3031885181
 30
0.0
 10
129.2156821357
 20
158.2151728078
 30
0.0
 10
129.3045473618
 20
156.8724815526
 30
0.0
 10
129.4235959022
 20
156.2526622049
 30
0.0
  0
SPLINE
  5
4B4
100
AcDbEntity
  8
0
100
AcDbSpline
 62
7
  6
BYLAYER
 70
0
 71
3
 72
9
 73
5
 74
0
 42
0.0000001
 43
0.0000001
 44
0.0000000001
 40
0.0
 40
0.0
 40
0.0
 40
0.0
 40
0.2591101557
 40
1.0
 40
1.0
 40
1.0
 40
1.0
 10
129.4235959022
 20
156.2526622049
 30
0.0
 10
129.4442614322
 20
156.1450683168
 30
0.0
 10
129.5330287683
 20
155.731663868
 30
0.0
 10
129.6591712422
 20
155.3258389992
 30
0.0
 10
129.7765841765
 20
155.0354008246
 30
0.0
  0
SPLINE
  5
4B5
100
AcDbEntity
  8
0
100
AcDbSpline
 62
7
  6
BYLAYER
 70
0
 71
3
 72
12
 73
8
 74
0
 42
0.0000001
 43
0.0000001
 44
0.0000000001
 40
0.0
 40
0.0
 40
0.0
 40
0.0
 40
0.2419869192
 40
0.3558542704
 40
0.4700751346
 40
0.71450166
 40
1.0
 40
1.0
 40
1.0
 40
1.0
 10
129.8117101033
 20
154.9505165174
 30
0.0
 10
130.0591688754
 20
154.3661789701
 30
0.0
 10
130.587592313
 20
153.5508639351
 30
0.0
 10
131.5945341289
 20
152.8210232433
 30
0.0
 10
132.7561933428
 20
152.3551310208
 30
0.0
 10
134.4999568881
 20
152.3255834638
 30
0.0
 10
135.8286746887
 20
152.8048028322
 30
0.0
 10
136.4996563852
 20
153.1369207712
 30
0.0
  0
SPLINE
  5
4B6
100
AcDbEntity
  8
0
100
AcDbSpline
 62
7
  6
BYLAYER
 70
0
 71
3
 72
15
 73
11
 74
0
 42
0.0000001
 43
0.0000001
 44
0.0000000001
 40
0.0
 40
0.0
 40
0.0
 40
0.0
 40
0.0867579777
 40
0.1852575162
 40
0.3008947512
 40
0.4327553845
 40
0.5759067671
 40
0.7232496487
 40
0.8670286408
 40
1.0
 40
1.0
 40
1.0
 40
1.0
 10
185.3913382575
 20
217.1274798588
 30
0.0
 10
185.3912960352
 20
216.9378047094
 30
0.0
 10
185.5004324134
 20
216.529029244
 30
0.0
 10
185.932133613
 20
216.0142514658
 30
0.0
 10
186.5745306046
 20
215.5998303507
 30
0.0
 10
187.3822311379
 20
215.305390509
 30
0.0
 10
188.2967801664
 20
215.1494769284
 30
0.0
 10
189.2504061742
 20
215.1434069902
 30
0.0
 10
190.1702724804
 20
215.2875813844
 30
0.0
 10
190.7464789182
 20
215.487603997
 30
0.0
 10
191.008158781
 20
215.6142358552
 30
0.0
  0
SPLINE
  5
4B7
100
AcDbEntity
  8
0
100
AcDbSpline
 62
7
  6
BYLAYER
 70
0
 71
3
 72
18
 73
14
 74
0
 42
0.0000001
 43
0.0000001
 44
0.0000000001
 40
0.0
 40
0.0
 40
0.0
 40
0.0
 40
0.1357935466
 40
0.2859723988
 40
0.4393530672
 40
0.5839193341
 40
0.7099721732
 40
0.7648442309
 40
0.8146100362
 40
0.8606595017
 40
0.9052144734
 40
0.9508935878
 40
1.0
 40
1.0
 40
1.0
 40
1.0
 10
137.0512398452
 20
153.4326645958
 30
0.0
 10
138.0201510628
 20
153.992062409
 30
0.0
 10
139.8772896285
 20
155.4924168001
 30
0.0
 10
142.1451473675
 20
158.3410086634
 30
0.0
 10
143.8542181993
 20
161.642463799
 30
0.0
 10
144.8124439457
 20
165.0262254149
 30
0.0
 10
144.9009761096
 20
167.7520766347
 30
0.0
 10
144.4467794678
 20
169.6098700245
 30
0.0
 10
143.8920716652
 20
170.7340257462
 30
0.0
 10
143.1167567913
 20
171.6131978334
 30
0.0
 10
142.1420933697
 20
172.205912559
 30
0.0
 10
141.0121311836
 20
172.484473869
 30
0.0
 10
140.2222702152
 20
172.4611285521
 30
0.0
 10
139.8214379462
 20
172.4061374365
 30
0.0
  0
SPLINE
  5
4B8
100
AcDbEntity
  8
0
100
AcDbSpline
 62
7
  6
BYLAYER
 70
0
 71
3
 72
9
 73
5
 74
0
 42
0.0000001
 43
0.0000001
 44
0.0000000001
 40
0.0
 40
0.0
 40
0.0
 40
0.0
 40
0.2419164604
 40
1.0
 40
1.0
 40
1.0
 40
1.0
 10
139.7900695998
 20
172.4017446493
 30
0.0
 10
139.6970872586
 20
172.3884592585
 30
0.0
 10
139.3141080345
 20
172.3240520483
 30
0.0
 10
138.9376229693
 20
172.2228951075
 30
0.0
 10
138.6584311082
 20
172.1297047377
 30
0.0
  0
SPLINE
  5
4B9
100
AcDbEntity
  8
0
100
AcDbSpline
 62
7
  6
BYLAYER
 70
0
 71
3
 72
9
 73
5
 74
0
 42
0.0000001
 43
0.0000001
 44
0.0000000001
 40
0.0
 40
0.0
 40
0.0
 40
0.0
 40
0.2401969606
 40
1.0
 40
1.0
 40
1.0
 40
1.0
 10
138.6584311082
 20
172.1297047377
 30
0.0
 10
138.5299709752
 20
172.0868265275
 30
0.0
 10
138.0000948188
 20
171.8936349741
 30
0.0
 10
137.4908919493
 20
171.6455062993
 30
0.0
 10
137.1182987004
 20
171.4341001878
 30
0.0
  0
SPLINE
  5
4BA
100
AcDbEntity
  8
0
100
AcDbSpline
 62
7
  6
BYLAYER
 70
0
 71
3
 72
11
 73
7
 74
0
 42
0.0000001
 43
0.0000001
 44
0.0000000001
 40
0.0
 40
0.0
 40
0.0
 40
0.0
 40
0.2897730581
 40
0.5490651526
 40
0.7822233799
 40
1.0
 40
1.0
 40
1.0
 40
1.0
 10
113.4620553517
 20
203.9084831948
 30
0.0
 10
114.1203963705
 20
204.2885742904
 30
0.0
 10
115.3146502338
 20
205.1107758313
 30
0.0
 10
116.741476662
 20
206.6109136716
 30
0.0
 10
117.6443613556
 20
208.2698471789
 30
0.0
 10
117.8553284311
 20
209.4607831197
 30
0.0
 10
117.8553242869
 20
210.0320945124
 30
0.0
  0
SPLINE
  5
4BB
100
AcDbEntity
  8
0
100
AcDbSpline
 62
7
  6
BYLAYER
 70
0
 71
3
 72
11
 73
7
 74
0
 42
0.0000001
 43
0.0000001
 44
0.0000000001
 40
0.0
 40
0.0
 40
0.0
 40
0.0
 40
0.2914187172
 40
0.5500410878
 40
0.7817247415
 40
1.0
 40
1.0
 40
1.0
 40
1.0
 10
112.9670785441
 20
211.5427734771
 30
0.0
 10
113.6360437125
 20
211.9289983918
 30
0.0
 10
114.8419562575
 20
212.768079073
 30
0.0
 10
116.2503479373
 20
214.3179014817
 30
0.0
 10
117.0781548484
 20
216.0394269871
 30
0.0
 10
117.1885774004
 20
217.258694563
 30
0.0
 10
117.1337010081
 20
217.8346607451
 30
0.0
  0
SPLINE
  5
4BC
100
AcDbEntity
  8
0
100
AcDbSpline
 62
7
  6
BYLAYER
 70
0
 71
3
 72
17
 73
13
 74
0
 42
0.0000001
 43
0.0000001
 44
0.0000000001
 40
0.0
 40
0.0
 40
0.0
 40
0.0
 40
0.1286919911
 40
0.270276405
 40
0.4174332905
 40
0.5617793021
 40
0.6954505518
 40
0.8127132764
 40
0.8646790613
 40
0.9125111277
 40
0.9571405095
 40
1.0
 40
1.0
 40
1.0
 40
1.0
 10
94.2993818002
 20
222.3203293965
 30
0.0
 10
95.1950921205
 20
222.8374649041
 30
0.0
 10
97.2230571902
 20
223.6742289341
 30
0.0
 10
100.5282750841
 20
224.3353842965
 30
0.0
 10
104.0241229128
 20
224.4322410282
 30
0.0
 10
107.4253454315
 20
223.9543416547
 30
0.0
 10
110.4562209016
 20
222.9420500501
 30
0.0
 10
112.5639525092
 20
221.6587609203
 30
0.0
 10
113.8012415719
 20
220.4174601493
 30
0.0
 10
114.4581180154
 20
219.4506841469
 30
0.0
 10
114.8633237228
 20
218.4312225279
 30
0.0
 10
114.9552757455
 20
217.7250706981
 30
0.0
 10
114.9553368566
 20
217.3806162677
 30
0.0
  0
SPLINE
  5
4BD
100
AcDbEntity
  8
0
100
AcDbSpline
 62
7
  6
BYLAYER
 70
0
 71
3
 72
11
 73
7
 74
0
 42
0.0000001
 43
0.0000001
 44
0.0000000001
 40
0.0
 40
0.0
 40
0.0
 40
0.0
 40
0.2858952699
 40
0.545697186
 40
0.7814870114
 40
1.0
 40
1.0
 40
1.0
 40
1.0
 10
94.2993818002
 20
221.5854772211
 30
0.0
 10
93.8324286061
 20
221.315883278
 30
0.0
 10
92.9752579384
 20
220.7371614392
 30
0.0
 10
91.9106872557
 20
219.7045830944
 30
0.0
 10
91.1607763213
 20
218.5713495485
 30
0.0
 10
90.8856657379
 20
217.7459236076
 30
0.0
 10
90.8153319499
 20
217.3398605728
 30
0.0
  0
SPLINE
  5
4BE
100
AcDbEntity
  8
0
100
AcDbSpline
 62
7
  6
BYLAYER
 70
0
 71
3
 72
11
 73
7
 74
0
 42
0.0000001
 43
0.0000001
 44
0.0000000001
 40
0.0
 40
0.0
 40
0.0
 40
0.0
 40
0.2177228452
 40
0.4508747288
 40
0.7104738623
 40
1.0
 40
1.0
 40
1.0
 40
1.0
 10
192.2310796864
 20
215.363834264
 30
0.0
 10
192.2310888453
 20
215.2336110203
 30
0.0
 10
192.1831952867
 20
214.9620968407
 30
0.0
 10
191.9772595235
 20
214.5836877191
 30
0.0
 10
191.6516757484
 20
214.2419050585
 30
0.0
 10
191.3795183444
 20
214.0542358033
 30
0.0
 10
191.2295486294
 20
213.9676512652
 30
0.0
  0
SPLINE
  5
4BF
100
AcDbEntity
  8
0
100
AcDbSpline
 62
7
  6
BYLAYER
 70
0
 71
3
 72
14
 73
10
 74
0
 42
0.0000001
 43
0.0000001
 44
0.0000000001
 40
0.0
 40
0.0
 40
0.0
 40
0.0
 40
0.1233153852
 40
0.2582896499
 40
0.3995940871
 40
0.5409770473
 40
0.6761744356
 40
0.7998250385
 40
1.0
 40
1.0
 40
1.0
 40
1.0
 10
107.5930446329
 20
213.9105510361
 30
0.0
 10
107.1567900065
 20
213.6586808135
 30
0.0
 10
106.1798977911
 20
213.2380831933
 30
0.0
 10
104.5843369059
 20
212.8643370422
 30
0.0
 10
102.8762110043
 20
212.7349844265
 30
0.0
 10
101.1683636067
 20
212.8575032806
 30
0.0
 10
99.5642667212
 20
213.2287430086
 30
0.0
 10
97.8430385863
 20
213.9545270544
 30
0.0
 10
96.7524900624
 20
214.8757647156
 30
0.0
 10
96.3986456429
 20
215.6129551699
 30
0.0
  0
SPLINE
  5
4C0
100
AcDbEntity
  8
0
100
AcDbSpline
 62
7
  6
BYLAYER
 70
0
 71
3
 72
9
 73
5
 74
0
 42
0.0000001
 43
0.0000001
 44
0.0000000001
 40
0.0
 40
0.0
 40
0.0
 40
0.0
 40
0.2582263648
 40
1.0
 40
1.0
 40
1.0
 40
1.0
 10
96.3986456429
 20
215.6129551699
 30
0.0
 10
96.3589389663
 20
215.6956790489
 30
0.0
 10
96.2212800079
 20
216.0233977139
 30
0.0
 10
96.1553919129
 20
216.3821775363
 30
0.0
 10
96.1554094755
 20
216.6457640914
 30
0.0
  0
SPLINE
  5
4C1
100
AcDbEntity
  8
0
100
AcDbSpline
 62
7
  6
BYLAYER
 70
0
 71
3
 72
9
 73
5
 74
0
 42
0.0000001
 43
0.0000001
 44
0.0000000001
 40
0.0
 40
0.0
 40
0.0
 40
0.0
 40
0.2579060705
 40
1.0
 40
1.0
 40
1.0
 40
1.0
 10
96.8449768107
 20
220.1158105048
 30
0.0
 10
96.7639296915
 20
220.069018208
 30
0.0
 10
96.452942333
 20
219.8820443111
 30
0.0
 10
96.1553066134
 20
219.6724672236
 30
0.0
 10
95.945619745
 20
219.503520561
 30
0.0
  0
SPLINE
  5
4C2
100
AcDbEntity
  8
0
100
AcDbSpline
 62
7
  6
BYLAYER
 70
0
 71
3
 72
11
 73
7
 74
0
 42
0.0000001
 43
0.0000001
 44
0.0000000001
 40
0.0
 40
0.0
 40
0.0
 40
0.0
 40
0.279769123
 40
0.5356980563
 40
0.7730304354
 40
1.0
 40
1.0
 40
1.0
 40
1.0
 10
95.945619745
 20
219.503520561
 30
0.0
 10
95.7009848758
 20
219.3064159687
 30
0.0
 10
95.2598229159
 20
218.8923590188
 30
0.0
 10
94.7473992826
 20
218.1840106598
 30
0.0
 10
94.4298592794
 20
217.431855057
 30
0.0
 10
94.3561320774
 20
216.908308271
 30
0.0
 10
94.3554204471
 20
216.6534393425
 30
0.0
  0
SPLINE
  5
4C3
100
AcDbEntity
  8
0
100
AcDbSpline
 62
7
  6
BYLAYER
 70
0
 71
3
 72
9
 73
5
 74
0
 42
0.0000001
 43
0.0000001
 44
0.0000000001
 40
0.0
 40
0.0
 40
0.0
 40
0.0
 40
0.2762910213
 40
1.0
 40
1.0
 40
1.0
 40
1.0
 10
107.5930446329
 20
214.2062485422
 30
0.0
 10
107.7734488262
 20
214.31040433
 30
0.0
 10
108.4057707711
 20
214.7179576787
 30
0.0
 10
108.9615320227
 20
215.2726147207
 30
0.0
 10
109.2287476134
 20
215.7483536471
 30
0.0
  0
SPLINE
  5
4C4
100
AcDbEntity
  8
0
100
AcDbSpline
 62
7
  6
BYLAYER
 70
0
 71
3
 72
9
 73
5
 74
0
 42
0.0000001
 43
0.0000001
 44
0.0000000001
 40
0.0
 40
0.0
 40
0.0
 40
0.0
 40
0.5112999057
 40
1.0
 40
1.0
 40
1.0
 40
1.0
 10
109.2287476134
 20
215.7483536471
 30
0.0
 10
109.3328583903
 20
215.9337079113
 30
0.0
 10
109.4970961993
 20
216.320736461
 30
0.0
 10
109.5553959346
 20
216.73826654
 30
0.0
 10
109.5554094734
 20
216.9414615975
 30
0.0
  0
SPLINE
  5
4C5
100
AcDbEntity
  8
0
100
AcDbSpline
 62
7
  6
BYLAYER
 70
0
 71
3
 72
9
 73
5
 74
0
 42
0.0000001
 43
0.0000001
 44
0.0000000001
 40
0.0
 40
0.0
 40
0.0
 40
0.0
 40
0.2436914092
 40
1.0
 40
1.0
 40
1.0
 40
1.0
 10
96.8449768107
 20
220.1158105048
 30
0.0
 10
96.9141226237
 20
220.1557316202
 30
0.0
 10
97.2003352832
 20
220.3152540666
 30
0.0
 10
97.4957880829
 20
220.4580406199
 30
0.0
 10
97.7228193049
 20
220.5573353116
 30
0.0
  0
SPLINE
  5
4C6
100
AcDbEntity
  8
0
100
AcDbSpline
 62
7
  6
BYLAYER
 70
0
 71
3
 72
16
 73
12
 74
0
 42
0.0000001
 43
0.0000001
 44
0.0000000001
 40
0.0
 40
0.0
 40
0.0
 40
0.0
 40
0.1351755192
 40
0.2798397419
 40
0.4270472697
 40
0.5693405683
 40
0.7000803306
 40
0.814756749
 40
0.912749555
 40
0.9571655402
 40
1.0
 40
1.0
 40
1.0
 40
1.0
 10
97.7228193049
 20
220.5573353116
 30
0.0
 10
98.3812229635
 20
220.8452956535
 30
0.0
 10
99.8111447761
 20
221.2932832039
 30
0.0
 10
102.0706225723
 20
221.5934492413
 30
0.0
 10
104.3877767122
 20
221.5348818043
 30
0.0
 10
106.5937531945
 20
221.121216979
 30
0.0
 10
108.5316793602
 20
220.3799888005
 30
0.0
 10
110.0677675733
 20
219.3608641121
 30
0.0
 10
110.9500711671
 20
218.2726225588
 30
0.0
 10
111.2972522727
 20
217.3428589729
 30
0.0
 10
111.3551096836
 20
216.8773459822
 30
0.0
 10
111.3554070779
 20
216.6496292476
 30
0.0
  0
SPLINE
  5
4C7
100
AcDbEntity
  8
0
100
AcDbSpline
 62
7
  6
BYLAYER
 70
0
 71
3
 72
11
 73
7
 74
0
 42
0.0000001
 43
0.0000001
 44
0.0000000001
 40
0.0
 40
0.0
 40
0.0
 40
0.0
 40
0.2177665049
 40
0.4509032004
 40
0.7103518201
 40
1.0
 40
1.0
 40
1.0
 40
1.0
 10
223.4448430662
 20
158.3920959886
 30
0.0
 10
223.2287993095
 20
158.5165193519
 30
0.0
 10
222.7325970074
 20
158.6962686233
 30
0.0
 10
221.9084621948
 20
158.7165607038
 30
0.0
 10
221.0302687167
 20
158.5042836671
 30
0.0
 10
220.4588641854
 20
158.2324457927
 30
0.0
 10
220.1716851021
 20
158.0666438614
 30
0.0
  0
SPLINE
  5
4C8
100
AcDbEntity
  8
0
100
AcDbSpline
 62
7
  6
BYLAYER
 70
0
 71
3
 72
9
 73
5
 74
0
 42
0.0000001
 43
0.0000001
 44
0.0000000001
 40
0.0
 40
0.0
 40
0.0
 40
0.0
 40
0.2452545299
 40
1.0
 40
1.0
 40
1.0
 40
1.0
 10
135.7696479107
 20
173.102070655
 30
0.0
 10
135.691081219
 20
173.0544286245
 30
0.0
 10
135.372937356
 20
172.8565531565
 30
0.0
 10
135.0635591567
 20
172.6446563655
 30
0.0
 10
134.835127768
 20
172.478005268
 30
0.0
  0
SPLINE
  5
4C9
100
AcDbEntity
  8
0
100
AcDbSpline
 62
7
  6
BYLAYER
 70
0
 71
3
 72
15
 73
11
 74
0
 42
0.0000001
 43
0.0000001
 44
0.0000000001
 40
0.0
 40
0.0
 40
0.0
 40
0.0
 40
0.13002082
 40
0.2690449423
 40
0.4116562222
 40
0.5519130868
 40
0.6841880578
 40
0.8039777439
 40
0.9088994008
 40
1.0
 40
1.0
 40
1.0
 40
1.0
 10
134.835127768
 20
172.478005268
 30
0.0
 10
134.066390995
 20
171.9171767948
 30
0.0
 10
132.5893299174
 20
170.5970223416
 30
0.0
 10
130.6815230766
 20
168.2520550528
 30
0.0
 10
129.092537521
 20
165.5920738873
 30
0.0
 10
127.9193317616
 20
162.7775717395
 30
0.0
 10
127.2313885545
 20
159.9766612358
 30
0.0
 10
127.0726241116
 20
157.3509936231
 30
0.0
 10
127.4564380587
 20
155.0477791152
 30
0.0
 10
128.1275938132
 20
153.7388691058
 30
0.0
 10
128.5493917189
 20
153.2225230919
 30
0.0
  0
SPLINE
  5
4CA
100
AcDbEntity
  8
0
100
AcDbSpline
 62
7
  6
BYLAYER
 70
0
 71
3
 72
14
 73
10
 74
0
 42
0.0000001
 43
0.0000001
 44
0.0000000001
 40
0.0
 40
0.0
 40
0.0
 40
0.0
 40
0.0172180144
 40
0.064953877
 40
0.144752495
 40
0.2561582544
 40
0.3982833701
 40
0.5702270595
 40
1.0
 40
1.0
 40
1.0
 40
1.0
 10
226.7086664573
 20
157.0046898756
 30
0.0
 10
226.7130075906
 20
157.0053301452
 30
0.0
 10
226.7180283559
 20
156.9814163358
 30
0.0
 10
226.7222358515
 20
156.9520852432
 30
0.0
 10
226.7260233378
 20
156.887130743
 30
0.0
 10
226.7276314633
 20
156.8040066538
 30
0.0
 10
226.7267027934
 20
156.69486346
 30
0.0
 10
226.7204241541
 20
156.5057158822
 30
0.0
 10
226.710103101
 20
156.3525036529
 30
0.0
 10
226.7008995785
 20
156.243361265
 30
0.0
  0
SPLINE
  5
4CB
100
AcDbEntity
  8
0
100
AcDbSpline
 62
7
  6
BYLAYER
 70
0
 71
3
 72
9
 73
5
 74
0
 42
0.0000001
 43
0.0000001
 44
0.0000000001
 40
0.0
 40
0.0
 40
0.0
 40
0.0
 40
0.4712661151
 40
1.0
 40
1.0
 40
1.0
 40
1.0
 10
73.2255101236
 20
221.1322056916
 30
0.0
 10
73.1031886952
 20
222.8100257083
 30
0.0
 10
73.4067914906
 20
226.4133792853
 30
0.0
 10
74.4747382849
 20
229.8442150756
 30
0.0
 10
75.1952510579
 20
231.5886911798
 30
0.0
  0
SPLINE
  5
4CC
100
AcDbEntity
  8
0
100
AcDbSpline
 62
7
  6
BYLAYER
 70
0
 71
3
 72
16
 73
12
 74
0
 42
0.0000001
 43
0.0000001
 44
0.0000000001
 40
0.0
 40
0.0
 40
0.0
 40
0.0
 40
0.0033746705
 40
0.0140945027
 40
0.0324770166
 40
0.0586458494
 40
0.1346886812
 40
0.2429319009
 40
0.3840659952
 40
0.5579377144
 40
1.0
 40
1.0
 40
1.0
 40
1.0
 10
52.6778090258
 20
251.3529542402
 30
0.0
 10
52.6785516779
 20
251.3537161747
 30
0.0
 10
52.6797683467
 20
251.3453661047
 30
0.0
 10
52.6833228365
 20
251.3398461953
 30
0.0
 10
52.6878929691
 20
251.3206211801
 30
0.0
 10
52.6977423547
 20
251.2854051307
 30
0.0
 10
52.712861222
 20
251.2196375953
 30
0.0
 10
52.734122612
 20
251.1198226883
 30
0.0
 10
52.7588114595
 20
250.9884469905
 30
0.0
 10
52.7988597801
 20
250.7532391695
 30
0.0
 10
52.827153802
 20
250.5610354883
 30
0.0
 10
52.8461659757
 20
250.4229616576
 30
0.0
  0
SPLINE
  5
4CD
100
AcDbEntity
  8
0
100
AcDbSpline
 62
7
  6
BYLAYER
 70
0
 71
3
 72
10
 73
6
 74
0
 42
0.0000001
 43
0.0000001
 44
0.0000000001
 40
0.0
 40
0.0
 40
0.0
 40
0.0
 40
0.2333969077
 40
0.4826142658
 40
1.0
 40
1.0
 40
1.0
 40
1.0
 10
78.5695043794
 20
224.2438897715
 30
0.0
 10
78.6464707559
 20
225.1212178968
 30
0.0
 10
78.9610452574
 20
226.9239643514
 30
0.0
 10
80.121695187
 20
230.5215248015
 30
0.0
 10
81.527099626
 20
233.0947141519
 30
0.0
 10
82.662958161
 20
234.682572719
 30
0.0
  0
SPLINE
  5
4CE
100
AcDbEntity
  8
0
100
AcDbSpline
 62
7
  6
BYLAYER
 70
0
 71
3
 72
11
 73
7
 74
0
 42
0.0000001
 43
0.0000001
 44
0.0000000001
 40
0.0
 40
0.0
 40
0.0
 40
0.0
 40
0.2822351261
 40
0.5416847322
 40
0.7794719367
 40
1.0
 40
1.0
 40
1.0
 40
1.0
 10
135.7593111334
 20
173.4257344604
 30
0.0
 10
136.1884834684
 20
173.6706237361
 30
0.0
 10
137.043441855
 20
174.0893983055
 30
0.0
 10
138.3525858262
 20
174.4966366172
 30
0.0
 10
139.6084537291
 20
174.6449661137
 30
0.0
 10
140.4154267645
 20
174.5621049661
 30
0.0
 10
140.7913361751
 20
174.4740230576
 30
0.0
  0
SPLINE
  5
4CF
100
AcDbEntity
  8
0
100
AcDbSpline
 62
7
  6
BYLAYER
 70
0
 71
3
 72
9
 73
5
 74
0
 42
0.0000001
 43
0.0000001
 44
0.0000000001
 40
0.0
 40
0.0
 40
0.0
 40
0.0
 40
0.253514651
 40
1.0
 40
1.0
 40
1.0
 40
1.0
 10
140.7913361751
 20
174.4740230576
 30
0.0
 10
140.8946598542
 20
174.4498125787
 30
0.0
 10
141.2987693725
 20
174.3401992193
 30
0.0
 10
141.6869751096
 20
174.1714109351
 30
0.0
 10
141.9575903275
 20
174.0151667737
 30
0.0
  0
SPLINE
  5
4D0
100
AcDbEntity
  8
0
100
AcDbSpline
 62
7
  6
BYLAYER
 70
0
 71
3
 72
11
 73
7
 74
0
 42
0.0000001
 43
0.0000001
 44
0.0000000001
 40
0.0
 40
0.0
 40
0.0
 40
0.0
 40
0.2177434119
 40
0.4508805377
 40
0.710457812
 40
1.0
 40
1.0
 40
1.0
 40
1.0
 10
82.7978573946
 20
247.1248504505
 30
0.0
 10
82.7978574324
 20
247.0029913359
 30
0.0
 10
82.8426068637
 20
246.7489264818
 30
0.0
 10
83.0353364916
 20
246.3948768707
 30
0.0
 10
83.3399566912
 20
246.0750800653
 30
0.0
 10
83.594613672
 20
245.8994882694
 30
0.0
 10
83.7349460661
 20
245.8184691568
 30
0.0
  0
SPLINE
  5
4D1
100
AcDbEntity
  8
0
100
AcDbSpline
 62
7
  6
BYLAYER
 70
0
 71
3
 72
10
 73
6
 74
0
 42
0.0000001
 43
0.0000001
 44
0.0000000001
 40
0.0
 40
0.0
 40
0.0
 40
0.0
 40
0.4589395961
 40
0.7188285082
 40
1.0
 40
1.0
 40
1.0
 40
1.0
 10
177.8350398409
 20
161.4158230691
 30
0.0
 10
177.2917193415
 20
162.0749070826
 30
0.0
 10
176.6928617412
 20
163.3224969144
 30
0.0
 10
176.320970989
 20
165.147375303
 30
0.0
 10
176.2602533071
 20
166.1570344353
 30
0.0
 10
176.2602533071
 20
166.6803394128
 30
0.0
  0
SPLINE
  5
4D2
100
AcDbEntity
  8
0
100
AcDbSpline
 62
7
  6
BYLAYER
 70
0
 71
3
 72
16
 73
12
 74
0
 42
0.0000001
 43
0.0000001
 44
0.0000000001
 40
0.0
 40
0.0
 40
0.0
 40
0.0
 40
0.1244420416
 40
0.260830388
 40
0.4034071757
 40
0.5454191586
 40
0.6802094999
 40
0.8022607572
 40
0.8575145588
 40
0.908717672
 40
1.0
 40
1.0
 40
1.0
 40
1.0
 10
57.9967552895
 20
157.4334957455
 30
0.0
 10
57.9967552895
 20
158.7356523714
 30
0.0
 10
57.6650228446
 20
161.4680911171
 30
0.0
 10
56.4051267101
 20
165.5152922468
 30
0.0
 10
54.4419439589
 20
169.4786899823
 30
0.0
 10
51.9091164476
 20
173.0842565247
 30
0.0
 10
48.9810243774
 20
176.0846986705
 30
0.0
 10
46.2850553413
 20
177.9758805076
 30
0.0
 10
44.1003973521
 20
178.9672477256
 30
0.0
 10
42.1137987332
 20
179.5534896879
 30
0.0
 10
40.5776845114
 20
179.626569516
 30
0.0
 10
39.6381554338
 20
179.4543957772
 30
0.0
  0
SPLINE
  5
4D3
100
AcDbEntity
  8
0
100
AcDbSpline
 62
7
  6
BYLAYER
 70
0
 71
3
 72
9
 73
5
 74
0
 42
0.0000001
 43
0.0000001
 44
0.0000000001
 40
0.0
 40
0.0
 40
0.0
 40
0.0
 40
0.2547916169
 40
1.0
 40
1.0
 40
1.0
 40
1.0
 10
39.6381554338
 20
179.4543957772
 30
0.0
 10
39.4723124409
 20
179.4240041599
 30
0.0
 10
38.8264894095
 20
179.2788775055
 30
0.0
 10
38.2047658848
 20
179.0240461917
 30
0.0
 10
37.777727389
 20
178.7774365728
 30
0.0
  0
SPLINE
  5
4D4
100
AcDbEntity
  8
0
100
AcDbSpline
 62
7
  6
BYLAYER
 70
0
 71
3
 72
21
 73
17
 74
0
 42
0.0000001
 43
0.0000001
 44
0.0000000001
 40
0.0
 40
0.0
 40
0.0
 40
0.0
 40
0.0666121444
 40
0.1384937828
 40
0.2915104133
 40
0.4445931074
 40
0.5165394204
 40
0.5832511473
 40
0.6437739101
 40
0.697934751
 40
0.7466405674
 40
0.7920779149
 40
0.8374346183
 40
0.8859178418
 40
0.9397940746
 40
1.0
 40
1.0
 40
1.0
 40
1.0
 10
56.2996990146
 20
157.4334916663
 30
0.0
 10
56.2996990146
 20
158.3007708909
 30
0.0
 10
56.1411990186
 20
160.1057592011
 30
0.0
 10
55.280092428
 20
163.8115036544
 30
0.0
 10
53.2790724307
 20
168.358482729
 30
0.0
 10
50.3488115799
 20
172.3702236745
 30
0.0
 10
47.5727576753
 20
174.9773496608
 30
0.0
 10
45.4443816293
 20
176.4765754304
 30
0.0
 10
43.3030545298
 20
177.5038040851
 30
0.0
 10
41.2190802317
 20
178.0165515992
 30
0.0
 10
39.2612511442
 20
177.9787190951
 30
0.0
 10
37.5154976029
 20
177.3615255527
 30
0.0
 10
36.0902448272
 20
176.1837290795
 30
0.0
 10
35.0583690818
 20
174.5278054533
 30
0.0
 10
34.4404664874
 20
172.483914966
 30
0.0
 10
34.3131277089
 20
170.9940501288
 30
0.0
 10
34.3088077863
 20
170.2101907316
 30
0.0
  0
SPLINE
  5
4D5
100
AcDbEntity
  8
0
100
AcDbSpline
 62
7
  6
BYLAYER
 70
0
 71
3
 72
11
 73
7
 74
0
 42
0.0000001
 43
0.0000001
 44
0.0000000001
 40
0.0
 40
0.0
 40
0.0
 40
0.0
 40
0.1137272053
 40
0.3194716248
 40
0.6171088306
 40
1.0
 40
1.0
 40
1.0
 40
1.0
 10
224.4350656419
 20
157.6911569858
 30
0.0
 10
224.4610976857
 20
157.6686957363
 30
0.0
 10
224.4997910474
 20
157.5746597246
 30
0.0
 10
224.551024721
 20
157.3983900919
 30
0.0
 10
224.6028554606
 20
157.1337112252
 30
0.0
 10
224.6340551844
 20
156.9307994854
 30
0.0
 10
224.6498385939
 20
156.8161223226
 30
0.0
  0
SPLINE
  5
4D6
100
AcDbEntity
  8
0
100
AcDbSpline
 62
7
  6
BYLAYER
 70
0
 71
3
 72
11
 73
7
 74
0
 42
0.0000001
 43
0.0000001
 44
0.0000000001
 40
0.0
 40
0.0
 40
0.0
 40
0.0
 40
0.2177438688
 40
0.4508811915
 40
0.7104582954
 40
1.0
 40
1.0
 40
1.0
 40
1.0
 10
187.4499318542
 20
209.566796214
 30
0.0
 10
187.4499318813
 20
209.6886540145
 30
0.0
 10
187.4946802923
 20
209.9427159385
 30
0.0
 10
187.6874057501
 20
210.2967621237
 30
0.0
 10
187.9920197738
 20
210.6165565581
 30
0.0
 10
188.2466719165
 20
210.7921476841
 30
0.0
 10
188.3870016843
 20
210.8731666297
 30
0.0
  0
SPLINE
  5
4D7
100
AcDbEntity
  8
0
100
AcDbSpline
 62
7
  6
BYLAYER
 70
0
 71
3
 72
21
 73
17
 74
0
 42
0.0000001
 43
0.0000001
 44
0.0000000001
 40
0.0
 40
0.0
 40
0.0
 40
0.0
 40
0.0666121444
 40
0.1384937828
 40
0.2915104133
 40
0.4445931074
 40
0.5165394204
 40
0.5832511473
 40
0.6437739101
 40
0.697934751
 40
0.7466405674
 40
0.7920779149
 40
0.8374346183
 40
0.8859178418
 40
0.9397940746
 40
1.0
 40
1.0
 40
1.0
 40
1.0
 10
34.3085865626
 20
170.1297791319
 30
0.0
 10
34.3085865626
 20
169.2624999073
 30
0.0
 10
34.4670865586
 20
167.4575115971
 30
0.0
 10
35.3281931492
 20
163.7517671438
 30
0.0
 10
37.3292131465
 20
159.2047880692
 30
0.0
 10
40.2594739972
 20
155.1930471237
 30
0.0
 10
43.0355279019
 20
152.5859211374
 30
0.0
 10
45.1639039478
 20
151.0866953678
 30
0.0
 10
47.3052310474
 20
150.0594667131
 30
0.0
 10
49.3892053455
 20
149.546719199
 30
0.0
 10
51.347034433
 20
149.5845517031
 30
0.0
 10
53.0927879743
 20
150.2017452455
 30
0.0
 10
54.5180407499
 20
151.3795417187
 30
0.0
 10
55.5499164954
 20
153.0354653449
 30
0.0
 10
56.1678190898
 20
155.0793558322
 30
0.0
 10
56.2951578683
 20
156.5692206694
 30
0.0
 10
56.2994777909
 20
157.3530800666
 30
0.0
  0
SPLINE
  5
4D8
100
AcDbEntity
  8
0
100
AcDbSpline
 62
7
  6
BYLAYER
 70
0
 71
3
 72
11
 73
7
 74
0
 42
0.0000001
 43
0.0000001
 44
0.0000000001
 40
0.0
 40
0.0
 40
0.0
 40
0.0
 40
0.2897455659
 40
0.5490776754
 40
0.7822210726
 40
1.0
 40
1.0
 40
1.0
 40
1.0
 10
53.2944826828
 20
159.168514873
 30
0.0
 10
53.2944826828
 20
158.5958789947
 30
0.0
 10
53.207808006
 20
157.5070114471
 30
0.0
 10
52.7666708119
 20
156.0109811021
 30
0.0
 10
52.0242407314
 20
154.7971277909
 30
0.0
 10
51.3268638411
 20
154.2107287135
 30
0.0
 10
50.9540845369
 20
153.9955908204
 30
0.0
  0
SPLINE
  5
4D9
100
AcDbEntity
  8
0
100
AcDbSpline
 62
7
  6
BYLAYER
 70
0
 71
3
 72
9
 73
5
 74
0
 42
0.0000001
 43
0.0000001
 44
0.0000000001
 40
0.0
 40
0.0
 40
0.0
 40
0.0
 40
0.4893420278
 40
1.0
 40
1.0
 40
1.0
 40
1.0
 10
54.0493646589
 20
241.0638893906
 30
0.0
 10
53.8799959133
 20
241.1616464645
 30
0.0
 10
53.5601885023
 20
241.4102017455
 30
0.0
 10
53.3149787941
 20
241.7312028515
 30
0.0
 10
53.209522744
 20
241.905918329
 30
0.0
  0
SPLINE
  5
4DA
100
AcDbEntity
  8
0
100
AcDbSpline
 62
7
  6
BYLAYER
 70
0
 71
3
 72
11
 73
7
 74
0
 42
0.0000001
 43
0.0000001
 44
0.0000000001
 40
0.0
 40
0.0
 40
0.0
 40
0.0
 40
0.2177817009
 40
0.4509079353
 40
0.7102947134
 40
1.0
 40
1.0
 40
1.0
 40
1.0
 10
83.6262138482
 20
235.6940685305
 30
0.0
 10
83.6262138849
 20
235.496008779
 30
0.0
 10
83.6994067722
 20
235.0831895638
 30
0.0
 10
84.0123665042
 20
234.5080003098
 30
0.0
 10
84.5071113423
 20
233.9880528256
 30
0.0
 10
84.9210748947
 20
233.7029317235
 30
0.0
 10
85.1492479474
 20
233.5711989303
 30
0.0
  0
SPLINE
  5
4DB
100
AcDbEntity
  8
0
100
AcDbSpline
 62
7
  6
BYLAYER
 70
0
 71
3
 72
17
 73
13
 74
0
 42
0.0000001
 43
0.0000001
 44
0.0000000001
 40
0.0
 40
0.0
 40
0.0
 40
0.0
 40
0.1286925008
 40
0.2702767168
 40
0.4174328896
 40
0.5617777402
 40
0.6954481996
 40
0.8127106303
 40
0.8646767575
 40
0.9125094166
 40
0.9571395785
 40
1.0
 40
1.0
 40
1.0
 40
1.0
 10
52.1631165432
 20
158.5153242268
 30
0.0
 10
52.1631165432
 20
159.4812221667
 30
0.0
 10
51.8929287084
 20
161.5120990141
 30
0.0
 10
50.8843069791
 20
164.4939727034
 30
0.0
 10
49.3302851642
 20
167.3665128215
 30
0.0
 10
47.3555985025
 20
169.8941341175
 30
0.0
 10
45.1216393688
 20
171.8726957209
 30
0.0
 10
43.0995571476
 20
172.9781091117
 30
0.0
 10
41.5178806465
 20
173.3991545158
 30
0.0
 10
40.4292460825
 20
173.4789742
 30
0.0
 10
39.4155152847
 20
173.3306503578
 30
0.0
 10
38.8014544108
 20
173.0752815645
 30
0.0
 10
38.5228357818
 20
172.9144878233
 30
0.0
  0
SPLINE
  5
4DC
100
AcDbEntity
  8
0
100
AcDbSpline
 62
7
  6
BYLAYER
 70
0
 71
3
 72
11
 73
7
 74
0
 42
0.0000001
 43
0.0000001
 44
0.0000000001
 40
0.0
 40
0.0
 40
0.0
 40
0.0
 40
0.2177817009
 40
0.4509079353
 40
0.7102947134
 40
1.0
 40
1.0
 40
1.0
 40
1.0
 10
31.3359557415
 20
195.706594451
 30
0.0
 10
31.3359557782
 20
195.5085346995
 30
0.0
 10
31.4091486655
 20
195.0957154843
 30
0.0
 10
31.7221083975
 20
194.5205262303
 30
0.0
 10
32.2168532356
 20
194.0005787461
 30
0.0
 10
32.630816788
 20
193.715457644
 30
0.0
 10
32.8589898407
 20
193.5837248508
 30
0.0
  0
SPLINE
  5
4DD
100
AcDbEntity
  8
0
100
AcDbSpline
 62
7
  6
BYLAYER
 70
0
 71
3
 72
11
 73
7
 74
0
 42
0.0000001
 43
0.0000001
 44
0.0000000001
 40
0.0
 40
0.0
 40
0.0
 40
0.0
 40
0.2897016594
 40
0.5490895814
 40
0.7822189142
 40
1.0
 40
1.0
 40
1.0
 40
1.0
 10
38.3037659303
 20
166.5168430154
 30
0.0
 10
38.3037659303
 20
166.9373871328
 30
0.0
 10
38.367526156
 20
167.7371770193
 30
0.0
 10
38.6914145208
 20
168.8360545125
 30
0.0
 10
39.2367746918
 20
169.7277306822
 30
0.0
 10
39.7490348395
 20
170.1583513891
 30
0.0
 10
40.0228093871
 20
170.3164418385
 30
0.0
  0
SPLINE
  5
4DE
100
AcDbEntity
  8
0
100
AcDbSpline
 62
7
  6
BYLAYER
 70
0
 71
3
 72
13
 73
9
 74
0
 42
0.0000001
 43
0.0000001
 44
0.0000000001
 40
0.0
 40
0.0
 40
0.0
 40
0.0
 40
0.0175593033
 40
0.0669278408
 40
0.1933377601
 40
0.3700661235
 40
0.6025958218
 40
1.0
 40
1.0
 40
1.0
 40
1.0
 10
224.8181916235
 20
148.1019977872
 30
0.0
 10
224.8200050608
 20
148.1038893847
 30
0.0
 10
224.8114306784
 20
148.1149892637
 30
0.0
 10
224.8065571658
 20
148.1398285059
 30
0.0
 10
224.7772564152
 20
148.1877179168
 30
0.0
 10
224.7294046368
 20
148.2514675505
 30
0.0
 10
224.6075648999
 20
148.2977056416
 30
0.0
 10
224.513458361
 20
148.2566030058
 30
0.0
 10
224.4620882261
 20
148.226966579
 30
0.0
  0
SPLINE
  5
4DF
100
AcDbEntity
  8
0
100
AcDbSpline
 62
7
  6
BYLAYER
 70
0
 71
3
 72
11
 73
7
 74
0
 42
0.0000001
 43
0.0000001
 44
0.0000000001
 40
0.0
 40
0.0
 40
0.0
 40
0.0
 40
0.238909028
 40
0.5001079663
 40
0.761274392
 40
1.0
 40
1.0
 40
1.0
 40
1.0
 10
44.3924968442
 20
169.679036174
 30
0.0
 10
44.4319792401
 20
168.7654257054
 30
0.0
 10
44.8158708819
 20
166.8637997515
 30
0.0
 10
46.0176295458
 20
164.1880363063
 30
0.0
 10
47.7352990885
 20
161.8112619792
 30
0.0
 10
49.1903710632
 20
160.5293522636
 30
0.0
 10
49.9617366547
 20
160.0395007242
 30
0.0
  0
SPLINE
  5
4E0
100
AcDbEntity
  8
0
100
AcDbSpline
 62
7
  6
BYLAYER
 70
0
 71
3
 72
11
 73
7
 74
0
 42
0.0000001
 43
0.0000001
 44
0.0000000001
 40
0.0
 40
0.0
 40
0.0
 40
0.0
 40
0.2177227832
 40
0.4508712161
 40
0.7104668615
 40
1.0
 40
1.0
 40
1.0
 40
1.0
 10
161.1042271165
 20
165.4351711722
 30
0.0
 10
161.1042225587
 20
165.5532099059
 30
0.0
 10
161.1476306733
 20
165.7993175891
 30
0.0
 10
161.3342988832
 20
166.1423160684
 30
0.0
 10
161.6294142448
 20
166.4521235138
 30
0.0
 10
161.8761105936
 20
166.6222322256
 30
0.0
 10
162.0120515192
 20
166.7007172871
 30
0.0
  0
SPLINE
  5
4E1
100
AcDbEntity
  8
0
100
AcDbSpline
 62
7
  6
BYLAYER
 70
0
 71
3
 72
17
 73
13
 74
0
 42
0.0000001
 43
0.0000001
 44
0.0000000001
 40
0.0
 40
0.0
 40
0.0
 40
0.0
 40
0.0428589007
 40
0.0874878281
 40
0.1353221131
 40
0.1872878116
 40
0.304551909
 40
0.4382226856
 40
0.5825682214
 40
0.7297218029
 40
0.8713098293
 40
1.0
 40
1.0
 40
1.0
 40
1.0
 10
122.9841768451
 20
151.1945705578
 30
0.0
 10
122.5712076362
 20
151.4329376237
 30
0.0
 10
121.7885072356
 20
152.0322189777
 30
0.0
 10
120.8463924357
 20
153.2232848952
 30
0.0
 10
120.1423002899
 20
154.6801332534
 30
0.0
 10
119.5103279728
 20
157.0225612956
 30
0.0
 10
119.4307827238
 20
160.4377127502
 30
0.0
 10
120.3150221257
 20
164.7719149583
 30
0.0
 10
122.096142372
 20
169.1802411729
 30
0.0
 10
124.6317935503
 20
173.3042895047
 30
0.0
 10
127.7122908486
 20
176.808970433
 30
0.0
 10
130.1190828163
 20
178.6610787122
 30
0.0
 10
131.3590065578
 20
179.376944745
 30
0.0
  0
SPLINE
  5
4E2
100
AcDbEntity
  8
0
100
AcDbSpline
 62
7
  6
BYLAYER
 70
0
 71
3
 72
11
 73
7
 74
0
 42
0.0000001
 43
0.0000001
 44
0.0000000001
 40
0.0
 40
0.0
 40
0.0
 40
0.0
 40
0.2181315361
 40
0.4514524463
 40
0.7105830809
 40
1.0
 40
1.0
 40
1.0
 40
1.0
 10
141.5016162298
 20
179.1858958772
 30
0.0
 10
140.9536839788
 20
179.502160272
 30
0.0
 10
139.6965600056
 20
179.9609474806
 30
0.0
 10
137.6085724959
 20
180.0213958961
 30
0.0
 10
135.3819942418
 20
179.4960914676
 30
0.0
 10
133.9322684137
 20
178.8156872234
 30
0.0
 10
133.2029845335
 20
178.4000557258
 30
0.0
  0
SPLINE
  5
4E3
100
AcDbEntity
  8
0
100
AcDbSpline
 62
7
  6
BYLAYER
 70
0
 71
3
 72
11
 73
7
 74
0
 42
0.0000001
 43
0.0000001
 44
0.0000000001
 40
0.0
 40
0.0
 40
0.0
 40
0.0
 40
0.2485777825
 40
0.5227953902
 40
0.7840635103
 40
1.0
 40
1.0
 40
1.0
 40
1.0
 10
195.9530357054
 20
186.2964366729
 30
0.0
 10
196.3299900969
 20
186.5140700932
 30
0.0
 10
197.2198382288
 20
186.8032521184
 30
0.0
 10
198.6055068844
 20
186.8612769971
 30
0.0
 10
199.9038163644
 20
186.579856356
 30
0.0
 10
200.6486768599
 20
186.1329554603
 30
0.0
 10
200.900510829
 20
185.8509113866
 30
0.0
  0
SPLINE
  5
4E4
100
AcDbEntity
  8
0
100
AcDbSpline
 62
7
  6
BYLAYER
 70
0
 71
3
 72
9
 73
5
 74
0
 42
0.0000001
 43
0.0000001
 44
0.0000000001
 40
0.0
 40
0.0
 40
0.0
 40
0.0
 40
0.2610625895
 40
1.0
 40
1.0
 40
1.0
 40
1.0
 10
200.900510829
 20
185.8509113866
 30
0.0
 10
200.9249407073
 20
185.8235508902
 30
0.0
 10
201.0151615511
 20
185.7158529201
 30
0.0
 10
201.0912566312
 20
185.5958929685
 30
0.0
 10
201.13564958
 20
185.5020400696
 30
0.0
  0
SPLINE
  5
4E5
100
AcDbEntity
  8
0
100
AcDbSpline
 62
7
  6
BYLAYER
 70
0
 71
3
 72
11
 73
7
 74
0
 42
0.0000001
 43
0.0000001
 44
0.0000000001
 40
0.0
 40
0.0
 40
0.0
 40
0.0
 40
0.2183820502
 40
0.4517645349
 40
0.7109248554
 40
1.0
 40
1.0
 40
1.0
 40
1.0
 10
64.5590726647
 20
250.1227462225
 30
0.0
 10
64.3460058046
 20
250.2457165961
 30
0.0
 10
63.8576717358
 20
250.4243962136
 30
0.0
 10
63.04646119
 20
250.450161118
 30
0.0
 10
62.1813243148
 20
250.2488740548
 30
0.0
 10
61.6175511257
 20
249.9870038289
 30
0.0
 10
61.3340216547
 20
249.826835964
 30
0.0
  0
SPLINE
  5
4E6
100
AcDbEntity
  8
0
100
AcDbSpline
 62
7
  6
BYLAYER
 70
0
 71
3
 72
15
 73
11
 74
0
 42
0.0000001
 43
0.0000001
 44
0.0000000001
 40
0.0
 40
0.0
 40
0.0
 40
0.0
 40
0.0868638082
 40
0.1838611355
 40
0.2963011572
 40
0.4243402947
 40
0.5645958106
 40
0.7115989254
 40
0.8588988617
 40
1.0
 40
1.0
 40
1.0
 40
1.0
 10
212.9369259452
 20
149.3322023228
 30
0.0
 10
212.6493220648
 20
149.4982321196
 30
0.0
 10
212.1207421225
 20
150.0012540762
 30
0.0
 10
211.6696021733
 20
151.06431342
 30
0.0
 10
211.5293952162
 20
152.3604426293
 30
0.0
 10
211.6937969941
 20
153.8159607215
 30
0.0
 10
212.1481469109
 20
155.3446012325
 30
0.0
 10
212.8635226554
 20
156.8510478328
 30
0.0
 10
213.7935621378
 20
158.2384077757
 30
0.0
 10
214.5440849799
 20
159.0542499673
 30
0.0
 10
214.9438857493
 20
159.4164041581
 30
0.0
  0
SPLINE
  5
4E7
100
AcDbEntity
  8
0
100
AcDbSpline
 62
7
  6
BYLAYER
 70
0
 71
3
 72
9
 73
5
 74
0
 42
0.0000001
 43
0.0000001
 44
0.0000000001
 40
0.0
 40
0.0
 40
0.0
 40
0.0
 40
0.2557319243
 40
1.0
 40
1.0
 40
1.0
 40
1.0
 10
214.9741207916
 20
159.4436635211
 30
0.0
 10
215.0322608988
 20
159.4958346282
 30
0.0
 10
215.2623577217
 20
159.6967443096
 30
0.0
 10
215.5034942611
 20
159.8851124588
 30
0.0
 10
215.6889733811
 20
160.0165769228
 30
0.0
  0
SPLINE
  5
4E8
100
AcDbEntity
  8
0
100
AcDbSpline
 62
7
  6
BYLAYER
 70
0
 71
3
 72
9
 73
5
 74
0
 42
0.0000001
 43
0.0000001
 44
0.0000000001
 40
0.0
 40
0.0
 40
0.0
 40
0.0
 40
0.2547443593
 40
1.0
 40
1.0
 40
1.0
 40
1.0
 10
215.6889733811
 20
160.0165769228
 30
0.0
 10
215.7280492439
 20
160.0442732336
 30
0.0
 10
215.8825095576
 20
160.1514761952
 30
0.0
 10
216.0412870456
 20
160.2524945337
 30
0.0
 10
216.1619788482
 20
160.3236769121
 30
0.0
  0
SPLINE
  5
4E9
100
AcDbEntity
  8
0
100
AcDbSpline
 62
7
  6
BYLAYER
 70
0
 71
3
 72
9
 73
5
 74
0
 42
0.0000001
 43
0.0000001
 44
0.0000000001
 40
0.0
 40
0.0
 40
0.0
 40
0.0
 40
0.2456980371
 40
1.0
 40
1.0
 40
1.0
 40
1.0
 10
216.0751972348
 20
164.321128476
 30
0.0
 10
215.9883464724
 20
164.3712793983
 30
0.0
 10
215.6234632308
 20
164.5554650543
 30
0.0
 10
215.2174322736
 20
164.6540359121
 30
0.0
 10
214.9108189235
 20
164.6821029535
 30
0.0
  0
SPLINE
  5
4EA
100
AcDbEntity
  8
0
100
AcDbSpline
 62
7
  6
BYLAYER
 70
0
 71
3
 72
10
 73
6
 74
0
 42
0.0000001
 43
0.0000001
 44
0.0000000001
 40
0.0
 40
0.0
 40
0.0
 40
0.0
 40
0.4361038937
 40
0.7051468195
 40
1.0
 40
1.0
 40
1.0
 40
1.0
 10
214.9108189235
 20
164.6821029535
 30
0.0
 10
213.9641820049
 20
164.7687570329
 30
0.0
 10
212.3941179268
 20
164.2355307152
 30
0.0
 10
210.6416828191
 20
162.9538665231
 30
0.0
 10
209.7803262968
 20
162.0624546574
 30
0.0
 10
209.3700815839
 20
161.5677141126
 30
0.0
  0
SPLINE
  5
4EB
100
AcDbEntity
  8
0
100
AcDbSpline
 62
7
  6
BYLAYER
 70
0
 71
3
 72
10
 73
6
 74
0
 42
0.0000001
 43
0.0000001
 44
0.0000000001
 40
0.0
 40
0.0
 40
0.0
 40
0.0
 40
0.5220619613
 40
0.7717677465
 40
1.0
 40
1.0
 40
1.0
 40
1.0
 10
209.1749311336
 20
161.3264774298
 30
0.0
 10
208.3315753853
 20
160.2579106975
 30
0.0
 10
207.3141206134
 20
158.4744969283
 30
0.0
 10
206.5637045174
 20
155.9702095976
 30
0.0
 10
206.4184480515
 20
154.7220736275
 30
0.0
 10
206.4184480515
 20
154.1269564375
 30
0.0
  0
SPLINE
  5
4EC
100
AcDbEntity
  8
0
100
AcDbSpline
 62
7
  6
BYLAYER
 70
0
 71
3
 72
11
 73
7
 74
0
 42
0.0000001
 43
0.0000001
 44
0.0000000001
 40
0.0
 40
0.0
 40
0.0
 40
0.0
 40
0.2177830968
 40
0.450915839
 40
0.7103069095
 40
1.0
 40
1.0
 40
1.0
 40
1.0
 10
207.0147004942
 20
151.0770601869
 30
0.0
 10
206.7508270695
 20
151.2294521535
 30
0.0
 10
206.2570519046
 20
151.6444785724
 30
0.0
 10
205.7314166555
 20
152.5039575425
 30
0.0
 10
205.4192373284
 20
153.5631101557
 30
0.0
 10
205.3577834637
 20
154.3339856935
 30
0.0
 10
205.3577834637
 20
154.7393175693
 30
0.0
  0
SPLINE
  5
4ED
100
AcDbEntity
  8
0
100
AcDbSpline
 62
7
  6
BYLAYER
 70
0
 71
3
 72
9
 73
5
 74
0
 42
0.0000001
 43
0.0000001
 44
0.0000000001
 40
0.0
 40
0.0
 40
0.0
 40
0.0
 40
0.2478924141
 40
1.0
 40
1.0
 40
1.0
 40
1.0
 10
129.4578724074
 20
152.3645304619
 30
0.0
 10
129.3640016809
 20
152.4187282748
 30
0.0
 10
128.9938697148
 20
152.6519565398
 30
0.0
 10
128.6612326438
 20
152.9437508288
 30
0.0
 10
128.4391201116
 20
153.1862772112
 30
0.0
  0
SPLINE
  5
4EE
100
AcDbEntity
  8
0
100
AcDbSpline
 62
7
  6
BYLAYER
 70
0
 71
3
 72
15
 73
11
 74
0
 42
0.0000001
 43
0.0000001
 44
0.0000000001
 40
0.0
 40
0.0
 40
0.0
 40
0.0
 40
0.0901245929
 40
0.1940212974
 40
0.3132708212
 40
0.4456182891
 40
0.586437244
 40
0.7298436044
 40
0.8695927225
 40
1.0
 40
1.0
 40
1.0
 40
1.0
 10
128.4391201116
 20
153.1862772112
 30
0.0
 10
127.9861568028
 20
153.6808713324
 30
0.0
 10
127.2486746249
 20
154.9693131313
 30
0.0
 10
126.7984264932
 20
157.284024746
 30
0.0
 10
126.9157171512
 20
159.946322132
 30
0.0
 10
127.5876250063
 20
162.8025614751
 30
0.0
 10
128.768817077
 20
165.6813615812
 30
0.0
 10
130.3864220999
 20
168.4035803862
 30
0.0
 10
132.3373880859
 20
170.7978617637
 30
0.0
 10
133.852159316
 20
172.1392783082
 30
0.0
 10
134.6405291232
 20
172.7051608108
 30
0.0
  0
SPLINE
  5
4EF
100
AcDbEntity
  8
0
100
AcDbSpline
 62
7
  6
BYLAYER
 70
0
 71
3
 72
9
 73
5
 74
0
 42
0.0000001
 43
0.0000001
 44
0.0000000001
 40
0.0
 40
0.0
 40
0.0
 40
0.0
 40
0.2547700238
 40
1.0
 40
1.0
 40
1.0
 40
1.0
 10
134.6405291232
 20
172.7051608108
 30
0.0
 10
134.7174879141
 20
172.7604009187
 30
0.0
 10
135.0217451328
 20
172.9741540132
 30
0.0
 10
135.3348277865
 20
173.1754167527
 30
0.0
 10
135.5729555328
 20
173.3171211064
 30
0.0
  0
SPLINE
  5
4F0
100
AcDbEntity
  8
0
100
AcDbSpline
 62
7
  6
BYLAYER
 70
0
 71
3
 72
9
 73
5
 74
0
 42
0.0000001
 43
0.0000001
 44
0.0000000001
 40
0.0
 40
0.0
 40
0.0
 40
0.0
 40
0.2467578976
 40
1.0
 40
1.0
 40
1.0
 40
1.0
 10
141.9721074851
 20
173.9940510151
 30
0.0
 10
141.877846123
 20
174.0396954077
 30
0.0
 10
141.4890227331
 20
174.2104022377
 30
0.0
 10
141.0747680299
 20
174.3217678364
 30
0.0
 10
140.7592116914
 20
174.3730589089
 30
0.0
  0
SPLINE
  5
4F1
100
AcDbEntity
  8
0
100
AcDbSpline
 62
7
  6
BYLAYER
 70
0
 71
3
 72
9
 73
5
 74
0
 42
0.0000001
 43
0.0000001
 44
0.0000000001
 40
0.0
 40
0.0
 40
0.0
 40
0.0
 40
0.4603987462
 40
1.0
 40
1.0
 40
1.0
 40
1.0
 10
140.7592116914
 20
174.3730589089
 30
0.0
 10
140.0189177643
 20
174.4933875629
 30
0.0
 10
138.3455292301
 20
174.3667134813
 30
0.0
 10
136.8313196118
 20
173.7102427694
 30
0.0
 10
136.0667785021
 20
173.276448911
 30
0.0
  0
SPLINE
  5
4F2
100
AcDbEntity
  8
0
100
AcDbSpline
 62
7
  6
BYLAYER
 70
0
 71
3
 72
11
 73
7
 74
0
 42
0.0000001
 43
0.0000001
 44
0.0000000001
 40
0.0
 40
0.0
 40
0.0
 40
0.0
 40
0.2180577474
 40
0.4529885558
 40
0.7127414395
 40
1.0
 40
1.0
 40
1.0
 40
1.0
 10
215.4361548323
 20
166.2878421917
 30
0.0
 10
215.1278533791
 20
166.421045074
 30
0.0
 10
214.4396962243
 20
166.5957352777
 30
0.0
 10
213.331201613
 20
166.5587433472
 30
0.0
 10
212.1604087974
 20
166.2422352131
 30
0.0
 10
211.397768207
 20
165.8735633433
 30
0.0
 10
211.0146141615
 20
165.6523505724
 30
0.0
  0
SPLINE
  5
4F3
100
AcDbEntity
  8
0
100
AcDbSpline
 62
7
  6
BYLAYER
 70
0
 71
3
 72
11
 73
7
 74
0
 42
0.0000001
 43
0.0000001
 44
0.0000000001
 40
0.0
 40
0.0
 40
0.0
 40
0.0
 40
0.2180591084
 40
0.4529891583
 40
0.7127357755
 40
1.0
 40
1.0
 40
1.0
 40
1.0
 10
214.1633626042
 20
166.8380376987
 30
0.0
 10
213.860267339
 20
166.9690108272
 30
0.0
 10
213.1837007231
 20
167.1407068199
 30
0.0
 10
212.0939231109
 20
167.1043484557
 30
0.0
 10
210.9428778977
 20
166.7931862344
 30
0.0
 10
210.193108448
 20
166.4307250344
 30
0.0
 10
209.8164106565
 20
166.2132397612
 30
0.0
  0
SPLINE
  5
4F4
100
AcDbEntity
  8
0
100
AcDbSpline
 62
7
  6
BYLAYER
 70
0
 71
3
 72
11
 73
7
 74
0
 42
0.0000001
 43
0.0000001
 44
0.0000000001
 40
0.0
 40
0.0
 40
0.0
 40
0.0
 40
0.2181259372
 40
0.4514445345
 40
0.7105773123
 40
1.0
 40
1.0
 40
1.0
 40
1.0
 10
54.5276073975
 20
149.7656201947
 30
0.0
 10
55.0755548356
 20
150.0820532804
 30
0.0
 10
56.101599815
 20
150.9415179695
 30
0.0
 10
57.1980431999
 20
152.7199101881
 30
0.0
 10
57.8563748632
 20
154.9112936762
 30
0.0
 10
57.9918900882
 20
156.507316613
 30
0.0
 10
57.9965169938
 20
157.3468787491
 30
0.0
  0
SPLINE
  5
4F5
100
AcDbEntity
  8
0
100
AcDbSpline
 62
7
  6
BYLAYER
 70
0
 71
3
 72
17
 73
13
 74
0
 42
0.0000001
 43
0.0000001
 44
0.0000000001
 40
0.0
 40
0.0
 40
0.0
 40
0.0
 40
0.0428591556
 40
0.0874882745
 40
0.1353226457
 40
0.187288312
 40
0.3045520328
 40
0.4382221992
 40
0.5825671702
 40
0.7297205135
 40
0.8713088536
 40
1.0
 40
1.0
 40
1.0
 40
1.0
 10
39.5454926828
 20
179.7980371082
 30
0.0
 10
39.9584117664
 20
180.0364900595
 30
0.0
 10
40.8687565969
 20
180.4146778014
 30
0.0
 10
42.3713038087
 20
180.6350304242
 30
0.0
 10
43.9850085333
 20
180.5163628293
 30
0.0
 10
46.3295755082
 20
179.892452228
 30
0.0
 10
49.3269217028
 20
178.2537749673
 30
0.0
 10
52.6382859266
 20
175.3209207914
 30
0.0
 10
55.5654030474
 20
171.5742886251
 30
0.0
 10
57.8690709671
 20
167.316350492
 30
0.0
 10
59.3639423765
 20
162.8962353894
 30
0.0
 10
59.7645148825
 20
159.8858455429
 30
0.0
 10
59.7645148825
 20
158.4541061302
 30
0.0
  0
SPLINE
  5
4F6
100
AcDbEntity
  8
0
100
AcDbSpline
 62
7
  6
BYLAYER
 70
0
 71
3
 72
11
 73
7
 74
0
 42
0.0000001
 43
0.0000001
 44
0.0000000001
 40
0.0
 40
0.0
 40
0.0
 40
0.0
 40
0.2177807831
 40
0.4509257127
 40
0.7102607875
 40
1.0
 40
1.0
 40
1.0
 40
1.0
 10
49.8227175163
 20
153.3424016826
 30
0.0
 10
50.1955010429
 20
153.5575389766
 30
0.0
 10
50.8928743935
 20
154.1439531646
 30
0.0
 10
51.6353128052
 20
155.357812903
 30
0.0
 10
52.0764406411
 20
156.8538422826
 30
0.0
 10
52.1631165432
 20
157.9427013174
 30
0.0
 10
52.1631165432
 20
158.5153242268
 30
0.0
  0
SPLINE
  5
4F7
100
AcDbEntity
  8
0
100
AcDbSpline
 62
7
  6
BYLAYER
 70
0
 71
3
 72
17
 73
13
 74
0
 42
0.0000001
 43
0.0000001
 44
0.0000000001
 40
0.0
 40
0.0
 40
0.0
 40
0.0
 40
0.042858583
 40
0.0874878708
 40
0.1353198804
 40
0.1872854386
 40
0.3045460901
 40
0.438213422
 40
0.5825571866
 40
0.7297173144
 40
0.8713061613
 40
1.0
 40
1.0
 40
1.0
 40
1.0
 10
39.6542010403
 20
173.5676799778
 30
0.0
 10
39.9328067635
 20
173.7284685398
 30
0.0
 10
40.5468404919
 20
173.9838497454
 30
0.0
 10
41.5605494243
 20
174.1321614489
 30
0.0
 10
42.6491669018
 20
174.0523555988
 30
0.0
 10
44.2308316361
 20
173.6313505158
 30
0.0
 10
46.2528877423
 20
172.5259698844
 30
0.0
 10
48.4868261875
 20
170.5474553389
 30
0.0
 10
50.4615419619
 20
168.0198592788
 30
0.0
 10
52.0156212338
 20
165.1472846388
 30
0.0
 10
53.0242850953
 20
162.1653447782
 30
0.0
 10
53.2944826828
 20
160.1344229504
 30
0.0
 10
53.2944826828
 20
159.168514873
 30
0.0
  0
SPLINE
  5
4F8
100
AcDbEntity
  8
0
100
AcDbSpline
 62
7
  6
BYLAYER
 70
0
 71
3
 72
17
 73
13
 74
0
 42
0.0000001
 43
0.0000001
 44
0.0000000001
 40
0.0
 40
0.0
 40
0.0
 40
0.0
 40
0.0428592926
 40
0.087485474
 40
0.1353198781
 40
0.1872819044
 40
0.3045421965
 40
0.4382074305
 40
0.582548911
 40
0.7297129633
 40
0.8713059682
 40
1.0
 40
1.0
 40
1.0
 40
1.0
 10
48.322743911
 20
155.9404476673
 30
0.0
 10
48.1181306955
 20
155.8222942616
 30
0.0
 10
47.6670242617
 20
155.6349789271
 30
0.0
 10
46.9225131548
 20
155.5256991586
 30
0.0
 10
46.1229312197
 20
155.5846104282
 30
0.0
 10
44.9611574502
 20
155.8936039869
 30
0.0
 10
43.4760099263
 20
156.7056916787
 30
0.0
 10
41.8351578926
 20
158.1588361064
 30
0.0
 10
40.3846493445
 20
160.0153503428
 30
0.0
 10
39.2431169838
 20
162.1252999872
 30
0.0
 10
38.5022280415
 20
164.3156135701
 30
0.0
 10
38.3037659303
 20
165.8073718378
 30
0.0
 10
38.3037659303
 20
166.5168430154
 30
0.0
  0
SPLINE
  5
4F9
100
AcDbEntity
  8
0
100
AcDbSpline
 62
7
  6
BYLAYER
 70
0
 71
3
 72
16
 73
12
 74
0
 42
0.0000001
 43
0.0000001
 44
0.0000000001
 40
0.0
 40
0.0
 40
0.0
 40
0.0
 40
0.0429286584
 40
0.0872989144
 40
0.1844460375
 40
0.2972551259
 40
0.4257322991
 40
0.5662952641
 40
0.713270657
 40
0.8600400478
 40
1.0
 40
1.0
 40
1.0
 40
1.0
 10
92.5554634946
 20
216.636409222
 30
0.0
 10
92.5562220218
 20
216.374867028
 30
0.0
 10
92.6194720846
 20
215.8413115852
 30
0.0
 10
92.9978108892
 20
214.7747212914
 30
0.0
 10
93.9590322302
 20
213.5133468215
 30
0.0
 10
95.6524590407
 20
212.3023375324
 30
0.0
 10
97.8070467169
 20
211.3857230285
 30
0.0
 10
100.2887238148
 20
210.8178746431
 30
0.0
 10
102.9385221368
 20
210.6325446874
 30
0.0
 10
105.5818287761
 20
210.8420196806
 30
0.0
 10
107.2903190914
 20
211.2513150827
 30
0.0
 10
108.0972921773
 20
211.5268226828
 30
0.0
  0
SPLINE
  5
4FA
100
AcDbEntity
  8
0
100
AcDbSpline
 62
7
  6
BYLAYER
 70
0
 71
3
 72
9
 73
5
 74
0
 42
0.0000001
 43
0.0000001
 44
0.0000000001
 40
0.0
 40
0.0
 40
0.0
 40
0.0
 40
0.2547473276
 40
1.0
 40
1.0
 40
1.0
 40
1.0
 10
108.0972921773
 20
211.5268226828
 30
0.0
 10
108.1926753169
 20
211.5593873126
 30
0.0
 10
108.5656302497
 20
211.6914587055
 30
0.0
 10
108.9325801184
 20
211.840631921
 30
0.0
 10
109.2013046992
 20
211.9619817541
 30
0.0
  0
SPLINE
  5
4FB
100
AcDbEntity
  8
0
100
AcDbSpline
 62
7
  6
BYLAYER
 70
0
 71
3
 72
9
 73
5
 74
0
 42
0.0000001
 43
0.0000001
 44
0.0000000001
 40
0.0
 40
0.0
 40
0.0
 40
0.0
 40
0.2555775776
 40
1.0
 40
1.0
 40
1.0
 40
1.0
 10
109.2013046992
 20
211.9619817541
 30
0.0
 10
109.2830494948
 20
211.9988958215
 30
0.0
 10
109.6011948348
 20
212.147041783
 30
0.0
 10
109.9123903556
 20
212.3102600123
 30
0.0
 10
110.1386396435
 20
212.4408843198
 30
0.0
  0
SPLINE
  5
4FC
100
AcDbEntity
  8
0
100
AcDbSpline
 62
7
  6
BYLAYER
 70
0
 71
3
 72
11
 73
7
 74
0
 42
0.0000001
 43
0.0000001
 44
0.0000000001
 40
0.0
 40
0.0
 40
0.0
 40
0.0
 40
0.2177789834
 40
0.4509229909
 40
0.7102587605
 40
1.0
 40
1.0
 40
1.0
 40
1.0
 10
90.7554820924
 20
217.3806162658
 30
0.0
 10
90.7554003294
 20
217.8414759722
 30
0.0
 10
90.9258260237
 20
218.8021009815
 30
0.0
 10
91.6539650173
 20
220.1404327163
 30
0.0
 10
92.8050759475
 20
221.3504319687
 30
0.0
 10
93.7683819814
 20
222.0137583381
 30
0.0
 10
94.2993818002
 20
222.3203293965
 30
0.0
  0
SPLINE
  5
4FD
100
AcDbEntity
  8
0
100
AcDbSpline
 62
7
  6
BYLAYER
 70
0
 71
3
 72
17
 73
13
 74
0
 42
0.0000001
 43
0.0000001
 44
0.0000000001
 40
0.0
 40
0.0
 40
0.0
 40
0.0
 40
0.0429615008
 40
0.0871333096
 40
0.1341767007
 40
0.1852462712
 40
0.3010150367
 40
0.4341392899
 40
0.5789367055
 40
0.727233294
 40
0.87018461
 40
1.0
 40
1.0
 40
1.0
 40
1.0
 10
88.5771116843
 20
217.8346609442
 30
0.0
 10
88.5378026249
 20
217.4220385348
 30
0.0
 10
88.5682026738
 20
216.5704553044
 30
0.0
 10
88.951077593
 20
215.3203798046
 30
0.0
 10
89.6527753629
 20
214.1276631302
 30
0.0
 10
91.0409738098
 20
212.5857512092
 30
0.0
 10
93.5002785333
 20
210.9763020459
 30
0.0
 10
97.1001359465
 20
209.6913291177
 30
0.0
 10
101.1861818899
 20
209.0590378277
 30
0.0
 10
105.4132917502
 20
209.1352621128
 30
0.0
 10
109.42133508
 20
209.910027297
 30
0.0
 10
111.8824208507
 20
210.9165498039
 30
0.0
 10
112.9670785441
 20
211.5427734771
 30
0.0
  0
SPLINE
  5
4FE
100
AcDbEntity
  8
0
100
AcDbSpline
 62
7
  6
BYLAYER
 70
0
 71
3
 72
11
 73
7
 74
0
 42
0.0000001
 43
0.0000001
 44
0.0000000001
 40
0.0
 40
0.0
 40
0.0
 40
0.0
 40
0.2372531816
 40
0.5000006935
 40
0.7627478297
 40
1.0
 40
1.0
 40
1.0
 40
1.0
 10
173.9621469948
 20
193.72694888
 30
0.0
 10
174.2834104197
 20
193.5414715513
 30
0.0
 10
175.0304565407
 20
193.2707736311
 30
0.0
 10
176.2248929078
 20
193.1413575019
 30
0.0
 10
177.4193270603
 20
193.2707793382
 30
0.0
 10
178.1663696764
 20
193.5414809031
 30
0.0
 10
178.4876303944
 20
193.726959758
 30
0.0
  0
SPLINE
  5
4FF
100
AcDbEntity
  8
0
100
AcDbSpline
 62
7
  6
BYLAYER
 70
0
 71
3
 72
11
 73
7
 74
0
 42
0.0000001
 43
0.0000001
 44
0.0000000001
 40
0.0
 40
0.0
 40
0.0
 40
0.0
 40
0.2372524156
 40
0.4999996414
 40
0.7627470637
 40
1.0
 40
1.0
 40
1.0
 40
1.0
 10
164.0626296841
 20
196.8295677365
 30
0.0
 10
164.3838907343
 20
197.0150467831
 30
0.0
 10
165.1309339171
 20
197.2857484125
 30
0.0
 10
166.3253684831
 20
197.4151699926
 30
0.0
 10
167.5198044368
 20
197.285753607
 30
0.0
 10
168.2668499909
 20
197.0150557514
 30
0.0
 10
168.5881130837
 20
196.8295786144
 30
0.0
  0
SPLINE
  5
500
100
AcDbEntity
  8
0
100
AcDbSpline
 62
7
  6
BYLAYER
 70
0
 71
3
 72
11
 73
7
 74
0
 42
0.0000001
 43
0.0000001
 44
0.0000000001
 40
0.0
 40
0.0
 40
0.0
 40
0.0
 40
0.2372405738
 40
0.5000004574
 40
0.7627600882
 40
1.0
 40
1.0
 40
1.0
 40
1.0
 10
152.7489376715
 20
194.5433827982
 30
0.0
 10
153.2709647645
 20
194.2419971338
 30
0.0
 10
154.4849278498
 20
193.8022061453
 30
0.0
 10
156.4258982683
 20
193.5915033061
 30
0.0
 10
158.3668660395
 20
193.8022148367
 30
0.0
 10
159.5808247327
 20
194.2420118869
 30
0.0
 10
160.1028481957
 20
194.5434004748
 30
0.0
  0
SPLINE
  5
501
100
AcDbEntity
  8
0
100
AcDbSpline
 62
7
  6
BYLAYER
 70
0
 71
3
 72
11
 73
7
 74
0
 42
0.0000001
 43
0.0000001
 44
0.0000000001
 40
0.0
 40
0.0
 40
0.0
 40
0.0
 40
0.2372524156
 40
0.4999996414
 40
0.7627470637
 40
1.0
 40
1.0
 40
1.0
 40
1.0
 10
145.6778592614
 20
196.0130386365
 30
0.0
 10
145.9991203115
 20
196.1985176831
 30
0.0
 10
146.7461634944
 20
196.4692193126
 30
0.0
 10
147.9405980603
 20
196.5986408926
 30
0.0
 10
149.135034014
 20
196.4692245071
 30
0.0
 10
149.8820795682
 20
196.1985266515
 30
0.0
 10
150.2033426609
 20
196.0130495144
 30
0.0
  0
SPLINE
  5
502
100
AcDbEntity
  8
0
100
AcDbSpline
 62
7
  6
BYLAYER
 70
0
 71
3
 72
11
 73
7
 74
0
 42
0.0000001
 43
0.0000001
 44
0.0000000001
 40
0.0
 40
0.0
 40
0.0
 40
0.0
 40
0.2372405738
 40
0.5000004574
 40
0.7627600882
 40
1.0
 40
1.0
 40
1.0
 40
1.0
 10
83.4880461612
 20
164.3536868272
 30
0.0
 10
84.0100732542
 20
164.0523011627
 30
0.0
 10
85.2240363395
 20
163.6125101743
 30
0.0
 10
87.165006758
 20
163.4018073351
 30
0.0
 10
89.1059745292
 20
163.6125188657
 30
0.0
 10
90.3199332224
 20
164.0523159159
 30
0.0
 10
90.8419566855
 20
164.3537045038
 30
0.0
  0
SPLINE
  5
503
100
AcDbEntity
  8
0
100
AcDbSpline
 62
7
  6
BYLAYER
 70
0
 71
3
 72
9
 73
5
 74
0
 42
0.0000001
 43
0.0000001
 44
0.0000000001
 40
0.0
 40
0.0
 40
0.0
 40
0.0
 40
0.2472325613
 40
1.0
 40
1.0
 40
1.0
 40
1.0
 10
87.8554946621
 20
210.0320945128
 30
0.0
 10
87.8554957465
 20
209.8825997077
 30
0.0
 10
87.8823286679
 20
209.2780752647
 30
0.0
 10
88.0201888206
 20
208.6796906347
 30
0.0
 10
88.175832935
 20
208.2519501565
 30
0.0
  0
SPLINE
  5
504
100
AcDbEntity
  8
0
100
AcDbSpline
 62
7
  6
BYLAYER
 70
0
 71
3
 72
13
 73
9
 74
0
 42
0.0000001
 43
0.0000001
 44
0.0000000001
 40
0.0
 40
0.0
 40
0.0
 40
0.0
 40
0.1129912795
 40
0.2355263738
 40
0.4979212824
 40
0.7614556439
 40
0.8853336014
 40
1.0
 40
1.0
 40
1.0
 40
1.0
 10
91.9096444849
 20
204.1107635152
 30
0.0
 10
92.6281038193
 20
203.6680034911
 30
0.0
 10
94.2133031527
 20
202.8837073661
 30
0.0
 10
97.7614573634
 20
201.7378780459
 30
0.0
 10
102.6183906042
 20
201.154526841
 30
0.0
 10
107.4939860052
 20
201.6500779484
 30
0.0
 10
111.0956518052
 20
202.7272720809
 30
0.0
 10
112.7203529494
 20
203.4802636693
 30
0.0
 10
113.4620553517
 20
203.9084831948
 30
0.0
  0
SPLINE
  5
505
100
AcDbEntity
  8
0
100
AcDbSpline
 62
7
  6
BYLAYER
 70
0
 71
3
 72
11
 73
7
 74
0
 42
0.0000001
 43
0.0000001
 44
0.0000000001
 40
0.0
 40
0.0
 40
0.0
 40
0.0
 40
0.2895421522
 40
0.5491196247
 40
0.782256727
 40
1.0
 40
1.0
 40
1.0
 40
1.0
 10
87.6948429579
 20
232.101532214
 30
0.0
 10
87.8351753324
 20
232.0205131128
 30
0.0
 10
88.0898322635
 20
231.8449211226
 30
0.0
 10
88.3944526889
 20
231.525124415
 30
0.0
 10
88.5871821446
 20
231.1710747012
 30
0.0
 10
88.6319316565
 20
230.9170099577
 30
0.0
 10
88.6319316294
 20
230.7951509229
 30
0.0
  0
SPLINE
  5
506
100
AcDbEntity
  8
0
100
AcDbSpline
 62
7
  6
BYLAYER
 70
0
 71
3
 72
11
 73
7
 74
0
 42
0.0000001
 43
0.0000001
 44
0.0000000001
 40
0.0
 40
0.0
 40
0.0
 40
0.0
 40
0.2895421522
 40
0.5491196247
 40
0.782256727
 40
1.0
 40
1.0
 40
1.0
 40
1.0
 10
89.1089799772
 20
242.7158394225
 30
0.0
 10
89.2493123516
 20
242.6348203212
 30
0.0
 10
89.5039692827
 20
242.459228331
 30
0.0
 10
89.8085897081
 20
242.1394316234
 30
0.0
 10
90.0013191638
 20
241.7853819096
 30
0.0
 10
90.0460686758
 20
241.5313171662
 30
0.0
 10
90.0460686486
 20
241.4094581313
 30
0.0
  0
SPLINE
  5
507
100
AcDbEntity
  8
0
100
AcDbSpline
 62
7
  6
BYLAYER
 70
0
 71
3
 72
17
 73
13
 74
0
 42
0.0000001
 43
0.0000001
 44
0.0000000001
 40
0.0
 40
0.0
 40
0.0
 40
0.0
 40
0.0431377285
 40
0.0887669619
 40
0.1379627269
 40
0.1913362787
 40
0.310770241
 40
0.4450642884
 40
0.5885127795
 40
0.7337571567
 40
0.873129489
 40
1.0
 40
1.0
 40
1.0
 40
1.0
 10
182.6550279696
 20
153.1991521909
 30
0.0
 10
182.254788268
 20
153.5180214647
 30
0.0
 10
181.5104454305
 20
154.2791481806
 30
0.0
 10
180.6507349249
 20
155.685062398
 30
0.0
 10
180.0369552502
 20
157.3427735824
 30
0.0
 10
179.540353105
 20
159.9389148137
 30
0.0
 10
179.6353408648
 20
163.621638709
 30
0.0
 10
180.727799988
 20
168.230079882
 30
0.0
 10
182.7173385885
 20
172.8620813288
 30
0.0
 10
185.4549666886
 20
177.1657611732
 30
0.0
 10
188.7297777795
 20
180.8150537447
 30
0.0
 10
191.2656201192
 20
182.7468283854
 30
0.0
 10
192.5690182684
 20
183.4993411658
 30
0.0
  0
SPLINE
  5
508
100
AcDbEntity
  8
0
100
AcDbSpline
 62
7
  6
BYLAYER
 70
0
 71
3
 72
11
 73
7
 74
0
 42
0.0000001
 43
0.0000001
 44
0.0000000001
 40
0.0
 40
0.0
 40
0.0
 40
0.0
 40
0.2864407417
 40
0.5424539595
 40
0.7757709339
 40
1.0
 40
1.0
 40
1.0
 40
1.0
 10
193.7488899518
 20
184.1181853736
 30
0.0
 10
194.5445521193
 20
184.4934375779
 30
0.0
 10
196.1196140112
 20
185.0761883786
 30
0.0
 10
198.5100349874
 20
185.3727458007
 30
0.0
 10
200.7067171167
 20
185.0056197363
 30
0.0
 10
201.9637258753
 20
184.3075256762
 30
0.0
 10
202.5007700116
 20
183.8764572532
 30
0.0
  0
SPLINE
  5
509
100
AcDbEntity
  8
0
100
AcDbSpline
 62
7
  6
BYLAYER
 70
0
 71
3
 72
9
 73
5
 74
0
 42
0.0000001
 43
0.0000001
 44
0.0000000001
 40
0.0
 40
0.0
 40
0.0
 40
0.0
 40
0.4774876405
 40
1.0
 40
1.0
 40
1.0
 40
1.0
 10
193.7443365578
 20
180.9502882915
 30
0.0
 10
192.7032706973
 20
180.3492322245
 30
0.0
 10
190.668613205
 20
178.8334771607
 30
0.0
 10
188.9370640735
 20
176.9898107121
 30
0.0
 10
188.1109311081
 20
175.9661071844
 30
0.0
  0
SPLINE
  5
50A
100
AcDbEntity
  8
0
100
AcDbSpline
 62
7
  6
BYLAYER
 70
0
 71
3
 72
10
 73
6
 74
0
 42
0.0000001
 43
0.0000001
 44
0.0000000001
 40
0.0
 40
0.0
 40
0.0
 40
0.0
 40
0.536170117
 40
0.7787589367
 40
1.0
 40
1.0
 40
1.0
 40
1.0
 10
183.883589263
 20
168.6183582691
 30
0.0
 10
183.2445747539
 20
166.9460923383
 30
0.0
 10
182.5564519734
 20
164.4030484135
 30
0.0
 10
182.3540923536
 20
161.0616660591
 30
0.0
 10
182.5067578918
 20
159.5105534846
 30
0.0
 10
182.6530321382
 20
158.786486901
 30
0.0
  0
SPLINE
  5
50B
100
AcDbEntity
  8
0
100
AcDbSpline
 62
7
  6
BYLAYER
 70
0
 71
3
 72
12
 73
8
 74
0
 42
0.0000001
 43
0.0000001
 44
0.0000000001
 40
0.0
 40
0.0
 40
0.0
 40
0.0
 40
0.2919506105
 40
0.5497376293
 40
0.7803065018
 40
0.8903997173
 40
1.0
 40
1.0
 40
1.0
 40
1.0
 10
197.0945205093
 20
180.8866003368
 30
0.0
 10
197.9834096816
 20
181.3997976764
 30
0.0
 10
199.7500600355
 20
182.2228929643
 30
0.0
 10
202.4686801988
 20
182.7760742947
 30
0.0
 10
204.6060655091
 20
182.542157917
 30
0.0
 10
206.076282141
 20
181.9330093661
 30
0.0
 10
206.7257814634
 20
181.5049109218
 30
0.0
 10
207.0262722526
 20
181.2637164243
 30
0.0
  0
SPLINE
  5
50C
100
AcDbEntity
  8
0
100
AcDbSpline
 62
7
  6
BYLAYER
 70
0
 71
3
 72
16
 73
12
 74
0
 42
0.0000001
 43
0.0000001
 44
0.0000000001
 40
0.0
 40
0.0
 40
0.0
 40
0.0
 40
0.0431917542
 40
0.0883627481
 40
0.187521271
 40
0.3013293917
 40
0.4292887886
 40
0.5682328379
 40
0.713387548
 40
0.8591931269
 40
1.0
 40
1.0
 40
1.0
 40
1.0
 10
187.1805302105
 20
150.586411362
 30
0.0
 10
186.8389520058
 20
150.8585452699
 30
0.0
 10
186.1974502787
 20
151.4908794066
 30
0.0
 10
185.1256793835
 20
153.0670638933
 30
0.0
 10
184.267092455
 20
155.5809234346
 30
0.0
 10
184.0317199537
 20
159.0466625674
 30
0.0
 10
184.5357707922
 20
162.8842712654
 30
0.0
 10
185.7490183814
 20
166.8868241647
 30
0.0
 10
187.6021131709
 20
170.8350507018
 30
0.0
 10
189.9900354002
 20
174.5054548747
 30
0.0
 10
191.9071606614
 20
176.6962499903
 30
0.0
 10
192.9293443777
 20
177.6873201403
 30
0.0
  0
SPLINE
  5
50D
100
AcDbEntity
  8
0
100
AcDbSpline
 62
7
  6
BYLAYER
 70
0
 71
3
 72
9
 73
5
 74
0
 42
0.0000001
 43
0.0000001
 44
0.0000000001
 40
0.0
 40
0.0
 40
0.0
 40
0.0
 40
0.2596754755
 40
1.0
 40
1.0
 40
1.0
 40
1.0
 10
194.0656984875
 20
178.7232160869
 30
0.0
 10
194.3107510452
 20
178.9327574918
 30
0.0
 10
195.2709502544
 20
179.7199257315
 30
0.0
 10
196.2984488137
 20
180.4269908725
 30
0.0
 10
197.0945205093
 20
180.8866003368
 30
0.0
  0
SPLINE
  5
50E
100
AcDbEntity
  8
0
100
AcDbSpline
 62
7
  6
BYLAYER
 70
0
 71
3
 72
11
 73
7
 74
0
 42
0.0000001
 43
0.0000001
 44
0.0000000001
 40
0.0
 40
0.0
 40
0.0
 40
0.0
 40
0.2897048043
 40
0.5490913404
 40
0.7822177947
 40
1.0
 40
1.0
 40
1.0
 40
1.0
 10
192.3467831727
 20
213.1593338913
 30
0.0
 10
192.5749519572
 20
213.2910664142
 30
0.0
 10
192.9889076493
 20
213.5761863229
 30
0.0
 10
193.4836423757
 20
214.096129978
 30
0.0
 10
193.7965953439
 20
214.671313633
 30
0.0
 10
193.8697866913
 20
215.0841281551
 30
0.0
 10
193.8697866546
 20
215.2821858148
 30
0.0
  0
ENDSEC
  0
SECTION
  2
OBJECTS
  0
DICTIONARY
  5
C
100
AcDbDictionary
280
0
281
1
  3
ACAD_GROUP
350
D
  3
ACAD_MLINESTYLE
350
17
  3
ACAD_LAYOUT
350
1A
  3
ACAD_PLOTSETTINGS
350
19
  3
ACAD_PLOTSTYLENAME
350
E
  0
DICTIONARY
  5
D
102
{ACAD_REACTORS
330
C
102
}
100
AcDbDictionary
280
0
281
1
  0
ACDBDICTIONARYWDFLT
  5
E
102
{ACAD_REACTORS
330
C
102
}
100
AcDbDictionary
281
1
  3
Normal
350
F
100
AcDbDictionaryWithDefault
340
F
  0
DICTIONARY
  5
17
102
{ACAD_REACTORS
330
C
102
}
100
AcDbDictionary
280
0
281
1
  3
Standard
350
18
  0
DICTIONARY
  5
19
102
{ACAD_REACTORS
330
C
102
}
100
AcDbDictionary
281
1
  0
DICTIONARY
  5
1A
102
{ACAD_REACTORS
330
C
102
}
100
AcDbDictionary
281
1
  3
Model
350
50F
  3
Layout1
350
510
  0
ACDBPLACEHOLDER
  5
F
102
{ACAD_REACTORS
330
E
102
}
  0
MLINESTYLE
  5
18
102
{ACAD_REACTORS
330
17
102
}
100
AcDbMlineStyle
  2
STANDARD
 70
0
  3

 62
256
 51
90.0
 52
90.0
 71
2
 49
0.5
 62
256
  6
BYLAYER
 49
-0.5
 62
256
  6
BYLAYER
  0
LAYOUT
  5
50F
102
{ACAD_REACTORS
330
1A
102
}
100
AcDbPlotSettings
  1

  2
none_device
  4

  6

 40
0.0
 41
0.0
 42
0.0
 43
0.0
 44
210.0
 45
297.0
 46
0.0
 47
0.0
 48
0.0
 49
0.0
140
0.0
141
0.0
142
1.0
143
1.0
 70
1024
 72
1
 73
0
 74
0
  7

 75
0
147
1.0
148
0.0
149
0.0
100
AcDbLayout
  1
Model
 70
0
 71
0
 10
0.0
 20
0.0
 11
210.0
 21
297.0
 12
0.0
 22
0.0
 32
0.0
 14
0.0
 24
0.0
 34
0.0
 15
0.0
 25
0.0
 35
0.0
146
0.0
 13
0.0
 23
0.0
 33
0.0
 16
1.0
 26
0.0
 36
0.0
 17
0.0
 27
1.0
 37
0.0
 76
0
330
210
345
0
346
0
  0
LAYOUT
  5
510
102
{ACAD_REACTORS
330
1A
102
}
100
AcDbPlotSettings
  1

  2
none_device
  4

  6

 40
0.0
 41
0.0
 42
0.0
 43
0.0
 44
210.0
 45
297.0
 46
0.0
 47
0.0
 48
0.0
 49
0.0
140
0.0
141
0.0
142
1.0
143
1.0
 70
0
 72
1
 73
0
 74
0
  7

 75
0
147
1.0
148
0.0
149
0.0
100
AcDbLayout
  1
Layout1
 70
0
 71
1
 10
0.0
 20
0.0
 11
210.0
 21
297.0
 12
0.0
 22
0.0
 32
0.0
 14
0.0
 24
0.0
 34
0.0
 15
0.0
 25
0.0
 35
0.0
146
0.0
 13
0.0
 23
0.0
 33
0.0
 16
1.0
 26
0.0
 36
0.0
 17
0.0
 27
1.0
 37
0.0
 76
0
330
211
345
0
346
0
  0
ENDSEC
  0
EOF
