  0
SECTION
  2
HEADER
  9
$ACADVER
  1
AC1009
  9
$DWGCODEPAGE
  3
ansi_1250
  9
$INSBASE
 10
0.0
 20
0.0
 30
0.0
  9
$EXTMIN
 10
-1.202913
 20
-0.886708
 30
0.0
  9
$EXTMAX
 10
2.774087
 20
0.886709
 30
0.0
  9
$LIMMIN
 10
0.0
 20
0.0
  9
$LIMMAX
 10
0.0
 20
0.0
  9
$ORTHOMODE
 70
     0
  9
$REGENMODE
 70
     1
  9
$FILLMODE
 70
     1
  9
$QTEXTMODE
 70
     0
  9
$MIRRTEXT
 70
     1
  9
$DRAGMODE
 70
     2
  9
$LTSCALE
 40
1.0
  9
$OSMODE
 70
     0
  9
$ATTMODE
 70
     1
  9
$TEXTSIZE
 40
0.2
  9
$TRACEWID
 40
0.05
  9
$TEXTSTYLE
  7
STANDARD
  9
$CLAYER
  8
0
  9
$CELTYPE
  6
CONTINUOUS
  9
$CECOLOR
 62
   256
  9
$DIMSCALE
 40
1.0
  9
$DIMASZ
 40
0.18
  9
$DIMEXO
 40
0.0625
  9
$DIMDLI
 40
0.38
  9
$DIMRND
 40
0.0
  9
$DIMDLE
 40
0.0
  9
$DIMEXE
 40
0.18
  9
$DIMTP
 40
0.0
  9
$DIMTM
 40
0.0
  9
$DIMTXT
 40
0.18
  9
$DIMCEN
 40
0.09
  9
$DIMTSZ
 40
0.0
  9
$DIMTOL
 70
     0
  9
$DIMLIM
 70
     0
  9
$DIMTIH
 70
     1
  9
$DIMTOH
 70
     1
  9
$DIMSE1
 70
     0
  9
$DIMSE2
 70
     0
  9
$DIMTAD
 70
     0
  9
$DIMZIN
 70
     0
  9
$DIMBLK
  1

  9
$DIMASO
 70
     1
  9
$DIMSHO
 70
     1
  9
$DIMPOST
  1

  9
$DIMAPOST
  1

  9
$DIMALT
 70
     0
  9
$DIMALTD
 70
     2
  9
$DIMALTF
 40
25.4
  9
$DIMLFAC
 40
1.0
  9
$DIMTOFL
 70
     0
  9
$DIMTVP
 40
0.0
  9
$DIMTIX
 70
     0
  9
$DIMSOXD
 70
     0
  9
$DIMSAH
 70
     0
  9
$DIMBLK1
  1

  9
$DIMBLK2
  1

  9
$DIMSTYLE
  2
STANDARD
  9
$DIMCLRD
 70
     0
  9
$DIMCLRE
 70
     0
  9
$DIMCLRT
 70
     0
  9
$DIMTFAC
 40
1.0
  9
$DIMGAP
 40
0.09
  9
$LUNITS
 70
     2
  9
$LUPREC
 70
     4
  9
$AXISMODE
 70
     0
  9
$AXISUNIT
 10
0.0
 20
0.0
  9
$SKETCHINC
 40
0.1
  9
$FILLETRAD
 40
0.0
  9
$AUNITS
 70
     0
  9
$AUPREC
 70
     0
  9
$MENU
  1
acad
  9
$ELEVATION
 40
0.0
  9
$PELEVATION
 40
0.0
  9
$THICKNESS
 40
0.0
  9
$LIMCHECK
 70
     0
  9
$BLIPMODE
 70
     1
  9
$CHAMFERA
 40
0.0
  9
$CHAMFERB
 40
0.0
  9
$SKPOLY
 70
     0
  9
$TDCREATE
 40
0.000000000
  9
$TDUPDATE
 40
0.000000000
  9
$TDINDWG
 40
0.0000000000
  9
$TDUSRTIMER
 40
0.0000000000
  9
$USRTIMER
 70
     1
  9
$ANGBASE
 50
0.0
  9
$ANGDIR
 70
     0
  9
$PDMODE
 70
     0
  9
$PDSIZE
 40
0.0
  9
$PLINEWID
 40
0.0
  9
$COORDS
 70
     0
  9
$SPLFRAME
 70
     0
  9
$SPLINETYPE
 70
     6
  9
$SPLINESEGS
 70
     8
  9
$ATTDIA
 70
     0
  9
$ATTREQ
 70
     1
  9
$HANDLING
 70
     1
  9
$HANDSEED
  5
9CB
  9
$SURFTAB1
 70
     6
  9
$SURFTAB2
 70
     6
  9
$SURFTYPE
 70
     6
  9
$SURFU
 70
     6
  9
$SURFV
 70
     6
  9
$UCSNAME
  2

  9
$UCSORG
 10
0.0
 20
0.0
 30
0.0
  9
$UCSXDIR
 10
1.0
 20
0.0
 30
0.0
  9
$UCSYDIR
 10
0.0
 20
1.0
 30
0.0
  9
$PUCSNAME
  2

  9
$PUCSORG
 10
0.0
 20
0.0
 30
0.0
  9
$PUCSXDIR
 10
1.0
 20
0.0
 30
0.0
  9
$PUCSYDIR
 10
0.0
 20
1.0
 30
0.0
  9
$USERI1
 70
     0
  9
$USERI2
 70
     0
  9
$USERI3
 70
     0
  9
$USERI4
 70
     0
  9
$USERI5
 70
     0
  9
$USERR1
 40
0.0
  9
$USERR2
 40
0.0
  9
$USERR3
 40
0.0
  9
$USERR4
 40
0.0
  9
$USERR5
 40
0.0
  9
$WORLDVIEW
 70
     1
  9
$SHADEDGE
 70
     3
  9
$SHADEDIF
 70
    70
  9
$TILEMODE
 70
     1
  9
$MAXACTVP
 70
    16
  9
$PINSBASE
 10
0.0
 20
0.0
 30
0.0
  9
$PLIMCHECK
 70
     0
  9
$PEXTMIN
 10
1.000000E+20
 20
1.000000E+20
 30
1.000000E+20
  9
$PEXTMAX
 10
-1.000000E+20
 20
-1.000000E+20
 30
-1.000000E+20
  9
$PLIMMIN
 10
0.0
 20
0.0
  9
$PLIMMAX
 10
12.0
 20
9.0
  9
$UNITMODE
 70
     0
  9
$VISRETAIN
 70
     0
  9
$PLINEGEN
 70
     1
  9
$PSLTSCALE
 70
     0
  9
$TREEDEPTH
 70
  3020
  0
ENDSEC
  0
SECTION
  2
TABLES
  0
TABLE
  2
VPORT
 70
     1
  0
VPORT
  2
*ACTIVE
 70
     0
 10
0.0
 20
0.0
 11
1.0
 21
1.0
 12
6.591288
 22
4.579184
 13
0.0
 23
0.0
 14
1.0
 24
1.0
 15
0.0
 25
0.0
 16
0.0
 26
0.0
 36
1.0
 17
0.0
 27
0.0
 37
0.0
 40
9.158369
 41
0.688564
 42
50.0
 43
0.0
 44
0.0
 50
0.0
 51
0.0
 71
     0
 72
   100
 73
     1
 74
     1
 75
     0
 76
     0
 77
     0
 78
     0
  0
ENDTAB
  0
TABLE
  2
LTYPE
 70
     5
  0
LTYPE
  2
CONTINUOUS
 70
    64
  3
Solid line
 72
    65
 73
     0
 40
0.0
  0
LTYPE
  2
CENTER
 70
    64
  3
Center ____ _ ____ _ ____ _ ____ _ ____ _ ____
 72
    65
 73
     4
 40
50.8
 49
31.75
 49
-6.35
 49
6.35
 49
-6.35
  0
LTYPE
  2
HIDDEN
 70
    64
  3
Hidden __ __ __ __ __ __ __ __ __ __ __ __ __ __
 72
    65
 73
     2
 40
9.525
 49
6.35
 49
-3.175
  0
LTYPE
  2
CENTER2
 70
    64
  3
Center (.5x) ___ _ ___ _ ___ _ ___ _ ___ _ ___
 72
    65
 73
     4
 40
28.575
 49
19.05
 49
-3.175
 49
3.175
 49
-3.175
  0
LTYPE
  2
HIDDEN2
 70
    64
  3
Hidden (.5x) _ _ _ _ _ _ _ _ _ _ _ _ _ _ _ _ _
 72
    65
 73
     2
 40
4.7625
 49
3.175
 49
-1.5875
  0
ENDTAB
  0
TABLE
  2
LAYER
 70
     1
  0
LAYER
  2
0
 70
     0
 62
     7
  6
CONTINUOUS
  0
ENDTAB
  0
TABLE
  2
STYLE
 70
     1
  0
STYLE
  2
STANDARD
 70
     0
 40
0.0
 41
1.0
 50
0.0
 71
     0
 42
0.0
  3
txt
  4

  0
ENDTAB
  0
TABLE
  2
VIEW
 70
     0
  0
ENDTAB
  0
TABLE
  2
UCS
 70
     0
  0
ENDTAB
  0
TABLE
  2
APPID
 70
     1
  0
APPID
  2
ACAD
 70
     0
  0
ENDTAB
  0
TABLE
  2
DIMSTYLE
 70
     1
  0
DIMSTYLE
  2
STANDARD
 70
     0
  3

  4

  5

  6

  7

 40
1.0
 41
0.18
 42
0.0625
 43
0.38
 44
0.18
 45
0.0
 46
0.0
 47
0.0
 48
0.0
 71
     0
 72
     0
 73
     1
 74
     1
 75
     0
 76
     0
 77
     0
 78
     0
140
0.18
141
0.09
142
0.0
143
25.4
144
1.0
145
0.0
146
1.0
147
0.09
170
     0
171
     2
172
     0
173
     0
174
     0
175
     0
176
     0
177
     0
178
     0
  0
ENDTAB
  0
ENDSEC
  0
SECTION
  2
BLOCKS
  0
ENDSEC
  0
SECTION
  2
ENTITIES
  0
LINE
  8
0
  6
CONTINUOUS
 62
     7
  5
518
 10
0.3125
 20
0.78125
 30
0.0
 11
0.3125
 21
0.0
 31
0.0
  0
LINE
  8
0
  6
CONTINUOUS
 62
     7
  5
519
 10
0.3125
 20
0.0
 30
0.0
 11
0.3125
 21
-0.78125
 31
0.0
  0
LINE
  8
0
  6
CONTINUOUS
 62
     7
  5
51A
 10
0.25
 20
0.78125
 30
0.0
 11
0.25
 21
0.0
 31
0.0
  0
LINE
  8
0
  6
CONTINUOUS
 62
     7
  5
51B
 10
0.25
 20
0.0
 30
0.0
 11
0.25
 21
-0.78125
 31
0.0
  0
LINE
  8
0
  6
CONTINUOUS
 62
     7
  5
51C
 10
1.707087
 20
-0.8
 30
0.0
 11
1.707087
 21
-0.795
 31
0.0
  0
LINE
  8
0
  6
CONTINUOUS
 62
     7
  5
51D
 10
1.707087
 20
0.795
 30
0.0
 11
1.707087
 21
0.8
 31
0.0
  0
LINE
  8
0
  6
CONTINUOUS
 62
     7
  5
51E
 10
1.707087
 20
0.795
 30
0.0
 11
1.707087
 21
0.792486
 31
0.0
  0
LINE
  8
0
  6
CONTINUOUS
 62
     7
  5
51F
 10
1.707087
 20
-0.792486
 30
0.0
 11
1.707087
 21
-0.795
 31
0.0
  0
LINE
  8
0
  6
CONTINUOUS
 62
     7
  5
520
 10
2.004982
 20
0.406233
 30
0.0
 11
1.90528
 21
0.505935
 31
0.0
  0
LINE
  8
0
  6
CONTINUOUS
 62
     7
  5
521
 10
1.937453
 20
0.296985
 30
0.0
 11
2.011699
 21
0.371231
 31
0.0
  0
LINE
  8
0
  6
CONTINUOUS
 62
     7
  5
522
 10
2.029377
 20
0.353553
 30
0.0
 11
1.955131
 21
0.279307
 31
0.0
  0
LINE
  8
0
  6
CONTINUOUS
 62
     7
  5
523
 10
1.965371
 20
0.566051
 30
0.0
 11
2.065098
 21
0.466325
 31
0.0
  0
LINE
  8
0
  6
CONTINUOUS
 62
     7
  5
524
 10
1.997557
 20
0.357089
 30
0.0
 11
1.856136
 21
0.49851
 31
0.0
  0
LINE
  8
0
  6
CONTINUOUS
 62
     7
  5
525
 10
1.898208
 20
0.498864
 30
0.0
 11
1.997911
 21
0.399162
 31
0.0
  0
LINE
  8
0
  6
CONTINUOUS
 62
     7
  5
526
 10
1.870278
 20
0.512652
 30
0.0
 11
1.796032
 21
0.438406
 31
0.0
  0
LINE
  8
0
  6
CONTINUOUS
 62
     7
  5
527
 10
1.778354
 20
0.456084
 30
0.0
 11
1.8526
 21
0.53033
 31
0.0
  0
LINE
  8
0
  6
CONTINUOUS
 62
     7
  5
528
 10
1.922957
 20
0.523613
 30
0.0
 11
2.022659
 21
0.423911
 31
0.0
  0
LINE
  8
0
  6
CONTINUOUS
 62
     7
  5
529
 10
1.985317
 20
0.580047
 30
0.0
 11
2.010773
 21
0.605503
 31
0.0
  0
LINE
  8
0
  6
CONTINUOUS
 62
     7
  5
52A
 10
2.010773
 20
0.605503
 30
0.0
 11
2.035268
 21
0.581008
 31
0.0
  0
LINE
  8
0
  6
CONTINUOUS
 62
     7
  5
52B
 10
2.009812
 20
0.555552
 30
0.0
 11
1.985317
 21
0.580047
 31
0.0
  0
LINE
  8
0
  6
CONTINUOUS
 62
     7
  5
52C
 10
2.035268
 20
0.581008
 30
0.0
 11
2.009812
 21
0.555552
 31
0.0
  0
LINE
  8
0
  6
CONTINUOUS
 62
     7
  5
52D
 10
2.035268
 20
0.581008
 30
0.0
 11
2.107512
 21
0.508763
 31
0.0
  0
LINE
  8
0
  6
CONTINUOUS
 62
     7
  5
52E
 10
2.007811
 20
0.608465
 30
0.0
 11
2.010773
 21
0.605503
 31
0.0
  0
LINE
  8
0
  6
CONTINUOUS
 62
     7
  5
52F
 10
1.959373
 20
0.275065
 30
0.0
 11
1.774111
 21
0.460327
 31
0.0
  0
LINE
  8
0
  6
CONTINUOUS
 62
     7
  5
530
 10
1.90528
 20
-0.505935
 30
0.0
 11
2.004982
 21
-0.406233
 31
0.0
  0
LINE
  8
0
  6
CONTINUOUS
 62
     7
  5
531
 10
1.796032
 20
-0.438406
 30
0.0
 11
1.870278
 21
-0.512652
 31
0.0
  0
LINE
  8
0
  6
CONTINUOUS
 62
     7
  5
532
 10
1.8526
 20
-0.53033
 30
0.0
 11
1.778354
 21
-0.456084
 31
0.0
  0
LINE
  8
0
  6
CONTINUOUS
 62
     7
  5
533
 10
2.065098
 20
-0.466325
 30
0.0
 11
1.965371
 21
-0.566051
 31
0.0
  0
LINE
  8
0
  6
CONTINUOUS
 62
     7
  5
534
 10
1.856136
 20
-0.49851
 30
0.0
 11
1.997557
 21
-0.357089
 31
0.0
  0
LINE
  8
0
  6
CONTINUOUS
 62
     7
  5
535
 10
1.997911
 20
-0.399162
 30
0.0
 11
1.898208
 21
-0.498864
 31
0.0
  0
LINE
  8
0
  6
CONTINUOUS
 62
     7
  5
536
 10
2.011699
 20
-0.371231
 30
0.0
 11
1.937453
 21
-0.296985
 31
0.0
  0
LINE
  8
0
  6
CONTINUOUS
 62
     7
  5
537
 10
1.955131
 20
-0.279307
 30
0.0
 11
2.029377
 21
-0.353553
 31
0.0
  0
LINE
  8
0
  6
CONTINUOUS
 62
     7
  5
538
 10
2.022659
 20
-0.423911
 30
0.0
 11
1.922957
 21
-0.523613
 31
0.0
  0
LINE
  8
0
  6
CONTINUOUS
 62
     7
  5
539
 10
2.079094
 20
-0.48627
 30
0.0
 11
2.10455
 21
-0.511726
 31
0.0
  0
LINE
  8
0
  6
CONTINUOUS
 62
     7
  5
53A
 10
2.10455
 20
-0.511726
 30
0.0
 11
2.080055
 21
-0.536221
 31
0.0
  0
LINE
  8
0
  6
CONTINUOUS
 62
     7
  5
53B
 10
2.054599
 20
-0.510765
 30
0.0
 11
2.079094
 21
-0.48627
 31
0.0
  0
LINE
  8
0
  6
CONTINUOUS
 62
     7
  5
53C
 10
2.080055
 20
-0.536221
 30
0.0
 11
2.054599
 21
-0.510765
 31
0.0
  0
LINE
  8
0
  6
CONTINUOUS
 62
     7
  5
53D
 10
2.080055
 20
-0.536221
 30
0.0
 11
2.00781
 21
-0.608465
 31
0.0
  0
LINE
  8
0
  6
CONTINUOUS
 62
     7
  5
53E
 10
2.107512
 20
-0.508764
 30
0.0
 11
2.10455
 21
-0.511726
 31
0.0
  0
LINE
  8
0
  6
CONTINUOUS
 62
     7
  5
53F
 10
1.774111
 20
-0.460327
 30
0.0
 11
1.959373
 21
-0.275065
 31
0.0
  0
LINE
  8
0
  6
CONTINUOUS
 62
     7
  5
540
 10
2.353585
 20
0.252791
 30
0.0
 11
2.253883
 21
0.352493
 31
0.0
  0
LINE
  8
0
  6
CONTINUOUS
 62
     7
  5
541
 10
2.286057
 20
0.143543
 30
0.0
 11
2.360303
 21
0.217789
 31
0.0
  0
LINE
  8
0
  6
CONTINUOUS
 62
     7
  5
542
 10
2.37798
 20
0.200111
 30
0.0
 11
2.303734
 21
0.125865
 31
0.0
  0
LINE
  8
0
  6
CONTINUOUS
 62
     7
  5
543
 10
2.313975
 20
0.412609
 30
0.0
 11
2.413702
 21
0.312882
 31
0.0
  0
LINE
  8
0
  6
CONTINUOUS
 62
     7
  5
544
 10
2.346161
 20
0.203647
 30
0.0
 11
2.204739
 21
0.345068
 31
0.0
  0
LINE
  8
0
  6
CONTINUOUS
 62
     7
  5
545
 10
2.246812
 20
0.345422
 30
0.0
 11
2.346514
 21
0.24572
 31
0.0
  0
LINE
  8
0
  6
CONTINUOUS
 62
     7
  5
546
 10
2.218881
 20
0.35921
 30
0.0
 11
2.144635
 21
0.284964
 31
0.0
  0
LINE
  8
0
  6
CONTINUOUS
 62
     7
  5
547
 10
2.126958
 20
0.302642
 30
0.0
 11
2.201204
 21
0.376888
 31
0.0
  0
LINE
  8
0
  6
CONTINUOUS
 62
     7
  5
548
 10
2.271561
 20
0.37017
 30
0.0
 11
2.371263
 21
0.270468
 31
0.0
  0
LINE
  8
0
  6
CONTINUOUS
 62
     7
  5
549
 10
2.33392
 20
0.426605
 30
0.0
 11
2.359376
 21
0.452061
 31
0.0
  0
LINE
  8
0
  6
CONTINUOUS
 62
     7
  5
54A
 10
2.359376
 20
0.452061
 30
0.0
 11
2.383871
 21
0.427566
 31
0.0
  0
LINE
  8
0
  6
CONTINUOUS
 62
     7
  5
54B
 10
2.358415
 20
0.40211
 30
0.0
 11
2.33392
 21
0.426605
 31
0.0
  0
LINE
  8
0
  6
CONTINUOUS
 62
     7
  5
54C
 10
2.383871
 20
0.427566
 30
0.0
 11
2.358415
 21
0.40211
 31
0.0
  0
LINE
  8
0
  6
CONTINUOUS
 62
     7
  5
54D
 10
2.383871
 20
0.427566
 30
0.0
 11
2.456116
 21
0.355321
 31
0.0
  0
LINE
  8
0
  6
CONTINUOUS
 62
     7
  5
54E
 10
2.356414
 20
0.455023
 30
0.0
 11
2.359376
 21
0.452061
 31
0.0
  0
LINE
  8
0
  6
CONTINUOUS
 62
     7
  5
54F
 10
2.307977
 20
0.121622
 30
0.0
 11
2.122715
 21
0.306884
 31
0.0
  0
LINE
  8
0
  6
CONTINUOUS
 62
     7
  5
550
 10
2.253883
 20
-0.352493
 30
0.0
 11
2.353585
 21
-0.252791
 31
0.0
  0
LINE
  8
0
  6
CONTINUOUS
 62
     7
  5
551
 10
2.144635
 20
-0.284964
 30
0.0
 11
2.218881
 21
-0.35921
 31
0.0
  0
LINE
  8
0
  6
CONTINUOUS
 62
     7
  5
552
 10
2.201204
 20
-0.376888
 30
0.0
 11
2.126958
 21
-0.302642
 31
0.0
  0
LINE
  8
0
  6
CONTINUOUS
 62
     7
  5
553
 10
2.413702
 20
-0.312882
 30
0.0
 11
2.313975
 21
-0.412609
 31
0.0
  0
LINE
  8
0
  6
CONTINUOUS
 62
     7
  5
554
 10
2.204739
 20
-0.345068
 30
0.0
 11
2.346161
 21
-0.203647
 31
0.0
  0
LINE
  8
0
  6
CONTINUOUS
 62
     7
  5
555
 10
2.346514
 20
-0.24572
 30
0.0
 11
2.246812
 21
-0.345422
 31
0.0
  0
LINE
  8
0
  6
CONTINUOUS
 62
     7
  5
556
 10
2.360303
 20
-0.217789
 30
0.0
 11
2.286057
 21
-0.143543
 31
0.0
  0
LINE
  8
0
  6
CONTINUOUS
 62
     7
  5
557
 10
2.303734
 20
-0.125865
 30
0.0
 11
2.37798
 21
-0.200111
 31
0.0
  0
LINE
  8
0
  6
CONTINUOUS
 62
     7
  5
558
 10
2.371263
 20
-0.270468
 30
0.0
 11
2.271561
 21
-0.37017
 31
0.0
  0
LINE
  8
0
  6
CONTINUOUS
 62
     7
  5
559
 10
2.427697
 20
-0.332828
 30
0.0
 11
2.453153
 21
-0.358284
 31
0.0
  0
LINE
  8
0
  6
CONTINUOUS
 62
     7
  5
55A
 10
2.453153
 20
-0.358284
 30
0.0
 11
2.428658
 21
-0.382779
 31
0.0
  0
LINE
  8
0
  6
CONTINUOUS
 62
     7
  5
55B
 10
2.403202
 20
-0.357323
 30
0.0
 11
2.427697
 21
-0.332828
 31
0.0
  0
LINE
  8
0
  6
CONTINUOUS
 62
     7
  5
55C
 10
2.428658
 20
-0.382779
 30
0.0
 11
2.403202
 21
-0.357323
 31
0.0
  0
LINE
  8
0
  6
CONTINUOUS
 62
     7
  5
55D
 10
2.428658
 20
-0.382779
 30
0.0
 11
2.356414
 21
-0.455023
 31
0.0
  0
LINE
  8
0
  6
CONTINUOUS
 62
     7
  5
55E
 10
2.456115
 20
-0.355322
 30
0.0
 11
2.453153
 21
-0.358284
 31
0.0
  0
LINE
  8
0
  6
CONTINUOUS
 62
     7
  5
55F
 10
2.122715
 20
-0.306884
 30
0.0
 11
2.307977
 21
-0.121622
 31
0.0
  0
LINE
  8
0
  6
CONTINUOUS
 62
     7
  5
560
 10
2.677087
 20
0.1275
 30
0.0
 11
2.748087
 21
0.1275
 31
0.0
  0
LINE
  8
0
  6
CONTINUOUS
 62
     7
  5
561
 10
2.677087
 20
-0.1275
 30
0.0
 11
2.748087
 21
-0.1275
 31
0.0
  0
LINE
  8
0
  6
CONTINUOUS
 62
     7
  5
562
 10
2.748087
 20
-0.1275
 30
0.0
 11
2.748087
 21
0.1275
 31
0.0
  0
LINE
  8
0
  6
CONTINUOUS
 62
     7
  5
563
 10
2.553696
 20
-0.452902
 30
0.0
 11
2.533652
 21
-0.432857
 31
0.0
  0
LINE
  8
0
  6
CONTINUOUS
 62
     7
  5
564
 10
2.453994
 20
-0.552604
 30
0.0
 11
2.553696
 21
-0.452902
 31
0.0
  0
LINE
  8
0
  6
CONTINUOUS
 62
     7
  5
565
 10
2.43395
 20
-0.532559
 30
0.0
 11
2.453994
 21
-0.552604
 31
0.0
  0
LINE
  8
0
  6
CONTINUOUS
 62
     7
  5
566
 10
2.419753
 20
-0.597559
 30
0.0
 11
2.418932
 21
-0.596668
 31
0.0
  0
LINE
  8
0
  6
CONTINUOUS
 62
     7
  5
567
 10
2.418932
 20
-0.596668
 30
0.0
 11
2.418182
 21
-0.595707
 31
0.0
  0
LINE
  8
0
  6
CONTINUOUS
 62
     7
  5
568
 10
2.418182
 20
-0.595707
 30
0.0
 11
2.417503
 21
-0.594678
 31
0.0
  0
LINE
  8
0
  6
CONTINUOUS
 62
     7
  5
569
 10
2.417503
 20
-0.594678
 30
0.0
 11
2.416895
 21
-0.593581
 31
0.0
  0
LINE
  8
0
  6
CONTINUOUS
 62
     7
  5
56A
 10
2.416895
 20
-0.593581
 30
0.0
 11
2.41636
 21
-0.592417
 31
0.0
  0
LINE
  8
0
  6
CONTINUOUS
 62
     7
  5
56B
 10
2.41636
 20
-0.592417
 30
0.0
 11
2.415898
 21
-0.591187
 31
0.0
  0
LINE
  8
0
  6
CONTINUOUS
 62
     7
  5
56C
 10
2.415898
 20
-0.591187
 30
0.0
 11
2.415509
 21
-0.589892
 31
0.0
  0
LINE
  8
0
  6
CONTINUOUS
 62
     7
  5
56D
 10
2.415509
 20
-0.589892
 30
0.0
 11
2.415193
 21
-0.588532
 31
0.0
  0
LINE
  8
0
  6
CONTINUOUS
 62
     7
  5
56E
 10
2.415193
 20
-0.588532
 30
0.0
 11
2.414951
 21
-0.58711
 31
0.0
  0
LINE
  8
0
  6
CONTINUOUS
 62
     7
  5
56F
 10
2.414951
 20
-0.58711
 30
0.0
 11
2.414783
 21
-0.585626
 31
0.0
  0
LINE
  8
0
  6
CONTINUOUS
 62
     7
  5
570
 10
2.414783
 20
-0.585626
 30
0.0
 11
2.414689
 21
-0.584081
 31
0.0
  0
LINE
  8
0
  6
CONTINUOUS
 62
     7
  5
571
 10
2.414689
 20
-0.584081
 30
0.0
 11
2.414668
 21
-0.582477
 31
0.0
  0
LINE
  8
0
  6
CONTINUOUS
 62
     7
  5
572
 10
2.414668
 20
-0.582477
 30
0.0
 11
2.414722
 21
-0.580814
 31
0.0
  0
LINE
  8
0
  6
CONTINUOUS
 62
     7
  5
573
 10
2.414722
 20
-0.580814
 30
0.0
 11
2.41485
 21
-0.579095
 31
0.0
  0
LINE
  8
0
  6
CONTINUOUS
 62
     7
  5
574
 10
2.41485
 20
-0.579095
 30
0.0
 11
2.415052
 21
-0.57732
 31
0.0
  0
LINE
  8
0
  6
CONTINUOUS
 62
     7
  5
575
 10
2.415052
 20
-0.57732
 30
0.0
 11
2.415327
 21
-0.57549
 31
0.0
  0
LINE
  8
0
  6
CONTINUOUS
 62
     7
  5
576
 10
2.415327
 20
-0.57549
 30
0.0
 11
2.415676
 21
-0.573608
 31
0.0
  0
LINE
  8
0
  6
CONTINUOUS
 62
     7
  5
577
 10
2.415676
 20
-0.573608
 30
0.0
 11
2.416098
 21
-0.571675
 31
0.0
  0
LINE
  8
0
  6
CONTINUOUS
 62
     7
  5
578
 10
2.416098
 20
-0.571675
 30
0.0
 11
2.416594
 21
-0.569691
 31
0.0
  0
LINE
  8
0
  6
CONTINUOUS
 62
     7
  5
579
 10
2.416594
 20
-0.569691
 30
0.0
 11
2.417161
 21
-0.56766
 31
0.0
  0
LINE
  8
0
  6
CONTINUOUS
 62
     7
  5
57A
 10
2.417161
 20
-0.56766
 30
0.0
 11
2.417801
 21
-0.565582
 31
0.0
  0
LINE
  8
0
  6
CONTINUOUS
 62
     7
  5
57B
 10
2.417801
 20
-0.565582
 30
0.0
 11
2.418513
 21
-0.563459
 31
0.0
  0
LINE
  8
0
  6
CONTINUOUS
 62
     7
  5
57C
 10
2.418513
 20
-0.563459
 30
0.0
 11
2.419295
 21
-0.561292
 31
0.0
  0
LINE
  8
0
  6
CONTINUOUS
 62
     7
  5
57D
 10
2.419295
 20
-0.561292
 30
0.0
 11
2.420148
 21
-0.559084
 31
0.0
  0
LINE
  8
0
  6
CONTINUOUS
 62
     7
  5
57E
 10
2.420148
 20
-0.559084
 30
0.0
 11
2.421071
 21
-0.556836
 31
0.0
  0
LINE
  8
0
  6
CONTINUOUS
 62
     7
  5
57F
 10
2.421071
 20
-0.556836
 30
0.0
 11
2.422063
 21
-0.554549
 31
0.0
  0
LINE
  8
0
  6
CONTINUOUS
 62
     7
  5
580
 10
2.422063
 20
-0.554549
 30
0.0
 11
2.423123
 21
-0.552227
 31
0.0
  0
LINE
  8
0
  6
CONTINUOUS
 62
     7
  5
581
 10
2.423123
 20
-0.552227
 30
0.0
 11
2.42425
 21
-0.54987
 31
0.0
  0
LINE
  8
0
  6
CONTINUOUS
 62
     7
  5
582
 10
2.42425
 20
-0.54987
 30
0.0
 11
2.425444
 21
-0.54748
 31
0.0
  0
LINE
  8
0
  6
CONTINUOUS
 62
     7
  5
583
 10
2.425444
 20
-0.54748
 30
0.0
 11
2.426704
 21
-0.545059
 31
0.0
  0
LINE
  8
0
  6
CONTINUOUS
 62
     7
  5
584
 10
2.426704
 20
-0.545059
 30
0.0
 11
2.428028
 21
-0.542609
 31
0.0
  0
LINE
  8
0
  6
CONTINUOUS
 62
     7
  5
585
 10
2.428028
 20
-0.542609
 30
0.0
 11
2.429416
 21
-0.540132
 31
0.0
  0
LINE
  8
0
  6
CONTINUOUS
 62
     7
  5
586
 10
2.429416
 20
-0.540132
 30
0.0
 11
2.430866
 21
-0.53763
 31
0.0
  0
LINE
  8
0
  6
CONTINUOUS
 62
     7
  5
587
 10
2.430866
 20
-0.53763
 30
0.0
 11
2.432378
 21
-0.535105
 31
0.0
  0
LINE
  8
0
  6
CONTINUOUS
 62
     7
  5
588
 10
2.432378
 20
-0.535105
 30
0.0
 11
2.43395
 21
-0.532559
 31
0.0
  0
LINE
  8
0
  6
CONTINUOUS
 62
     7
  5
589
 10
2.521644
 20
-0.555665
 30
0.0
 11
2.517959
 21
-0.558833
 31
0.0
  0
LINE
  8
0
  6
CONTINUOUS
 62
     7
  5
58A
 10
2.517959
 20
-0.558833
 30
0.0
 11
2.51426
 21
-0.561923
 31
0.0
  0
LINE
  8
0
  6
CONTINUOUS
 62
     7
  5
58B
 10
2.51426
 20
-0.561923
 30
0.0
 11
2.510553
 21
-0.564931
 31
0.0
  0
LINE
  8
0
  6
CONTINUOUS
 62
     7
  5
58C
 10
2.510553
 20
-0.564931
 30
0.0
 11
2.506844
 21
-0.567851
 31
0.0
  0
LINE
  8
0
  6
CONTINUOUS
 62
     7
  5
58D
 10
2.506844
 20
-0.567851
 30
0.0
 11
2.503139
 21
-0.570679
 31
0.0
  0
LINE
  8
0
  6
CONTINUOUS
 62
     7
  5
58E
 10
2.503139
 20
-0.570679
 30
0.0
 11
2.499443
 21
-0.57341
 31
0.0
  0
LINE
  8
0
  6
CONTINUOUS
 62
     7
  5
58F
 10
2.499443
 20
-0.57341
 30
0.0
 11
2.495762
 21
-0.576041
 31
0.0
  0
LINE
  8
0
  6
CONTINUOUS
 62
     7
  5
590
 10
2.495762
 20
-0.576041
 30
0.0
 11
2.492102
 21
-0.578568
 31
0.0
  0
LINE
  8
0
  6
CONTINUOUS
 62
     7
  5
591
 10
2.492102
 20
-0.578568
 30
0.0
 11
2.488468
 21
-0.580986
 31
0.0
  0
LINE
  8
0
  6
CONTINUOUS
 62
     7
  5
592
 10
2.488468
 20
-0.580986
 30
0.0
 11
2.484866
 21
-0.583292
 31
0.0
  0
LINE
  8
0
  6
CONTINUOUS
 62
     7
  5
593
 10
2.484866
 20
-0.583292
 30
0.0
 11
2.481301
 21
-0.585482
 31
0.0
  0
LINE
  8
0
  6
CONTINUOUS
 62
     7
  5
594
 10
2.481301
 20
-0.585482
 30
0.0
 11
2.47778
 21
-0.587554
 31
0.0
  0
LINE
  8
0
  6
CONTINUOUS
 62
     7
  5
595
 10
2.47778
 20
-0.587554
 30
0.0
 11
2.474307
 21
-0.589502
 31
0.0
  0
LINE
  8
0
  6
CONTINUOUS
 62
     7
  5
596
 10
2.474307
 20
-0.589502
 30
0.0
 11
2.470887
 21
-0.591326
 31
0.0
  0
LINE
  8
0
  6
CONTINUOUS
 62
     7
  5
597
 10
2.470887
 20
-0.591326
 30
0.0
 11
2.467527
 21
-0.593021
 31
0.0
  0
LINE
  8
0
  6
CONTINUOUS
 62
     7
  5
598
 10
2.467527
 20
-0.593021
 30
0.0
 11
2.46423
 21
-0.594586
 31
0.0
  0
LINE
  8
0
  6
CONTINUOUS
 62
     7
  5
599
 10
2.46423
 20
-0.594586
 30
0.0
 11
2.461003
 21
-0.596018
 31
0.0
  0
LINE
  8
0
  6
CONTINUOUS
 62
     7
  5
59A
 10
2.461003
 20
-0.596018
 30
0.0
 11
2.45785
 21
-0.597314
 31
0.0
  0
LINE
  8
0
  6
CONTINUOUS
 62
     7
  5
59B
 10
2.45785
 20
-0.597314
 30
0.0
 11
2.454776
 21
-0.598473
 31
0.0
  0
LINE
  8
0
  6
CONTINUOUS
 62
     7
  5
59C
 10
2.454776
 20
-0.598473
 30
0.0
 11
2.451786
 21
-0.599493
 31
0.0
  0
LINE
  8
0
  6
CONTINUOUS
 62
     7
  5
59D
 10
2.451786
 20
-0.599493
 30
0.0
 11
2.448884
 21
-0.600373
 31
0.0
  0
LINE
  8
0
  6
CONTINUOUS
 62
     7
  5
59E
 10
2.448884
 20
-0.600373
 30
0.0
 11
2.446076
 21
-0.60111
 31
0.0
  0
LINE
  8
0
  6
CONTINUOUS
 62
     7
  5
59F
 10
2.446076
 20
-0.60111
 30
0.0
 11
2.443364
 21
-0.601704
 31
0.0
  0
LINE
  8
0
  6
CONTINUOUS
 62
     7
  5
5A0
 10
2.443364
 20
-0.601704
 30
0.0
 11
2.440753
 21
-0.602154
 31
0.0
  0
LINE
  8
0
  6
CONTINUOUS
 62
     7
  5
5A1
 10
2.440753
 20
-0.602154
 30
0.0
 11
2.438248
 21
-0.60246
 31
0.0
  0
LINE
  8
0
  6
CONTINUOUS
 62
     7
  5
5A2
 10
2.438248
 20
-0.60246
 30
0.0
 11
2.435853
 21
-0.60262
 31
0.0
  0
LINE
  8
0
  6
CONTINUOUS
 62
     7
  5
5A3
 10
2.435853
 20
-0.60262
 30
0.0
 11
2.43357
 21
-0.602635
 31
0.0
  0
LINE
  8
0
  6
CONTINUOUS
 62
     7
  5
5A4
 10
2.43357
 20
-0.602635
 30
0.0
 11
2.431403
 21
-0.602504
 31
0.0
  0
LINE
  8
0
  6
CONTINUOUS
 62
     7
  5
5A5
 10
2.431403
 20
-0.602504
 30
0.0
 11
2.429356
 21
-0.602228
 31
0.0
  0
LINE
  8
0
  6
CONTINUOUS
 62
     7
  5
5A6
 10
2.429356
 20
-0.602228
 30
0.0
 11
2.427433
 21
-0.601807
 31
0.0
  0
LINE
  8
0
  6
CONTINUOUS
 62
     7
  5
5A7
 10
2.427433
 20
-0.601807
 30
0.0
 11
2.425635
 21
-0.601241
 31
0.0
  0
LINE
  8
0
  6
CONTINUOUS
 62
     7
  5
5A8
 10
2.425635
 20
-0.601241
 30
0.0
 11
2.423965
 21
-0.600533
 31
0.0
  0
LINE
  8
0
  6
CONTINUOUS
 62
     7
  5
5A9
 10
2.423965
 20
-0.600533
 30
0.0
 11
2.422427
 21
-0.599682
 31
0.0
  0
LINE
  8
0
  6
CONTINUOUS
 62
     7
  5
5AA
 10
2.422427
 20
-0.599682
 30
0.0
 11
2.421022
 21
-0.59869
 31
0.0
  0
LINE
  8
0
  6
CONTINUOUS
 62
     7
  5
5AB
 10
2.421022
 20
-0.59869
 30
0.0
 11
2.419753
 21
-0.597559
 31
0.0
  0
LINE
  8
0
  6
CONTINUOUS
 62
     7
  5
5AC
 10
2.556757
 20
-0.520552
 30
0.0
 11
2.521644
 21
-0.555665
 31
0.0
  0
LINE
  8
0
  6
CONTINUOUS
 62
     7
  5
5AD
 10
2.598652
 20
-0.418661
 30
0.0
 11
2.599783
 21
-0.41993
 31
0.0
  0
LINE
  8
0
  6
CONTINUOUS
 62
     7
  5
5AE
 10
2.599783
 20
-0.41993
 30
0.0
 11
2.600774
 21
-0.421334
 31
0.0
  0
LINE
  8
0
  6
CONTINUOUS
 62
     7
  5
5AF
 10
2.600774
 20
-0.421334
 30
0.0
 11
2.601625
 21
-0.422873
 31
0.0
  0
LINE
  8
0
  6
CONTINUOUS
 62
     7
  5
5B0
 10
2.601625
 20
-0.422873
 30
0.0
 11
2.602334
 21
-0.424542
 31
0.0
  0
LINE
  8
0
  6
CONTINUOUS
 62
     7
  5
5B1
 10
2.602334
 20
-0.424542
 30
0.0
 11
2.602899
 21
-0.42634
 31
0.0
  0
LINE
  8
0
  6
CONTINUOUS
 62
     7
  5
5B2
 10
2.602899
 20
-0.42634
 30
0.0
 11
2.60332
 21
-0.428264
 31
0.0
  0
LINE
  8
0
  6
CONTINUOUS
 62
     7
  5
5B3
 10
2.60332
 20
-0.428264
 30
0.0
 11
2.603596
 21
-0.430311
 31
0.0
  0
LINE
  8
0
  6
CONTINUOUS
 62
     7
  5
5B4
 10
2.603596
 20
-0.430311
 30
0.0
 11
2.603727
 21
-0.432477
 31
0.0
  0
LINE
  8
0
  6
CONTINUOUS
 62
     7
  5
5B5
 10
2.603727
 20
-0.432477
 30
0.0
 11
2.603712
 21
-0.43476
 31
0.0
  0
LINE
  8
0
  6
CONTINUOUS
 62
     7
  5
5B6
 10
2.603712
 20
-0.43476
 30
0.0
 11
2.603552
 21
-0.437156
 31
0.0
  0
LINE
  8
0
  6
CONTINUOUS
 62
     7
  5
5B7
 10
2.603552
 20
-0.437156
 30
0.0
 11
2.603247
 21
-0.439661
 31
0.0
  0
LINE
  8
0
  6
CONTINUOUS
 62
     7
  5
5B8
 10
2.603247
 20
-0.439661
 30
0.0
 11
2.602797
 21
-0.442271
 31
0.0
  0
LINE
  8
0
  6
CONTINUOUS
 62
     7
  5
5B9
 10
2.602797
 20
-0.442271
 30
0.0
 11
2.602203
 21
-0.444983
 31
0.0
  0
LINE
  8
0
  6
CONTINUOUS
 62
     7
  5
5BA
 10
2.602203
 20
-0.444983
 30
0.0
 11
2.601465
 21
-0.447792
 31
0.0
  0
LINE
  8
0
  6
CONTINUOUS
 62
     7
  5
5BB
 10
2.601465
 20
-0.447792
 30
0.0
 11
2.600586
 21
-0.450694
 31
0.0
  0
LINE
  8
0
  6
CONTINUOUS
 62
     7
  5
5BC
 10
2.600586
 20
-0.450694
 30
0.0
 11
2.599566
 21
-0.453684
 31
0.0
  0
LINE
  8
0
  6
CONTINUOUS
 62
     7
  5
5BD
 10
2.599566
 20
-0.453684
 30
0.0
 11
2.598407
 21
-0.456758
 31
0.0
  0
LINE
  8
0
  6
CONTINUOUS
 62
     7
  5
5BE
 10
2.598407
 20
-0.456758
 30
0.0
 11
2.59711
 21
-0.459911
 31
0.0
  0
LINE
  8
0
  6
CONTINUOUS
 62
     7
  5
5BF
 10
2.59711
 20
-0.459911
 30
0.0
 11
2.595679
 21
-0.463138
 31
0.0
  0
LINE
  8
0
  6
CONTINUOUS
 62
     7
  5
5C0
 10
2.595679
 20
-0.463138
 30
0.0
 11
2.594114
 21
-0.466434
 31
0.0
  0
LINE
  8
0
  6
CONTINUOUS
 62
     7
  5
5C1
 10
2.594114
 20
-0.466434
 30
0.0
 11
2.592418
 21
-0.469795
 31
0.0
  0
LINE
  8
0
  6
CONTINUOUS
 62
     7
  5
5C2
 10
2.592418
 20
-0.469795
 30
0.0
 11
2.590595
 21
-0.473214
 31
0.0
  0
LINE
  8
0
  6
CONTINUOUS
 62
     7
  5
5C3
 10
2.590595
 20
-0.473214
 30
0.0
 11
2.588646
 21
-0.476687
 31
0.0
  0
LINE
  8
0
  6
CONTINUOUS
 62
     7
  5
5C4
 10
2.588646
 20
-0.476687
 30
0.0
 11
2.586575
 21
-0.480209
 31
0.0
  0
LINE
  8
0
  6
CONTINUOUS
 62
     7
  5
5C5
 10
2.586575
 20
-0.480209
 30
0.0
 11
2.584385
 21
-0.483773
 31
0.0
  0
LINE
  8
0
  6
CONTINUOUS
 62
     7
  5
5C6
 10
2.584385
 20
-0.483773
 30
0.0
 11
2.582079
 21
-0.487375
 31
0.0
  0
LINE
  8
0
  6
CONTINUOUS
 62
     7
  5
5C7
 10
2.582079
 20
-0.487375
 30
0.0
 11
2.579661
 21
-0.491009
 31
0.0
  0
LINE
  8
0
  6
CONTINUOUS
 62
     7
  5
5C8
 10
2.579661
 20
-0.491009
 30
0.0
 11
2.577134
 21
-0.494669
 31
0.0
  0
LINE
  8
0
  6
CONTINUOUS
 62
     7
  5
5C9
 10
2.577134
 20
-0.494669
 30
0.0
 11
2.574503
 21
-0.49835
 31
0.0
  0
LINE
  8
0
  6
CONTINUOUS
 62
     7
  5
5CA
 10
2.574503
 20
-0.49835
 30
0.0
 11
2.571771
 21
-0.502046
 31
0.0
  0
LINE
  8
0
  6
CONTINUOUS
 62
     7
  5
5CB
 10
2.571771
 20
-0.502046
 30
0.0
 11
2.568943
 21
-0.505751
 31
0.0
  0
LINE
  8
0
  6
CONTINUOUS
 62
     7
  5
5CC
 10
2.568943
 20
-0.505751
 30
0.0
 11
2.566023
 21
-0.50946
 31
0.0
  0
LINE
  8
0
  6
CONTINUOUS
 62
     7
  5
5CD
 10
2.566023
 20
-0.50946
 30
0.0
 11
2.563016
 21
-0.513167
 31
0.0
  0
LINE
  8
0
  6
CONTINUOUS
 62
     7
  5
5CE
 10
2.563016
 20
-0.513167
 30
0.0
 11
2.559926
 21
-0.516866
 31
0.0
  0
LINE
  8
0
  6
CONTINUOUS
 62
     7
  5
5CF
 10
2.559926
 20
-0.516866
 30
0.0
 11
2.556757
 21
-0.520552
 31
0.0
  0
LINE
  8
0
  6
CONTINUOUS
 62
     7
  5
5D0
 10
2.533652
 20
-0.432857
 30
0.0
 11
2.536198
 21
-0.431285
 31
0.0
  0
LINE
  8
0
  6
CONTINUOUS
 62
     7
  5
5D1
 10
2.536198
 20
-0.431285
 30
0.0
 11
2.538723
 21
-0.429774
 31
0.0
  0
LINE
  8
0
  6
CONTINUOUS
 62
     7
  5
5D2
 10
2.538723
 20
-0.429774
 30
0.0
 11
2.541225
 21
-0.428323
 31
0.0
  0
LINE
  8
0
  6
CONTINUOUS
 62
     7
  5
5D3
 10
2.541225
 20
-0.428323
 30
0.0
 11
2.543702
 21
-0.426935
 31
0.0
  0
LINE
  8
0
  6
CONTINUOUS
 62
     7
  5
5D4
 10
2.543702
 20
-0.426935
 30
0.0
 11
2.546151
 21
-0.425611
 31
0.0
  0
LINE
  8
0
  6
CONTINUOUS
 62
     7
  5
5D5
 10
2.546151
 20
-0.425611
 30
0.0
 11
2.548572
 21
-0.424352
 31
0.0
  0
LINE
  8
0
  6
CONTINUOUS
 62
     7
  5
5D6
 10
2.548572
 20
-0.424352
 30
0.0
 11
2.550962
 21
-0.423158
 31
0.0
  0
LINE
  8
0
  6
CONTINUOUS
 62
     7
  5
5D7
 10
2.550962
 20
-0.423158
 30
0.0
 11
2.553319
 21
-0.42203
 31
0.0
  0
LINE
  8
0
  6
CONTINUOUS
 62
     7
  5
5D8
 10
2.553319
 20
-0.42203
 30
0.0
 11
2.555642
 21
-0.42097
 31
0.0
  0
LINE
  8
0
  6
CONTINUOUS
 62
     7
  5
5D9
 10
2.555642
 20
-0.42097
 30
0.0
 11
2.557928
 21
-0.419978
 31
0.0
  0
LINE
  8
0
  6
CONTINUOUS
 62
     7
  5
5DA
 10
2.557928
 20
-0.419978
 30
0.0
 11
2.560176
 21
-0.419056
 31
0.0
  0
LINE
  8
0
  6
CONTINUOUS
 62
     7
  5
5DB
 10
2.560176
 20
-0.419056
 30
0.0
 11
2.562385
 21
-0.418203
 31
0.0
  0
LINE
  8
0
  6
CONTINUOUS
 62
     7
  5
5DC
 10
2.562385
 20
-0.418203
 30
0.0
 11
2.564551
 21
-0.41742
 31
0.0
  0
LINE
  8
0
  6
CONTINUOUS
 62
     7
  5
5DD
 10
2.564551
 20
-0.41742
 30
0.0
 11
2.566674
 21
-0.416709
 31
0.0
  0
LINE
  8
0
  6
CONTINUOUS
 62
     7
  5
5DE
 10
2.566674
 20
-0.416709
 30
0.0
 11
2.568753
 21
-0.416069
 31
0.0
  0
LINE
  8
0
  6
CONTINUOUS
 62
     7
  5
5DF
 10
2.568753
 20
-0.416069
 30
0.0
 11
2.570784
 21
-0.415501
 31
0.0
  0
LINE
  8
0
  6
CONTINUOUS
 62
     7
  5
5E0
 10
2.570784
 20
-0.415501
 30
0.0
 11
2.572767
 21
-0.415006
 31
0.0
  0
LINE
  8
0
  6
CONTINUOUS
 62
     7
  5
5E1
 10
2.572767
 20
-0.415006
 30
0.0
 11
2.574701
 21
-0.414584
 31
0.0
  0
LINE
  8
0
  6
CONTINUOUS
 62
     7
  5
5E2
 10
2.574701
 20
-0.414584
 30
0.0
 11
2.576583
 21
-0.414235
 31
0.0
  0
LINE
  8
0
  6
CONTINUOUS
 62
     7
  5
5E3
 10
2.576583
 20
-0.414235
 30
0.0
 11
2.578412
 21
-0.413959
 31
0.0
  0
LINE
  8
0
  6
CONTINUOUS
 62
     7
  5
5E4
 10
2.578412
 20
-0.413959
 30
0.0
 11
2.580187
 21
-0.413757
 31
0.0
  0
LINE
  8
0
  6
CONTINUOUS
 62
     7
  5
5E5
 10
2.580187
 20
-0.413757
 30
0.0
 11
2.581907
 21
-0.41363
 31
0.0
  0
LINE
  8
0
  6
CONTINUOUS
 62
     7
  5
5E6
 10
2.581907
 20
-0.41363
 30
0.0
 11
2.58357
 21
-0.413576
 31
0.0
  0
LINE
  8
0
  6
CONTINUOUS
 62
     7
  5
5E7
 10
2.58357
 20
-0.413576
 30
0.0
 11
2.585174
 21
-0.413596
 31
0.0
  0
LINE
  8
0
  6
CONTINUOUS
 62
     7
  5
5E8
 10
2.585174
 20
-0.413596
 30
0.0
 11
2.586719
 21
-0.41369
 31
0.0
  0
LINE
  8
0
  6
CONTINUOUS
 62
     7
  5
5E9
 10
2.586719
 20
-0.41369
 30
0.0
 11
2.588203
 21
-0.413859
 31
0.0
  0
LINE
  8
0
  6
CONTINUOUS
 62
     7
  5
5EA
 10
2.588203
 20
-0.413859
 30
0.0
 11
2.589625
 21
-0.414101
 31
0.0
  0
LINE
  8
0
  6
CONTINUOUS
 62
     7
  5
5EB
 10
2.589625
 20
-0.414101
 30
0.0
 11
2.590984
 21
-0.414417
 31
0.0
  0
LINE
  8
0
  6
CONTINUOUS
 62
     7
  5
5EC
 10
2.590984
 20
-0.414417
 30
0.0
 11
2.592279
 21
-0.414806
 31
0.0
  0
LINE
  8
0
  6
CONTINUOUS
 62
     7
  5
5ED
 10
2.592279
 20
-0.414806
 30
0.0
 11
2.593509
 21
-0.415268
 31
0.0
  0
LINE
  8
0
  6
CONTINUOUS
 62
     7
  5
5EE
 10
2.593509
 20
-0.415268
 30
0.0
 11
2.594673
 21
-0.415803
 31
0.0
  0
LINE
  8
0
  6
CONTINUOUS
 62
     7
  5
5EF
 10
2.594673
 20
-0.415803
 30
0.0
 11
2.59577
 21
-0.41641
 31
0.0
  0
LINE
  8
0
  6
CONTINUOUS
 62
     7
  5
5F0
 10
2.59577
 20
-0.41641
 30
0.0
 11
2.5968
 21
-0.417089
 31
0.0
  0
LINE
  8
0
  6
CONTINUOUS
 62
     7
  5
5F1
 10
2.5968
 20
-0.417089
 30
0.0
 11
2.59776
 21
-0.41784
 31
0.0
  0
LINE
  8
0
  6
CONTINUOUS
 62
     7
  5
5F2
 10
2.59776
 20
-0.41784
 30
0.0
 11
2.598652
 21
-0.418661
 31
0.0
  0
LINE
  8
0
  6
CONTINUOUS
 62
     7
  5
5F3
 10
2.410596
 20
-0.509205
 30
0.0
 11
2.239741
 21
-0.338351
 31
0.0
  0
LINE
  8
0
  6
CONTINUOUS
 62
     7
  5
5F4
 10
2.43395
 20
-0.532559
 30
0.0
 11
2.410596
 21
-0.509205
 31
0.0
  0
LINE
  8
0
  6
CONTINUOUS
 62
     7
  5
5F5
 10
2.677087
 20
-0.400222
 30
0.0
 11
2.556757
 21
-0.520552
 31
0.0
  0
LINE
  8
0
  6
CONTINUOUS
 62
     7
  5
5F6
 10
2.677087
 20
-0.242715
 30
0.0
 11
2.677087
 21
-0.400222
 31
0.0
  0
LINE
  8
0
  6
CONTINUOUS
 62
     7
  5
5F7
 10
2.510298
 20
-0.409503
 30
0.0
 11
2.677087
 21
-0.242715
 31
0.0
  0
LINE
  8
0
  6
CONTINUOUS
 62
     7
  5
5F8
 10
2.510298
 20
-0.409503
 30
0.0
 11
2.533652
 21
-0.432857
 31
0.0
  0
LINE
  8
0
  6
CONTINUOUS
 62
     7
  5
5F9
 10
2.453994
 20
0.552604
 30
0.0
 11
2.410596
 21
0.509205
 31
0.0
  0
LINE
  8
0
  6
CONTINUOUS
 62
     7
  5
5FA
 10
2.553696
 20
0.452902
 30
0.0
 11
2.453994
 21
0.552604
 31
0.0
  0
LINE
  8
0
  6
CONTINUOUS
 62
     7
  5
5FB
 10
2.533652
 20
0.432857
 30
0.0
 11
2.553696
 21
0.452902
 31
0.0
  0
LINE
  8
0
  6
CONTINUOUS
 62
     7
  5
5FC
 10
2.598652
 20
0.418661
 30
0.0
 11
2.59776
 21
0.41784
 31
0.0
  0
LINE
  8
0
  6
CONTINUOUS
 62
     7
  5
5FD
 10
2.59776
 20
0.41784
 30
0.0
 11
2.5968
 21
0.417089
 31
0.0
  0
LINE
  8
0
  6
CONTINUOUS
 62
     7
  5
5FE
 10
2.5968
 20
0.417089
 30
0.0
 11
2.59577
 21
0.41641
 31
0.0
  0
LINE
  8
0
  6
CONTINUOUS
 62
     7
  5
5FF
 10
2.59577
 20
0.41641
 30
0.0
 11
2.594673
 21
0.415803
 31
0.0
  0
LINE
  8
0
  6
CONTINUOUS
 62
     7
  5
600
 10
2.594673
 20
0.415803
 30
0.0
 11
2.593509
 21
0.415268
 31
0.0
  0
LINE
  8
0
  6
CONTINUOUS
 62
     7
  5
601
 10
2.593509
 20
0.415268
 30
0.0
 11
2.592279
 21
0.414806
 31
0.0
  0
LINE
  8
0
  6
CONTINUOUS
 62
     7
  5
602
 10
2.592279
 20
0.414806
 30
0.0
 11
2.590984
 21
0.414417
 31
0.0
  0
LINE
  8
0
  6
CONTINUOUS
 62
     7
  5
603
 10
2.590984
 20
0.414417
 30
0.0
 11
2.589625
 21
0.414101
 31
0.0
  0
LINE
  8
0
  6
CONTINUOUS
 62
     7
  5
604
 10
2.589625
 20
0.414101
 30
0.0
 11
2.588203
 21
0.413859
 31
0.0
  0
LINE
  8
0
  6
CONTINUOUS
 62
     7
  5
605
 10
2.588203
 20
0.413859
 30
0.0
 11
2.586719
 21
0.41369
 31
0.0
  0
LINE
  8
0
  6
CONTINUOUS
 62
     7
  5
606
 10
2.586719
 20
0.41369
 30
0.0
 11
2.585174
 21
0.413596
 31
0.0
  0
LINE
  8
0
  6
CONTINUOUS
 62
     7
  5
607
 10
2.585174
 20
0.413596
 30
0.0
 11
2.58357
 21
0.413576
 31
0.0
  0
LINE
  8
0
  6
CONTINUOUS
 62
     7
  5
608
 10
2.58357
 20
0.413576
 30
0.0
 11
2.581907
 21
0.41363
 31
0.0
  0
LINE
  8
0
  6
CONTINUOUS
 62
     7
  5
609
 10
2.581907
 20
0.41363
 30
0.0
 11
2.580187
 21
0.413757
 31
0.0
  0
LINE
  8
0
  6
CONTINUOUS
 62
     7
  5
60A
 10
2.580187
 20
0.413757
 30
0.0
 11
2.578412
 21
0.413959
 31
0.0
  0
LINE
  8
0
  6
CONTINUOUS
 62
     7
  5
60B
 10
2.578412
 20
0.413959
 30
0.0
 11
2.576583
 21
0.414235
 31
0.0
  0
LINE
  8
0
  6
CONTINUOUS
 62
     7
  5
60C
 10
2.576583
 20
0.414235
 30
0.0
 11
2.574701
 21
0.414584
 31
0.0
  0
LINE
  8
0
  6
CONTINUOUS
 62
     7
  5
60D
 10
2.574701
 20
0.414584
 30
0.0
 11
2.572767
 21
0.415006
 31
0.0
  0
LINE
  8
0
  6
CONTINUOUS
 62
     7
  5
60E
 10
2.572767
 20
0.415006
 30
0.0
 11
2.570784
 21
0.415501
 31
0.0
  0
LINE
  8
0
  6
CONTINUOUS
 62
     7
  5
60F
 10
2.570784
 20
0.415501
 30
0.0
 11
2.568753
 21
0.416069
 31
0.0
  0
LINE
  8
0
  6
CONTINUOUS
 62
     7
  5
610
 10
2.568753
 20
0.416069
 30
0.0
 11
2.566674
 21
0.416709
 31
0.0
  0
LINE
  8
0
  6
CONTINUOUS
 62
     7
  5
611
 10
2.566674
 20
0.416709
 30
0.0
 11
2.564551
 21
0.41742
 31
0.0
  0
LINE
  8
0
  6
CONTINUOUS
 62
     7
  5
612
 10
2.564551
 20
0.41742
 30
0.0
 11
2.562385
 21
0.418203
 31
0.0
  0
LINE
  8
0
  6
CONTINUOUS
 62
     7
  5
613
 10
2.562385
 20
0.418203
 30
0.0
 11
2.560176
 21
0.419056
 31
0.0
  0
LINE
  8
0
  6
CONTINUOUS
 62
     7
  5
614
 10
2.560176
 20
0.419056
 30
0.0
 11
2.557928
 21
0.419978
 31
0.0
  0
LINE
  8
0
  6
CONTINUOUS
 62
     7
  5
615
 10
2.557928
 20
0.419978
 30
0.0
 11
2.555642
 21
0.42097
 31
0.0
  0
LINE
  8
0
  6
CONTINUOUS
 62
     7
  5
616
 10
2.555642
 20
0.42097
 30
0.0
 11
2.553319
 21
0.42203
 31
0.0
  0
LINE
  8
0
  6
CONTINUOUS
 62
     7
  5
617
 10
2.553319
 20
0.42203
 30
0.0
 11
2.550962
 21
0.423158
 31
0.0
  0
LINE
  8
0
  6
CONTINUOUS
 62
     7
  5
618
 10
2.550962
 20
0.423158
 30
0.0
 11
2.548572
 21
0.424352
 31
0.0
  0
LINE
  8
0
  6
CONTINUOUS
 62
     7
  5
619
 10
2.548572
 20
0.424352
 30
0.0
 11
2.546151
 21
0.425611
 31
0.0
  0
LINE
  8
0
  6
CONTINUOUS
 62
     7
  5
61A
 10
2.546151
 20
0.425611
 30
0.0
 11
2.543702
 21
0.426935
 31
0.0
  0
LINE
  8
0
  6
CONTINUOUS
 62
     7
  5
61B
 10
2.543702
 20
0.426935
 30
0.0
 11
2.541225
 21
0.428323
 31
0.0
  0
LINE
  8
0
  6
CONTINUOUS
 62
     7
  5
61C
 10
2.541225
 20
0.428323
 30
0.0
 11
2.538723
 21
0.429774
 31
0.0
  0
LINE
  8
0
  6
CONTINUOUS
 62
     7
  5
61D
 10
2.538723
 20
0.429774
 30
0.0
 11
2.536198
 21
0.431285
 31
0.0
  0
LINE
  8
0
  6
CONTINUOUS
 62
     7
  5
61E
 10
2.536198
 20
0.431285
 30
0.0
 11
2.533652
 21
0.432857
 31
0.0
  0
LINE
  8
0
  6
CONTINUOUS
 62
     7
  5
61F
 10
2.556757
 20
0.520552
 30
0.0
 11
2.559926
 21
0.516866
 31
0.0
  0
LINE
  8
0
  6
CONTINUOUS
 62
     7
  5
620
 10
2.559926
 20
0.516866
 30
0.0
 11
2.563016
 21
0.513167
 31
0.0
  0
LINE
  8
0
  6
CONTINUOUS
 62
     7
  5
621
 10
2.563016
 20
0.513167
 30
0.0
 11
2.566023
 21
0.50946
 31
0.0
  0
LINE
  8
0
  6
CONTINUOUS
 62
     7
  5
622
 10
2.566023
 20
0.50946
 30
0.0
 11
2.568943
 21
0.505751
 31
0.0
  0
LINE
  8
0
  6
CONTINUOUS
 62
     7
  5
623
 10
2.568943
 20
0.505751
 30
0.0
 11
2.571771
 21
0.502046
 31
0.0
  0
LINE
  8
0
  6
CONTINUOUS
 62
     7
  5
624
 10
2.571771
 20
0.502046
 30
0.0
 11
2.574503
 21
0.49835
 31
0.0
  0
LINE
  8
0
  6
CONTINUOUS
 62
     7
  5
625
 10
2.574503
 20
0.49835
 30
0.0
 11
2.577134
 21
0.494669
 31
0.0
  0
LINE
  8
0
  6
CONTINUOUS
 62
     7
  5
626
 10
2.577134
 20
0.494669
 30
0.0
 11
2.579661
 21
0.491009
 31
0.0
  0
LINE
  8
0
  6
CONTINUOUS
 62
     7
  5
627
 10
2.579661
 20
0.491009
 30
0.0
 11
2.582079
 21
0.487375
 31
0.0
  0
LINE
  8
0
  6
CONTINUOUS
 62
     7
  5
628
 10
2.582079
 20
0.487375
 30
0.0
 11
2.584385
 21
0.483773
 31
0.0
  0
LINE
  8
0
  6
CONTINUOUS
 62
     7
  5
629
 10
2.584385
 20
0.483773
 30
0.0
 11
2.586575
 21
0.480209
 31
0.0
  0
LINE
  8
0
  6
CONTINUOUS
 62
     7
  5
62A
 10
2.586575
 20
0.480209
 30
0.0
 11
2.588646
 21
0.476687
 31
0.0
  0
LINE
  8
0
  6
CONTINUOUS
 62
     7
  5
62B
 10
2.588646
 20
0.476687
 30
0.0
 11
2.590595
 21
0.473214
 31
0.0
  0
LINE
  8
0
  6
CONTINUOUS
 62
     7
  5
62C
 10
2.590595
 20
0.473214
 30
0.0
 11
2.592418
 21
0.469795
 31
0.0
  0
LINE
  8
0
  6
CONTINUOUS
 62
     7
  5
62D
 10
2.592418
 20
0.469795
 30
0.0
 11
2.594114
 21
0.466434
 31
0.0
  0
LINE
  8
0
  6
CONTINUOUS
 62
     7
  5
62E
 10
2.594114
 20
0.466434
 30
0.0
 11
2.595679
 21
0.463138
 31
0.0
  0
LINE
  8
0
  6
CONTINUOUS
 62
     7
  5
62F
 10
2.595679
 20
0.463138
 30
0.0
 11
2.59711
 21
0.459911
 31
0.0
  0
LINE
  8
0
  6
CONTINUOUS
 62
     7
  5
630
 10
2.59711
 20
0.459911
 30
0.0
 11
2.598407
 21
0.456758
 31
0.0
  0
LINE
  8
0
  6
CONTINUOUS
 62
     7
  5
631
 10
2.598407
 20
0.456758
 30
0.0
 11
2.599566
 21
0.453684
 31
0.0
  0
LINE
  8
0
  6
CONTINUOUS
 62
     7
  5
632
 10
2.599566
 20
0.453684
 30
0.0
 11
2.600586
 21
0.450694
 31
0.0
  0
LINE
  8
0
  6
CONTINUOUS
 62
     7
  5
633
 10
2.600586
 20
0.450694
 30
0.0
 11
2.601465
 21
0.447792
 31
0.0
  0
LINE
  8
0
  6
CONTINUOUS
 62
     7
  5
634
 10
2.601465
 20
0.447792
 30
0.0
 11
2.602203
 21
0.444983
 31
0.0
  0
LINE
  8
0
  6
CONTINUOUS
 62
     7
  5
635
 10
2.602203
 20
0.444983
 30
0.0
 11
2.602797
 21
0.442271
 31
0.0
  0
LINE
  8
0
  6
CONTINUOUS
 62
     7
  5
636
 10
2.602797
 20
0.442271
 30
0.0
 11
2.603247
 21
0.439661
 31
0.0
  0
LINE
  8
0
  6
CONTINUOUS
 62
     7
  5
637
 10
2.603247
 20
0.439661
 30
0.0
 11
2.603552
 21
0.437156
 31
0.0
  0
LINE
  8
0
  6
CONTINUOUS
 62
     7
  5
638
 10
2.603552
 20
0.437156
 30
0.0
 11
2.603712
 21
0.43476
 31
0.0
  0
LINE
  8
0
  6
CONTINUOUS
 62
     7
  5
639
 10
2.603712
 20
0.43476
 30
0.0
 11
2.603727
 21
0.432477
 31
0.0
  0
LINE
  8
0
  6
CONTINUOUS
 62
     7
  5
63A
 10
2.603727
 20
0.432477
 30
0.0
 11
2.603596
 21
0.430311
 31
0.0
  0
LINE
  8
0
  6
CONTINUOUS
 62
     7
  5
63B
 10
2.603596
 20
0.430311
 30
0.0
 11
2.60332
 21
0.428264
 31
0.0
  0
LINE
  8
0
  6
CONTINUOUS
 62
     7
  5
63C
 10
2.60332
 20
0.428264
 30
0.0
 11
2.602899
 21
0.42634
 31
0.0
  0
LINE
  8
0
  6
CONTINUOUS
 62
     7
  5
63D
 10
2.602899
 20
0.42634
 30
0.0
 11
2.602334
 21
0.424542
 31
0.0
  0
LINE
  8
0
  6
CONTINUOUS
 62
     7
  5
63E
 10
2.602334
 20
0.424542
 30
0.0
 11
2.601625
 21
0.422873
 31
0.0
  0
LINE
  8
0
  6
CONTINUOUS
 62
     7
  5
63F
 10
2.601625
 20
0.422873
 30
0.0
 11
2.600774
 21
0.421334
 31
0.0
  0
LINE
  8
0
  6
CONTINUOUS
 62
     7
  5
640
 10
2.600774
 20
0.421334
 30
0.0
 11
2.599783
 21
0.41993
 31
0.0
  0
LINE
  8
0
  6
CONTINUOUS
 62
     7
  5
641
 10
2.599783
 20
0.41993
 30
0.0
 11
2.598652
 21
0.418661
 31
0.0
  0
LINE
  8
0
  6
CONTINUOUS
 62
     7
  5
642
 10
2.521644
 20
0.555665
 30
0.0
 11
2.556757
 21
0.520552
 31
0.0
  0
LINE
  8
0
  6
CONTINUOUS
 62
     7
  5
643
 10
2.419753
 20
0.597559
 30
0.0
 11
2.421022
 21
0.59869
 31
0.0
  0
LINE
  8
0
  6
CONTINUOUS
 62
     7
  5
644
 10
2.421022
 20
0.59869
 30
0.0
 11
2.422427
 21
0.599682
 31
0.0
  0
LINE
  8
0
  6
CONTINUOUS
 62
     7
  5
645
 10
2.422427
 20
0.599682
 30
0.0
 11
2.423965
 21
0.600533
 31
0.0
  0
LINE
  8
0
  6
CONTINUOUS
 62
     7
  5
646
 10
2.423965
 20
0.600533
 30
0.0
 11
2.425635
 21
0.601241
 31
0.0
  0
LINE
  8
0
  6
CONTINUOUS
 62
     7
  5
647
 10
2.425635
 20
0.601241
 30
0.0
 11
2.427433
 21
0.601807
 31
0.0
  0
LINE
  8
0
  6
CONTINUOUS
 62
     7
  5
648
 10
2.427433
 20
0.601807
 30
0.0
 11
2.429356
 21
0.602228
 31
0.0
  0
LINE
  8
0
  6
CONTINUOUS
 62
     7
  5
649
 10
2.429356
 20
0.602228
 30
0.0
 11
2.431403
 21
0.602504
 31
0.0
  0
LINE
  8
0
  6
CONTINUOUS
 62
     7
  5
64A
 10
2.431403
 20
0.602504
 30
0.0
 11
2.43357
 21
0.602635
 31
0.0
  0
LINE
  8
0
  6
CONTINUOUS
 62
     7
  5
64B
 10
2.43357
 20
0.602635
 30
0.0
 11
2.435853
 21
0.60262
 31
0.0
  0
LINE
  8
0
  6
CONTINUOUS
 62
     7
  5
64C
 10
2.435853
 20
0.60262
 30
0.0
 11
2.438248
 21
0.60246
 31
0.0
  0
LINE
  8
0
  6
CONTINUOUS
 62
     7
  5
64D
 10
2.438248
 20
0.60246
 30
0.0
 11
2.440753
 21
0.602154
 31
0.0
  0
LINE
  8
0
  6
CONTINUOUS
 62
     7
  5
64E
 10
2.440753
 20
0.602154
 30
0.0
 11
2.443364
 21
0.601704
 31
0.0
  0
LINE
  8
0
  6
CONTINUOUS
 62
     7
  5
64F
 10
2.443364
 20
0.601704
 30
0.0
 11
2.446076
 21
0.60111
 31
0.0
  0
LINE
  8
0
  6
CONTINUOUS
 62
     7
  5
650
 10
2.446076
 20
0.60111
 30
0.0
 11
2.448884
 21
0.600373
 31
0.0
  0
LINE
  8
0
  6
CONTINUOUS
 62
     7
  5
651
 10
2.448884
 20
0.600373
 30
0.0
 11
2.451786
 21
0.599493
 31
0.0
  0
LINE
  8
0
  6
CONTINUOUS
 62
     7
  5
652
 10
2.451786
 20
0.599493
 30
0.0
 11
2.454776
 21
0.598473
 31
0.0
  0
LINE
  8
0
  6
CONTINUOUS
 62
     7
  5
653
 10
2.454776
 20
0.598473
 30
0.0
 11
2.45785
 21
0.597314
 31
0.0
  0
LINE
  8
0
  6
CONTINUOUS
 62
     7
  5
654
 10
2.45785
 20
0.597314
 30
0.0
 11
2.461003
 21
0.596018
 31
0.0
  0
LINE
  8
0
  6
CONTINUOUS
 62
     7
  5
655
 10
2.461003
 20
0.596018
 30
0.0
 11
2.46423
 21
0.594586
 31
0.0
  0
LINE
  8
0
  6
CONTINUOUS
 62
     7
  5
656
 10
2.46423
 20
0.594586
 30
0.0
 11
2.467527
 21
0.593021
 31
0.0
  0
LINE
  8
0
  6
CONTINUOUS
 62
     7
  5
657
 10
2.467527
 20
0.593021
 30
0.0
 11
2.470887
 21
0.591326
 31
0.0
  0
LINE
  8
0
  6
CONTINUOUS
 62
     7
  5
658
 10
2.470887
 20
0.591326
 30
0.0
 11
2.474307
 21
0.589502
 31
0.0
  0
LINE
  8
0
  6
CONTINUOUS
 62
     7
  5
659
 10
2.474307
 20
0.589502
 30
0.0
 11
2.47778
 21
0.587554
 31
0.0
  0
LINE
  8
0
  6
CONTINUOUS
 62
     7
  5
65A
 10
2.47778
 20
0.587554
 30
0.0
 11
2.481301
 21
0.585482
 31
0.0
  0
LINE
  8
0
  6
CONTINUOUS
 62
     7
  5
65B
 10
2.481301
 20
0.585482
 30
0.0
 11
2.484866
 21
0.583292
 31
0.0
  0
LINE
  8
0
  6
CONTINUOUS
 62
     7
  5
65C
 10
2.484866
 20
0.583292
 30
0.0
 11
2.488468
 21
0.580986
 31
0.0
  0
LINE
  8
0
  6
CONTINUOUS
 62
     7
  5
65D
 10
2.488468
 20
0.580986
 30
0.0
 11
2.492102
 21
0.578568
 31
0.0
  0
LINE
  8
0
  6
CONTINUOUS
 62
     7
  5
65E
 10
2.492102
 20
0.578568
 30
0.0
 11
2.495762
 21
0.576041
 31
0.0
  0
LINE
  8
0
  6
CONTINUOUS
 62
     7
  5
65F
 10
2.495762
 20
0.576041
 30
0.0
 11
2.499443
 21
0.57341
 31
0.0
  0
LINE
  8
0
  6
CONTINUOUS
 62
     7
  5
660
 10
2.499443
 20
0.57341
 30
0.0
 11
2.503139
 21
0.570679
 31
0.0
  0
LINE
  8
0
  6
CONTINUOUS
 62
     7
  5
661
 10
2.503139
 20
0.570679
 30
0.0
 11
2.506844
 21
0.567851
 31
0.0
  0
LINE
  8
0
  6
CONTINUOUS
 62
     7
  5
662
 10
2.506844
 20
0.567851
 30
0.0
 11
2.510553
 21
0.564931
 31
0.0
  0
LINE
  8
0
  6
CONTINUOUS
 62
     7
  5
663
 10
2.510553
 20
0.564931
 30
0.0
 11
2.51426
 21
0.561923
 31
0.0
  0
LINE
  8
0
  6
CONTINUOUS
 62
     7
  5
664
 10
2.51426
 20
0.561923
 30
0.0
 11
2.517959
 21
0.558833
 31
0.0
  0
LINE
  8
0
  6
CONTINUOUS
 62
     7
  5
665
 10
2.517959
 20
0.558833
 30
0.0
 11
2.521644
 21
0.555665
 31
0.0
  0
LINE
  8
0
  6
CONTINUOUS
 62
     7
  5
666
 10
2.43395
 20
0.532559
 30
0.0
 11
2.432378
 21
0.535105
 31
0.0
  0
LINE
  8
0
  6
CONTINUOUS
 62
     7
  5
667
 10
2.432378
 20
0.535105
 30
0.0
 11
2.430866
 21
0.53763
 31
0.0
  0
LINE
  8
0
  6
CONTINUOUS
 62
     7
  5
668
 10
2.430866
 20
0.53763
 30
0.0
 11
2.429416
 21
0.540132
 31
0.0
  0
LINE
  8
0
  6
CONTINUOUS
 62
     7
  5
669
 10
2.429416
 20
0.540132
 30
0.0
 11
2.428028
 21
0.542609
 31
0.0
  0
LINE
  8
0
  6
CONTINUOUS
 62
     7
  5
66A
 10
2.428028
 20
0.542609
 30
0.0
 11
2.426704
 21
0.545059
 31
0.0
  0
LINE
  8
0
  6
CONTINUOUS
 62
     7
  5
66B
 10
2.426704
 20
0.545059
 30
0.0
 11
2.425444
 21
0.54748
 31
0.0
  0
LINE
  8
0
  6
CONTINUOUS
 62
     7
  5
66C
 10
2.425444
 20
0.54748
 30
0.0
 11
2.42425
 21
0.54987
 31
0.0
  0
LINE
  8
0
  6
CONTINUOUS
 62
     7
  5
66D
 10
2.42425
 20
0.54987
 30
0.0
 11
2.423123
 21
0.552227
 31
0.0
  0
LINE
  8
0
  6
CONTINUOUS
 62
     7
  5
66E
 10
2.423123
 20
0.552227
 30
0.0
 11
2.422063
 21
0.554549
 31
0.0
  0
LINE
  8
0
  6
CONTINUOUS
 62
     7
  5
66F
 10
2.422063
 20
0.554549
 30
0.0
 11
2.421071
 21
0.556836
 31
0.0
  0
LINE
  8
0
  6
CONTINUOUS
 62
     7
  5
670
 10
2.421071
 20
0.556836
 30
0.0
 11
2.420148
 21
0.559084
 31
0.0
  0
LINE
  8
0
  6
CONTINUOUS
 62
     7
  5
671
 10
2.420148
 20
0.559084
 30
0.0
 11
2.419295
 21
0.561292
 31
0.0
  0
LINE
  8
0
  6
CONTINUOUS
 62
     7
  5
672
 10
2.419295
 20
0.561292
 30
0.0
 11
2.418513
 21
0.563459
 31
0.0
  0
LINE
  8
0
  6
CONTINUOUS
 62
     7
  5
673
 10
2.418513
 20
0.563459
 30
0.0
 11
2.417801
 21
0.565582
 31
0.0
  0
LINE
  8
0
  6
CONTINUOUS
 62
     7
  5
674
 10
2.417801
 20
0.565582
 30
0.0
 11
2.417161
 21
0.56766
 31
0.0
  0
LINE
  8
0
  6
CONTINUOUS
 62
     7
  5
675
 10
2.417161
 20
0.56766
 30
0.0
 11
2.416594
 21
0.569691
 31
0.0
  0
LINE
  8
0
  6
CONTINUOUS
 62
     7
  5
676
 10
2.416594
 20
0.569691
 30
0.0
 11
2.416098
 21
0.571675
 31
0.0
  0
LINE
  8
0
  6
CONTINUOUS
 62
     7
  5
677
 10
2.416098
 20
0.571675
 30
0.0
 11
2.415676
 21
0.573608
 31
0.0
  0
LINE
  8
0
  6
CONTINUOUS
 62
     7
  5
678
 10
2.415676
 20
0.573608
 30
0.0
 11
2.415327
 21
0.57549
 31
0.0
  0
LINE
  8
0
  6
CONTINUOUS
 62
     7
  5
679
 10
2.415327
 20
0.57549
 30
0.0
 11
2.415052
 21
0.57732
 31
0.0
  0
LINE
  8
0
  6
CONTINUOUS
 62
     7
  5
67A
 10
2.415052
 20
0.57732
 30
0.0
 11
2.41485
 21
0.579095
 31
0.0
  0
LINE
  8
0
  6
CONTINUOUS
 62
     7
  5
67B
 10
2.41485
 20
0.579095
 30
0.0
 11
2.414722
 21
0.580814
 31
0.0
  0
LINE
  8
0
  6
CONTINUOUS
 62
     7
  5
67C
 10
2.414722
 20
0.580814
 30
0.0
 11
2.414668
 21
0.582477
 31
0.0
  0
LINE
  8
0
  6
CONTINUOUS
 62
     7
  5
67D
 10
2.414668
 20
0.582477
 30
0.0
 11
2.414689
 21
0.584081
 31
0.0
  0
LINE
  8
0
  6
CONTINUOUS
 62
     7
  5
67E
 10
2.414689
 20
0.584081
 30
0.0
 11
2.414783
 21
0.585626
 31
0.0
  0
LINE
  8
0
  6
CONTINUOUS
 62
     7
  5
67F
 10
2.414783
 20
0.585626
 30
0.0
 11
2.414951
 21
0.58711
 31
0.0
  0
LINE
  8
0
  6
CONTINUOUS
 62
     7
  5
680
 10
2.414951
 20
0.58711
 30
0.0
 11
2.415193
 21
0.588532
 31
0.0
  0
LINE
  8
0
  6
CONTINUOUS
 62
     7
  5
681
 10
2.415193
 20
0.588532
 30
0.0
 11
2.415509
 21
0.589892
 31
0.0
  0
LINE
  8
0
  6
CONTINUOUS
 62
     7
  5
682
 10
2.415509
 20
0.589892
 30
0.0
 11
2.415898
 21
0.591187
 31
0.0
  0
LINE
  8
0
  6
CONTINUOUS
 62
     7
  5
683
 10
2.415898
 20
0.591187
 30
0.0
 11
2.41636
 21
0.592417
 31
0.0
  0
LINE
  8
0
  6
CONTINUOUS
 62
     7
  5
684
 10
2.41636
 20
0.592417
 30
0.0
 11
2.416895
 21
0.593581
 31
0.0
  0
LINE
  8
0
  6
CONTINUOUS
 62
     7
  5
685
 10
2.416895
 20
0.593581
 30
0.0
 11
2.417503
 21
0.594678
 31
0.0
  0
LINE
  8
0
  6
CONTINUOUS
 62
     7
  5
686
 10
2.417503
 20
0.594678
 30
0.0
 11
2.418182
 21
0.595707
 31
0.0
  0
LINE
  8
0
  6
CONTINUOUS
 62
     7
  5
687
 10
2.418182
 20
0.595707
 30
0.0
 11
2.418932
 21
0.596668
 31
0.0
  0
LINE
  8
0
  6
CONTINUOUS
 62
     7
  5
688
 10
2.418932
 20
0.596668
 30
0.0
 11
2.419753
 21
0.597559
 31
0.0
  0
LINE
  8
0
  6
CONTINUOUS
 62
     7
  5
689
 10
2.510298
 20
0.409503
 30
0.0
 11
2.339443
 21
0.238649
 31
0.0
  0
LINE
  8
0
  6
CONTINUOUS
 62
     7
  5
68A
 10
2.533652
 20
0.432857
 30
0.0
 11
2.510298
 21
0.409503
 31
0.0
  0
LINE
  8
0
  6
CONTINUOUS
 62
     7
  5
68B
 10
2.438085
 20
0.639225
 30
0.0
 11
2.521644
 21
0.555665
 31
0.0
  0
LINE
  8
0
  6
CONTINUOUS
 62
     7
  5
68C
 10
2.359331
 20
0.560471
 30
0.0
 11
2.438085
 21
0.639225
 31
0.0
  0
LINE
  8
0
  6
CONTINUOUS
 62
     7
  5
68D
 10
2.410596
 20
0.509205
 30
0.0
 11
2.359331
 21
0.560471
 31
0.0
  0
LINE
  8
0
  6
CONTINUOUS
 62
     7
  5
68E
 10
2.410596
 20
0.509205
 30
0.0
 11
2.43395
 21
0.532559
 31
0.0
  0
LINE
  8
0
  6
CONTINUOUS
 62
     7
  5
68F
 10
2.239741
 20
-0.338351
 30
0.0
 11
2.196961
 21
-0.381131
 31
0.0
  0
LINE
  8
0
  6
CONTINUOUS
 62
     7
  5
690
 10
2.196961
 20
-0.381131
 30
0.0
 11
2.122715
 21
-0.306884
 31
0.0
  0
LINE
  8
0
  6
CONTINUOUS
 62
     7
  5
691
 10
2.307977
 20
-0.121622
 30
0.0
 11
2.382223
 21
-0.195869
 31
0.0
  0
LINE
  8
0
  6
CONTINUOUS
 62
     7
  5
692
 10
2.382223
 20
-0.195869
 30
0.0
 11
2.339443
 21
-0.238649
 31
0.0
  0
LINE
  8
0
  6
CONTINUOUS
 62
     7
  5
693
 10
2.339443
 20
-0.238649
 30
0.0
 11
2.510298
 21
-0.409503
 31
0.0
  0
LINE
  8
0
  6
CONTINUOUS
 62
     7
  5
694
 10
2.359331
 20
-0.560471
 30
0.0
 11
2.410596
 21
-0.509205
 31
0.0
  0
LINE
  8
0
  6
CONTINUOUS
 62
     7
  5
695
 10
2.438085
 20
-0.639225
 30
0.0
 11
2.359331
 21
-0.560471
 31
0.0
  0
LINE
  8
0
  6
CONTINUOUS
 62
     7
  5
696
 10
2.521644
 20
-0.555665
 30
0.0
 11
2.438085
 21
-0.639225
 31
0.0
  0
LINE
  8
0
  6
CONTINUOUS
 62
     7
  5
697
 10
2.339443
 20
0.238649
 30
0.0
 11
2.382223
 21
0.195869
 31
0.0
  0
LINE
  8
0
  6
CONTINUOUS
 62
     7
  5
698
 10
2.382223
 20
0.195869
 30
0.0
 11
2.307977
 21
0.121622
 31
0.0
  0
LINE
  8
0
  6
CONTINUOUS
 62
     7
  5
699
 10
2.122715
 20
0.306884
 30
0.0
 11
2.196961
 21
0.381131
 31
0.0
  0
LINE
  8
0
  6
CONTINUOUS
 62
     7
  5
69A
 10
2.196961
 20
0.381131
 30
0.0
 11
2.239741
 21
0.338351
 31
0.0
  0
LINE
  8
0
  6
CONTINUOUS
 62
     7
  5
69B
 10
2.239741
 20
0.338351
 30
0.0
 11
2.410596
 21
0.509205
 31
0.0
  0
LINE
  8
0
  6
CONTINUOUS
 62
     7
  5
69C
 10
2.677087
 20
0.242715
 30
0.0
 11
2.677087
 21
-0.242715
 31
0.0
  0
LINE
  8
0
  6
CONTINUOUS
 62
     7
  5
69D
 10
2.677087
 20
0.242715
 30
0.0
 11
2.510298
 21
0.409503
 31
0.0
  0
LINE
  8
0
  6
CONTINUOUS
 62
     7
  5
69E
 10
2.26175
 20
0.46289
 30
0.0
 11
2.359331
 21
0.560471
 31
0.0
  0
LINE
  8
0
  6
CONTINUOUS
 62
     7
  5
69F
 10
2.26175
 20
0.46289
 30
0.0
 11
2.161694
 21
0.562945
 31
0.0
  0
LINE
  8
0
  6
CONTINUOUS
 62
     7
  5
6A0
 10
2.161694
 20
0.562945
 30
0.0
 11
1.990839
 21
0.392091
 31
0.0
  0
LINE
  8
0
  6
CONTINUOUS
 62
     7
  5
6A1
 10
1.990839
 20
0.392091
 30
0.0
 11
2.033619
 21
0.349311
 31
0.0
  0
LINE
  8
0
  6
CONTINUOUS
 62
     7
  5
6A2
 10
2.033619
 20
0.349311
 30
0.0
 11
1.959373
 21
0.275065
 31
0.0
  0
LINE
  8
0
  6
CONTINUOUS
 62
     7
  5
6A3
 10
1.774111
 20
0.460327
 30
0.0
 11
1.848357
 21
0.534573
 31
0.0
  0
LINE
  8
0
  6
CONTINUOUS
 62
     7
  5
6A4
 10
1.848357
 20
0.534573
 30
0.0
 11
1.891137
 21
0.491793
 31
0.0
  0
LINE
  8
0
  6
CONTINUOUS
 62
     7
  5
6A5
 10
1.891137
 20
0.491793
 30
0.0
 11
2.061992
 21
0.662648
 31
0.0
  0
LINE
  8
0
  6
CONTINUOUS
 62
     7
  5
6A6
 10
2.061992
 20
0.662648
 30
0.0
 11
1.966963
 21
0.757676
 31
0.0
  0
LINE
  8
0
  6
CONTINUOUS
 62
     7
  5
6A7
 10
1.71204
 20
0.502753
 30
0.0
 11
1.966963
 21
0.757676
 31
0.0
  0
LINE
  8
0
  6
CONTINUOUS
 62
     7
  5
6A8
 10
1.71204
 20
-0.502753
 30
0.0
 11
1.71204
 21
0.502753
 31
0.0
  0
LINE
  8
0
  6
CONTINUOUS
 62
     7
  5
6A9
 10
1.966963
 20
-0.757676
 30
0.0
 11
1.71204
 21
-0.502753
 31
0.0
  0
LINE
  8
0
  6
CONTINUOUS
 62
     7
  5
6AA
 10
1.966963
 20
-0.757676
 30
0.0
 11
2.061992
 21
-0.662648
 31
0.0
  0
LINE
  8
0
  6
CONTINUOUS
 62
     7
  5
6AB
 10
2.061992
 20
-0.662648
 30
0.0
 11
1.891137
 21
-0.491793
 31
0.0
  0
LINE
  8
0
  6
CONTINUOUS
 62
     7
  5
6AC
 10
1.891137
 20
-0.491793
 30
0.0
 11
1.848357
 21
-0.534573
 31
0.0
  0
LINE
  8
0
  6
CONTINUOUS
 62
     7
  5
6AD
 10
1.848357
 20
-0.534573
 30
0.0
 11
1.774111
 21
-0.460327
 31
0.0
  0
LINE
  8
0
  6
CONTINUOUS
 62
     7
  5
6AE
 10
1.959373
 20
-0.275065
 30
0.0
 11
2.033619
 21
-0.349311
 31
0.0
  0
LINE
  8
0
  6
CONTINUOUS
 62
     7
  5
6AF
 10
2.033619
 20
-0.349311
 30
0.0
 11
1.990839
 21
-0.392091
 31
0.0
  0
LINE
  8
0
  6
CONTINUOUS
 62
     7
  5
6B0
 10
1.990839
 20
-0.392091
 30
0.0
 11
2.161694
 21
-0.562945
 31
0.0
  0
LINE
  8
0
  6
CONTINUOUS
 62
     7
  5
6B1
 10
2.161694
 20
-0.562945
 30
0.0
 11
2.26175
 21
-0.46289
 31
0.0
  0
LINE
  8
0
  6
CONTINUOUS
 62
     7
  5
6B2
 10
2.26175
 20
-0.46289
 30
0.0
 11
2.359331
 21
-0.560471
 31
0.0
  0
LINE
  8
0
  6
CONTINUOUS
 62
     7
  5
6B3
 10
2.677087
 20
0.400222
 30
0.0
 11
2.677087
 21
0.242715
 31
0.0
  0
LINE
  8
0
  6
CONTINUOUS
 62
     7
  5
6B4
 10
2.556757
 20
0.520552
 30
0.0
 11
2.677087
 21
0.400222
 31
0.0
  0
LINE
  8
0
  6
CONTINUOUS
 62
     7
  5
6B5
 10
2.677087
 20
-0.795
 30
0.0
 11
2.677087
 21
-0.400222
 31
0.0
  0
LINE
  8
0
  6
CONTINUOUS
 62
     7
  5
6B6
 10
2.677087
 20
0.400222
 30
0.0
 11
2.677087
 21
0.795
 31
0.0
  0
LINE
  8
0
  6
CONTINUOUS
 62
     7
  5
6B7
 10
2.205093
 20
-0.606344
 30
0.0
 11
2.185048
 21
-0.586299
 31
0.0
  0
LINE
  8
0
  6
CONTINUOUS
 62
     7
  5
6B8
 10
2.105391
 20
-0.706046
 30
0.0
 11
2.205093
 21
-0.606344
 31
0.0
  0
LINE
  8
0
  6
CONTINUOUS
 62
     7
  5
6B9
 10
2.085346
 20
-0.686001
 30
0.0
 11
2.105391
 21
-0.706046
 31
0.0
  0
LINE
  8
0
  6
CONTINUOUS
 62
     7
  5
6BA
 10
2.07115
 20
-0.751001
 30
0.0
 11
2.070329
 21
-0.75011
 31
0.0
  0
LINE
  8
0
  6
CONTINUOUS
 62
     7
  5
6BB
 10
2.070329
 20
-0.75011
 30
0.0
 11
2.069578
 21
-0.749149
 31
0.0
  0
LINE
  8
0
  6
CONTINUOUS
 62
     7
  5
6BC
 10
2.069578
 20
-0.749149
 30
0.0
 11
2.068899
 21
-0.74812
 31
0.0
  0
LINE
  8
0
  6
CONTINUOUS
 62
     7
  5
6BD
 10
2.068899
 20
-0.74812
 30
0.0
 11
2.068292
 21
-0.747023
 31
0.0
  0
LINE
  8
0
  6
CONTINUOUS
 62
     7
  5
6BE
 10
2.068292
 20
-0.747023
 30
0.0
 11
2.067757
 21
-0.745859
 31
0.0
  0
LINE
  8
0
  6
CONTINUOUS
 62
     7
  5
6BF
 10
2.067757
 20
-0.745859
 30
0.0
 11
2.067295
 21
-0.744629
 31
0.0
  0
LINE
  8
0
  6
CONTINUOUS
 62
     7
  5
6C0
 10
2.067295
 20
-0.744629
 30
0.0
 11
2.066905
 21
-0.743334
 31
0.0
  0
LINE
  8
0
  6
CONTINUOUS
 62
     7
  5
6C1
 10
2.066905
 20
-0.743334
 30
0.0
 11
2.06659
 21
-0.741975
 31
0.0
  0
LINE
  8
0
  6
CONTINUOUS
 62
     7
  5
6C2
 10
2.06659
 20
-0.741975
 30
0.0
 11
2.066348
 21
-0.740552
 31
0.0
  0
LINE
  8
0
  6
CONTINUOUS
 62
     7
  5
6C3
 10
2.066348
 20
-0.740552
 30
0.0
 11
2.066179
 21
-0.739068
 31
0.0
  0
LINE
  8
0
  6
CONTINUOUS
 62
     7
  5
6C4
 10
2.066179
 20
-0.739068
 30
0.0
 11
2.066085
 21
-0.737524
 31
0.0
  0
LINE
  8
0
  6
CONTINUOUS
 62
     7
  5
6C5
 10
2.066085
 20
-0.737524
 30
0.0
 11
2.066065
 21
-0.735919
 31
0.0
  0
LINE
  8
0
  6
CONTINUOUS
 62
     7
  5
6C6
 10
2.066065
 20
-0.735919
 30
0.0
 11
2.066118
 21
-0.734257
 31
0.0
  0
LINE
  8
0
  6
CONTINUOUS
 62
     7
  5
6C7
 10
2.066118
 20
-0.734257
 30
0.0
 11
2.066246
 21
-0.732537
 31
0.0
  0
LINE
  8
0
  6
CONTINUOUS
 62
     7
  5
6C8
 10
2.066246
 20
-0.732537
 30
0.0
 11
2.066448
 21
-0.730762
 31
0.0
  0
LINE
  8
0
  6
CONTINUOUS
 62
     7
  5
6C9
 10
2.066448
 20
-0.730762
 30
0.0
 11
2.066723
 21
-0.728933
 31
0.0
  0
LINE
  8
0
  6
CONTINUOUS
 62
     7
  5
6CA
 10
2.066723
 20
-0.728933
 30
0.0
 11
2.067072
 21
-0.72705
 31
0.0
  0
LINE
  8
0
  6
CONTINUOUS
 62
     7
  5
6CB
 10
2.067072
 20
-0.72705
 30
0.0
 11
2.067495
 21
-0.725117
 31
0.0
  0
LINE
  8
0
  6
CONTINUOUS
 62
     7
  5
6CC
 10
2.067495
 20
-0.725117
 30
0.0
 11
2.06799
 21
-0.723134
 31
0.0
  0
LINE
  8
0
  6
CONTINUOUS
 62
     7
  5
6CD
 10
2.06799
 20
-0.723134
 30
0.0
 11
2.068558
 21
-0.721102
 31
0.0
  0
LINE
  8
0
  6
CONTINUOUS
 62
     7
  5
6CE
 10
2.068558
 20
-0.721102
 30
0.0
 11
2.069198
 21
-0.719024
 31
0.0
  0
LINE
  8
0
  6
CONTINUOUS
 62
     7
  5
6CF
 10
2.069198
 20
-0.719024
 30
0.0
 11
2.069909
 21
-0.716901
 31
0.0
  0
LINE
  8
0
  6
CONTINUOUS
 62
     7
  5
6D0
 10
2.069909
 20
-0.716901
 30
0.0
 11
2.070692
 21
-0.714734
 31
0.0
  0
LINE
  8
0
  6
CONTINUOUS
 62
     7
  5
6D1
 10
2.070692
 20
-0.714734
 30
0.0
 11
2.071544
 21
-0.712526
 31
0.0
  0
LINE
  8
0
  6
CONTINUOUS
 62
     7
  5
6D2
 10
2.071544
 20
-0.712526
 30
0.0
 11
2.072467
 21
-0.710278
 31
0.0
  0
LINE
  8
0
  6
CONTINUOUS
 62
     7
  5
6D3
 10
2.072467
 20
-0.710278
 30
0.0
 11
2.073459
 21
-0.707992
 31
0.0
  0
LINE
  8
0
  6
CONTINUOUS
 62
     7
  5
6D4
 10
2.073459
 20
-0.707992
 30
0.0
 11
2.074519
 21
-0.705669
 31
0.0
  0
LINE
  8
0
  6
CONTINUOUS
 62
     7
  5
6D5
 10
2.074519
 20
-0.705669
 30
0.0
 11
2.075646
 21
-0.703312
 31
0.0
  0
LINE
  8
0
  6
CONTINUOUS
 62
     7
  5
6D6
 10
2.075646
 20
-0.703312
 30
0.0
 11
2.07684
 21
-0.700922
 31
0.0
  0
LINE
  8
0
  6
CONTINUOUS
 62
     7
  5
6D7
 10
2.07684
 20
-0.700922
 30
0.0
 11
2.0781
 21
-0.698501
 31
0.0
  0
LINE
  8
0
  6
CONTINUOUS
 62
     7
  5
6D8
 10
2.0781
 20
-0.698501
 30
0.0
 11
2.079424
 21
-0.696051
 31
0.0
  0
LINE
  8
0
  6
CONTINUOUS
 62
     7
  5
6D9
 10
2.079424
 20
-0.696051
 30
0.0
 11
2.080812
 21
-0.693574
 31
0.0
  0
LINE
  8
0
  6
CONTINUOUS
 62
     7
  5
6DA
 10
2.080812
 20
-0.693574
 30
0.0
 11
2.082262
 21
-0.691073
 31
0.0
  0
LINE
  8
0
  6
CONTINUOUS
 62
     7
  5
6DB
 10
2.082262
 20
-0.691073
 30
0.0
 11
2.083774
 21
-0.688548
 31
0.0
  0
LINE
  8
0
  6
CONTINUOUS
 62
     7
  5
6DC
 10
2.083774
 20
-0.688548
 30
0.0
 11
2.085346
 21
-0.686001
 31
0.0
  0
LINE
  8
0
  6
CONTINUOUS
 62
     7
  5
6DD
 10
2.173041
 20
-0.709107
 30
0.0
 11
2.169355
 21
-0.712275
 31
0.0
  0
LINE
  8
0
  6
CONTINUOUS
 62
     7
  5
6DE
 10
2.169355
 20
-0.712275
 30
0.0
 11
2.165656
 21
-0.715366
 31
0.0
  0
LINE
  8
0
  6
CONTINUOUS
 62
     7
  5
6DF
 10
2.165656
 20
-0.715366
 30
0.0
 11
2.161949
 21
-0.718373
 31
0.0
  0
LINE
  8
0
  6
CONTINUOUS
 62
     7
  5
6E0
 10
2.161949
 20
-0.718373
 30
0.0
 11
2.15824
 21
-0.721293
 31
0.0
  0
LINE
  8
0
  6
CONTINUOUS
 62
     7
  5
6E1
 10
2.15824
 20
-0.721293
 30
0.0
 11
2.154535
 21
-0.724121
 31
0.0
  0
LINE
  8
0
  6
CONTINUOUS
 62
     7
  5
6E2
 10
2.154535
 20
-0.724121
 30
0.0
 11
2.150839
 21
-0.726852
 31
0.0
  0
LINE
  8
0
  6
CONTINUOUS
 62
     7
  5
6E3
 10
2.150839
 20
-0.726852
 30
0.0
 11
2.147158
 21
-0.729484
 31
0.0
  0
LINE
  8
0
  6
CONTINUOUS
 62
     7
  5
6E4
 10
2.147158
 20
-0.729484
 30
0.0
 11
2.143498
 21
-0.73201
 31
0.0
  0
LINE
  8
0
  6
CONTINUOUS
 62
     7
  5
6E5
 10
2.143498
 20
-0.73201
 30
0.0
 11
2.139864
 21
-0.734428
 31
0.0
  0
LINE
  8
0
  6
CONTINUOUS
 62
     7
  5
6E6
 10
2.139864
 20
-0.734428
 30
0.0
 11
2.136262
 21
-0.736734
 31
0.0
  0
LINE
  8
0
  6
CONTINUOUS
 62
     7
  5
6E7
 10
2.136262
 20
-0.736734
 30
0.0
 11
2.132698
 21
-0.738925
 31
0.0
  0
LINE
  8
0
  6
CONTINUOUS
 62
     7
  5
6E8
 10
2.132698
 20
-0.738925
 30
0.0
 11
2.129176
 21
-0.740996
 31
0.0
  0
LINE
  8
0
  6
CONTINUOUS
 62
     7
  5
6E9
 10
2.129176
 20
-0.740996
 30
0.0
 11
2.125703
 21
-0.742945
 31
0.0
  0
LINE
  8
0
  6
CONTINUOUS
 62
     7
  5
6EA
 10
2.125703
 20
-0.742945
 30
0.0
 11
2.122284
 21
-0.744768
 31
0.0
  0
LINE
  8
0
  6
CONTINUOUS
 62
     7
  5
6EB
 10
2.122284
 20
-0.744768
 30
0.0
 11
2.118923
 21
-0.746464
 31
0.0
  0
LINE
  8
0
  6
CONTINUOUS
 62
     7
  5
6EC
 10
2.118923
 20
-0.746464
 30
0.0
 11
2.115627
 21
-0.748028
 31
0.0
  0
LINE
  8
0
  6
CONTINUOUS
 62
     7
  5
6ED
 10
2.115627
 20
-0.748028
 30
0.0
 11
2.1124
 21
-0.74946
 31
0.0
  0
LINE
  8
0
  6
CONTINUOUS
 62
     7
  5
6EE
 10
2.1124
 20
-0.74946
 30
0.0
 11
2.109247
 21
-0.750757
 31
0.0
  0
LINE
  8
0
  6
CONTINUOUS
 62
     7
  5
6EF
 10
2.109247
 20
-0.750757
 30
0.0
 11
2.106173
 21
-0.751916
 31
0.0
  0
LINE
  8
0
  6
CONTINUOUS
 62
     7
  5
6F0
 10
2.106173
 20
-0.751916
 30
0.0
 11
2.103183
 21
-0.752936
 31
0.0
  0
LINE
  8
0
  6
CONTINUOUS
 62
     7
  5
6F1
 10
2.103183
 20
-0.752936
 30
0.0
 11
2.100281
 21
-0.753815
 31
0.0
  0
LINE
  8
0
  6
CONTINUOUS
 62
     7
  5
6F2
 10
2.100281
 20
-0.753815
 30
0.0
 11
2.097472
 21
-0.754552
 31
0.0
  0
LINE
  8
0
  6
CONTINUOUS
 62
     7
  5
6F3
 10
2.097472
 20
-0.754552
 30
0.0
 11
2.09476
 21
-0.755146
 31
0.0
  0
LINE
  8
0
  6
CONTINUOUS
 62
     7
  5
6F4
 10
2.09476
 20
-0.755146
 30
0.0
 11
2.09215
 21
-0.755597
 31
0.0
  0
LINE
  8
0
  6
CONTINUOUS
 62
     7
  5
6F5
 10
2.09215
 20
-0.755597
 30
0.0
 11
2.089645
 21
-0.755902
 31
0.0
  0
LINE
  8
0
  6
CONTINUOUS
 62
     7
  5
6F6
 10
2.089645
 20
-0.755902
 30
0.0
 11
2.087249
 21
-0.756062
 31
0.0
  0
LINE
  8
0
  6
CONTINUOUS
 62
     7
  5
6F7
 10
2.087249
 20
-0.756062
 30
0.0
 11
2.084966
 21
-0.756077
 31
0.0
  0
LINE
  8
0
  6
CONTINUOUS
 62
     7
  5
6F8
 10
2.084966
 20
-0.756077
 30
0.0
 11
2.082799
 21
-0.755946
 31
0.0
  0
LINE
  8
0
  6
CONTINUOUS
 62
     7
  5
6F9
 10
2.082799
 20
-0.755946
 30
0.0
 11
2.080753
 21
-0.75567
 31
0.0
  0
LINE
  8
0
  6
CONTINUOUS
 62
     7
  5
6FA
 10
2.080753
 20
-0.75567
 30
0.0
 11
2.078829
 21
-0.755249
 31
0.0
  0
LINE
  8
0
  6
CONTINUOUS
 62
     7
  5
6FB
 10
2.078829
 20
-0.755249
 30
0.0
 11
2.077031
 21
-0.754684
 31
0.0
  0
LINE
  8
0
  6
CONTINUOUS
 62
     7
  5
6FC
 10
2.077031
 20
-0.754684
 30
0.0
 11
2.075362
 21
-0.753975
 31
0.0
  0
LINE
  8
0
  6
CONTINUOUS
 62
     7
  5
6FD
 10
2.075362
 20
-0.753975
 30
0.0
 11
2.073823
 21
-0.753124
 31
0.0
  0
LINE
  8
0
  6
CONTINUOUS
 62
     7
  5
6FE
 10
2.073823
 20
-0.753124
 30
0.0
 11
2.072419
 21
-0.752132
 31
0.0
  0
LINE
  8
0
  6
CONTINUOUS
 62
     7
  5
6FF
 10
2.072419
 20
-0.752132
 30
0.0
 11
2.07115
 21
-0.751001
 31
0.0
  0
LINE
  8
0
  6
CONTINUOUS
 62
     7
  5
700
 10
2.208154
 20
-0.673994
 30
0.0
 11
2.173041
 21
-0.709107
 31
0.0
  0
LINE
  8
0
  6
CONTINUOUS
 62
     7
  5
701
 10
2.250048
 20
-0.572103
 30
0.0
 11
2.251179
 21
-0.573372
 31
0.0
  0
LINE
  8
0
  6
CONTINUOUS
 62
     7
  5
702
 10
2.251179
 20
-0.573372
 30
0.0
 11
2.252171
 21
-0.574777
 31
0.0
  0
LINE
  8
0
  6
CONTINUOUS
 62
     7
  5
703
 10
2.252171
 20
-0.574777
 30
0.0
 11
2.253022
 21
-0.576315
 31
0.0
  0
LINE
  8
0
  6
CONTINUOUS
 62
     7
  5
704
 10
2.253022
 20
-0.576315
 30
0.0
 11
2.25373
 21
-0.577984
 31
0.0
  0
LINE
  8
0
  6
CONTINUOUS
 62
     7
  5
705
 10
2.25373
 20
-0.577984
 30
0.0
 11
2.254295
 21
-0.579782
 31
0.0
  0
LINE
  8
0
  6
CONTINUOUS
 62
     7
  5
706
 10
2.254295
 20
-0.579782
 30
0.0
 11
2.254716
 21
-0.581706
 31
0.0
  0
LINE
  8
0
  6
CONTINUOUS
 62
     7
  5
707
 10
2.254716
 20
-0.581706
 30
0.0
 11
2.254993
 21
-0.583753
 31
0.0
  0
LINE
  8
0
  6
CONTINUOUS
 62
     7
  5
708
 10
2.254993
 20
-0.583753
 30
0.0
 11
2.255123
 21
-0.585919
 31
0.0
  0
LINE
  8
0
  6
CONTINUOUS
 62
     7
  5
709
 10
2.255123
 20
-0.585919
 30
0.0
 11
2.255109
 21
-0.588202
 31
0.0
  0
LINE
  8
0
  6
CONTINUOUS
 62
     7
  5
70A
 10
2.255109
 20
-0.588202
 30
0.0
 11
2.254949
 21
-0.590598
 31
0.0
  0
LINE
  8
0
  6
CONTINUOUS
 62
     7
  5
70B
 10
2.254949
 20
-0.590598
 30
0.0
 11
2.254643
 21
-0.593103
 31
0.0
  0
LINE
  8
0
  6
CONTINUOUS
 62
     7
  5
70C
 10
2.254643
 20
-0.593103
 30
0.0
 11
2.254193
 21
-0.595713
 31
0.0
  0
LINE
  8
0
  6
CONTINUOUS
 62
     7
  5
70D
 10
2.254193
 20
-0.595713
 30
0.0
 11
2.253599
 21
-0.598425
 31
0.0
  0
LINE
  8
0
  6
CONTINUOUS
 62
     7
  5
70E
 10
2.253599
 20
-0.598425
 30
0.0
 11
2.252862
 21
-0.601234
 31
0.0
  0
LINE
  8
0
  6
CONTINUOUS
 62
     7
  5
70F
 10
2.252862
 20
-0.601234
 30
0.0
 11
2.251982
 21
-0.604136
 31
0.0
  0
LINE
  8
0
  6
CONTINUOUS
 62
     7
  5
710
 10
2.251982
 20
-0.604136
 30
0.0
 11
2.250962
 21
-0.607126
 31
0.0
  0
LINE
  8
0
  6
CONTINUOUS
 62
     7
  5
711
 10
2.250962
 20
-0.607126
 30
0.0
 11
2.249803
 21
-0.6102
 31
0.0
  0
LINE
  8
0
  6
CONTINUOUS
 62
     7
  5
712
 10
2.249803
 20
-0.6102
 30
0.0
 11
2.248507
 21
-0.613353
 31
0.0
  0
LINE
  8
0
  6
CONTINUOUS
 62
     7
  5
713
 10
2.248507
 20
-0.613353
 30
0.0
 11
2.247075
 21
-0.61658
 31
0.0
  0
LINE
  8
0
  6
CONTINUOUS
 62
     7
  5
714
 10
2.247075
 20
-0.61658
 30
0.0
 11
2.24551
 21
-0.619876
 31
0.0
  0
LINE
  8
0
  6
CONTINUOUS
 62
     7
  5
715
 10
2.24551
 20
-0.619876
 30
0.0
 11
2.243815
 21
-0.623237
 31
0.0
  0
LINE
  8
0
  6
CONTINUOUS
 62
     7
  5
716
 10
2.243815
 20
-0.623237
 30
0.0
 11
2.241991
 21
-0.626656
 31
0.0
  0
LINE
  8
0
  6
CONTINUOUS
 62
     7
  5
717
 10
2.241991
 20
-0.626656
 30
0.0
 11
2.240042
 21
-0.630129
 31
0.0
  0
LINE
  8
0
  6
CONTINUOUS
 62
     7
  5
718
 10
2.240042
 20
-0.630129
 30
0.0
 11
2.237971
 21
-0.633651
 31
0.0
  0
LINE
  8
0
  6
CONTINUOUS
 62
     7
  5
719
 10
2.237971
 20
-0.633651
 30
0.0
 11
2.235781
 21
-0.637216
 31
0.0
  0
LINE
  8
0
  6
CONTINUOUS
 62
     7
  5
71A
 10
2.235781
 20
-0.637216
 30
0.0
 11
2.233475
 21
-0.640817
 31
0.0
  0
LINE
  8
0
  6
CONTINUOUS
 62
     7
  5
71B
 10
2.233475
 20
-0.640817
 30
0.0
 11
2.231057
 21
-0.644451
 31
0.0
  0
LINE
  8
0
  6
CONTINUOUS
 62
     7
  5
71C
 10
2.231057
 20
-0.644451
 30
0.0
 11
2.22853
 21
-0.648112
 31
0.0
  0
LINE
  8
0
  6
CONTINUOUS
 62
     7
  5
71D
 10
2.22853
 20
-0.648112
 30
0.0
 11
2.225899
 21
-0.651792
 31
0.0
  0
LINE
  8
0
  6
CONTINUOUS
 62
     7
  5
71E
 10
2.225899
 20
-0.651792
 30
0.0
 11
2.223168
 21
-0.655488
 31
0.0
  0
LINE
  8
0
  6
CONTINUOUS
 62
     7
  5
71F
 10
2.223168
 20
-0.655488
 30
0.0
 11
2.22034
 21
-0.659194
 31
0.0
  0
LINE
  8
0
  6
CONTINUOUS
 62
     7
  5
720
 10
2.22034
 20
-0.659194
 30
0.0
 11
2.21742
 21
-0.662902
 31
0.0
  0
LINE
  8
0
  6
CONTINUOUS
 62
     7
  5
721
 10
2.21742
 20
-0.662902
 30
0.0
 11
2.214412
 21
-0.666609
 31
0.0
  0
LINE
  8
0
  6
CONTINUOUS
 62
     7
  5
722
 10
2.214412
 20
-0.666609
 30
0.0
 11
2.211322
 21
-0.670308
 31
0.0
  0
LINE
  8
0
  6
CONTINUOUS
 62
     7
  5
723
 10
2.211322
 20
-0.670308
 30
0.0
 11
2.208154
 21
-0.673994
 31
0.0
  0
LINE
  8
0
  6
CONTINUOUS
 62
     7
  5
724
 10
2.185048
 20
-0.586299
 30
0.0
 11
2.187594
 21
-0.584727
 31
0.0
  0
LINE
  8
0
  6
CONTINUOUS
 62
     7
  5
725
 10
2.187594
 20
-0.584727
 30
0.0
 11
2.190119
 21
-0.583216
 31
0.0
  0
LINE
  8
0
  6
CONTINUOUS
 62
     7
  5
726
 10
2.190119
 20
-0.583216
 30
0.0
 11
2.192621
 21
-0.581765
 31
0.0
  0
LINE
  8
0
  6
CONTINUOUS
 62
     7
  5
727
 10
2.192621
 20
-0.581765
 30
0.0
 11
2.195098
 21
-0.580378
 31
0.0
  0
LINE
  8
0
  6
CONTINUOUS
 62
     7
  5
728
 10
2.195098
 20
-0.580378
 30
0.0
 11
2.197548
 21
-0.579053
 31
0.0
  0
LINE
  8
0
  6
CONTINUOUS
 62
     7
  5
729
 10
2.197548
 20
-0.579053
 30
0.0
 11
2.199968
 21
-0.577794
 31
0.0
  0
LINE
  8
0
  6
CONTINUOUS
 62
     7
  5
72A
 10
2.199968
 20
-0.577794
 30
0.0
 11
2.202358
 21
-0.5766
 31
0.0
  0
LINE
  8
0
  6
CONTINUOUS
 62
     7
  5
72B
 10
2.202358
 20
-0.5766
 30
0.0
 11
2.204716
 21
-0.575472
 31
0.0
  0
LINE
  8
0
  6
CONTINUOUS
 62
     7
  5
72C
 10
2.204716
 20
-0.575472
 30
0.0
 11
2.207038
 21
-0.574412
 31
0.0
  0
LINE
  8
0
  6
CONTINUOUS
 62
     7
  5
72D
 10
2.207038
 20
-0.574412
 30
0.0
 11
2.209325
 21
-0.57342
 31
0.0
  0
LINE
  8
0
  6
CONTINUOUS
 62
     7
  5
72E
 10
2.209325
 20
-0.57342
 30
0.0
 11
2.211573
 21
-0.572498
 31
0.0
  0
LINE
  8
0
  6
CONTINUOUS
 62
     7
  5
72F
 10
2.211573
 20
-0.572498
 30
0.0
 11
2.213781
 21
-0.571645
 31
0.0
  0
LINE
  8
0
  6
CONTINUOUS
 62
     7
  5
730
 10
2.213781
 20
-0.571645
 30
0.0
 11
2.215948
 21
-0.570862
 31
0.0
  0
LINE
  8
0
  6
CONTINUOUS
 62
     7
  5
731
 10
2.215948
 20
-0.570862
 30
0.0
 11
2.218071
 21
-0.570151
 31
0.0
  0
LINE
  8
0
  6
CONTINUOUS
 62
     7
  5
732
 10
2.218071
 20
-0.570151
 30
0.0
 11
2.220149
 21
-0.569511
 31
0.0
  0
LINE
  8
0
  6
CONTINUOUS
 62
     7
  5
733
 10
2.220149
 20
-0.569511
 30
0.0
 11
2.22218
 21
-0.568943
 31
0.0
  0
LINE
  8
0
  6
CONTINUOUS
 62
     7
  5
734
 10
2.22218
 20
-0.568943
 30
0.0
 11
2.224164
 21
-0.568448
 31
0.0
  0
LINE
  8
0
  6
CONTINUOUS
 62
     7
  5
735
 10
2.224164
 20
-0.568448
 30
0.0
 11
2.226097
 21
-0.568026
 31
0.0
  0
LINE
  8
0
  6
CONTINUOUS
 62
     7
  5
736
 10
2.226097
 20
-0.568026
 30
0.0
 11
2.227979
 21
-0.567677
 31
0.0
  0
LINE
  8
0
  6
CONTINUOUS
 62
     7
  5
737
 10
2.227979
 20
-0.567677
 30
0.0
 11
2.229809
 21
-0.567401
 31
0.0
  0
LINE
  8
0
  6
CONTINUOUS
 62
     7
  5
738
 10
2.229809
 20
-0.567401
 30
0.0
 11
2.231584
 21
-0.567199
 31
0.0
  0
LINE
  8
0
  6
CONTINUOUS
 62
     7
  5
739
 10
2.231584
 20
-0.567199
 30
0.0
 11
2.233303
 21
-0.567072
 31
0.0
  0
LINE
  8
0
  6
CONTINUOUS
 62
     7
  5
73A
 10
2.233303
 20
-0.567072
 30
0.0
 11
2.234966
 21
-0.567018
 31
0.0
  0
LINE
  8
0
  6
CONTINUOUS
 62
     7
  5
73B
 10
2.234966
 20
-0.567018
 30
0.0
 11
2.23657
 21
-0.567038
 31
0.0
  0
LINE
  8
0
  6
CONTINUOUS
 62
     7
  5
73C
 10
2.23657
 20
-0.567038
 30
0.0
 11
2.238115
 21
-0.567133
 31
0.0
  0
LINE
  8
0
  6
CONTINUOUS
 62
     7
  5
73D
 10
2.238115
 20
-0.567133
 30
0.0
 11
2.239599
 21
-0.567301
 31
0.0
  0
LINE
  8
0
  6
CONTINUOUS
 62
     7
  5
73E
 10
2.239599
 20
-0.567301
 30
0.0
 11
2.241021
 21
-0.567543
 31
0.0
  0
LINE
  8
0
  6
CONTINUOUS
 62
     7
  5
73F
 10
2.241021
 20
-0.567543
 30
0.0
 11
2.242381
 21
-0.567859
 31
0.0
  0
LINE
  8
0
  6
CONTINUOUS
 62
     7
  5
740
 10
2.242381
 20
-0.567859
 30
0.0
 11
2.243676
 21
-0.568248
 31
0.0
  0
LINE
  8
0
  6
CONTINUOUS
 62
     7
  5
741
 10
2.243676
 20
-0.568248
 30
0.0
 11
2.244906
 21
-0.56871
 31
0.0
  0
LINE
  8
0
  6
CONTINUOUS
 62
     7
  5
742
 10
2.244906
 20
-0.56871
 30
0.0
 11
2.24607
 21
-0.569245
 31
0.0
  0
LINE
  8
0
  6
CONTINUOUS
 62
     7
  5
743
 10
2.24607
 20
-0.569245
 30
0.0
 11
2.247167
 21
-0.569852
 31
0.0
  0
LINE
  8
0
  6
CONTINUOUS
 62
     7
  5
744
 10
2.247167
 20
-0.569852
 30
0.0
 11
2.248196
 21
-0.570532
 31
0.0
  0
LINE
  8
0
  6
CONTINUOUS
 62
     7
  5
745
 10
2.248196
 20
-0.570532
 30
0.0
 11
2.249157
 21
-0.571282
 31
0.0
  0
LINE
  8
0
  6
CONTINUOUS
 62
     7
  5
746
 10
2.249157
 20
-0.571282
 30
0.0
 11
2.250048
 21
-0.572103
 31
0.0
  0
LINE
  8
0
  6
CONTINUOUS
 62
     7
  5
747
 10
2.085346
 20
-0.686001
 30
0.0
 11
2.061992
 21
-0.662648
 31
0.0
  0
LINE
  8
0
  6
CONTINUOUS
 62
     7
  5
748
 10
2.340504
 20
-0.541644
 30
0.0
 11
2.208154
 21
-0.673994
 31
0.0
  0
LINE
  8
0
  6
CONTINUOUS
 62
     7
  5
749
 10
2.161694
 20
-0.562945
 30
0.0
 11
2.185048
 21
-0.586299
 31
0.0
  0
LINE
  8
0
  6
CONTINUOUS
 62
     7
  5
74A
 10
2.105391
 20
0.706046
 30
0.0
 11
2.061992
 21
0.662648
 31
0.0
  0
LINE
  8
0
  6
CONTINUOUS
 62
     7
  5
74B
 10
2.205093
 20
0.606344
 30
0.0
 11
2.105391
 21
0.706046
 31
0.0
  0
LINE
  8
0
  6
CONTINUOUS
 62
     7
  5
74C
 10
2.185048
 20
0.586299
 30
0.0
 11
2.205093
 21
0.606344
 31
0.0
  0
LINE
  8
0
  6
CONTINUOUS
 62
     7
  5
74D
 10
2.250048
 20
0.572103
 30
0.0
 11
2.249157
 21
0.571282
 31
0.0
  0
LINE
  8
0
  6
CONTINUOUS
 62
     7
  5
74E
 10
2.249157
 20
0.571282
 30
0.0
 11
2.248196
 21
0.570532
 31
0.0
  0
LINE
  8
0
  6
CONTINUOUS
 62
     7
  5
74F
 10
2.248196
 20
0.570532
 30
0.0
 11
2.247167
 21
0.569852
 31
0.0
  0
LINE
  8
0
  6
CONTINUOUS
 62
     7
  5
750
 10
2.247167
 20
0.569852
 30
0.0
 11
2.24607
 21
0.569245
 31
0.0
  0
LINE
  8
0
  6
CONTINUOUS
 62
     7
  5
751
 10
2.24607
 20
0.569245
 30
0.0
 11
2.244906
 21
0.56871
 31
0.0
  0
LINE
  8
0
  6
CONTINUOUS
 62
     7
  5
752
 10
2.244906
 20
0.56871
 30
0.0
 11
2.243676
 21
0.568248
 31
0.0
  0
LINE
  8
0
  6
CONTINUOUS
 62
     7
  5
753
 10
2.243676
 20
0.568248
 30
0.0
 11
2.242381
 21
0.567859
 31
0.0
  0
LINE
  8
0
  6
CONTINUOUS
 62
     7
  5
754
 10
2.242381
 20
0.567859
 30
0.0
 11
2.241021
 21
0.567543
 31
0.0
  0
LINE
  8
0
  6
CONTINUOUS
 62
     7
  5
755
 10
2.241021
 20
0.567543
 30
0.0
 11
2.239599
 21
0.567301
 31
0.0
  0
LINE
  8
0
  6
CONTINUOUS
 62
     7
  5
756
 10
2.239599
 20
0.567301
 30
0.0
 11
2.238115
 21
0.567133
 31
0.0
  0
LINE
  8
0
  6
CONTINUOUS
 62
     7
  5
757
 10
2.238115
 20
0.567133
 30
0.0
 11
2.23657
 21
0.567038
 31
0.0
  0
LINE
  8
0
  6
CONTINUOUS
 62
     7
  5
758
 10
2.23657
 20
0.567038
 30
0.0
 11
2.234966
 21
0.567018
 31
0.0
  0
LINE
  8
0
  6
CONTINUOUS
 62
     7
  5
759
 10
2.234966
 20
0.567018
 30
0.0
 11
2.233303
 21
0.567072
 31
0.0
  0
LINE
  8
0
  6
CONTINUOUS
 62
     7
  5
75A
 10
2.233303
 20
0.567072
 30
0.0
 11
2.231584
 21
0.567199
 31
0.0
  0
LINE
  8
0
  6
CONTINUOUS
 62
     7
  5
75B
 10
2.231584
 20
0.567199
 30
0.0
 11
2.229809
 21
0.567401
 31
0.0
  0
LINE
  8
0
  6
CONTINUOUS
 62
     7
  5
75C
 10
2.229809
 20
0.567401
 30
0.0
 11
2.227979
 21
0.567677
 31
0.0
  0
LINE
  8
0
  6
CONTINUOUS
 62
     7
  5
75D
 10
2.227979
 20
0.567677
 30
0.0
 11
2.226097
 21
0.568026
 31
0.0
  0
LINE
  8
0
  6
CONTINUOUS
 62
     7
  5
75E
 10
2.226097
 20
0.568026
 30
0.0
 11
2.224164
 21
0.568448
 31
0.0
  0
LINE
  8
0
  6
CONTINUOUS
 62
     7
  5
75F
 10
2.224164
 20
0.568448
 30
0.0
 11
2.22218
 21
0.568943
 31
0.0
  0
LINE
  8
0
  6
CONTINUOUS
 62
     7
  5
760
 10
2.22218
 20
0.568943
 30
0.0
 11
2.220149
 21
0.569511
 31
0.0
  0
LINE
  8
0
  6
CONTINUOUS
 62
     7
  5
761
 10
2.220149
 20
0.569511
 30
0.0
 11
2.218071
 21
0.570151
 31
0.0
  0
LINE
  8
0
  6
CONTINUOUS
 62
     7
  5
762
 10
2.218071
 20
0.570151
 30
0.0
 11
2.215948
 21
0.570862
 31
0.0
  0
LINE
  8
0
  6
CONTINUOUS
 62
     7
  5
763
 10
2.215948
 20
0.570862
 30
0.0
 11
2.213781
 21
0.571645
 31
0.0
  0
LINE
  8
0
  6
CONTINUOUS
 62
     7
  5
764
 10
2.213781
 20
0.571645
 30
0.0
 11
2.211573
 21
0.572498
 31
0.0
  0
LINE
  8
0
  6
CONTINUOUS
 62
     7
  5
765
 10
2.211573
 20
0.572498
 30
0.0
 11
2.209325
 21
0.57342
 31
0.0
  0
LINE
  8
0
  6
CONTINUOUS
 62
     7
  5
766
 10
2.209325
 20
0.57342
 30
0.0
 11
2.207038
 21
0.574412
 31
0.0
  0
LINE
  8
0
  6
CONTINUOUS
 62
     7
  5
767
 10
2.207038
 20
0.574412
 30
0.0
 11
2.204716
 21
0.575472
 31
0.0
  0
LINE
  8
0
  6
CONTINUOUS
 62
     7
  5
768
 10
2.204716
 20
0.575472
 30
0.0
 11
2.202358
 21
0.5766
 31
0.0
  0
LINE
  8
0
  6
CONTINUOUS
 62
     7
  5
769
 10
2.202358
 20
0.5766
 30
0.0
 11
2.199968
 21
0.577794
 31
0.0
  0
LINE
  8
0
  6
CONTINUOUS
 62
     7
  5
76A
 10
2.199968
 20
0.577794
 30
0.0
 11
2.197548
 21
0.579053
 31
0.0
  0
LINE
  8
0
  6
CONTINUOUS
 62
     7
  5
76B
 10
2.197548
 20
0.579053
 30
0.0
 11
2.195098
 21
0.580378
 31
0.0
  0
LINE
  8
0
  6
CONTINUOUS
 62
     7
  5
76C
 10
2.195098
 20
0.580378
 30
0.0
 11
2.192621
 21
0.581765
 31
0.0
  0
LINE
  8
0
  6
CONTINUOUS
 62
     7
  5
76D
 10
2.192621
 20
0.581765
 30
0.0
 11
2.190119
 21
0.583216
 31
0.0
  0
LINE
  8
0
  6
CONTINUOUS
 62
     7
  5
76E
 10
2.190119
 20
0.583216
 30
0.0
 11
2.187594
 21
0.584727
 31
0.0
  0
LINE
  8
0
  6
CONTINUOUS
 62
     7
  5
76F
 10
2.187594
 20
0.584727
 30
0.0
 11
2.185048
 21
0.586299
 31
0.0
  0
LINE
  8
0
  6
CONTINUOUS
 62
     7
  5
770
 10
2.208154
 20
0.673994
 30
0.0
 11
2.211322
 21
0.670308
 31
0.0
  0
LINE
  8
0
  6
CONTINUOUS
 62
     7
  5
771
 10
2.211322
 20
0.670308
 30
0.0
 11
2.214412
 21
0.666609
 31
0.0
  0
LINE
  8
0
  6
CONTINUOUS
 62
     7
  5
772
 10
2.214412
 20
0.666609
 30
0.0
 11
2.21742
 21
0.662902
 31
0.0
  0
LINE
  8
0
  6
CONTINUOUS
 62
     7
  5
773
 10
2.21742
 20
0.662902
 30
0.0
 11
2.22034
 21
0.659194
 31
0.0
  0
LINE
  8
0
  6
CONTINUOUS
 62
     7
  5
774
 10
2.22034
 20
0.659194
 30
0.0
 11
2.223168
 21
0.655488
 31
0.0
  0
LINE
  8
0
  6
CONTINUOUS
 62
     7
  5
775
 10
2.223168
 20
0.655488
 30
0.0
 11
2.225899
 21
0.651792
 31
0.0
  0
LINE
  8
0
  6
CONTINUOUS
 62
     7
  5
776
 10
2.225899
 20
0.651792
 30
0.0
 11
2.22853
 21
0.648112
 31
0.0
  0
LINE
  8
0
  6
CONTINUOUS
 62
     7
  5
777
 10
2.22853
 20
0.648112
 30
0.0
 11
2.231057
 21
0.644451
 31
0.0
  0
LINE
  8
0
  6
CONTINUOUS
 62
     7
  5
778
 10
2.231057
 20
0.644451
 30
0.0
 11
2.233475
 21
0.640817
 31
0.0
  0
LINE
  8
0
  6
CONTINUOUS
 62
     7
  5
779
 10
2.233475
 20
0.640817
 30
0.0
 11
2.235781
 21
0.637216
 31
0.0
  0
LINE
  8
0
  6
CONTINUOUS
 62
     7
  5
77A
 10
2.235781
 20
0.637216
 30
0.0
 11
2.237971
 21
0.633651
 31
0.0
  0
LINE
  8
0
  6
CONTINUOUS
 62
     7
  5
77B
 10
2.237971
 20
0.633651
 30
0.0
 11
2.240042
 21
0.630129
 31
0.0
  0
LINE
  8
0
  6
CONTINUOUS
 62
     7
  5
77C
 10
2.240042
 20
0.630129
 30
0.0
 11
2.241991
 21
0.626656
 31
0.0
  0
LINE
  8
0
  6
CONTINUOUS
 62
     7
  5
77D
 10
2.241991
 20
0.626656
 30
0.0
 11
2.243815
 21
0.623237
 31
0.0
  0
LINE
  8
0
  6
CONTINUOUS
 62
     7
  5
77E
 10
2.243815
 20
0.623237
 30
0.0
 11
2.24551
 21
0.619876
 31
0.0
  0
LINE
  8
0
  6
CONTINUOUS
 62
     7
  5
77F
 10
2.24551
 20
0.619876
 30
0.0
 11
2.247075
 21
0.61658
 31
0.0
  0
LINE
  8
0
  6
CONTINUOUS
 62
     7
  5
780
 10
2.247075
 20
0.61658
 30
0.0
 11
2.248507
 21
0.613353
 31
0.0
  0
LINE
  8
0
  6
CONTINUOUS
 62
     7
  5
781
 10
2.248507
 20
0.613353
 30
0.0
 11
2.249803
 21
0.6102
 31
0.0
  0
LINE
  8
0
  6
CONTINUOUS
 62
     7
  5
782
 10
2.249803
 20
0.6102
 30
0.0
 11
2.250962
 21
0.607126
 31
0.0
  0
LINE
  8
0
  6
CONTINUOUS
 62
     7
  5
783
 10
2.250962
 20
0.607126
 30
0.0
 11
2.251982
 21
0.604136
 31
0.0
  0
LINE
  8
0
  6
CONTINUOUS
 62
     7
  5
784
 10
2.251982
 20
0.604136
 30
0.0
 11
2.252862
 21
0.601234
 31
0.0
  0
LINE
  8
0
  6
CONTINUOUS
 62
     7
  5
785
 10
2.252862
 20
0.601234
 30
0.0
 11
2.253599
 21
0.598425
 31
0.0
  0
LINE
  8
0
  6
CONTINUOUS
 62
     7
  5
786
 10
2.253599
 20
0.598425
 30
0.0
 11
2.254193
 21
0.595713
 31
0.0
  0
LINE
  8
0
  6
CONTINUOUS
 62
     7
  5
787
 10
2.254193
 20
0.595713
 30
0.0
 11
2.254643
 21
0.593103
 31
0.0
  0
LINE
  8
0
  6
CONTINUOUS
 62
     7
  5
788
 10
2.254643
 20
0.593103
 30
0.0
 11
2.254949
 21
0.590598
 31
0.0
  0
LINE
  8
0
  6
CONTINUOUS
 62
     7
  5
789
 10
2.254949
 20
0.590598
 30
0.0
 11
2.255109
 21
0.588202
 31
0.0
  0
LINE
  8
0
  6
CONTINUOUS
 62
     7
  5
78A
 10
2.255109
 20
0.588202
 30
0.0
 11
2.255123
 21
0.585919
 31
0.0
  0
LINE
  8
0
  6
CONTINUOUS
 62
     7
  5
78B
 10
2.255123
 20
0.585919
 30
0.0
 11
2.254993
 21
0.583753
 31
0.0
  0
LINE
  8
0
  6
CONTINUOUS
 62
     7
  5
78C
 10
2.254993
 20
0.583753
 30
0.0
 11
2.254716
 21
0.581706
 31
0.0
  0
LINE
  8
0
  6
CONTINUOUS
 62
     7
  5
78D
 10
2.254716
 20
0.581706
 30
0.0
 11
2.254295
 21
0.579782
 31
0.0
  0
LINE
  8
0
  6
CONTINUOUS
 62
     7
  5
78E
 10
2.254295
 20
0.579782
 30
0.0
 11
2.25373
 21
0.577984
 31
0.0
  0
LINE
  8
0
  6
CONTINUOUS
 62
     7
  5
78F
 10
2.25373
 20
0.577984
 30
0.0
 11
2.253022
 21
0.576315
 31
0.0
  0
LINE
  8
0
  6
CONTINUOUS
 62
     7
  5
790
 10
2.253022
 20
0.576315
 30
0.0
 11
2.252171
 21
0.574777
 31
0.0
  0
LINE
  8
0
  6
CONTINUOUS
 62
     7
  5
791
 10
2.252171
 20
0.574777
 30
0.0
 11
2.251179
 21
0.573372
 31
0.0
  0
LINE
  8
0
  6
CONTINUOUS
 62
     7
  5
792
 10
2.251179
 20
0.573372
 30
0.0
 11
2.250048
 21
0.572103
 31
0.0
  0
LINE
  8
0
  6
CONTINUOUS
 62
     7
  5
793
 10
2.173041
 20
0.709107
 30
0.0
 11
2.208154
 21
0.673994
 31
0.0
  0
LINE
  8
0
  6
CONTINUOUS
 62
     7
  5
794
 10
2.07115
 20
0.751001
 30
0.0
 11
2.072419
 21
0.752132
 31
0.0
  0
LINE
  8
0
  6
CONTINUOUS
 62
     7
  5
795
 10
2.072419
 20
0.752132
 30
0.0
 11
2.073823
 21
0.753124
 31
0.0
  0
LINE
  8
0
  6
CONTINUOUS
 62
     7
  5
796
 10
2.073823
 20
0.753124
 30
0.0
 11
2.075362
 21
0.753975
 31
0.0
  0
LINE
  8
0
  6
CONTINUOUS
 62
     7
  5
797
 10
2.075362
 20
0.753975
 30
0.0
 11
2.077031
 21
0.754684
 31
0.0
  0
LINE
  8
0
  6
CONTINUOUS
 62
     7
  5
798
 10
2.077031
 20
0.754684
 30
0.0
 11
2.078829
 21
0.755249
 31
0.0
  0
LINE
  8
0
  6
CONTINUOUS
 62
     7
  5
799
 10
2.078829
 20
0.755249
 30
0.0
 11
2.080753
 21
0.75567
 31
0.0
  0
LINE
  8
0
  6
CONTINUOUS
 62
     7
  5
79A
 10
2.080753
 20
0.75567
 30
0.0
 11
2.082799
 21
0.755946
 31
0.0
  0
LINE
  8
0
  6
CONTINUOUS
 62
     7
  5
79B
 10
2.082799
 20
0.755946
 30
0.0
 11
2.084966
 21
0.756077
 31
0.0
  0
LINE
  8
0
  6
CONTINUOUS
 62
     7
  5
79C
 10
2.084966
 20
0.756077
 30
0.0
 11
2.087249
 21
0.756062
 31
0.0
  0
LINE
  8
0
  6
CONTINUOUS
 62
     7
  5
79D
 10
2.087249
 20
0.756062
 30
0.0
 11
2.089645
 21
0.755902
 31
0.0
  0
LINE
  8
0
  6
CONTINUOUS
 62
     7
  5
79E
 10
2.089645
 20
0.755902
 30
0.0
 11
2.09215
 21
0.755597
 31
0.0
  0
LINE
  8
0
  6
CONTINUOUS
 62
     7
  5
79F
 10
2.09215
 20
0.755597
 30
0.0
 11
2.09476
 21
0.755146
 31
0.0
  0
LINE
  8
0
  6
CONTINUOUS
 62
     7
  5
7A0
 10
2.09476
 20
0.755146
 30
0.0
 11
2.097472
 21
0.754552
 31
0.0
  0
LINE
  8
0
  6
CONTINUOUS
 62
     7
  5
7A1
 10
2.097472
 20
0.754552
 30
0.0
 11
2.100281
 21
0.753815
 31
0.0
  0
LINE
  8
0
  6
CONTINUOUS
 62
     7
  5
7A2
 10
2.100281
 20
0.753815
 30
0.0
 11
2.103183
 21
0.752936
 31
0.0
  0
LINE
  8
0
  6
CONTINUOUS
 62
     7
  5
7A3
 10
2.103183
 20
0.752936
 30
0.0
 11
2.106173
 21
0.751916
 31
0.0
  0
LINE
  8
0
  6
CONTINUOUS
 62
     7
  5
7A4
 10
2.106173
 20
0.751916
 30
0.0
 11
2.109247
 21
0.750757
 31
0.0
  0
LINE
  8
0
  6
CONTINUOUS
 62
     7
  5
7A5
 10
2.109247
 20
0.750757
 30
0.0
 11
2.1124
 21
0.74946
 31
0.0
  0
LINE
  8
0
  6
CONTINUOUS
 62
     7
  5
7A6
 10
2.1124
 20
0.74946
 30
0.0
 11
2.115627
 21
0.748028
 31
0.0
  0
LINE
  8
0
  6
CONTINUOUS
 62
     7
  5
7A7
 10
2.115627
 20
0.748028
 30
0.0
 11
2.118923
 21
0.746464
 31
0.0
  0
LINE
  8
0
  6
CONTINUOUS
 62
     7
  5
7A8
 10
2.118923
 20
0.746464
 30
0.0
 11
2.122284
 21
0.744768
 31
0.0
  0
LINE
  8
0
  6
CONTINUOUS
 62
     7
  5
7A9
 10
2.122284
 20
0.744768
 30
0.0
 11
2.125703
 21
0.742945
 31
0.0
  0
LINE
  8
0
  6
CONTINUOUS
 62
     7
  5
7AA
 10
2.125703
 20
0.742945
 30
0.0
 11
2.129176
 21
0.740996
 31
0.0
  0
LINE
  8
0
  6
CONTINUOUS
 62
     7
  5
7AB
 10
2.129176
 20
0.740996
 30
0.0
 11
2.132698
 21
0.738925
 31
0.0
  0
LINE
  8
0
  6
CONTINUOUS
 62
     7
  5
7AC
 10
2.132698
 20
0.738925
 30
0.0
 11
2.136262
 21
0.736734
 31
0.0
  0
LINE
  8
0
  6
CONTINUOUS
 62
     7
  5
7AD
 10
2.136262
 20
0.736734
 30
0.0
 11
2.139864
 21
0.734428
 31
0.0
  0
LINE
  8
0
  6
CONTINUOUS
 62
     7
  5
7AE
 10
2.139864
 20
0.734428
 30
0.0
 11
2.143498
 21
0.73201
 31
0.0
  0
LINE
  8
0
  6
CONTINUOUS
 62
     7
  5
7AF
 10
2.143498
 20
0.73201
 30
0.0
 11
2.147158
 21
0.729484
 31
0.0
  0
LINE
  8
0
  6
CONTINUOUS
 62
     7
  5
7B0
 10
2.147158
 20
0.729484
 30
0.0
 11
2.150839
 21
0.726852
 31
0.0
  0
LINE
  8
0
  6
CONTINUOUS
 62
     7
  5
7B1
 10
2.150839
 20
0.726852
 30
0.0
 11
2.154535
 21
0.724121
 31
0.0
  0
LINE
  8
0
  6
CONTINUOUS
 62
     7
  5
7B2
 10
2.154535
 20
0.724121
 30
0.0
 11
2.15824
 21
0.721293
 31
0.0
  0
LINE
  8
0
  6
CONTINUOUS
 62
     7
  5
7B3
 10
2.15824
 20
0.721293
 30
0.0
 11
2.161949
 21
0.718373
 31
0.0
  0
LINE
  8
0
  6
CONTINUOUS
 62
     7
  5
7B4
 10
2.161949
 20
0.718373
 30
0.0
 11
2.165656
 21
0.715366
 31
0.0
  0
LINE
  8
0
  6
CONTINUOUS
 62
     7
  5
7B5
 10
2.165656
 20
0.715366
 30
0.0
 11
2.169355
 21
0.712275
 31
0.0
  0
LINE
  8
0
  6
CONTINUOUS
 62
     7
  5
7B6
 10
2.169355
 20
0.712275
 30
0.0
 11
2.173041
 21
0.709107
 31
0.0
  0
LINE
  8
0
  6
CONTINUOUS
 62
     7
  5
7B7
 10
2.085346
 20
0.686001
 30
0.0
 11
2.083774
 21
0.688548
 31
0.0
  0
LINE
  8
0
  6
CONTINUOUS
 62
     7
  5
7B8
 10
2.083774
 20
0.688548
 30
0.0
 11
2.082262
 21
0.691073
 31
0.0
  0
LINE
  8
0
  6
CONTINUOUS
 62
     7
  5
7B9
 10
2.082262
 20
0.691073
 30
0.0
 11
2.080812
 21
0.693574
 31
0.0
  0
LINE
  8
0
  6
CONTINUOUS
 62
     7
  5
7BA
 10
2.080812
 20
0.693574
 30
0.0
 11
2.079424
 21
0.696051
 31
0.0
  0
LINE
  8
0
  6
CONTINUOUS
 62
     7
  5
7BB
 10
2.079424
 20
0.696051
 30
0.0
 11
2.0781
 21
0.698501
 31
0.0
  0
LINE
  8
0
  6
CONTINUOUS
 62
     7
  5
7BC
 10
2.0781
 20
0.698501
 30
0.0
 11
2.07684
 21
0.700922
 31
0.0
  0
LINE
  8
0
  6
CONTINUOUS
 62
     7
  5
7BD
 10
2.07684
 20
0.700922
 30
0.0
 11
2.075646
 21
0.703312
 31
0.0
  0
LINE
  8
0
  6
CONTINUOUS
 62
     7
  5
7BE
 10
2.075646
 20
0.703312
 30
0.0
 11
2.074519
 21
0.705669
 31
0.0
  0
LINE
  8
0
  6
CONTINUOUS
 62
     7
  5
7BF
 10
2.074519
 20
0.705669
 30
0.0
 11
2.073459
 21
0.707992
 31
0.0
  0
LINE
  8
0
  6
CONTINUOUS
 62
     7
  5
7C0
 10
2.073459
 20
0.707992
 30
0.0
 11
2.072467
 21
0.710278
 31
0.0
  0
LINE
  8
0
  6
CONTINUOUS
 62
     7
  5
7C1
 10
2.072467
 20
0.710278
 30
0.0
 11
2.071544
 21
0.712526
 31
0.0
  0
LINE
  8
0
  6
CONTINUOUS
 62
     7
  5
7C2
 10
2.071544
 20
0.712526
 30
0.0
 11
2.070692
 21
0.714734
 31
0.0
  0
LINE
  8
0
  6
CONTINUOUS
 62
     7
  5
7C3
 10
2.070692
 20
0.714734
 30
0.0
 11
2.069909
 21
0.716901
 31
0.0
  0
LINE
  8
0
  6
CONTINUOUS
 62
     7
  5
7C4
 10
2.069909
 20
0.716901
 30
0.0
 11
2.069198
 21
0.719024
 31
0.0
  0
LINE
  8
0
  6
CONTINUOUS
 62
     7
  5
7C5
 10
2.069198
 20
0.719024
 30
0.0
 11
2.068558
 21
0.721102
 31
0.0
  0
LINE
  8
0
  6
CONTINUOUS
 62
     7
  5
7C6
 10
2.068558
 20
0.721102
 30
0.0
 11
2.06799
 21
0.723134
 31
0.0
  0
LINE
  8
0
  6
CONTINUOUS
 62
     7
  5
7C7
 10
2.06799
 20
0.723134
 30
0.0
 11
2.067495
 21
0.725117
 31
0.0
  0
LINE
  8
0
  6
CONTINUOUS
 62
     7
  5
7C8
 10
2.067495
 20
0.725117
 30
0.0
 11
2.067072
 21
0.72705
 31
0.0
  0
LINE
  8
0
  6
CONTINUOUS
 62
     7
  5
7C9
 10
2.067072
 20
0.72705
 30
0.0
 11
2.066723
 21
0.728933
 31
0.0
  0
LINE
  8
0
  6
CONTINUOUS
 62
     7
  5
7CA
 10
2.066723
 20
0.728933
 30
0.0
 11
2.066448
 21
0.730762
 31
0.0
  0
LINE
  8
0
  6
CONTINUOUS
 62
     7
  5
7CB
 10
2.066448
 20
0.730762
 30
0.0
 11
2.066246
 21
0.732537
 31
0.0
  0
LINE
  8
0
  6
CONTINUOUS
 62
     7
  5
7CC
 10
2.066246
 20
0.732537
 30
0.0
 11
2.066118
 21
0.734257
 31
0.0
  0
LINE
  8
0
  6
CONTINUOUS
 62
     7
  5
7CD
 10
2.066118
 20
0.734257
 30
0.0
 11
2.066065
 21
0.735919
 31
0.0
  0
LINE
  8
0
  6
CONTINUOUS
 62
     7
  5
7CE
 10
2.066065
 20
0.735919
 30
0.0
 11
2.066085
 21
0.737524
 31
0.0
  0
LINE
  8
0
  6
CONTINUOUS
 62
     7
  5
7CF
 10
2.066085
 20
0.737524
 30
0.0
 11
2.066179
 21
0.739068
 31
0.0
  0
LINE
  8
0
  6
CONTINUOUS
 62
     7
  5
7D0
 10
2.066179
 20
0.739068
 30
0.0
 11
2.066348
 21
0.740552
 31
0.0
  0
LINE
  8
0
  6
CONTINUOUS
 62
     7
  5
7D1
 10
2.066348
 20
0.740552
 30
0.0
 11
2.06659
 21
0.741975
 31
0.0
  0
LINE
  8
0
  6
CONTINUOUS
 62
     7
  5
7D2
 10
2.06659
 20
0.741975
 30
0.0
 11
2.066905
 21
0.743334
 31
0.0
  0
LINE
  8
0
  6
CONTINUOUS
 62
     7
  5
7D3
 10
2.066905
 20
0.743334
 30
0.0
 11
2.067295
 21
0.744629
 31
0.0
  0
LINE
  8
0
  6
CONTINUOUS
 62
     7
  5
7D4
 10
2.067295
 20
0.744629
 30
0.0
 11
2.067757
 21
0.745859
 31
0.0
  0
LINE
  8
0
  6
CONTINUOUS
 62
     7
  5
7D5
 10
2.067757
 20
0.745859
 30
0.0
 11
2.068292
 21
0.747023
 31
0.0
  0
LINE
  8
0
  6
CONTINUOUS
 62
     7
  5
7D6
 10
2.068292
 20
0.747023
 30
0.0
 11
2.068899
 21
0.74812
 31
0.0
  0
LINE
  8
0
  6
CONTINUOUS
 62
     7
  5
7D7
 10
2.068899
 20
0.74812
 30
0.0
 11
2.069578
 21
0.749149
 31
0.0
  0
LINE
  8
0
  6
CONTINUOUS
 62
     7
  5
7D8
 10
2.069578
 20
0.749149
 30
0.0
 11
2.070329
 21
0.75011
 31
0.0
  0
LINE
  8
0
  6
CONTINUOUS
 62
     7
  5
7D9
 10
2.070329
 20
0.75011
 30
0.0
 11
2.07115
 21
0.751001
 31
0.0
  0
LINE
  8
0
  6
CONTINUOUS
 62
     7
  5
7DA
 10
2.185048
 20
0.586299
 30
0.0
 11
2.161694
 21
0.562945
 31
0.0
  0
LINE
  8
0
  6
CONTINUOUS
 62
     7
  5
7DB
 10
2.073217
 20
0.80893
 30
0.0
 11
2.173041
 21
0.709107
 31
0.0
  0
LINE
  8
0
  6
CONTINUOUS
 62
     7
  5
7DC
 10
2.018217
 20
0.80893
 30
0.0
 11
2.073217
 21
0.80893
 31
0.0
  0
LINE
  8
0
  6
CONTINUOUS
 62
     7
  5
7DD
 10
1.966963
 20
0.757676
 30
0.0
 11
2.018217
 21
0.80893
 31
0.0
  0
LINE
  8
0
  6
CONTINUOUS
 62
     7
  5
7DE
 10
2.061992
 20
0.662648
 30
0.0
 11
2.085346
 21
0.686001
 31
0.0
  0
LINE
  8
0
  6
CONTINUOUS
 62
     7
  5
7DF
 10
2.018217
 20
-0.80893
 30
0.0
 11
1.966963
 21
-0.757676
 31
0.0
  0
LINE
  8
0
  6
CONTINUOUS
 62
     7
  5
7E0
 10
2.073217
 20
-0.80893
 30
0.0
 11
2.018217
 21
-0.80893
 31
0.0
  0
LINE
  8
0
  6
CONTINUOUS
 62
     7
  5
7E1
 10
2.173041
 20
-0.709107
 30
0.0
 11
2.073217
 21
-0.80893
 31
0.0
  0
LINE
  8
0
  6
CONTINUOUS
 62
     7
  5
7E2
 10
2.208154
 20
0.673994
 30
0.0
 11
2.340504
 21
0.541644
 31
0.0
  0
LINE
  8
0
  6
CONTINUOUS
 62
     7
  5
7E3
 10
1.707087
 20
-0.795
 30
0.0
 11
2.004287
 21
-0.795
 31
0.0
  0
LINE
  8
0
  6
CONTINUOUS
 62
     7
  5
7E4
 10
2.087148
 20
-0.795
 30
0.0
 11
2.677087
 21
-0.795
 31
0.0
  0
LINE
  8
0
  6
CONTINUOUS
 62
     7
  5
7E5
 10
2.004287
 20
0.795
 30
0.0
 11
1.707087
 21
0.795
 31
0.0
  0
LINE
  8
0
  6
CONTINUOUS
 62
     7
  5
7E6
 10
2.677087
 20
0.795
 30
0.0
 11
2.087148
 21
0.795
 31
0.0
  0
LINE
  8
0
  6
CONTINUOUS
 62
     7
  5
7E7
 10
1.707087
 20
0.71
 30
0.0
 11
1.707087
 21
0.792486
 31
0.0
  0
LINE
  8
0
  6
CONTINUOUS
 62
     7
  5
7E8
 10
1.707087
 20
0.208
 30
0.0
 11
1.707087
 21
0.71
 31
0.0
  0
LINE
  8
0
  6
CONTINUOUS
 62
     7
  5
7E9
 10
1.707087
 20
-0.208
 30
0.0
 11
1.707087
 21
0.208
 31
0.0
  0
LINE
  8
0
  6
CONTINUOUS
 62
     7
  5
7EA
 10
1.707087
 20
-0.71
 30
0.0
 11
1.707087
 21
-0.208
 31
0.0
  0
LINE
  8
0
  6
CONTINUOUS
 62
     7
  5
7EB
 10
1.707087
 20
-0.792486
 30
0.0
 11
1.707087
 21
-0.71
 31
0.0
  0
LINE
  8
0
  6
CONTINUOUS
 62
     7
  5
7EC
 10
0.571087
 20
0.8
 30
0.0
 11
0.571087
 21
0.7
 31
0.0
  0
LINE
  8
0
  6
CONTINUOUS
 62
     7
  5
7ED
 10
0.571087
 20
-0.7
 30
0.0
 11
0.571087
 21
-0.8
 31
0.0
  0
LINE
  8
0
  6
CONTINUOUS
 62
     7
  5
7EE
 10
0.491087
 20
0.700354
 30
0.0
 11
0.491087
 21
0.799
 31
0.0
  0
LINE
  8
0
  6
CONTINUOUS
 62
     7
  5
7EF
 10
0.441087
 20
-0.767717
 30
0.0
 11
0.441087
 21
-0.796998
 31
0.0
  0
LINE
  8
0
  6
CONTINUOUS
 62
     7
  5
7F0
 10
0.441087
 20
0.796998
 30
0.0
 11
0.441087
 21
0.767717
 31
0.0
  0
LINE
  8
0
  6
CONTINUOUS
 62
     7
  5
7F1
 10
1.001332
 20
0.24209
 30
0.0
 11
1.001332
 21
-0.242089
 31
0.0
  0
LINE
  8
0
  6
CONTINUOUS
 62
     7
  5
7F2
 10
1.044369
 20
0.478818
 30
0.0
 11
1.04399
 21
0.479501
 31
0.0
  0
LINE
  8
0
  6
CONTINUOUS
 62
     7
  5
7F3
 10
1.04399
 20
0.479501
 30
0.0
 11
1.043627
 21
0.480214
 31
0.0
  0
LINE
  8
0
  6
CONTINUOUS
 62
     7
  5
7F4
 10
1.043627
 20
0.480214
 30
0.0
 11
1.043281
 21
0.480958
 31
0.0
  0
LINE
  8
0
  6
CONTINUOUS
 62
     7
  5
7F5
 10
1.043281
 20
0.480958
 30
0.0
 11
1.042956
 21
0.481731
 31
0.0
  0
LINE
  8
0
  6
CONTINUOUS
 62
     7
  5
7F6
 10
1.042956
 20
0.481731
 30
0.0
 11
1.042654
 21
0.482532
 31
0.0
  0
LINE
  8
0
  6
CONTINUOUS
 62
     7
  5
7F7
 10
1.042654
 20
0.482532
 30
0.0
 11
1.042378
 21
0.483359
 31
0.0
  0
LINE
  8
0
  6
CONTINUOUS
 62
     7
  5
7F8
 10
1.042378
 20
0.483359
 30
0.0
 11
1.04213
 21
0.484211
 31
0.0
  0
LINE
  8
0
  6
CONTINUOUS
 62
     7
  5
7F9
 10
1.04213
 20
0.484211
 30
0.0
 11
1.041913
 21
0.485085
 31
0.0
  0
LINE
  8
0
  6
CONTINUOUS
 62
     7
  5
7FA
 10
1.041913
 20
0.485085
 30
0.0
 11
1.041729
 21
0.485981
 31
0.0
  0
LINE
  8
0
  6
CONTINUOUS
 62
     7
  5
7FB
 10
1.041729
 20
0.485981
 30
0.0
 11
1.041579
 21
0.486895
 31
0.0
  0
LINE
  8
0
  6
CONTINUOUS
 62
     7
  5
7FC
 10
1.041579
 20
0.486895
 30
0.0
 11
1.041466
 21
0.487826
 31
0.0
  0
LINE
  8
0
  6
CONTINUOUS
 62
     7
  5
7FD
 10
1.041466
 20
0.487826
 30
0.0
 11
1.041392
 21
0.488772
 31
0.0
  0
LINE
  8
0
  6
CONTINUOUS
 62
     7
  5
7FE
 10
1.041392
 20
0.488772
 30
0.0
 11
1.041357
 21
0.489731
 31
0.0
  0
LINE
  8
0
  6
CONTINUOUS
 62
     7
  5
7FF
 10
1.041357
 20
0.489731
 30
0.0
 11
1.041363
 21
0.490698
 31
0.0
  0
LINE
  8
0
  6
CONTINUOUS
 62
     7
  5
800
 10
1.041363
 20
0.490698
 30
0.0
 11
1.041412
 21
0.491673
 31
0.0
  0
LINE
  8
0
  6
CONTINUOUS
 62
     7
  5
801
 10
1.041412
 20
0.491673
 30
0.0
 11
1.041503
 21
0.492652
 31
0.0
  0
LINE
  8
0
  6
CONTINUOUS
 62
     7
  5
802
 10
1.041503
 20
0.492652
 30
0.0
 11
1.041638
 21
0.493631
 31
0.0
  0
LINE
  8
0
  6
CONTINUOUS
 62
     7
  5
803
 10
1.041638
 20
0.493631
 30
0.0
 11
1.041817
 21
0.494608
 31
0.0
  0
LINE
  8
0
  6
CONTINUOUS
 62
     7
  5
804
 10
1.041817
 20
0.494608
 30
0.0
 11
1.04204
 21
0.49558
 31
0.0
  0
LINE
  8
0
  6
CONTINUOUS
 62
     7
  5
805
 10
1.04204
 20
0.49558
 30
0.0
 11
1.042308
 21
0.496551
 31
0.0
  0
LINE
  8
0
  6
CONTINUOUS
 62
     7
  5
806
 10
1.042308
 20
0.496551
 30
0.0
 11
1.042629
 21
0.497535
 31
0.0
  0
LINE
  8
0
  6
CONTINUOUS
 62
     7
  5
807
 10
1.042629
 20
0.497535
 30
0.0
 11
1.043005
 21
0.498527
 31
0.0
  0
LINE
  8
0
  6
CONTINUOUS
 62
     7
  5
808
 10
1.043005
 20
0.498527
 30
0.0
 11
1.043437
 21
0.499523
 31
0.0
  0
LINE
  8
0
  6
CONTINUOUS
 62
     7
  5
809
 10
1.043437
 20
0.499523
 30
0.0
 11
1.043926
 21
0.500514
 31
0.0
  0
LINE
  8
0
  6
CONTINUOUS
 62
     7
  5
80A
 10
1.043926
 20
0.500514
 30
0.0
 11
1.044472
 21
0.501494
 31
0.0
  0
LINE
  8
0
  6
CONTINUOUS
 62
     7
  5
80B
 10
1.044472
 20
0.501494
 30
0.0
 11
1.045073
 21
0.502458
 31
0.0
  0
LINE
  8
0
  6
CONTINUOUS
 62
     7
  5
80C
 10
1.045073
 20
0.502458
 30
0.0
 11
1.045729
 21
0.503399
 31
0.0
  0
LINE
  8
0
  6
CONTINUOUS
 62
     7
  5
80D
 10
1.045729
 20
0.503399
 30
0.0
 11
1.046438
 21
0.504313
 31
0.0
  0
LINE
  8
0
  6
CONTINUOUS
 62
     7
  5
80E
 10
1.046438
 20
0.504313
 30
0.0
 11
1.047197
 21
0.505194
 31
0.0
  0
LINE
  8
0
  6
CONTINUOUS
 62
     7
  5
80F
 10
1.047197
 20
0.505194
 30
0.0
 11
1.048004
 21
0.506037
 31
0.0
  0
LINE
  8
0
  6
CONTINUOUS
 62
     7
  5
810
 10
1.048004
 20
0.506037
 30
0.0
 11
1.048855
 21
0.50684
 31
0.0
  0
LINE
  8
0
  6
CONTINUOUS
 62
     7
  5
811
 10
1.048855
 20
0.50684
 30
0.0
 11
1.049746
 21
0.507596
 31
0.0
  0
LINE
  8
0
  6
CONTINUOUS
 62
     7
  5
812
 10
1.049746
 20
0.507596
 30
0.0
 11
1.050672
 21
0.508302
 31
0.0
  0
LINE
  8
0
  6
CONTINUOUS
 62
     7
  5
813
 10
1.050672
 20
0.508302
 30
0.0
 11
1.051626
 21
0.508955
 31
0.0
  0
LINE
  8
0
  6
CONTINUOUS
 62
     7
  5
814
 10
1.051626
 20
0.508955
 30
0.0
 11
1.052604
 21
0.509553
 31
0.0
  0
LINE
  8
0
  6
CONTINUOUS
 62
     7
  5
815
 10
0.990104
 20
0.617807
 30
0.0
 11
0.989172
 21
0.617298
 31
0.0
  0
LINE
  8
0
  6
CONTINUOUS
 62
     7
  5
816
 10
0.989172
 20
0.617298
 30
0.0
 11
0.988206
 21
0.616828
 31
0.0
  0
LINE
  8
0
  6
CONTINUOUS
 62
     7
  5
817
 10
0.988206
 20
0.616828
 30
0.0
 11
0.98721
 21
0.616401
 31
0.0
  0
LINE
  8
0
  6
CONTINUOUS
 62
     7
  5
818
 10
0.98721
 20
0.616401
 30
0.0
 11
0.986187
 21
0.616021
 31
0.0
  0
LINE
  8
0
  6
CONTINUOUS
 62
     7
  5
819
 10
0.986187
 20
0.616021
 30
0.0
 11
0.985142
 21
0.615689
 31
0.0
  0
LINE
  8
0
  6
CONTINUOUS
 62
     7
  5
81A
 10
0.985142
 20
0.615689
 30
0.0
 11
0.98408
 21
0.615407
 31
0.0
  0
LINE
  8
0
  6
CONTINUOUS
 62
     7
  5
81B
 10
0.98408
 20
0.615407
 30
0.0
 11
0.983005
 21
0.615178
 31
0.0
  0
LINE
  8
0
  6
CONTINUOUS
 62
     7
  5
81C
 10
0.983005
 20
0.615178
 30
0.0
 11
0.981922
 21
0.615002
 31
0.0
  0
LINE
  8
0
  6
CONTINUOUS
 62
     7
  5
81D
 10
0.981922
 20
0.615002
 30
0.0
 11
0.980835
 21
0.61488
 31
0.0
  0
LINE
  8
0
  6
CONTINUOUS
 62
     7
  5
81E
 10
0.980835
 20
0.61488
 30
0.0
 11
0.979749
 21
0.61481
 31
0.0
  0
LINE
  8
0
  6
CONTINUOUS
 62
     7
  5
81F
 10
0.979749
 20
0.61481
 30
0.0
 11
0.978668
 21
0.614793
 31
0.0
  0
LINE
  8
0
  6
CONTINUOUS
 62
     7
  5
820
 10
0.978668
 20
0.614793
 30
0.0
 11
0.977596
 21
0.614827
 31
0.0
  0
LINE
  8
0
  6
CONTINUOUS
 62
     7
  5
821
 10
0.977596
 20
0.614827
 30
0.0
 11
0.97654
 21
0.614912
 31
0.0
  0
LINE
  8
0
  6
CONTINUOUS
 62
     7
  5
822
 10
0.97654
 20
0.614912
 30
0.0
 11
0.975502
 21
0.615043
 31
0.0
  0
LINE
  8
0
  6
CONTINUOUS
 62
     7
  5
823
 10
0.975502
 20
0.615043
 30
0.0
 11
0.974489
 21
0.61522
 31
0.0
  0
LINE
  8
0
  6
CONTINUOUS
 62
     7
  5
824
 10
0.974489
 20
0.61522
 30
0.0
 11
0.973504
 21
0.615438
 31
0.0
  0
LINE
  8
0
  6
CONTINUOUS
 62
     7
  5
825
 10
0.973504
 20
0.615438
 30
0.0
 11
0.972547
 21
0.615694
 31
0.0
  0
LINE
  8
0
  6
CONTINUOUS
 62
     7
  5
826
 10
0.972547
 20
0.615694
 30
0.0
 11
0.971602
 21
0.615993
 31
0.0
  0
LINE
  8
0
  6
CONTINUOUS
 62
     7
  5
827
 10
0.971602
 20
0.615993
 30
0.0
 11
0.970668
 21
0.616334
 31
0.0
  0
LINE
  8
0
  6
CONTINUOUS
 62
     7
  5
828
 10
0.970668
 20
0.616334
 30
0.0
 11
0.969749
 21
0.616717
 31
0.0
  0
LINE
  8
0
  6
CONTINUOUS
 62
     7
  5
829
 10
0.969749
 20
0.616717
 30
0.0
 11
0.968847
 21
0.61714
 31
0.0
  0
LINE
  8
0
  6
CONTINUOUS
 62
     7
  5
82A
 10
0.968847
 20
0.61714
 30
0.0
 11
0.967967
 21
0.617602
 31
0.0
  0
LINE
  8
0
  6
CONTINUOUS
 62
     7
  5
82B
 10
0.967967
 20
0.617602
 30
0.0
 11
0.96711
 21
0.6181
 31
0.0
  0
LINE
  8
0
  6
CONTINUOUS
 62
     7
  5
82C
 10
0.96711
 20
0.6181
 30
0.0
 11
0.96628
 21
0.618634
 31
0.0
  0
LINE
  8
0
  6
CONTINUOUS
 62
     7
  5
82D
 10
0.96628
 20
0.618634
 30
0.0
 11
0.965479
 21
0.619199
 31
0.0
  0
LINE
  8
0
  6
CONTINUOUS
 62
     7
  5
82E
 10
0.965479
 20
0.619199
 30
0.0
 11
0.964708
 21
0.619795
 31
0.0
  0
LINE
  8
0
  6
CONTINUOUS
 62
     7
  5
82F
 10
0.964708
 20
0.619795
 30
0.0
 11
0.96397
 21
0.620419
 31
0.0
  0
LINE
  8
0
  6
CONTINUOUS
 62
     7
  5
830
 10
0.96397
 20
0.620419
 30
0.0
 11
0.963266
 21
0.621067
 31
0.0
  0
LINE
  8
0
  6
CONTINUOUS
 62
     7
  5
831
 10
0.963266
 20
0.621067
 30
0.0
 11
0.962597
 21
0.621737
 31
0.0
  0
LINE
  8
0
  6
CONTINUOUS
 62
     7
  5
832
 10
0.962597
 20
0.621737
 30
0.0
 11
0.961964
 21
0.622427
 31
0.0
  0
LINE
  8
0
  6
CONTINUOUS
 62
     7
  5
833
 10
0.961964
 20
0.622427
 30
0.0
 11
0.961369
 21
0.623132
 31
0.0
  0
LINE
  8
0
  6
CONTINUOUS
 62
     7
  5
834
 10
0.961369
 20
0.623132
 30
0.0
 11
0.960811
 21
0.62385
 31
0.0
  0
LINE
  8
0
  6
CONTINUOUS
 62
     7
  5
835
 10
0.960811
 20
0.62385
 30
0.0
 11
0.960292
 21
0.624576
 31
0.0
  0
LINE
  8
0
  6
CONTINUOUS
 62
     7
  5
836
 10
0.960292
 20
0.624576
 30
0.0
 11
0.959811
 21
0.625308
 31
0.0
  0
LINE
  8
0
  6
CONTINUOUS
 62
     7
  5
837
 10
0.959811
 20
0.625308
 30
0.0
 11
0.959369
 21
0.626042
 31
0.0
  0
LINE
  8
0
  6
CONTINUOUS
 62
     7
  5
838
 10
1.138933
 20
0.789246
 30
0.0
 11
1.138935
 21
0.789243
 31
0.0
  0
LINE
  8
0
  6
CONTINUOUS
 62
     7
  5
839
 10
1.138935
 20
0.789243
 30
0.0
 11
1.138942
 21
0.789234
 31
0.0
  0
LINE
  8
0
  6
CONTINUOUS
 62
     7
  5
83A
 10
1.138942
 20
0.789234
 30
0.0
 11
1.138953
 21
0.789218
 31
0.0
  0
LINE
  8
0
  6
CONTINUOUS
 62
     7
  5
83B
 10
1.138953
 20
0.789218
 30
0.0
 11
1.138969
 21
0.789197
 31
0.0
  0
LINE
  8
0
  6
CONTINUOUS
 62
     7
  5
83C
 10
1.138969
 20
0.789197
 30
0.0
 11
1.138989
 21
0.789168
 31
0.0
  0
LINE
  8
0
  6
CONTINUOUS
 62
     7
  5
83D
 10
1.138989
 20
0.789168
 30
0.0
 11
1.139014
 21
0.789133
 31
0.0
  0
LINE
  8
0
  6
CONTINUOUS
 62
     7
  5
83E
 10
1.139014
 20
0.789133
 30
0.0
 11
1.139044
 21
0.789092
 31
0.0
  0
LINE
  8
0
  6
CONTINUOUS
 62
     7
  5
83F
 10
1.139044
 20
0.789092
 30
0.0
 11
1.139078
 21
0.789044
 31
0.0
  0
LINE
  8
0
  6
CONTINUOUS
 62
     7
  5
840
 10
1.139078
 20
0.789044
 30
0.0
 11
1.139117
 21
0.788989
 31
0.0
  0
LINE
  8
0
  6
CONTINUOUS
 62
     7
  5
841
 10
1.139117
 20
0.788989
 30
0.0
 11
1.139161
 21
0.788927
 31
0.0
  0
LINE
  8
0
  6
CONTINUOUS
 62
     7
  5
842
 10
1.139161
 20
0.788927
 30
0.0
 11
1.13921
 21
0.788859
 31
0.0
  0
LINE
  8
0
  6
CONTINUOUS
 62
     7
  5
843
 10
1.13921
 20
0.788859
 30
0.0
 11
1.139263
 21
0.788783
 31
0.0
  0
LINE
  8
0
  6
CONTINUOUS
 62
     7
  5
844
 10
1.139263
 20
0.788783
 30
0.0
 11
1.139321
 21
0.788701
 31
0.0
  0
LINE
  8
0
  6
CONTINUOUS
 62
     7
  5
845
 10
1.139321
 20
0.788701
 30
0.0
 11
1.139384
 21
0.788611
 31
0.0
  0
LINE
  8
0
  6
CONTINUOUS
 62
     7
  5
846
 10
1.139384
 20
0.788611
 30
0.0
 11
1.139451
 21
0.788514
 31
0.0
  0
LINE
  8
0
  6
CONTINUOUS
 62
     7
  5
847
 10
1.139451
 20
0.788514
 30
0.0
 11
1.139523
 21
0.788411
 31
0.0
  0
LINE
  8
0
  6
CONTINUOUS
 62
     7
  5
848
 10
1.139523
 20
0.788411
 30
0.0
 11
1.139599
 21
0.788299
 31
0.0
  0
LINE
  8
0
  6
CONTINUOUS
 62
     7
  5
849
 10
1.139599
 20
0.788299
 30
0.0
 11
1.13968
 21
0.788181
 31
0.0
  0
LINE
  8
0
  6
CONTINUOUS
 62
     7
  5
84A
 10
1.13968
 20
0.788181
 30
0.0
 11
1.139766
 21
0.788055
 31
0.0
  0
LINE
  8
0
  6
CONTINUOUS
 62
     7
  5
84B
 10
1.139766
 20
0.788055
 30
0.0
 11
1.139856
 21
0.787922
 31
0.0
  0
LINE
  8
0
  6
CONTINUOUS
 62
     7
  5
84C
 10
1.139856
 20
0.787922
 30
0.0
 11
1.139951
 21
0.787781
 31
0.0
  0
LINE
  8
0
  6
CONTINUOUS
 62
     7
  5
84D
 10
1.139951
 20
0.787781
 30
0.0
 11
1.140049
 21
0.787633
 31
0.0
  0
LINE
  8
0
  6
CONTINUOUS
 62
     7
  5
84E
 10
1.140049
 20
0.787633
 30
0.0
 11
1.140152
 21
0.787477
 31
0.0
  0
LINE
  8
0
  6
CONTINUOUS
 62
     7
  5
84F
 10
1.140152
 20
0.787477
 30
0.0
 11
1.140259
 21
0.787313
 31
0.0
  0
LINE
  8
0
  6
CONTINUOUS
 62
     7
  5
850
 10
1.140259
 20
0.787313
 30
0.0
 11
1.14037
 21
0.787142
 31
0.0
  0
LINE
  8
0
  6
CONTINUOUS
 62
     7
  5
851
 10
1.14037
 20
0.787142
 30
0.0
 11
1.140486
 21
0.786963
 31
0.0
  0
LINE
  8
0
  6
CONTINUOUS
 62
     7
  5
852
 10
1.140486
 20
0.786963
 30
0.0
 11
1.140604
 21
0.786777
 31
0.0
  0
LINE
  8
0
  6
CONTINUOUS
 62
     7
  5
853
 10
1.140604
 20
0.786777
 30
0.0
 11
1.140727
 21
0.786582
 31
0.0
  0
LINE
  8
0
  6
CONTINUOUS
 62
     7
  5
854
 10
1.140727
 20
0.786582
 30
0.0
 11
1.140853
 21
0.78638
 31
0.0
  0
LINE
  8
0
  6
CONTINUOUS
 62
     7
  5
855
 10
1.140853
 20
0.78638
 30
0.0
 11
1.140983
 21
0.78617
 31
0.0
  0
LINE
  8
0
  6
CONTINUOUS
 62
     7
  5
856
 10
1.140983
 20
0.78617
 30
0.0
 11
1.141116
 21
0.785952
 31
0.0
  0
LINE
  8
0
  6
CONTINUOUS
 62
     7
  5
857
 10
1.141116
 20
0.785952
 30
0.0
 11
1.141253
 21
0.785726
 31
0.0
  0
LINE
  8
0
  6
CONTINUOUS
 62
     7
  5
858
 10
1.141253
 20
0.785726
 30
0.0
 11
1.141392
 21
0.785492
 31
0.0
  0
LINE
  8
0
  6
CONTINUOUS
 62
     7
  5
859
 10
1.141392
 20
0.785492
 30
0.0
 11
1.141534
 21
0.78525
 31
0.0
  0
LINE
  8
0
  6
CONTINUOUS
 62
     7
  5
85A
 10
1.141534
 20
0.78525
 30
0.0
 11
1.14168
 21
0.785001
 31
0.0
  0
ARC
  8
0
  6
CONTINUOUS
 62
     7
  5
85B
 10
1.098378
 20
0.760001
 30
0.0
 40
0.05
 50
30.0
 51
120.0
  0
ARC
  8
0
  6
CONTINUOUS
 62
     7
  5
85C
 10
1.063854
 20
0.490068
 30
0.0
 40
0.0225
 50
120.0
 51
210.0
  0
LINE
  8
0
  6
CONTINUOUS
 62
     7
  5
85D
 10
1.238683
 20
0.616986
 30
0.0
 11
1.27668
 21
0.551174
 31
0.0
  0
LINE
  8
0
  6
CONTINUOUS
 62
     7
  5
85E
 10
1.238683
 20
0.616986
 30
0.0
 11
1.052604
 21
0.509553
 31
0.0
  0
LINE
  8
0
  6
CONTINUOUS
 62
     7
  5
85F
 10
1.14168
 20
-0.784999
 30
0.0
 11
1.141534
 21
-0.785249
 31
0.0
  0
LINE
  8
0
  6
CONTINUOUS
 62
     7
  5
860
 10
1.141534
 20
-0.785249
 30
0.0
 11
1.141392
 21
-0.785491
 31
0.0
  0
LINE
  8
0
  6
CONTINUOUS
 62
     7
  5
861
 10
1.141392
 20
-0.785491
 30
0.0
 11
1.141252
 21
-0.785725
 31
0.0
  0
LINE
  8
0
  6
CONTINUOUS
 62
     7
  5
862
 10
1.141252
 20
-0.785725
 30
0.0
 11
1.141116
 21
-0.785951
 31
0.0
  0
LINE
  8
0
  6
CONTINUOUS
 62
     7
  5
863
 10
1.141116
 20
-0.785951
 30
0.0
 11
1.140983
 21
-0.786169
 31
0.0
  0
LINE
  8
0
  6
CONTINUOUS
 62
     7
  5
864
 10
1.140983
 20
-0.786169
 30
0.0
 11
1.140853
 21
-0.786379
 31
0.0
  0
LINE
  8
0
  6
CONTINUOUS
 62
     7
  5
865
 10
1.140853
 20
-0.786379
 30
0.0
 11
1.140727
 21
-0.786581
 31
0.0
  0
LINE
  8
0
  6
CONTINUOUS
 62
     7
  5
866
 10
1.140727
 20
-0.786581
 30
0.0
 11
1.140604
 21
-0.786776
 31
0.0
  0
LINE
  8
0
  6
CONTINUOUS
 62
     7
  5
867
 10
1.140604
 20
-0.786776
 30
0.0
 11
1.140485
 21
-0.786962
 31
0.0
  0
LINE
  8
0
  6
CONTINUOUS
 62
     7
  5
868
 10
1.140485
 20
-0.786962
 30
0.0
 11
1.14037
 21
-0.787141
 31
0.0
  0
LINE
  8
0
  6
CONTINUOUS
 62
     7
  5
869
 10
1.14037
 20
-0.787141
 30
0.0
 11
1.140259
 21
-0.787312
 31
0.0
  0
LINE
  8
0
  6
CONTINUOUS
 62
     7
  5
86A
 10
1.140259
 20
-0.787312
 30
0.0
 11
1.140152
 21
-0.787476
 31
0.0
  0
LINE
  8
0
  6
CONTINUOUS
 62
     7
  5
86B
 10
1.140152
 20
-0.787476
 30
0.0
 11
1.140049
 21
-0.787632
 31
0.0
  0
LINE
  8
0
  6
CONTINUOUS
 62
     7
  5
86C
 10
1.140049
 20
-0.787632
 30
0.0
 11
1.13995
 21
-0.78778
 31
0.0
  0
LINE
  8
0
  6
CONTINUOUS
 62
     7
  5
86D
 10
1.13995
 20
-0.78778
 30
0.0
 11
1.139856
 21
-0.787921
 31
0.0
  0
LINE
  8
0
  6
CONTINUOUS
 62
     7
  5
86E
 10
1.139856
 20
-0.787921
 30
0.0
 11
1.139766
 21
-0.788054
 31
0.0
  0
LINE
  8
0
  6
CONTINUOUS
 62
     7
  5
86F
 10
1.139766
 20
-0.788054
 30
0.0
 11
1.13968
 21
-0.78818
 31
0.0
  0
LINE
  8
0
  6
CONTINUOUS
 62
     7
  5
870
 10
1.13968
 20
-0.78818
 30
0.0
 11
1.139599
 21
-0.788299
 31
0.0
  0
LINE
  8
0
  6
CONTINUOUS
 62
     7
  5
871
 10
1.139599
 20
-0.788299
 30
0.0
 11
1.139522
 21
-0.78841
 31
0.0
  0
LINE
  8
0
  6
CONTINUOUS
 62
     7
  5
872
 10
1.139522
 20
-0.78841
 30
0.0
 11
1.13945
 21
-0.788514
 31
0.0
  0
LINE
  8
0
  6
CONTINUOUS
 62
     7
  5
873
 10
1.13945
 20
-0.788514
 30
0.0
 11
1.139383
 21
-0.788611
 31
0.0
  0
LINE
  8
0
  6
CONTINUOUS
 62
     7
  5
874
 10
1.139383
 20
-0.788611
 30
0.0
 11
1.13932
 21
-0.7887
 31
0.0
  0
LINE
  8
0
  6
CONTINUOUS
 62
     7
  5
875
 10
1.13932
 20
-0.7887
 30
0.0
 11
1.139262
 21
-0.788783
 31
0.0
  0
LINE
  8
0
  6
CONTINUOUS
 62
     7
  5
876
 10
1.139262
 20
-0.788783
 30
0.0
 11
1.139209
 21
-0.788858
 31
0.0
  0
LINE
  8
0
  6
CONTINUOUS
 62
     7
  5
877
 10
1.139209
 20
-0.788858
 30
0.0
 11
1.139161
 21
-0.788927
 31
0.0
  0
LINE
  8
0
  6
CONTINUOUS
 62
     7
  5
878
 10
1.139161
 20
-0.788927
 30
0.0
 11
1.139117
 21
-0.788989
 31
0.0
  0
LINE
  8
0
  6
CONTINUOUS
 62
     7
  5
879
 10
1.139117
 20
-0.788989
 30
0.0
 11
1.139078
 21
-0.789043
 31
0.0
  0
LINE
  8
0
  6
CONTINUOUS
 62
     7
  5
87A
 10
1.139078
 20
-0.789043
 30
0.0
 11
1.139043
 21
-0.789092
 31
0.0
  0
LINE
  8
0
  6
CONTINUOUS
 62
     7
  5
87B
 10
1.139043
 20
-0.789092
 30
0.0
 11
1.139014
 21
-0.789133
 31
0.0
  0
LINE
  8
0
  6
CONTINUOUS
 62
     7
  5
87C
 10
1.139014
 20
-0.789133
 30
0.0
 11
1.138989
 21
-0.789168
 31
0.0
  0
LINE
  8
0
  6
CONTINUOUS
 62
     7
  5
87D
 10
1.138989
 20
-0.789168
 30
0.0
 11
1.138968
 21
-0.789196
 31
0.0
  0
LINE
  8
0
  6
CONTINUOUS
 62
     7
  5
87E
 10
1.138968
 20
-0.789196
 30
0.0
 11
1.138952
 21
-0.789218
 31
0.0
  0
LINE
  8
0
  6
CONTINUOUS
 62
     7
  5
87F
 10
1.138952
 20
-0.789218
 30
0.0
 11
1.138941
 21
-0.789234
 31
0.0
  0
LINE
  8
0
  6
CONTINUOUS
 62
     7
  5
880
 10
1.138941
 20
-0.789234
 30
0.0
 11
1.138935
 21
-0.789243
 31
0.0
  0
LINE
  8
0
  6
CONTINUOUS
 62
     7
  5
881
 10
1.138935
 20
-0.789243
 30
0.0
 11
1.138932
 21
-0.789246
 31
0.0
  0
LINE
  8
0
  6
CONTINUOUS
 62
     7
  5
882
 10
0.959369
 20
-0.626042
 30
0.0
 11
0.959811
 21
-0.625308
 31
0.0
  0
LINE
  8
0
  6
CONTINUOUS
 62
     7
  5
883
 10
0.959811
 20
-0.625308
 30
0.0
 11
0.960291
 21
-0.624577
 31
0.0
  0
LINE
  8
0
  6
CONTINUOUS
 62
     7
  5
884
 10
0.960291
 20
-0.624577
 30
0.0
 11
0.96081
 21
-0.623852
 31
0.0
  0
LINE
  8
0
  6
CONTINUOUS
 62
     7
  5
885
 10
0.96081
 20
-0.623852
 30
0.0
 11
0.961366
 21
-0.623136
 31
0.0
  0
LINE
  8
0
  6
CONTINUOUS
 62
     7
  5
886
 10
0.961366
 20
-0.623136
 30
0.0
 11
0.96196
 21
-0.622432
 31
0.0
  0
LINE
  8
0
  6
CONTINUOUS
 62
     7
  5
887
 10
0.96196
 20
-0.622432
 30
0.0
 11
0.962591
 21
-0.621744
 31
0.0
  0
LINE
  8
0
  6
CONTINUOUS
 62
     7
  5
888
 10
0.962591
 20
-0.621744
 30
0.0
 11
0.963258
 21
-0.621075
 31
0.0
  0
LINE
  8
0
  6
CONTINUOUS
 62
     7
  5
889
 10
0.963258
 20
-0.621075
 30
0.0
 11
0.96396
 21
-0.620428
 31
0.0
  0
LINE
  8
0
  6
CONTINUOUS
 62
     7
  5
88A
 10
0.96396
 20
-0.620428
 30
0.0
 11
0.964695
 21
-0.619806
 31
0.0
  0
LINE
  8
0
  6
CONTINUOUS
 62
     7
  5
88B
 10
0.964695
 20
-0.619806
 30
0.0
 11
0.965464
 21
-0.619211
 31
0.0
  0
LINE
  8
0
  6
CONTINUOUS
 62
     7
  5
88C
 10
0.965464
 20
-0.619211
 30
0.0
 11
0.966263
 21
-0.618645
 31
0.0
  0
LINE
  8
0
  6
CONTINUOUS
 62
     7
  5
88D
 10
0.966263
 20
-0.618645
 30
0.0
 11
0.967091
 21
-0.618112
 31
0.0
  0
LINE
  8
0
  6
CONTINUOUS
 62
     7
  5
88E
 10
0.967091
 20
-0.618112
 30
0.0
 11
0.967946
 21
-0.617613
 31
0.0
  0
LINE
  8
0
  6
CONTINUOUS
 62
     7
  5
88F
 10
0.967946
 20
-0.617613
 30
0.0
 11
0.968826
 21
-0.617151
 31
0.0
  0
LINE
  8
0
  6
CONTINUOUS
 62
     7
  5
890
 10
0.968826
 20
-0.617151
 30
0.0
 11
0.969728
 21
-0.616726
 31
0.0
  0
LINE
  8
0
  6
CONTINUOUS
 62
     7
  5
891
 10
0.969728
 20
-0.616726
 30
0.0
 11
0.970649
 21
-0.616342
 31
0.0
  0
LINE
  8
0
  6
CONTINUOUS
 62
     7
  5
892
 10
0.970649
 20
-0.616342
 30
0.0
 11
0.971587
 21
-0.615998
 31
0.0
  0
LINE
  8
0
  6
CONTINUOUS
 62
     7
  5
893
 10
0.971587
 20
-0.615998
 30
0.0
 11
0.972537
 21
-0.615697
 31
0.0
  0
LINE
  8
0
  6
CONTINUOUS
 62
     7
  5
894
 10
0.972537
 20
-0.615697
 30
0.0
 11
0.973497
 21
-0.615439
 31
0.0
  0
LINE
  8
0
  6
CONTINUOUS
 62
     7
  5
895
 10
0.973497
 20
-0.615439
 30
0.0
 11
0.974473
 21
-0.615223
 31
0.0
  0
LINE
  8
0
  6
CONTINUOUS
 62
     7
  5
896
 10
0.974473
 20
-0.615223
 30
0.0
 11
0.97548
 21
-0.615047
 31
0.0
  0
LINE
  8
0
  6
CONTINUOUS
 62
     7
  5
897
 10
0.97548
 20
-0.615047
 30
0.0
 11
0.976513
 21
-0.614914
 31
0.0
  0
LINE
  8
0
  6
CONTINUOUS
 62
     7
  5
898
 10
0.976513
 20
-0.614914
 30
0.0
 11
0.977567
 21
-0.614829
 31
0.0
  0
LINE
  8
0
  6
CONTINUOUS
 62
     7
  5
899
 10
0.977567
 20
-0.614829
 30
0.0
 11
0.978638
 21
-0.614793
 31
0.0
  0
LINE
  8
0
  6
CONTINUOUS
 62
     7
  5
89A
 10
0.978638
 20
-0.614793
 30
0.0
 11
0.97972
 21
-0.614809
 31
0.0
  0
LINE
  8
0
  6
CONTINUOUS
 62
     7
  5
89B
 10
0.97972
 20
-0.614809
 30
0.0
 11
0.980809
 21
-0.614877
 31
0.0
  0
LINE
  8
0
  6
CONTINUOUS
 62
     7
  5
89C
 10
0.980809
 20
-0.614877
 30
0.0
 11
0.981899
 21
-0.614999
 31
0.0
  0
LINE
  8
0
  6
CONTINUOUS
 62
     7
  5
89D
 10
0.981899
 20
-0.614999
 30
0.0
 11
0.982985
 21
-0.615175
 31
0.0
  0
LINE
  8
0
  6
CONTINUOUS
 62
     7
  5
89E
 10
0.982985
 20
-0.615175
 30
0.0
 11
0.984064
 21
-0.615404
 31
0.0
  0
LINE
  8
0
  6
CONTINUOUS
 62
     7
  5
89F
 10
0.984064
 20
-0.615404
 30
0.0
 11
0.98513
 21
-0.615685
 31
0.0
  0
LINE
  8
0
  6
CONTINUOUS
 62
     7
  5
8A0
 10
0.98513
 20
-0.615685
 30
0.0
 11
0.986178
 21
-0.616018
 31
0.0
  0
LINE
  8
0
  6
CONTINUOUS
 62
     7
  5
8A1
 10
0.986178
 20
-0.616018
 30
0.0
 11
0.987205
 21
-0.616399
 31
0.0
  0
LINE
  8
0
  6
CONTINUOUS
 62
     7
  5
8A2
 10
0.987205
 20
-0.616399
 30
0.0
 11
0.988204
 21
-0.616827
 31
0.0
  0
LINE
  8
0
  6
CONTINUOUS
 62
     7
  5
8A3
 10
0.988204
 20
-0.616827
 30
0.0
 11
0.989172
 21
-0.617297
 31
0.0
  0
LINE
  8
0
  6
CONTINUOUS
 62
     7
  5
8A4
 10
0.989172
 20
-0.617297
 30
0.0
 11
0.990104
 21
-0.617807
 31
0.0
  0
LINE
  8
0
  6
CONTINUOUS
 62
     7
  5
8A5
 10
1.052604
 20
-0.509553
 30
0.0
 11
1.051625
 21
-0.508954
 31
0.0
  0
LINE
  8
0
  6
CONTINUOUS
 62
     7
  5
8A6
 10
1.051625
 20
-0.508954
 30
0.0
 11
1.050667
 21
-0.508298
 31
0.0
  0
LINE
  8
0
  6
CONTINUOUS
 62
     7
  5
8A7
 10
1.050667
 20
-0.508298
 30
0.0
 11
1.049736
 21
-0.507587
 31
0.0
  0
LINE
  8
0
  6
CONTINUOUS
 62
     7
  5
8A8
 10
1.049736
 20
-0.507587
 30
0.0
 11
1.04884
 21
-0.506825
 31
0.0
  0
LINE
  8
0
  6
CONTINUOUS
 62
     7
  5
8A9
 10
1.04884
 20
-0.506825
 30
0.0
 11
1.047983
 21
-0.506016
 31
0.0
  0
LINE
  8
0
  6
CONTINUOUS
 62
     7
  5
8AA
 10
1.047983
 20
-0.506016
 30
0.0
 11
1.047171
 21
-0.505165
 31
0.0
  0
LINE
  8
0
  6
CONTINUOUS
 62
     7
  5
8AB
 10
1.047171
 20
-0.505165
 30
0.0
 11
1.046408
 21
-0.504276
 31
0.0
  0
LINE
  8
0
  6
CONTINUOUS
 62
     7
  5
8AC
 10
1.046408
 20
-0.504276
 30
0.0
 11
1.045697
 21
-0.503355
 31
0.0
  0
LINE
  8
0
  6
CONTINUOUS
 62
     7
  5
8AD
 10
1.045697
 20
-0.503355
 30
0.0
 11
1.04504
 21
-0.502408
 31
0.0
  0
LINE
  8
0
  6
CONTINUOUS
 62
     7
  5
8AE
 10
1.04504
 20
-0.502408
 30
0.0
 11
1.044439
 21
-0.50144
 31
0.0
  0
LINE
  8
0
  6
CONTINUOUS
 62
     7
  5
8AF
 10
1.044439
 20
-0.50144
 30
0.0
 11
1.043897
 21
-0.500458
 31
0.0
  0
LINE
  8
0
  6
CONTINUOUS
 62
     7
  5
8B0
 10
1.043897
 20
-0.500458
 30
0.0
 11
1.043412
 21
-0.499469
 31
0.0
  0
LINE
  8
0
  6
CONTINUOUS
 62
     7
  5
8B1
 10
1.043412
 20
-0.499469
 30
0.0
 11
1.042986
 21
-0.498481
 31
0.0
  0
LINE
  8
0
  6
CONTINUOUS
 62
     7
  5
8B2
 10
1.042986
 20
-0.498481
 30
0.0
 11
1.042617
 21
-0.497501
 31
0.0
  0
LINE
  8
0
  6
CONTINUOUS
 62
     7
  5
8B3
 10
1.042617
 20
-0.497501
 30
0.0
 11
1.042303
 21
-0.496531
 31
0.0
  0
LINE
  8
0
  6
CONTINUOUS
 62
     7
  5
8B4
 10
1.042303
 20
-0.496531
 30
0.0
 11
1.042034
 21
-0.495557
 31
0.0
  0
LINE
  8
0
  6
CONTINUOUS
 62
     7
  5
8B5
 10
1.042034
 20
-0.495557
 30
0.0
 11
1.041811
 21
-0.494577
 31
0.0
  0
LINE
  8
0
  6
CONTINUOUS
 62
     7
  5
8B6
 10
1.041811
 20
-0.494577
 30
0.0
 11
1.041632
 21
-0.493594
 31
0.0
  0
LINE
  8
0
  6
CONTINUOUS
 62
     7
  5
8B7
 10
1.041632
 20
-0.493594
 30
0.0
 11
1.041498
 21
-0.492611
 31
0.0
  0
LINE
  8
0
  6
CONTINUOUS
 62
     7
  5
8B8
 10
1.041498
 20
-0.492611
 30
0.0
 11
1.041409
 21
-0.491631
 31
0.0
  0
LINE
  8
0
  6
CONTINUOUS
 62
     7
  5
8B9
 10
1.041409
 20
-0.491631
 30
0.0
 11
1.041362
 21
-0.490657
 31
0.0
  0
LINE
  8
0
  6
CONTINUOUS
 62
     7
  5
8BA
 10
1.041362
 20
-0.490657
 30
0.0
 11
1.041357
 21
-0.489691
 31
0.0
  0
LINE
  8
0
  6
CONTINUOUS
 62
     7
  5
8BB
 10
1.041357
 20
-0.489691
 30
0.0
 11
1.041394
 21
-0.488735
 31
0.0
  0
LINE
  8
0
  6
CONTINUOUS
 62
     7
  5
8BC
 10
1.041394
 20
-0.488735
 30
0.0
 11
1.04147
 21
-0.487793
 31
0.0
  0
LINE
  8
0
  6
CONTINUOUS
 62
     7
  5
8BD
 10
1.04147
 20
-0.487793
 30
0.0
 11
1.041583
 21
-0.486865
 31
0.0
  0
LINE
  8
0
  6
CONTINUOUS
 62
     7
  5
8BE
 10
1.041583
 20
-0.486865
 30
0.0
 11
1.041733
 21
-0.485955
 31
0.0
  0
LINE
  8
0
  6
CONTINUOUS
 62
     7
  5
8BF
 10
1.041733
 20
-0.485955
 30
0.0
 11
1.041918
 21
-0.485064
 31
0.0
  0
LINE
  8
0
  6
CONTINUOUS
 62
     7
  5
8C0
 10
1.041918
 20
-0.485064
 30
0.0
 11
1.042135
 21
-0.484193
 31
0.0
  0
LINE
  8
0
  6
CONTINUOUS
 62
     7
  5
8C1
 10
1.042135
 20
-0.484193
 30
0.0
 11
1.042382
 21
-0.483346
 31
0.0
  0
LINE
  8
0
  6
CONTINUOUS
 62
     7
  5
8C2
 10
1.042382
 20
-0.483346
 30
0.0
 11
1.042657
 21
-0.482522
 31
0.0
  0
LINE
  8
0
  6
CONTINUOUS
 62
     7
  5
8C3
 10
1.042657
 20
-0.482522
 30
0.0
 11
1.042958
 21
-0.481725
 31
0.0
  0
LINE
  8
0
  6
CONTINUOUS
 62
     7
  5
8C4
 10
1.042958
 20
-0.481725
 30
0.0
 11
1.043282
 21
-0.480955
 31
0.0
  0
LINE
  8
0
  6
CONTINUOUS
 62
     7
  5
8C5
 10
1.043282
 20
-0.480955
 30
0.0
 11
1.043627
 21
-0.480213
 31
0.0
  0
LINE
  8
0
  6
CONTINUOUS
 62
     7
  5
8C6
 10
1.043627
 20
-0.480213
 30
0.0
 11
1.04399
 21
-0.4795
 31
0.0
  0
LINE
  8
0
  6
CONTINUOUS
 62
     7
  5
8C7
 10
1.04399
 20
-0.4795
 30
0.0
 11
1.044369
 21
-0.478818
 31
0.0
  0
LINE
  8
0
  6
CONTINUOUS
 62
     7
  5
8C8
 10
1.27668
 20
-0.551173
 30
0.0
 11
1.238682
 21
-0.616986
 31
0.0
  0
ARC
  8
0
  6
CONTINUOUS
 62
     7
  5
8C9
 10
1.098378
 20
-0.759999
 30
0.0
 40
0.05
 50
240.0
 51
330.0
  0
ARC
  8
0
  6
CONTINUOUS
 62
     7
  5
8CA
 10
0.978854
 20
-0.637292
 30
0.0
 40
0.0225
 50
60.0
 51
150.0
  0
LINE
  8
0
  6
CONTINUOUS
 62
     7
  5
8CB
 10
1.176182
 20
-0.725239
 30
0.0
 11
1.14168
 21
-0.784999
 31
0.0
  0
LINE
  8
0
  6
CONTINUOUS
 62
     7
  5
8CC
 10
1.176182
 20
-0.725239
 30
0.0
 11
0.990104
 21
-0.617807
 31
0.0
  0
LINE
  8
0
  6
CONTINUOUS
 62
     7
  5
8CD
 10
0.990104
 20
0.617807
 30
0.0
 11
1.176183
 21
0.725239
 31
0.0
  0
LINE
  8
0
  6
CONTINUOUS
 62
     7
  5
8CE
 10
0.905805
 20
0.398818
 30
0.0
 11
0.820805
 21
0.546042
 31
0.0
  0
ARC
  8
0
  6
CONTINUOUS
 62
     7
  5
8CF
 10
0.890089
 20
0.586039
 30
0.0
 40
0.08
 50
30.002865
 51
209.997135
  0
ARC
  8
0
  6
CONTINUOUS
 62
     7
  5
8D0
 10
0.978854
 20
0.637292
 30
0.0
 40
0.0225
 50
210.0
 51
300.0
  0
ARC
  8
0
  6
CONTINUOUS
 62
     7
  5
8D1
 10
0.975085
 20
0.438821
 30
0.0
 40
0.08
 50
210.002865
 51
29.997135
  0
LINE
  8
0
  6
CONTINUOUS
 62
     7
  5
8D2
 10
1.14168
 20
0.785001
 30
0.0
 11
1.176183
 21
0.725239
 31
0.0
  0
LINE
  8
0
  6
CONTINUOUS
 62
     7
  5
8D3
 10
0.820805
 20
-0.546042
 30
0.0
 11
0.905805
 21
-0.398818
 31
0.0
  0
ARC
  8
0
  6
CONTINUOUS
 62
     7
  5
8D4
 10
0.975085
 20
-0.438821
 30
0.0
 40
0.08
 50
330.002865
 51
149.997135
  0
ARC
  8
0
  6
CONTINUOUS
 62
     7
  5
8D5
 10
1.063854
 20
-0.490068
 30
0.0
 40
0.0225
 50
150.0
 51
240.0
  0
LINE
  8
0
  6
CONTINUOUS
 62
     7
  5
8D6
 10
1.052604
 20
-0.509553
 30
0.0
 11
1.238682
 21
-0.616986
 31
0.0
  0
ARC
  8
0
  6
CONTINUOUS
 62
     7
  5
8D7
 10
0.890089
 20
-0.586039
 30
0.0
 40
0.08
 50
150.002865
 51
329.997135
  0
ARC
  8
0
  6
CONTINUOUS
 62
     7
  5
8D8
 10
1.084145
 20
-0.428243
 30
0.0
 40
0.12
 50
349.373743
 51
63.246122
  0
LINE
  8
0
  6
CONTINUOUS
 62
     7
  5
8D9
 10
1.202087
 20
-0.450371
 30
0.0
 11
1.258378
 21
-0.482871
 31
0.0
  0
ARC
  8
0
  6
CONTINUOUS
 62
     7
  5
8DA
 10
1.233378
 20
-0.526173
 30
0.0
 40
0.05
 50
330.0
 51
60.0
  0
LINE
  8
0
  6
CONTINUOUS
 62
     7
  5
8DB
 10
1.073378
 20
-0.803301
 30
0.0
 11
1.056241
 21
-0.793407
 31
0.0
  0
ARC
  8
0
  6
CONTINUOUS
 62
     7
  5
8DC
 10
1.031241
 20
-0.836708
 30
0.0
 40
0.05
 50
60.0
 51
129.907196
  0
ARC
  8
0
  6
CONTINUOUS
 62
     7
  5
8DD
 10
0.967087
 20
-0.759999
 30
0.0
 40
0.05
 50
270.0
 51
309.907196
  0
LINE
  8
0
  6
CONTINUOUS
 62
     7
  5
8DE
 10
0.967087
 20
-0.809999
 30
0.0
 11
0.752087
 21
-0.809999
 31
0.0
  0
ARC
  8
0
  6
CONTINUOUS
 62
     7
  5
8DF
 10
0.752087
 20
-0.689999
 30
0.0
 40
0.12
 50
180.0
 51
270.0
  0
LINE
  8
0
  6
CONTINUOUS
 62
     7
  5
8E0
 10
0.632087
 20
-0.689999
 30
0.0
 11
0.632087
 21
0.690001
 31
0.0
  0
ARC
  8
0
  6
CONTINUOUS
 62
     7
  5
8E1
 10
0.752087
 20
0.690001
 30
0.0
 40
0.12
 50
90.0
 51
180.0
  0
LINE
  8
0
  6
CONTINUOUS
 62
     7
  5
8E2
 10
0.752087
 20
0.810001
 30
0.0
 11
0.967087
 21
0.810001
 31
0.0
  0
ARC
  8
0
  6
CONTINUOUS
 62
     7
  5
8E3
 10
0.967087
 20
0.760001
 30
0.0
 40
0.05
 50
50.092804
 51
90.0
  0
ARC
  8
0
  6
CONTINUOUS
 62
     7
  5
8E4
 10
1.031241
 20
0.836709
 30
0.0
 40
0.05
 50
230.092804
 51
300.0
  0
LINE
  8
0
  6
CONTINUOUS
 62
     7
  5
8E5
 10
1.056241
 20
0.793408
 30
0.0
 11
1.073378
 21
0.803302
 31
0.0
  0
ARC
  8
0
  6
CONTINUOUS
 62
     7
  5
8E6
 10
1.233378
 20
0.526174
 30
0.0
 40
0.05
 50
300.0
 51
30.0
  0
LINE
  8
0
  6
CONTINUOUS
 62
     7
  5
8E7
 10
1.258378
 20
0.482872
 30
0.0
 11
1.202087
 21
0.450372
 31
0.0
  0
ARC
  8
0
  6
CONTINUOUS
 62
     7
  5
8E8
 10
1.084145
 20
0.428244
 30
0.0
 40
0.12
 50
296.753878
 51
10.626257
  0
LINE
  8
0
  6
CONTINUOUS
 62
     7
  5
8E9
 10
1.138164
 20
0.32109
 30
0.0
 11
1.001332
 21
0.24209
 31
0.0
  0
LINE
  8
0
  6
CONTINUOUS
 62
     7
  5
8EA
 10
1.001332
 20
-0.242089
 30
0.0
 11
1.138164
 21
-0.321089
 31
0.0
  0
LINE
  8
0
  6
CONTINUOUS
 62
     7
  5
8EB
 10
0.631087
 20
-0.208
 30
0.0
 11
0.632087
 21
-0.208
 31
0.0
  0
LINE
  8
0
  6
CONTINUOUS
 62
     7
  5
8EC
 10
1.001332
 20
-0.208
 30
0.0
 11
1.707087
 21
-0.208
 31
0.0
  0
LINE
  8
0
  6
CONTINUOUS
 62
     7
  5
8ED
 10
0.631087
 20
0.208
 30
0.0
 11
0.632087
 21
0.208
 31
0.0
  0
LINE
  8
0
  6
CONTINUOUS
 62
     7
  5
8EE
 10
1.001332
 20
0.208
 30
0.0
 11
1.707087
 21
0.208
 31
0.0
  0
LINE
  8
0
  6
CONTINUOUS
 62
     7
  5
8EF
 10
0.491087
 20
-0.799
 30
0.0
 11
0.491087
 21
-0.700354
 31
0.0
  0
LINE
  8
0
  6
CONTINUOUS
 62
     7
  5
8F0
 10
0.341087
 20
-0.7
 30
0.0
 11
0.341087
 21
0.7
 31
0.0
  0
LINE
  8
0
  6
CONTINUOUS
 62
     7
  5
8F1
 10
0.571087
 20
0.7
 30
0.0
 11
0.341087
 21
0.7
 31
0.0
  0
LINE
  8
0
  6
CONTINUOUS
 62
     7
  5
8F2
 10
0.571087
 20
-0.7
 30
0.0
 11
0.341087
 21
-0.7
 31
0.0
  0
LINE
  8
0
  6
CONTINUOUS
 62
     7
  5
8F3
 10
0.631087
 20
0.7
 30
0.0
 11
0.631087
 21
0.8
 31
0.0
  0
LINE
  8
0
  6
CONTINUOUS
 62
     7
  5
8F4
 10
0.631087
 20
-0.7
 30
0.0
 11
0.631087
 21
0.7
 31
0.0
  0
LINE
  8
0
  6
CONTINUOUS
 62
     7
  5
8F5
 10
0.631087
 20
-0.8
 30
0.0
 11
0.631087
 21
-0.7
 31
0.0
  0
LINE
  8
0
  6
CONTINUOUS
 62
     7
  5
8F6
 10
0.571087
 20
-0.8
 30
0.0
 11
0.631087
 21
-0.8
 31
0.0
  0
LINE
  8
0
  6
CONTINUOUS
 62
     7
  5
8F7
 10
0.571087
 20
0.8
 30
0.0
 11
0.631087
 21
0.8
 31
0.0
  0
LINE
  8
0
  6
CONTINUOUS
 62
     7
  5
8F8
 10
1.128377
 20
-0.8
 30
0.0
 11
1.707087
 21
-0.8
 31
0.0
  0
LINE
  8
0
  6
CONTINUOUS
 62
     7
  5
8F9
 10
0.997086
 20
-0.8
 30
0.0
 11
1.067661
 21
-0.8
 31
0.0
  0
LINE
  8
0
  6
CONTINUOUS
 62
     7
  5
8FA
 10
0.631087
 20
-0.8
 30
0.0
 11
0.70413
 21
-0.8
 31
0.0
  0
LINE
  8
0
  6
CONTINUOUS
 62
     7
  5
8FB
 10
1.128379
 20
0.8
 30
0.0
 11
1.707087
 21
0.8
 31
0.0
  0
LINE
  8
0
  6
CONTINUOUS
 62
     7
  5
8FC
 10
0.997087
 20
0.8
 30
0.0
 11
1.067659
 21
0.8
 31
0.0
  0
LINE
  8
0
  6
CONTINUOUS
 62
     7
  5
8FD
 10
0.631087
 20
0.8
 30
0.0
 11
0.704127
 21
0.8
 31
0.0
  0
LINE
  8
0
  6
CONTINUOUS
 62
     7
  5
8FE
 10
0.441087
 20
0.699992
 30
0.0
 11
0.441087
 21
0.767717
 31
0.0
  0
LINE
  8
0
  6
CONTINUOUS
 62
     7
  5
8FF
 10
0.441087
 20
-0.767717
 30
0.0
 11
0.441087
 21
-0.699992
 31
0.0
  0
LINE
  8
0
  6
CONTINUOUS
 62
     7
  5
900
 10
0.39124
 20
0.699992
 30
0.0
 11
0.39124
 21
0.767717
 31
0.0
  0
LINE
  8
0
  6
CONTINUOUS
 62
     7
  5
901
 10
0.39124
 20
-0.767717
 30
0.0
 11
0.39124
 21
-0.699992
 31
0.0
  0
LINE
  8
0
  6
CONTINUOUS
 62
     7
  5
902
 10
-0.11
 20
0.669941
 30
0.0
 11
-0.11
 21
0.302331
 31
0.0
  0
LINE
  8
0
  6
CONTINUOUS
 62
     7
  5
903
 10
-0.11
 20
0.725
 30
0.0
 11
-0.11
 21
0.6875
 31
0.0
  0
LINE
  8
0
  6
CONTINUOUS
 62
     7
  5
904
 10
-0.11
 20
-0.12083
 30
0.0
 11
-0.11
 21
-0.25994
 31
0.0
  0
LINE
  8
0
  6
CONTINUOUS
 62
     7
  5
905
 10
-0.11
 20
-0.12083
 30
0.0
 11
-0.11
 21
0.12083
 31
0.0
  0
LINE
  8
0
  6
CONTINUOUS
 62
     7
  5
906
 10
-0.11
 20
0.25994
 30
0.0
 11
-0.11
 21
0.12083
 31
0.0
  0
LINE
  8
0
  6
CONTINUOUS
 62
     7
  5
907
 10
-0.11
 20
-0.302331
 30
0.0
 11
-0.11
 21
-0.669941
 31
0.0
  0
LINE
  8
0
  6
CONTINUOUS
 62
     7
  5
908
 10
-0.11
 20
-0.6875
 30
0.0
 11
-0.11
 21
-0.735
 31
0.0
  0
LINE
  8
0
  6
CONTINUOUS
 62
     7
  5
909
 10
-0.06
 20
0.725
 30
0.0
 11
-0.11
 21
0.725
 31
0.0
  0
LINE
  8
0
  6
CONTINUOUS
 62
     7
  5
90A
 10
-0.11
 20
0.12083
 30
0.0
 11
-0.06
 21
0.12083
 31
0.0
  0
LINE
  8
0
  6
CONTINUOUS
 62
     7
  5
90B
 10
-0.06
 20
-0.12083
 30
0.0
 11
-0.11
 21
-0.12083
 31
0.0
  0
LINE
  8
0
  6
CONTINUOUS
 62
     7
  5
90C
 10
-0.11
 20
0.284772
 30
0.0
 11
-0.11
 21
0.302331
 31
0.0
  0
LINE
  8
0
  6
CONTINUOUS
 62
     7
  5
90D
 10
-0.11
 20
0.25994
 30
0.0
 11
-0.11
 21
0.284772
 31
0.0
  0
LINE
  8
0
  6
CONTINUOUS
 62
     7
  5
90E
 10
-0.11
 20
-0.284772
 30
0.0
 11
-0.11
 21
-0.25994
 31
0.0
  0
LINE
  8
0
  6
CONTINUOUS
 62
     7
  5
90F
 10
-0.11
 20
-0.302331
 30
0.0
 11
-0.11
 21
-0.284772
 31
0.0
  0
LINE
  8
0
  6
CONTINUOUS
 62
     7
  5
910
 10
-0.11
 20
0.669941
 30
0.0
 11
-0.11
 21
0.6875
 31
0.0
  0
LINE
  8
0
  6
CONTINUOUS
 62
     7
  5
911
 10
-0.11
 20
-0.6875
 30
0.0
 11
-0.11
 21
-0.669941
 31
0.0
  0
LINE
  8
0
  6
CONTINUOUS
 62
     7
  5
912
 10
-0.700551
 20
0.492126
 30
0.0
 11
-0.700551
 21
0.0
 31
0.0
  0
LINE
  8
0
  6
CONTINUOUS
 62
     7
  5
913
 10
-0.700551
 20
0.0
 30
0.0
 11
-0.700551
 21
-0.492126
 31
0.0
  0
LINE
  8
0
  6
CONTINUOUS
 62
     7
  5
914
 10
-0.572441
 20
0.629921
 30
0.0
 11
-0.572441
 21
0.0
 31
0.0
  0
LINE
  8
0
  6
CONTINUOUS
 62
     7
  5
915
 10
-0.572441
 20
0.0
 30
0.0
 11
-0.572441
 21
-0.629921
 31
0.0
  0
LINE
  8
0
  6
CONTINUOUS
 62
     7
  5
916
 10
-0.325053
 20
-0.6875
 30
0.0
 11
-0.357757
 21
-0.6875
 31
0.0
  0
LINE
  8
0
  6
CONTINUOUS
 62
     7
  5
917
 10
-0.325053
 20
-0.284772
 30
0.0
 11
-0.328816
 21
-0.297143
 31
0.0
  0
LINE
  8
0
  6
CONTINUOUS
 62
     7
  5
918
 10
-0.328816
 20
-0.297143
 30
0.0
 11
-0.332327
 21
-0.309354
 31
0.0
  0
LINE
  8
0
  6
CONTINUOUS
 62
     7
  5
919
 10
-0.332327
 20
-0.309354
 30
0.0
 11
-0.335591
 21
-0.321418
 31
0.0
  0
LINE
  8
0
  6
CONTINUOUS
 62
     7
  5
91A
 10
-0.335591
 20
-0.321418
 30
0.0
 11
-0.338614
 21
-0.333346
 31
0.0
  0
LINE
  8
0
  6
CONTINUOUS
 62
     7
  5
91B
 10
-0.338614
 20
-0.333346
 30
0.0
 11
-0.341401
 21
-0.345149
 31
0.0
  0
LINE
  8
0
  6
CONTINUOUS
 62
     7
  5
91C
 10
-0.341401
 20
-0.345149
 30
0.0
 11
-0.343957
 21
-0.356837
 31
0.0
  0
LINE
  8
0
  6
CONTINUOUS
 62
     7
  5
91D
 10
-0.343957
 20
-0.356837
 30
0.0
 11
-0.346286
 21
-0.368421
 31
0.0
  0
LINE
  8
0
  6
CONTINUOUS
 62
     7
  5
91E
 10
-0.346286
 20
-0.368421
 30
0.0
 11
-0.348391
 21
-0.37991
 31
0.0
  0
LINE
  8
0
  6
CONTINUOUS
 62
     7
  5
91F
 10
-0.348391
 20
-0.37991
 30
0.0
 11
-0.350277
 21
-0.391315
 31
0.0
  0
LINE
  8
0
  6
CONTINUOUS
 62
     7
  5
920
 10
-0.350277
 20
-0.391315
 30
0.0
 11
-0.351946
 21
-0.402645
 31
0.0
  0
LINE
  8
0
  6
CONTINUOUS
 62
     7
  5
921
 10
-0.351946
 20
-0.402645
 30
0.0
 11
-0.3534
 21
-0.413909
 31
0.0
  0
LINE
  8
0
  6
CONTINUOUS
 62
     7
  5
922
 10
-0.3534
 20
-0.413909
 30
0.0
 11
-0.354642
 21
-0.425116
 31
0.0
  0
LINE
  8
0
  6
CONTINUOUS
 62
     7
  5
923
 10
-0.354642
 20
-0.425116
 30
0.0
 11
-0.355675
 21
-0.436275
 31
0.0
  0
LINE
  8
0
  6
CONTINUOUS
 62
     7
  5
924
 10
-0.355675
 20
-0.436275
 30
0.0
 11
-0.356499
 21
-0.447395
 31
0.0
  0
LINE
  8
0
  6
CONTINUOUS
 62
     7
  5
925
 10
-0.356499
 20
-0.447395
 30
0.0
 11
-0.357115
 21
-0.458485
 31
0.0
  0
LINE
  8
0
  6
CONTINUOUS
 62
     7
  5
926
 10
-0.357115
 20
-0.458485
 30
0.0
 11
-0.357526
 21
-0.469554
 31
0.0
  0
LINE
  8
0
  6
CONTINUOUS
 62
     7
  5
927
 10
-0.357526
 20
-0.469554
 30
0.0
 11
-0.357731
 21
-0.48061
 31
0.0
  0
LINE
  8
0
  6
CONTINUOUS
 62
     7
  5
928
 10
-0.357731
 20
-0.48061
 30
0.0
 11
-0.357731
 21
-0.491662
 31
0.0
  0
LINE
  8
0
  6
CONTINUOUS
 62
     7
  5
929
 10
-0.357731
 20
-0.491662
 30
0.0
 11
-0.357526
 21
-0.502718
 31
0.0
  0
LINE
  8
0
  6
CONTINUOUS
 62
     7
  5
92A
 10
-0.357526
 20
-0.502718
 30
0.0
 11
-0.357115
 21
-0.513786
 31
0.0
  0
LINE
  8
0
  6
CONTINUOUS
 62
     7
  5
92B
 10
-0.357115
 20
-0.513786
 30
0.0
 11
-0.356499
 21
-0.524877
 31
0.0
  0
LINE
  8
0
  6
CONTINUOUS
 62
     7
  5
92C
 10
-0.356499
 20
-0.524877
 30
0.0
 11
-0.355675
 21
-0.535997
 31
0.0
  0
LINE
  8
0
  6
CONTINUOUS
 62
     7
  5
92D
 10
-0.355675
 20
-0.535997
 30
0.0
 11
-0.354642
 21
-0.547156
 31
0.0
  0
LINE
  8
0
  6
CONTINUOUS
 62
     7
  5
92E
 10
-0.354642
 20
-0.547156
 30
0.0
 11
-0.3534
 21
-0.558363
 31
0.0
  0
LINE
  8
0
  6
CONTINUOUS
 62
     7
  5
92F
 10
-0.3534
 20
-0.558363
 30
0.0
 11
-0.351946
 21
-0.569627
 31
0.0
  0
LINE
  8
0
  6
CONTINUOUS
 62
     7
  5
930
 10
-0.351946
 20
-0.569627
 30
0.0
 11
-0.350277
 21
-0.580957
 31
0.0
  0
LINE
  8
0
  6
CONTINUOUS
 62
     7
  5
931
 10
-0.350277
 20
-0.580957
 30
0.0
 11
-0.348391
 21
-0.592361
 31
0.0
  0
LINE
  8
0
  6
CONTINUOUS
 62
     7
  5
932
 10
-0.348391
 20
-0.592361
 30
0.0
 11
-0.346286
 21
-0.603851
 31
0.0
  0
LINE
  8
0
  6
CONTINUOUS
 62
     7
  5
933
 10
-0.346286
 20
-0.603851
 30
0.0
 11
-0.343957
 21
-0.615435
 31
0.0
  0
LINE
  8
0
  6
CONTINUOUS
 62
     7
  5
934
 10
-0.343957
 20
-0.615435
 30
0.0
 11
-0.341401
 21
-0.627123
 31
0.0
  0
LINE
  8
0
  6
CONTINUOUS
 62
     7
  5
935
 10
-0.341401
 20
-0.627123
 30
0.0
 11
-0.338614
 21
-0.638925
 31
0.0
  0
LINE
  8
0
  6
CONTINUOUS
 62
     7
  5
936
 10
-0.338614
 20
-0.638925
 30
0.0
 11
-0.335591
 21
-0.650853
 31
0.0
  0
LINE
  8
0
  6
CONTINUOUS
 62
     7
  5
937
 10
-0.335591
 20
-0.650853
 30
0.0
 11
-0.332327
 21
-0.662917
 31
0.0
  0
LINE
  8
0
  6
CONTINUOUS
 62
     7
  5
938
 10
-0.332327
 20
-0.662917
 30
0.0
 11
-0.328816
 21
-0.675129
 31
0.0
  0
LINE
  8
0
  6
CONTINUOUS
 62
     7
  5
939
 10
-0.328816
 20
-0.675129
 30
0.0
 11
-0.325053
 21
-0.6875
 31
0.0
  0
LINE
  8
0
  6
CONTINUOUS
 62
     7
  5
93A
 10
-0.325053
 20
0.284772
 30
0.0
 11
-0.328816
 21
0.267277
 31
0.0
  0
LINE
  8
0
  6
CONTINUOUS
 62
     7
  5
93B
 10
-0.328816
 20
0.267277
 30
0.0
 11
-0.332327
 21
0.250007
 31
0.0
  0
LINE
  8
0
  6
CONTINUOUS
 62
     7
  5
93C
 10
-0.332327
 20
0.250007
 30
0.0
 11
-0.335591
 21
0.232946
 31
0.0
  0
LINE
  8
0
  6
CONTINUOUS
 62
     7
  5
93D
 10
-0.335591
 20
0.232946
 30
0.0
 11
-0.338614
 21
0.216077
 31
0.0
  0
LINE
  8
0
  6
CONTINUOUS
 62
     7
  5
93E
 10
-0.338614
 20
0.216077
 30
0.0
 11
-0.341401
 21
0.199385
 31
0.0
  0
LINE
  8
0
  6
CONTINUOUS
 62
     7
  5
93F
 10
-0.341401
 20
0.199385
 30
0.0
 11
-0.343957
 21
0.182856
 31
0.0
  0
LINE
  8
0
  6
CONTINUOUS
 62
     7
  5
940
 10
-0.343957
 20
0.182856
 30
0.0
 11
-0.346286
 21
0.166474
 31
0.0
  0
LINE
  8
0
  6
CONTINUOUS
 62
     7
  5
941
 10
-0.346286
 20
0.166474
 30
0.0
 11
-0.348391
 21
0.150225
 31
0.0
  0
LINE
  8
0
  6
CONTINUOUS
 62
     7
  5
942
 10
-0.348391
 20
0.150225
 30
0.0
 11
-0.350277
 21
0.134097
 31
0.0
  0
LINE
  8
0
  6
CONTINUOUS
 62
     7
  5
943
 10
-0.350277
 20
0.134097
 30
0.0
 11
-0.351946
 21
0.118074
 31
0.0
  0
LINE
  8
0
  6
CONTINUOUS
 62
     7
  5
944
 10
-0.351946
 20
0.118074
 30
0.0
 11
-0.3534
 21
0.102145
 31
0.0
  0
LINE
  8
0
  6
CONTINUOUS
 62
     7
  5
945
 10
-0.3534
 20
0.102145
 30
0.0
 11
-0.354642
 21
0.086296
 31
0.0
  0
LINE
  8
0
  6
CONTINUOUS
 62
     7
  5
946
 10
-0.354642
 20
0.086296
 30
0.0
 11
-0.355675
 21
0.070514
 31
0.0
  0
LINE
  8
0
  6
CONTINUOUS
 62
     7
  5
947
 10
-0.355675
 20
0.070514
 30
0.0
 11
-0.356499
 21
0.054788
 31
0.0
  0
LINE
  8
0
  6
CONTINUOUS
 62
     7
  5
948
 10
-0.356499
 20
0.054788
 30
0.0
 11
-0.357115
 21
0.039104
 31
0.0
  0
LINE
  8
0
  6
CONTINUOUS
 62
     7
  5
949
 10
-0.357115
 20
0.039104
 30
0.0
 11
-0.357526
 21
0.02345
 31
0.0
  0
LINE
  8
0
  6
CONTINUOUS
 62
     7
  5
94A
 10
-0.357526
 20
0.02345
 30
0.0
 11
-0.357731
 21
0.007815
 31
0.0
  0
LINE
  8
0
  6
CONTINUOUS
 62
     7
  5
94B
 10
-0.357731
 20
0.007815
 30
0.0
 11
-0.357731
 21
-0.007815
 31
0.0
  0
LINE
  8
0
  6
CONTINUOUS
 62
     7
  5
94C
 10
-0.357731
 20
-0.007815
 30
0.0
 11
-0.357526
 21
-0.02345
 31
0.0
  0
LINE
  8
0
  6
CONTINUOUS
 62
     7
  5
94D
 10
-0.357526
 20
-0.02345
 30
0.0
 11
-0.357115
 21
-0.039104
 31
0.0
  0
LINE
  8
0
  6
CONTINUOUS
 62
     7
  5
94E
 10
-0.357115
 20
-0.039104
 30
0.0
 11
-0.356499
 21
-0.054788
 31
0.0
  0
LINE
  8
0
  6
CONTINUOUS
 62
     7
  5
94F
 10
-0.356499
 20
-0.054788
 30
0.0
 11
-0.355675
 21
-0.070514
 31
0.0
  0
LINE
  8
0
  6
CONTINUOUS
 62
     7
  5
950
 10
-0.355675
 20
-0.070514
 30
0.0
 11
-0.354642
 21
-0.086296
 31
0.0
  0
LINE
  8
0
  6
CONTINUOUS
 62
     7
  5
951
 10
-0.354642
 20
-0.086296
 30
0.0
 11
-0.3534
 21
-0.102145
 31
0.0
  0
LINE
  8
0
  6
CONTINUOUS
 62
     7
  5
952
 10
-0.3534
 20
-0.102145
 30
0.0
 11
-0.351946
 21
-0.118074
 31
0.0
  0
LINE
  8
0
  6
CONTINUOUS
 62
     7
  5
953
 10
-0.351946
 20
-0.118074
 30
0.0
 11
-0.350277
 21
-0.134097
 31
0.0
  0
LINE
  8
0
  6
CONTINUOUS
 62
     7
  5
954
 10
-0.350277
 20
-0.134097
 30
0.0
 11
-0.348391
 21
-0.150225
 31
0.0
  0
LINE
  8
0
  6
CONTINUOUS
 62
     7
  5
955
 10
-0.348391
 20
-0.150225
 30
0.0
 11
-0.346286
 21
-0.166474
 31
0.0
  0
LINE
  8
0
  6
CONTINUOUS
 62
     7
  5
956
 10
-0.346286
 20
-0.166474
 30
0.0
 11
-0.343957
 21
-0.182856
 31
0.0
  0
LINE
  8
0
  6
CONTINUOUS
 62
     7
  5
957
 10
-0.343957
 20
-0.182856
 30
0.0
 11
-0.341401
 21
-0.199385
 31
0.0
  0
LINE
  8
0
  6
CONTINUOUS
 62
     7
  5
958
 10
-0.341401
 20
-0.199385
 30
0.0
 11
-0.338614
 21
-0.216077
 31
0.0
  0
LINE
  8
0
  6
CONTINUOUS
 62
     7
  5
959
 10
-0.338614
 20
-0.216077
 30
0.0
 11
-0.335591
 21
-0.232946
 31
0.0
  0
LINE
  8
0
  6
CONTINUOUS
 62
     7
  5
95A
 10
-0.335591
 20
-0.232946
 30
0.0
 11
-0.332327
 21
-0.250007
 31
0.0
  0
LINE
  8
0
  6
CONTINUOUS
 62
     7
  5
95B
 10
-0.332327
 20
-0.250007
 30
0.0
 11
-0.328816
 21
-0.267277
 31
0.0
  0
LINE
  8
0
  6
CONTINUOUS
 62
     7
  5
95C
 10
-0.328816
 20
-0.267277
 30
0.0
 11
-0.325053
 21
-0.284772
 31
0.0
  0
LINE
  8
0
  6
CONTINUOUS
 62
     7
  5
95D
 10
-0.325053
 20
0.6875
 30
0.0
 11
-0.328816
 21
0.675129
 31
0.0
  0
LINE
  8
0
  6
CONTINUOUS
 62
     7
  5
95E
 10
-0.328816
 20
0.675129
 30
0.0
 11
-0.332327
 21
0.662917
 31
0.0
  0
LINE
  8
0
  6
CONTINUOUS
 62
     7
  5
95F
 10
-0.332327
 20
0.662917
 30
0.0
 11
-0.335591
 21
0.650853
 31
0.0
  0
LINE
  8
0
  6
CONTINUOUS
 62
     7
  5
960
 10
-0.335591
 20
0.650853
 30
0.0
 11
-0.338614
 21
0.638925
 31
0.0
  0
LINE
  8
0
  6
CONTINUOUS
 62
     7
  5
961
 10
-0.338614
 20
0.638925
 30
0.0
 11
-0.341401
 21
0.627123
 31
0.0
  0
LINE
  8
0
  6
CONTINUOUS
 62
     7
  5
962
 10
-0.341401
 20
0.627123
 30
0.0
 11
-0.343957
 21
0.615435
 31
0.0
  0
LINE
  8
0
  6
CONTINUOUS
 62
     7
  5
963
 10
-0.343957
 20
0.615435
 30
0.0
 11
-0.346286
 21
0.603851
 31
0.0
  0
LINE
  8
0
  6
CONTINUOUS
 62
     7
  5
964
 10
-0.346286
 20
0.603851
 30
0.0
 11
-0.348391
 21
0.592361
 31
0.0
  0
LINE
  8
0
  6
CONTINUOUS
 62
     7
  5
965
 10
-0.348391
 20
0.592361
 30
0.0
 11
-0.350277
 21
0.580957
 31
0.0
  0
LINE
  8
0
  6
CONTINUOUS
 62
     7
  5
966
 10
-0.350277
 20
0.580957
 30
0.0
 11
-0.351946
 21
0.569627
 31
0.0
  0
LINE
  8
0
  6
CONTINUOUS
 62
     7
  5
967
 10
-0.351946
 20
0.569627
 30
0.0
 11
-0.3534
 21
0.558363
 31
0.0
  0
LINE
  8
0
  6
CONTINUOUS
 62
     7
  5
968
 10
-0.3534
 20
0.558363
 30
0.0
 11
-0.354642
 21
0.547156
 31
0.0
  0
LINE
  8
0
  6
CONTINUOUS
 62
     7
  5
969
 10
-0.354642
 20
0.547156
 30
0.0
 11
-0.355675
 21
0.535997
 31
0.0
  0
LINE
  8
0
  6
CONTINUOUS
 62
     7
  5
96A
 10
-0.355675
 20
0.535997
 30
0.0
 11
-0.356499
 21
0.524877
 31
0.0
  0
LINE
  8
0
  6
CONTINUOUS
 62
     7
  5
96B
 10
-0.356499
 20
0.524877
 30
0.0
 11
-0.357115
 21
0.513786
 31
0.0
  0
LINE
  8
0
  6
CONTINUOUS
 62
     7
  5
96C
 10
-0.357115
 20
0.513786
 30
0.0
 11
-0.357526
 21
0.502718
 31
0.0
  0
LINE
  8
0
  6
CONTINUOUS
 62
     7
  5
96D
 10
-0.357526
 20
0.502718
 30
0.0
 11
-0.357731
 21
0.491662
 31
0.0
  0
LINE
  8
0
  6
CONTINUOUS
 62
     7
  5
96E
 10
-0.357731
 20
0.491662
 30
0.0
 11
-0.357731
 21
0.48061
 31
0.0
  0
LINE
  8
0
  6
CONTINUOUS
 62
     7
  5
96F
 10
-0.357731
 20
0.48061
 30
0.0
 11
-0.357526
 21
0.469554
 31
0.0
  0
LINE
  8
0
  6
CONTINUOUS
 62
     7
  5
970
 10
-0.357526
 20
0.469554
 30
0.0
 11
-0.357115
 21
0.458485
 31
0.0
  0
LINE
  8
0
  6
CONTINUOUS
 62
     7
  5
971
 10
-0.357115
 20
0.458485
 30
0.0
 11
-0.356499
 21
0.447395
 31
0.0
  0
LINE
  8
0
  6
CONTINUOUS
 62
     7
  5
972
 10
-0.356499
 20
0.447395
 30
0.0
 11
-0.355675
 21
0.436275
 31
0.0
  0
LINE
  8
0
  6
CONTINUOUS
 62
     7
  5
973
 10
-0.355675
 20
0.436275
 30
0.0
 11
-0.354642
 21
0.425116
 31
0.0
  0
LINE
  8
0
  6
CONTINUOUS
 62
     7
  5
974
 10
-0.354642
 20
0.425116
 30
0.0
 11
-0.3534
 21
0.413909
 31
0.0
  0
LINE
  8
0
  6
CONTINUOUS
 62
     7
  5
975
 10
-0.3534
 20
0.413909
 30
0.0
 11
-0.351946
 21
0.402645
 31
0.0
  0
LINE
  8
0
  6
CONTINUOUS
 62
     7
  5
976
 10
-0.351946
 20
0.402645
 30
0.0
 11
-0.350277
 21
0.391315
 31
0.0
  0
LINE
  8
0
  6
CONTINUOUS
 62
     7
  5
977
 10
-0.350277
 20
0.391315
 30
0.0
 11
-0.348391
 21
0.37991
 31
0.0
  0
LINE
  8
0
  6
CONTINUOUS
 62
     7
  5
978
 10
-0.348391
 20
0.37991
 30
0.0
 11
-0.346286
 21
0.368421
 31
0.0
  0
LINE
  8
0
  6
CONTINUOUS
 62
     7
  5
979
 10
-0.346286
 20
0.368421
 30
0.0
 11
-0.343957
 21
0.356837
 31
0.0
  0
LINE
  8
0
  6
CONTINUOUS
 62
     7
  5
97A
 10
-0.343957
 20
0.356837
 30
0.0
 11
-0.341401
 21
0.345149
 31
0.0
  0
LINE
  8
0
  6
CONTINUOUS
 62
     7
  5
97B
 10
-0.341401
 20
0.345149
 30
0.0
 11
-0.338614
 21
0.333346
 31
0.0
  0
LINE
  8
0
  6
CONTINUOUS
 62
     7
  5
97C
 10
-0.338614
 20
0.333346
 30
0.0
 11
-0.335591
 21
0.321418
 31
0.0
  0
LINE
  8
0
  6
CONTINUOUS
 62
     7
  5
97D
 10
-0.335591
 20
0.321418
 30
0.0
 11
-0.332327
 21
0.309354
 31
0.0
  0
LINE
  8
0
  6
CONTINUOUS
 62
     7
  5
97E
 10
-0.332327
 20
0.309354
 30
0.0
 11
-0.328816
 21
0.297143
 31
0.0
  0
LINE
  8
0
  6
CONTINUOUS
 62
     7
  5
97F
 10
-0.328816
 20
0.297143
 30
0.0
 11
-0.325053
 21
0.284772
 31
0.0
  0
LINE
  8
0
  6
CONTINUOUS
 62
     7
  5
980
 10
-0.357757
 20
0.6875
 30
0.0
 11
-0.325053
 21
0.6875
 31
0.0
  0
LINE
  8
0
  6
CONTINUOUS
 62
     7
  5
981
 10
-0.582441
 20
0.619921
 30
0.0
 11
-0.582441
 21
0.0
 31
0.0
  0
LINE
  8
0
  6
CONTINUOUS
 62
     7
  5
982
 10
-0.582441
 20
0.0
 30
0.0
 11
-0.582441
 21
-0.619921
 31
0.0
  0
LINE
  8
0
  6
CONTINUOUS
 62
     7
  5
983
 10
-0.11
 20
-0.284772
 30
0.0
 11
-0.325053
 21
-0.284772
 31
0.0
  0
LINE
  8
0
  6
CONTINUOUS
 62
     7
  5
984
 10
-0.11
 20
0.284772
 30
0.0
 11
-0.325053
 21
0.284772
 31
0.0
  0
LINE
  8
0
  6
CONTINUOUS
 62
     7
  5
985
 10
-0.11
 20
-0.6875
 30
0.0
 11
-0.325053
 21
-0.6875
 31
0.0
  0
LINE
  8
0
  6
CONTINUOUS
 62
     7
  5
986
 10
-0.11
 20
0.6875
 30
0.0
 11
-0.325053
 21
0.6875
 31
0.0
  0
LINE
  8
0
  6
CONTINUOUS
 62
     7
  5
987
 10
0.0
 20
0.78125
 30
0.0
 11
0.0
 21
0.21875
 31
0.0
  0
LINE
  8
0
  6
CONTINUOUS
 62
     7
  5
988
 10
0.0
 20
0.21875
 30
0.0
 11
0.0
 21
-0.21875
 31
0.0
  0
LINE
  8
0
  6
CONTINUOUS
 62
     7
  5
989
 10
0.0
 20
-0.21875
 30
0.0
 11
0.0
 21
-0.78125
 31
0.0
  0
LINE
  8
0
  6
CONTINUOUS
 62
     7
  5
98A
 10
-0.06
 20
0.78125
 30
0.0
 11
-0.06
 21
0.21875
 31
0.0
  0
LINE
  8
0
  6
CONTINUOUS
 62
     7
  5
98B
 10
-0.06
 20
0.21875
 30
0.0
 11
0.0
 21
0.21875
 31
0.0
  0
LINE
  8
0
  6
CONTINUOUS
 62
     7
  5
98C
 10
-0.06
 20
-0.21875
 30
0.0
 11
-0.06
 21
0.21875
 31
0.0
  0
LINE
  8
0
  6
CONTINUOUS
 62
     7
  5
98D
 10
0.0
 20
-0.21875
 30
0.0
 11
-0.06
 21
-0.21875
 31
0.0
  0
LINE
  8
0
  6
CONTINUOUS
 62
     7
  5
98E
 10
-0.06
 20
-0.21875
 30
0.0
 11
-0.06
 21
-0.78125
 31
0.0
  0
LINE
  8
0
  6
CONTINUOUS
 62
     7
  5
98F
 10
0.3125
 20
0.78125
 30
0.0
 11
0.25
 21
0.78125
 31
0.0
  0
LINE
  8
0
  6
CONTINUOUS
 62
     7
  5
990
 10
0.25
 20
-0.78125
 30
0.0
 11
0.3125
 21
-0.78125
 31
0.0
  0
LINE
  8
0
  6
CONTINUOUS
 62
     7
  5
991
 10
1.878056
 20
0.47659
 30
0.0
 11
1.817952
 21
0.416486
 31
0.0
  0
LINE
  8
0
  6
CONTINUOUS
 62
     7
  5
992
 10
1.915533
 20
0.318905
 30
0.0
 11
1.975637
 21
0.379009
 31
0.0
  0
LINE
  8
0
  6
CONTINUOUS
 62
     7
  5
993
 10
1.92501
 20
0.525665
 30
0.0
 11
1.924018
 21
0.522552
 31
0.0
  0
LINE
  8
0
  6
CONTINUOUS
 62
     7
  5
994
 10
2.021599
 20
0.424971
 30
0.0
 11
2.024712
 21
0.425963
 31
0.0
  0
LINE
  8
0
  6
CONTINUOUS
 62
     7
  5
995
 10
1.90634
 20
0.504874
 30
0.0
 11
1.899269
 21
0.497803
 31
0.0
  0
LINE
  8
0
  6
CONTINUOUS
 62
     7
  5
996
 10
1.99685
 20
0.400222
 30
0.0
 11
2.003921
 21
0.407294
 31
0.0
  0
LINE
  8
0
  6
CONTINUOUS
 62
     7
  5
997
 10
1.975637
 20
-0.379009
 30
0.0
 11
1.915533
 21
-0.318905
 31
0.0
  0
LINE
  8
0
  6
CONTINUOUS
 62
     7
  5
998
 10
1.817952
 20
-0.416486
 30
0.0
 11
1.878056
 21
-0.47659
 31
0.0
  0
LINE
  8
0
  6
CONTINUOUS
 62
     7
  5
999
 10
2.024712
 20
-0.425963
 30
0.0
 11
2.021599
 21
-0.424971
 31
0.0
  0
LINE
  8
0
  6
CONTINUOUS
 62
     7
  5
99A
 10
1.924018
 20
-0.522552
 30
0.0
 11
1.92501
 21
-0.525665
 31
0.0
  0
LINE
  8
0
  6
CONTINUOUS
 62
     7
  5
99B
 10
2.003921
 20
-0.407294
 30
0.0
 11
1.99685
 21
-0.400222
 31
0.0
  0
LINE
  8
0
  6
CONTINUOUS
 62
     7
  5
99C
 10
1.899269
 20
-0.497803
 30
0.0
 11
1.90634
 21
-0.504874
 31
0.0
  0
LINE
  8
0
  6
CONTINUOUS
 62
     7
  5
99D
 10
2.22666
 20
0.323148
 30
0.0
 11
2.166556
 21
0.263044
 31
0.0
  0
LINE
  8
0
  6
CONTINUOUS
 62
     7
  5
99E
 10
2.264136
 20
0.165463
 30
0.0
 11
2.32424
 21
0.225567
 31
0.0
  0
LINE
  8
0
  6
CONTINUOUS
 62
     7
  5
99F
 10
2.273614
 20
0.372223
 30
0.0
 11
2.272622
 21
0.36911
 31
0.0
  0
LINE
  8
0
  6
CONTINUOUS
 62
     7
  5
9A0
 10
2.370202
 20
0.271529
 30
0.0
 11
2.373316
 21
0.272521
 31
0.0
  0
LINE
  8
0
  6
CONTINUOUS
 62
     7
  5
9A1
 10
2.254944
 20
0.351432
 30
0.0
 11
2.247873
 21
0.344361
 31
0.0
  0
LINE
  8
0
  6
CONTINUOUS
 62
     7
  5
9A2
 10
2.345454
 20
0.24678
 30
0.0
 11
2.352525
 21
0.253851
 31
0.0
  0
LINE
  8
0
  6
CONTINUOUS
 62
     7
  5
9A3
 10
2.32424
 20
-0.225567
 30
0.0
 11
2.264136
 21
-0.165463
 31
0.0
  0
LINE
  8
0
  6
CONTINUOUS
 62
     7
  5
9A4
 10
2.166556
 20
-0.263044
 30
0.0
 11
2.22666
 21
-0.323148
 31
0.0
  0
LINE
  8
0
  6
CONTINUOUS
 62
     7
  5
9A5
 10
2.373316
 20
-0.272521
 30
0.0
 11
2.370202
 21
-0.271529
 31
0.0
  0
LINE
  8
0
  6
CONTINUOUS
 62
     7
  5
9A6
 10
2.272622
 20
-0.36911
 30
0.0
 11
2.273614
 21
-0.372223
 31
0.0
  0
LINE
  8
0
  6
CONTINUOUS
 62
     7
  5
9A7
 10
2.352525
 20
-0.253851
 30
0.0
 11
2.345454
 21
-0.24678
 31
0.0
  0
LINE
  8
0
  6
CONTINUOUS
 62
     7
  5
9A8
 10
2.247873
 20
-0.344361
 30
0.0
 11
2.254944
 21
-0.351432
 31
0.0
  0
LINE
  8
0
  6
CONTINUOUS
 62
     7
  5
9A9
 10
0.491087
 20
-0.799
 30
0.0
 11
0.571087
 21
-0.799
 31
0.0
  0
LINE
  8
0
  6
CONTINUOUS
 62
     7
  5
9AA
 10
0.571087
 20
0.799
 30
0.0
 11
0.491087
 21
0.799
 31
0.0
  0
LINE
  8
0
  6
CONTINUOUS
 62
     7
  5
9AB
 10
0.441087
 20
-0.796998
 30
0.0
 11
0.491087
 21
-0.796998
 31
0.0
  0
LINE
  8
0
  6
CONTINUOUS
 62
     7
  5
9AC
 10
0.491087
 20
0.796998
 30
0.0
 11
0.441087
 21
0.796998
 31
0.0
  0
LINE
  8
0
  6
CONTINUOUS
 62
     7
  5
9AD
 10
0.25
 20
0.59
 30
0.0
 11
0.0
 21
0.59
 31
0.0
  0
LINE
  8
0
  6
CONTINUOUS
 62
     7
  5
9AE
 10
0.0
 20
-0.59
 30
0.0
 11
0.25
 21
-0.59
 31
0.0
  0
LINE
  8
0
  6
CONTINUOUS
 62
     7
  5
9AF
 10
0.491087
 20
0.742543
 30
0.0
 11
0.441087
 21
0.742543
 31
0.0
  0
LINE
  8
0
  6
CONTINUOUS
 62
     7
  5
9B0
 10
0.39124
 20
-0.767717
 30
0.0
 11
0.441087
 21
-0.767717
 31
0.0
  0
LINE
  8
0
  6
CONTINUOUS
 62
     7
  5
9B1
 10
0.441087
 20
0.767717
 30
0.0
 11
0.39124
 21
0.767717
 31
0.0
  0
LINE
  8
0
  6
CONTINUOUS
 62
     7
  5
9B2
 10
0.3125
 20
-0.708661
 30
0.0
 11
0.39124
 21
-0.708661
 31
0.0
  0
LINE
  8
0
  6
CONTINUOUS
 62
     7
  5
9B3
 10
0.39124
 20
0.708661
 30
0.0
 11
0.3125
 21
0.708661
 31
0.0
  0
LINE
  8
0
  6
CONTINUOUS
 62
     7
  5
9B4
 10
-0.11
 20
-0.735
 30
0.0
 11
-0.06
 21
-0.735
 31
0.0
  0
ARC
  8
0
  6
CONTINUOUS
 62
     7
  5
9B5
 10
-0.731801
 20
0.0
 30
0.0
 40
0.425443
 50
90.0
 51
270.0
  0
LINE
  8
0
  6
CONTINUOUS
 62
     7
  5
9B6
 10
-0.700551
 20
0.425443
 30
0.0
 11
-0.731801
 21
0.425443
 31
0.0
  0
LINE
  8
0
  6
CONTINUOUS
 62
     7
  5
9B7
 10
-0.731801
 20
-0.425443
 30
0.0
 11
-0.700551
 21
-0.425443
 31
0.0
  0
LINE
  8
0
  6
CONTINUOUS
 62
     7
  5
9B8
 10
-0.582441
 20
0.492126
 30
0.0
 11
-0.700551
 21
0.492126
 31
0.0
  0
LINE
  8
0
  6
CONTINUOUS
 62
     7
  5
9B9
 10
-0.700551
 20
-0.492126
 30
0.0
 11
-0.582441
 21
-0.492126
 31
0.0
  0
ARC
  8
0
  6
CONTINUOUS
 62
     7
  5
9BA
 10
-0.408898
 20
-0.660921
 30
0.0
 40
0.031
 50
30.0
 51
90.0
  0
ARC
  8
0
  6
CONTINUOUS
 62
     7
  5
9BB
 10
-0.408898
 20
0.660921
 30
0.0
 40
0.031
 50
270.0
 51
330.0
  0
LINE
  8
0
  6
CONTINUOUS
 62
     7
  5
9BC
 10
-0.408898
 20
0.629921
 30
0.0
 11
-0.572441
 21
0.629921
 31
0.0
  0
LINE
  8
0
  6
CONTINUOUS
 62
     7
  5
9BD
 10
-0.572441
 20
-0.629921
 30
0.0
 11
-0.408898
 21
-0.629921
 31
0.0
  0
LINE
  8
0
  6
CONTINUOUS
 62
     7
  5
9BE
 10
-0.382051
 20
-0.645421
 30
0.0
 11
-0.357757
 21
-0.6875
 31
0.0
  0
LINE
  8
0
  6
CONTINUOUS
 62
     7
  5
9BF
 10
-0.357757
 20
0.6875
 30
0.0
 11
-0.382051
 21
0.645421
 31
0.0
  0
LINE
  8
0
  6
CONTINUOUS
 62
     7
  5
9C0
 10
-0.572441
 20
0.629921
 30
0.0
 11
-0.582441
 21
0.619921
 31
0.0
  0
LINE
  8
0
  6
CONTINUOUS
 62
     7
  5
9C1
 10
-0.582441
 20
-0.619921
 30
0.0
 11
-0.572441
 21
-0.629921
 31
0.0
  0
LINE
  8
0
  6
CONTINUOUS
 62
     7
  5
9C2
 10
0.0
 20
0.78125
 30
0.0
 11
-0.06
 21
0.78125
 31
0.0
  0
LINE
  8
0
  6
CONTINUOUS
 62
     7
  5
9C3
 10
-0.06
 20
-0.78125
 30
0.0
 11
0.0
 21
-0.78125
 31
0.0
  0
LINE
  8
0
  6
CONTINUOUS
 62
     3
  5
9C4
 10
-1.202913
 20
0.0
 30
0.0
 11
2.774087
 21
0.0
 31
0.0
  0
LINE
  8
0
  6
CONTINUOUS
 62
     3
  5
9C5
 10
2.019477
 20
0.520431
 30
0.0
 11
1.968566
 21
0.469519
 31
0.0
  0
LINE
  8
0
  6
CONTINUOUS
 62
     3
  5
9C6
 10
2.019477
 20
-0.520431
 30
0.0
 11
1.968566
 21
-0.469519
 31
0.0
  0
LINE
  8
0
  6
CONTINUOUS
 62
     3
  5
9C7
 10
2.368081
 20
0.366988
 30
0.0
 11
2.317169
 21
0.316077
 31
0.0
  0
LINE
  8
0
  6
CONTINUOUS
 62
     3
  5
9C8
 10
2.368081
 20
-0.366988
 30
0.0
 11
2.317169
 21
-0.316077
 31
0.0
  0
ENDSEC
  0
EOF
