999
DXF file: C:\Users\sesa63760\Dev\_Creo\CAD\MCADID0003783_3D-CAD\drw0001_2.dxf
999
Pro/ENGINEER 2019471 by Parametric Technology Corporation
  0
SECTION
  2
HEADER
  9
$ACADVER
  1
AC1024
  9
$DWGCODEPAGE
  3
ANSI_1252
  9
$EXTMAX
 10
64.0770542302
 20
90.6232624113
 30
0.0
  9
$EXTMIN
 10
0.0
 20
0.0
 30
0.0
  9
$LIMMIN
 10
0.0
 20
0.0
  9
$LIMMAX
 10
64.0770542302
 20
90.6232624113
  9
$VIEWCTR
 10
32.0385271151
 20
45.3116312057
  9
$VIEWSIZE
 40
90.6232624113
  9
$CLAYER
  8
0
  9
$LTSCALE
 40
5.9072941424
  9
$CELTYPE
  6
BYLAYER
  9
$DIMSCALE
 40
1.0
  9
$DIMASZ
 40
0.7628220742
  9
$DIMEXO
 40
1.0
  9
$DIMDLI
 40
4.0814032256
  9
$DIMEXE
 40
1.0
  9
$DIMCEN
 40
0.9666481324
  9
$DIMLFAC
 40
1.0
  9
$DIMBLK
  1
_FILLED
  9
$DIMALT
 70
0
  9
$DIMALTF
 40
0.0393700787
  9
$DIMTXT
 40
1.0679509038
  9
$DIMTOL
 70
1
  9
$DIMLIM
 70
0
  9
$DIMTFAC
 40
1.0
  9
$DIMTP
 40
0.01
  9
$DIMTM
 40
0.01
  9
$DIMGAP
 40
0.625
  9
$DIMDSEP
 70
46
  9
$AUNITS
 70
0
  9
$PDMODE
 70
3
  9
$PDSIZE
 40
0.3125
  9
$HANDSEED
  5
372
  9
$TILEMODE
 70
1
  9
$MEASUREMENT
 70
1
  9
$INSUNITS
 70
4
  0
ENDSEC
  0
SECTION
  2
CLASSES
  0
CLASS
  1
ACDBDICTIONARYWDFLT
  2
AcDbDictionaryWithDefault
  3
AutoCAD 2000
 90
0
 91
1
280
0
281
0
  0
CLASS
  1
ACDBPLACEHOLDER
  2
AcDbPlaceHolder
  3
AutoCAD 2000
 90
0
 91
1
280
0
281
0
  0
CLASS
  1
LAYOUT
  2
AcDbLayout
  3
AutoCAD 2000
 90
0
 91
0
280
0
281
0
  0
ENDSEC
  0
SECTION
  2
TABLES
  0
TABLE
  2
VPORT
  5
8
100
AcDbSymbolTable
 70
2
  0
VPORT
  5
1F4
100
AcDbSymbolTableRecord
100
AcDbViewportTableRecord
  2
*ACTIVE
 70
0
 10
0.0
 20
0.0
 11
1.0
 21
1.0
 12
32.0385271151
 22
45.3116312057
 13
0.0
 23
0.0
 14
1.0
 24
1.0
 15
0.0
 25
0.0
 16
0.0
 26
0.0
 36
1.0
 17
0.0
 27
0.0
 37
0.0
 40
90.6232624113
 41
0.7070707071
 42
50.0
 43
0.0
 44
0.0
 50
0.0
 51
0.0
 71
0
 72
100
 73
1
 74
1
 75
0
 76
0
 77
0
 78
0
  0
ENDTAB
  0
TABLE
  2
LTYPE
  5
5
100
AcDbSymbolTable
 70
6
  0
LTYPE
  5
14
100
AcDbSymbolTableRecord
100
AcDbLinetypeTableRecord
  2
BYBLOCK
 70
0
  3

 72
65
 73
0
 40
0.0
  0
LTYPE
  5
15
100
AcDbSymbolTableRecord
100
AcDbLinetypeTableRecord
  2
BYLAYER
 70
0
  3

 72
65
 73
0
 40
0.0
  0
LTYPE
  5
16
100
AcDbSymbolTableRecord
100
AcDbLinetypeTableRecord
  2
CONTINUOUS
 70
64
  3
Solid line
 72
65
 73
0
 40
0.0
  0
LTYPE
  5
1F5
100
AcDbSymbolTableRecord
100
AcDbLinetypeTableRecord
  2
CENTER
 70
64
  3
____ _ ____ _ ____ _ ____ _ ____ _ ____ _ ____
 72
65
 73
4
 40
0.6
 49
0.375
 74
0
 49
-0.075
 74
0
 49
0.075
 74
0
 49
-0.075
 74
0
  0
LTYPE
  5
1F6
100
AcDbSymbolTableRecord
100
AcDbLinetypeTableRecord
  2
HIDDEN
 70
64
  3
- - - - - - - - - - - - - - - - - - - -
 72
65
 73
2
 40
0.2
 49
0.1
 74
0
 49
-0.1
 74
0
  0
LTYPE
  5
1F7
100
AcDbSymbolTableRecord
100
AcDbLinetypeTableRecord
  2
PHANTOM
 70
64
  3
_____ _ _ _____ _ _ _____ _ _ _____
 72
65
 73
6
 40
0.8
 49
0.45
 74
0
 49
-0.05
 74
0
 49
0.1
 74
0
 49
-0.05
 74
0
 49
0.1
 74
0
 49
-0.05
 74
0
  0
LTYPE
  5
1F8
100
AcDbSymbolTableRecord
100
AcDbLinetypeTableRecord
  2
DOT
 70
64
  3
. . . . . . . . . . . . . . . . . . . .
 72
65
 73
2
 40
0.2
 49
0.1
 74
0
 49
-0.1
 74
0
  0
LTYPE
  5
1F9
100
AcDbSymbolTableRecord
100
AcDbLinetypeTableRecord
  2
DASHED
 70
64
  3
- - - - - - - - - - - - - - - - - - - -
 72
65
 73
2
 40
0.2
 49
0.1
 74
0
 49
-0.1
 74
0
  0
ENDTAB
  0
TABLE
  2
LAYER
  5
2
100
AcDbSymbolTable
 70
36
  0
LAYER
  5
10
100
AcDbSymbolTableRecord
100
AcDbLayerTableRecord
  2
0
 70
0
 62
7
  6
CONTINUOUS
370
-3
390
F
  0
LAYER
  5
1FA
100
AcDbSymbolTableRecord
100
AcDbLayerTableRecord
  2
DEFAULT_1
 70
0
 62
7
  6
CENTER
370
-3
390
F
  0
LAYER
  5
1FB
100
AcDbSymbolTableRecord
100
AcDbLayerTableRecord
  2
DEFAULT_2
 70
0
 62
7
  6
HIDDEN
370
-3
390
F
  0
LAYER
  5
1FC
100
AcDbSymbolTableRecord
100
AcDbLayerTableRecord
  2
DEFAULT_3
 70
0
 62
7
  6
PHANTOM
370
-3
390
F
  0
LAYER
  5
1FD
100
AcDbSymbolTableRecord
100
AcDbLayerTableRecord
  2
00_COMPONENTS
 70
0
 62
7
  6
CONTINUOUS
370
-3
390
F
  0
LAYER
  5
1FE
100
AcDbSymbolTableRecord
100
AcDbLayerTableRecord
  2
01_1_DEFAULT_DATUMS
 70
0
 62
7
  6
CONTINUOUS
370
-3
390
F
  0
LAYER
  5
1FF
100
AcDbSymbolTableRecord
100
AcDbLayerTableRecord
  2
01_PLANES
 70
0
 62
7
  6
CONTINUOUS
370
-3
390
F
  0
LAYER
  5
200
100
AcDbSymbolTableRecord
100
AcDbLayerTableRecord
  2
02_COORD_SYS
 70
0
 62
7
  6
CONTINUOUS
370
-3
390
F
  0
LAYER
  5
201
100
AcDbSymbolTableRecord
100
AcDbLayerTableRecord
  2
03_AXES
 70
0
 62
7
  6
CONTINUOUS
370
-3
390
F
  0
LAYER
  5
202
100
AcDbSymbolTableRecord
100
AcDbLayerTableRecord
  2
04_POINTS
 70
0
 62
7
  6
CONTINUOUS
370
-3
390
F
  0
LAYER
  5
203
100
AcDbSymbolTableRecord
100
AcDbLayerTableRecord
  2
05_CURVES
 70
0
 62
7
  6
CONTINUOUS
370
-3
390
F
  0
LAYER
  5
204
100
AcDbSymbolTableRecord
100
AcDbLayerTableRecord
  2
06_SURFS
 70
0
 62
7
  6
CONTINUOUS
370
-3
390
F
  0
LAYER
  5
205
100
AcDbSymbolTableRecord
100
AcDbLayerTableRecord
  2
07_COSMETICS
 70
0
 62
7
  6
CONTINUOUS
370
-3
390
F
  0
LAYER
  5
206
100
AcDbSymbolTableRecord
100
AcDbLayerTableRecord
  2
1
 70
0
 62
7
  6
CONTINUOUS
370
-3
390
F
  0
LAYER
  5
207
100
AcDbSymbolTableRecord
100
AcDbLayerTableRecord
  2
10_NOTES
 70
0
 62
7
  6
CONTINUOUS
370
-3
390
F
  0
LAYER
  5
208
100
AcDbSymbolTableRecord
100
AcDbLayerTableRecord
  2
11_NOTES_PUB
 70
0
 62
7
  6
CONTINUOUS
370
-3
390
F
  0
LAYER
  5
209
100
AcDbSymbolTableRecord
100
AcDbLayerTableRecord
  2
13_REF_GTOL
 70
0
 62
7
  6
CONTINUOUS
370
-3
390
F
  0
LAYER
  5
20A
100
AcDbSymbolTableRecord
100
AcDbLayerTableRecord
  2
16_MISC
 70
0
 62
7
  6
CONTINUOUS
370
-3
390
F
  0
LAYER
  5
20B
100
AcDbSymbolTableRecord
100
AcDbLayerTableRecord
  2
17_NO_PRINT
 70
0
 62
7
  6
CONTINUOUS
370
-3
390
F
  0
LAYER
  5
20C
100
AcDbSymbolTableRecord
100
AcDbLayerTableRecord
  2
18_DATUM_CAMS_JOINTS
 70
0
 62
7
  6
CONTINUOUS
370
-3
390
F
  0
LAYER
  5
20D
100
AcDbSymbolTableRecord
100
AcDbLayerTableRecord
  2
19_DATUM_FUNCTIONAL
 70
0
 62
7
  6
CONTINUOUS
370
-3
390
F
  0
LAYER
  5
20E
100
AcDbSymbolTableRecord
100
AcDbLayerTableRecord
  2
20_DATUM_KINEMATIC_SCHEME
 70
0
 62
7
  6
CONTINUOUS
370
-3
390
F
  0
ENDTAB
  0
TABLE
  2
STYLE
  5
3
100
AcDbSymbolTable
 70
1
  0
STYLE
  5
11
100
AcDbSymbolTableRecord
100
AcDbTextStyleTableRecord
  2
STANDARD
 70
0
 40
0.0
 41
1.0
 50
0.0
 71
0
 42
0.2
  3
ARIAL.TTF
  4

  0
STYLE
  5
20F
100
AcDbSymbolTableRecord
100
AcDbTextStyleTableRecord
  2
TEXTSTYLE_1
 70
0
 40
0.0
 41
0.8
 50
0.0
 71
0
 42
0.2
  3
gdt
  4

  0
ENDTAB
  0
TABLE
  2
VIEW
  5
6
100
AcDbSymbolTable
 70
0
  0
ENDTAB
  0
TABLE
  2
UCS
  5
7
100
AcDbSymbolTable
 70
0
  0
ENDTAB
  0
TABLE
  2
APPID
  5
9
100
AcDbSymbolTable
 70
1
  0
APPID
  5
210
100
AcDbSymbolTableRecord
100
AcDbRegAppTableRecord
  2
ACAD
 70
0
  0
ENDTAB
  0
TABLE
  2
BLOCK_RECORD
  5
1
100
AcDbSymbolTable
 70
0
  0
BLOCK_RECORD
  5
211
100
AcDbSymbolTableRecord
100
AcDbBlockTableRecord
  2
*Model_Space
  0
BLOCK_RECORD
  5
212
100
AcDbSymbolTableRecord
100
AcDbBlockTableRecord
  2
*Paper_Space
  0
BLOCK_RECORD
  5
213
100
AcDbSymbolTableRecord
100
AcDbBlockTableRecord
  2
_FILLED
  0
ENDTAB
  0
TABLE
  2
DIMSTYLE
  5
A
100
AcDbSymbolTable
 70
1
100
AcDbDimStyleTable
 71
0
  0
DIMSTYLE
105
214
100
AcDbSymbolTableRecord
100
AcDbDimStyleTableRecord
  2
STANDARD
 70
0
  3

  4

 40
1.0
 41
0.7628220742
 42
1.0
 43
0.38
 44
1.0
 45
0.0
 46
0.0
 47
0.01
 48
0.01
140
1.0679509038
141
0.09
142
0.0
143
25.4
144
1.0
145
0.0
146
1.0
147
0.625
 71
1
 72
0
 73
0
 74
0
 75
0
 76
0
 77
1
 78
8
 79
2
170
0
171
1
172
0
173
0
174
0
175
0
176
0
177
0
178
0
270
2
179
2
271
2
272
2
273
2
274
2
275
0
280
0
281
0
282
0
283
1
284
8
285
0
286
0
287
3
288
0
340
11
278
46
341
213
342
213
343
213
344
213
  0
ENDTAB
  0
ENDSEC
  0
SECTION
  2
BLOCKS
  0
BLOCK
  5
20
100
AcDbEntity
  8
0
100
AcDbBlockBegin
  2
*Model_Space
 70
0
 10
0.0
 20
0.0
 30
0.0
  3
*Model_Space
  1

  0
ENDBLK
  5
21
100
AcDbEntity
  8
0
100
AcDbBlockEnd
  0
BLOCK
  5
1C
100
AcDbEntity
  8
0
100
AcDbBlockBegin
  2
*Paper_Space
 70
0
 10
0.0
 20
0.0
 30
0.0
  3
*Paper_Space
  1

  0
ENDBLK
  5
1D
100
AcDbEntity
  8
0
100
AcDbBlockEnd
  0
BLOCK
  5
215
100
AcDbEntity
  8
0
100
AcDbBlockBegin
  2
_FILLED
 70
64
 10
0.0
 20
0.0
  3
_FILLED
  1

  0
SOLID
  5
216
100
AcDbEntity
  8
0
  6
BYBLOCK
 62
0
100
AcDbTrace
 10
0.0
 20
0.0
 11
-1.0
 21
0.25
 12
-1.0
 22
-0.25
 13
-1.0
 23
-0.25
  0
ENDBLK
  5
217
100
AcDbEntity
  8
0
  6
BYBLOCK
 62
0
100
AcDbBlockEnd
  0
ENDSEC
  0
SECTION
  2
ENTITIES
  0
LINE
  5
218
100
AcDbEntity
  8
0
100
AcDbLine
 62
7
  6
BYLAYER
 10
37.3330051392
 20
6.045248227
 11
27.6314249776
 21
6.045248227
  0
LINE
  5
219
100
AcDbEntity
  8
0
100
AcDbLine
 62
7
  6
BYLAYER
 10
39.0607150584
 20
7.772748227
 11
25.9037150584
 21
7.772748227
  0
LINE
  5
21A
100
AcDbEntity
  8
0
100
AcDbLine
 62
7
  6
BYLAYER
 10
27.6312150584
 20
6.045248227
 11
25.9037150599
 21
7.7727482285
  0
LINE
  5
21B
100
AcDbEntity
  8
0
100
AcDbLine
 62
7
  6
BYLAYER
 10
25.9037150584
 20
14.4514434751
 11
39.0607150584
 21
14.4514434751
  0
LINE
  5
21C
100
AcDbEntity
  8
0
100
AcDbLine
 62
7
  6
BYLAYER
 10
26.3322150581
 20
14.6988380659
 11
38.6322150587
 21
14.6988380659
  0
LINE
  5
21D
100
AcDbEntity
  8
0
100
AcDbLine
 62
7
  6
BYLAYER
 10
38.0322150584
 20
15.73806855
 11
26.9322150584
 21
15.73806855
  0
LINE
  5
21E
100
AcDbEntity
  8
0
100
AcDbLine
 62
7
  6
BYLAYER
 10
40.7323071298
 20
17.795248227
 11
24.232122987
 21
17.795248227
  0
LINE
  5
21F
100
AcDbEntity
  8
0
100
AcDbLine
 62
7
  6
BYLAYER
 10
41.8819692008
 20
18.045248227
 11
23.082460916
 21
18.045248227
  0
LINE
  5
220
100
AcDbEntity
  8
0
100
AcDbLine
 62
7
  6
BYLAYER
 10
20.9822150584
 20
20.145248227
 11
19.4822150594
 21
21.0112736325
  0
LINE
  5
221
100
AcDbEntity
  8
0
100
AcDbLine
 62
7
  6
BYLAYER
 10
43.982199336
 20
20.145248227
 11
20.9822307808
 21
20.145248227
  0
LINE
  5
222
100
AcDbEntity
  8
0
100
AcDbLine
 62
7
  6
BYLAYER
 10
45.4822150584
 20
21.0112736307
 11
45.3745199038
 21
21.0112736307
  0
LINE
  5
223
100
AcDbEntity
  8
0
100
AcDbLine
 62
7
  6
BYLAYER
 10
40.3745199038
 20
21.0112736307
 11
37.4822150584
 21
21.0112736307
  0
LINE
  5
224
100
AcDbEntity
  8
0
100
AcDbLine
 62
7
  6
BYLAYER
 10
27.4822150584
 20
21.0112736307
 11
24.589910213
 21
21.0112736307
  0
LINE
  5
225
100
AcDbEntity
  8
0
100
AcDbLine
 62
7
  6
BYLAYER
 10
19.589910213
 20
21.0112736307
 11
19.4822150584
 21
21.0112736307
  0
LINE
  5
226
100
AcDbEntity
  8
0
100
AcDbLine
 62
7
  6
BYLAYER
 10
38.6322150587
 20
14.6988380659
 11
39.0607150584
 21
14.4514434751
  0
LINE
  5
227
100
AcDbEntity
  8
0
100
AcDbLine
 62
7
  6
BYLAYER
 10
16.2322150579
 20
60.045248227
 11
15.9822150584
 21
59.795248227
  0
LINE
  5
228
100
AcDbEntity
  8
0
100
AcDbLine
 62
7
  6
BYLAYER
 10
19.4822150584
 20
25.5678979578
 11
19.589910213
 21
25.5678979578
  0
LINE
  5
229
100
AcDbEntity
  8
0
100
AcDbLine
 62
7
  6
BYLAYER
 10
24.589910213
 20
25.5678979578
 11
27.4822150584
 21
25.5678979578
  0
LINE
  5
22A
100
AcDbEntity
  8
0
100
AcDbLine
 62
7
  6
BYLAYER
 10
37.4822150584
 20
25.5678979578
 11
40.3745199038
 21
25.5678979578
  0
LINE
  5
22B
100
AcDbEntity
  8
0
100
AcDbLine
 62
7
  6
BYLAYER
 10
45.3745199038
 20
25.5678979578
 11
45.4822150584
 21
25.5678979578
  0
LINE
  5
22C
100
AcDbEntity
  8
0
100
AcDbLine
 62
7
  6
BYLAYER
 10
15.2617343721
 20
72.545248227
 11
15.2617343721
 21
62.045248227
  0
LINE
  5
22D
100
AcDbEntity
  8
0
100
AcDbLine
 62
7
  6
BYLAYER
 10
16.1897712723
 20
59.2136200363
 11
16.1923179743
 21
59.245248227
  0
LINE
  5
22E
100
AcDbEntity
  8
0
100
AcDbLine
 62
7
  6
BYLAYER
 10
44.4822150584
 20
26.145248227
 11
20.4822150584
 21
26.145248227
  0
LINE
  5
22F
100
AcDbEntity
  8
0
100
AcDbLine
 62
7
  6
BYLAYER
 10
15.9822150584
 20
59.245248227
 11
15.9822150584
 21
59.795248227
  0
LINE
  5
230
100
AcDbEntity
  8
0
100
AcDbLine
 62
7
  6
BYLAYER
 10
16.1897712723
 20
56.1180422738
 11
16.1923179743
 21
59.245248227
  0
LINE
  5
231
100
AcDbEntity
  8
0
100
AcDbLine
 62
7
  6
BYLAYER
 10
16.2210236536
 20
62.045248227
 11
16.2210236536
 21
72.545248227
  0
LINE
  5
232
100
AcDbEntity
  8
0
100
AcDbLine
 62
7
  6
BYLAYER
 10
16.3407204427
 20
59.245248227
 11
16.3407204427
 21
56.1180422738
  0
LINE
  5
233
100
AcDbEntity
  8
0
100
AcDbLine
 62
7
  6
BYLAYER
 10
16.5730258355
 20
56.1180422738
 11
16.5730258355
 21
59.045248227
  0
LINE
  5
234
100
AcDbEntity
  8
0
100
AcDbLine
 62
7
  6
BYLAYER
 10
16.8707340186
 20
62.045248227
 11
16.8707340186
 21
72.545248227
  0
LINE
  5
235
100
AcDbEntity
  8
0
100
AcDbLine
 62
7
  6
BYLAYER
 10
17.6294817089
 20
62.045248227
 11
17.6294817089
 21
72.545248227
  0
LINE
  5
236
100
AcDbEntity
  8
0
100
AcDbLine
 62
7
  6
BYLAYER
 10
18.5887709904
 20
72.545248227
 11
18.5887709904
 21
62.045248227
  0
LINE
  5
237
100
AcDbEntity
  8
0
100
AcDbLine
 62
7
  6
BYLAYER
 10
23.240909341
 20
82.245248227
 11
23.0822150584
 21
81.345248227
  0
LINE
  5
238
100
AcDbEntity
  8
0
100
AcDbLine
 62
7
  6
BYLAYER
 10
19.0572150584
 20
60.045248227
 11
19.0572150584
 21
62.045248227
  0
LINE
  5
239
100
AcDbEntity
  8
0
100
AcDbLine
 62
7
  6
BYLAYER
 10
19.4822150584
 20
21.0112736331
 11
19.4822150584
 21
25.5678979578
  0
LINE
  5
23A
100
AcDbEntity
  8
0
100
AcDbLine
 62
7
  6
BYLAYER
 10
19.589910213
 20
21.0112736307
 11
19.589910213
 21
25.5678979578
  0
LINE
  5
23B
100
AcDbEntity
  8
0
100
AcDbLine
 62
7
  6
BYLAYER
 10
19.6422117496
 20
56.1180422738
 11
19.6422117496
 21
59.1195664036
  0
LINE
  5
23C
100
AcDbEntity
  8
0
100
AcDbLine
 62
7
  6
BYLAYER
 10
19.6871196845
 20
56.1180422738
 11
19.6871196845
 21
59.245248227
  0
LINE
  5
23D
100
AcDbEntity
  8
0
100
AcDbLine
 62
7
  6
BYLAYER
 10
20.2136910509
 20
59.245248227
 11
20.2136910509
 21
56.1180422738
  0
LINE
  5
23E
100
AcDbEntity
  8
0
100
AcDbLine
 62
7
  6
BYLAYER
 10
20.4822150584
 20
26.1452482285
 11
20.4822150584
 21
47.545248227
  0
LINE
  5
23F
100
AcDbEntity
  8
0
100
AcDbLine
 62
7
  6
BYLAYER
 10
20.4924476036
 20
56.1180422738
 11
20.4924476036
 21
59.045248227
  0
LINE
  5
240
100
AcDbEntity
  8
0
100
AcDbLine
 62
7
  6
BYLAYER
 10
29.6001642508
 20
84.245248227
 11
29.3322150584
 21
83.245248227
  0
LINE
  5
241
100
AcDbEntity
  8
0
100
AcDbLine
 62
7
  6
BYLAYER
 10
23.0822150584
 20
81.345248227
 11
23.0822150584
 21
72.545248227
  0
LINE
  5
242
100
AcDbEntity
  8
0
100
AcDbLine
 62
7
  6
BYLAYER
 10
23.0822150584
 20
18.045248227
 11
23.0822150584
 21
20.145248227
  0
LINE
  5
243
100
AcDbEntity
  8
0
100
AcDbLine
 62
7
  6
BYLAYER
 10
24.0822150584
 20
72.545248227
 11
24.0822150584
 21
82.245248227
  0
LINE
  5
244
100
AcDbEntity
  8
0
100
AcDbLine
 62
7
  6
BYLAYER
 10
24.2322150584
 20
17.795248227
 11
24.2322150584
 21
18.045248227
  0
LINE
  5
245
100
AcDbEntity
  8
0
100
AcDbLine
 62
7
  6
BYLAYER
 10
44.4822150591
 20
26.1452482281
 11
45.4822150584
 21
25.5678979578
  0
LINE
  5
246
100
AcDbEntity
  8
0
100
AcDbLine
 62
7
  6
BYLAYER
 10
25.6666504536
 20
50.745248227
 11
25.5563659628
 21
59.045248227
  0
LINE
  5
247
100
AcDbEntity
  8
0
100
AcDbLine
 62
7
  6
BYLAYER
 10
24.4822150584
 20
50.545248227
 11
24.4822150584
 21
50.045248227
  0
LINE
  5
248
100
AcDbEntity
  8
0
100
AcDbLine
 62
7
  6
BYLAYER
 10
24.589910213
 20
25.5678979578
 11
24.589910213
 21
21.0112736307
  0
LINE
  5
249
100
AcDbEntity
  8
0
100
AcDbLine
 62
7
  6
BYLAYER
 10
24.8822150584
 20
81.345248227
 11
24.8822150584
 21
72.545248227
  0
LINE
  5
24A
100
AcDbEntity
  8
0
100
AcDbLine
 62
7
  6
BYLAYER
 10
25.6385447267
 20
72.545248227
 11
25.6385447267
 21
62.045248227
  0
LINE
  5
24B
100
AcDbEntity
  8
0
100
AcDbLine
 62
7
  6
BYLAYER
 10
25.9037150584
 20
7.7727482301
 11
25.9037150584
 21
14.4514434751
  0
LINE
  5
24C
100
AcDbEntity
  8
0
100
AcDbLine
 62
7
  6
BYLAYER
 10
26.4815309058
 20
56.1180422738
 11
26.4815309058
 21
59.0587509202
  0
LINE
  5
24D
100
AcDbEntity
  8
0
100
AcDbLine
 62
7
  6
BYLAYER
 10
26.6103568671
 20
56.1180422738
 11
26.6103568671
 21
59.245248227
  0
LINE
  5
24E
100
AcDbEntity
  8
0
100
AcDbLine
 62
7
  6
BYLAYER
 10
26.6561852809
 20
54.0583919607
 11
26.6561852809
 21
55.4654519788
  0
LINE
  5
24F
100
AcDbEntity
  8
0
100
AcDbLine
 62
7
  6
BYLAYER
 10
26.9322150584
 20
15.73806855
 11
26.9322150584
 21
17.795248227
  0
LINE
  5
250
100
AcDbEntity
  8
0
100
AcDbLine
 62
7
  6
BYLAYER
 10
16.2355143961
 20
55.9907441355
 11
20.6693236211
 21
50.6179502857
  0
LINE
  5
251
100
AcDbEntity
  8
0
100
AcDbLine
 62
7
  6
BYLAYER
 10
20.8206090276
 20
50.6166907051
 11
16.3864948998
 21
55.9894847555
  0
LINE
  5
252
100
AcDbEntity
  8
0
100
AcDbLine
 62
7
  6
BYLAYER
 10
29.8912739748
 20
50.745248227
 11
29.8429596645
 21
59.045248227
  0
LINE
  5
253
100
AcDbEntity
  8
0
100
AcDbLine
 62
7
  6
BYLAYER
 10
27.3740027592
 20
59.245248227
 11
27.3740027592
 21
56.1180422738
  0
LINE
  5
254
100
AcDbEntity
  8
0
100
AcDbLine
 62
7
  6
BYLAYER
 10
27.4822150584
 20
21.0112736307
 11
27.4822150584
 21
25.5678979578
  0
LINE
  5
255
100
AcDbEntity
  8
0
100
AcDbLine
 62
7
  6
BYLAYER
 10
27.6245178786
 20
56.1180422738
 11
27.6245178786
 21
59.045248227
  0
LINE
  5
256
100
AcDbEntity
  8
0
100
AcDbLine
 62
7
  6
BYLAYER
 10
27.9557137527
 20
59.045248227
 11
27.9557137527
 21
54.9325190081
  0
LINE
  5
257
100
AcDbEntity
  8
0
100
AcDbLine
 62
7
  6
BYLAYER
 10
28.5822150584
 20
73.245248227
 11
28.5822150584
 21
72.545248227
  0
LINE
  5
258
100
AcDbEntity
  8
0
100
AcDbLine
 62
7
  6
BYLAYER
 10
28.6561852809
 20
53.2650901228
 11
28.6561852809
 21
59.045248227
  0
LINE
  5
259
100
AcDbEntity
  8
0
100
AcDbLine
 62
7
  6
BYLAYER
 10
29.3322150584
 20
83.245248227
 11
29.3322150584
 21
73.245248227
  0
LINE
  5
25A
100
AcDbEntity
  8
0
100
AcDbLine
 62
7
  6
BYLAYER
 10
48.1382273732
 20
55.9939174652
 11
48.1270875436
 21
55.9894847519
  0
LINE
  5
25B
100
AcDbEntity
  8
0
100
AcDbLine
 62
7
  6
BYLAYER
 10
16.5730258355
 20
56.1180422738
 11
21.0068352226
 21
50.745248227
  0
LINE
  5
25C
100
AcDbEntity
  8
0
100
AcDbLine
 62
7
  6
BYLAYER
 10
19.6735813456
 20
56.0105072245
 11
23.1001213099
 21
50.6377059805
  0
LINE
  5
25D
100
AcDbEntity
  8
0
100
AcDbLine
 62
7
  6
BYLAYER
 10
23.6759844321
 20
50.6166907051
 11
20.2484824403
 21
55.9894847555
  0
LINE
  5
25E
100
AcDbEntity
  8
0
100
AcDbLine
 62
7
  6
BYLAYER
 10
20.4924476036
 20
56.1180422738
 11
23.9189829776
 21
50.745248227
  0
LINE
  5
25F
100
AcDbEntity
  8
0
100
AcDbLine
 62
7
  6
BYLAYER
 10
19.7234043383
 20
55.9894847555
 11
23.1490369614
 21
50.6166907051
  0
LINE
  5
260
100
AcDbEntity
  8
0
100
AcDbLine
 62
7
  6
BYLAYER
 10
26.8369656614
 20
54.8183454672
 11
26.4889064899
 21
56.0642293163
  0
LINE
  5
261
100
AcDbEntity
  8
0
100
AcDbLine
 62
7
  6
BYLAYER
 10
27.4427806894
 20
52.6499875324
 11
27.9900328752
 21
50.6914266414
  0
LINE
  5
262
100
AcDbEntity
  8
0
100
AcDbLine
 62
7
  6
BYLAYER
 10
26.9455018776
 20
54.8486455043
 11
26.9707485371
 21
54.7582099718
  0
LINE
  5
263
100
AcDbEntity
  8
0
100
AcDbLine
 62
7
  6
BYLAYER
 10
27.5801678495
 20
52.5750862734
 11
28.1267908942
 21
50.6166907051
  0
LINE
  5
264
100
AcDbEntity
  8
0
100
AcDbLine
 62
7
  6
BYLAYER
 10
26.4815309058
 20
56.1180422738
 11
26.4888905429
 21
56.064286488
  0
LINE
  5
265
100
AcDbEntity
  8
0
100
AcDbLine
 62
7
  6
BYLAYER
 10
40.6245291886
 20
50.6492488122
 11
40.5525882521
 21
50.616690705
  0
LINE
  5
266
100
AcDbEntity
  8
0
100
AcDbLine
 62
7
  6
BYLAYER
 10
43.8744785753
 20
50.616690705
 11
43.885163798
 21
50.6211034342
  0
LINE
  5
267
100
AcDbEntity
  8
0
100
AcDbLine
 62
7
  6
BYLAYER
 10
20.6721005626
 20
50.616690705
 11
20.669337056
 21
50.6179340063
  0
LINE
  5
268
100
AcDbEntity
  8
0
100
AcDbLine
 62
7
  6
BYLAYER
 10
28.8909822213
 20
50.6166907051
 11
28.343168497
 21
52.5750862554
  0
LINE
  5
269
100
AcDbEntity
  8
0
100
AcDbLine
 62
7
  6
BYLAYER
 10
27.6245178786
 20
56.1180422738
 11
27.9557137527
 21
54.9325190081
  0
LINE
  5
26A
100
AcDbEntity
  8
0
100
AcDbLine
 62
7
  6
BYLAYER
 10
28.5479833693
 20
52.8126293472
 11
29.1256418533
 21
50.745248227
  0
LINE
  5
26B
100
AcDbEntity
  8
0
100
AcDbLine
 62
7
  6
BYLAYER
 10
24.7235207757
 20
82.245248227
 11
24.8822150584
 21
81.345248227
  0
LINE
  5
26C
100
AcDbEntity
  8
0
100
AcDbLine
 62
7
  6
BYLAYER
 10
34.5220744017
 20
72.545248227
 11
34.5220744017
 21
62.045248227
  0
LINE
  5
26D
100
AcDbEntity
  8
0
100
AcDbLine
 62
7
  6
BYLAYER
 10
34.8785255975
 20
59.045248227
 11
34.8785255975
 21
56.1180422738
  0
LINE
  5
26E
100
AcDbEntity
  8
0
100
AcDbLine
 62
7
  6
BYLAYER
 10
35.1069537102
 20
56.1180422738
 11
35.1069537102
 21
59.245248227
  0
LINE
  5
26F
100
AcDbEntity
  8
0
100
AcDbLine
 62
7
  6
BYLAYER
 10
35.6322150584
 20
83.245248227
 11
35.6322150584
 21
73.245248227
  0
LINE
  5
270
100
AcDbEntity
  8
0
100
AcDbLine
 62
7
  6
BYLAYER
 10
33.6570611251
 20
59.045248227
 11
33.6304594744
 21
50.745248227
  0
LINE
  5
271
100
AcDbEntity
  8
0
100
AcDbLine
 62
7
  6
BYLAYER
 10
36.0593027213
 20
56.0878753037
 11
36.0615910913
 21
56.1180422738
  0
LINE
  5
272
100
AcDbEntity
  8
0
100
AcDbLine
 62
7
  6
BYLAYER
 10
35.068247949
 20
50.6166907051
 11
35.8933549214
 21
55.9894847555
  0
LINE
  5
273
100
AcDbEntity
  8
0
100
AcDbLine
 62
7
  6
BYLAYER
 10
34.052013216
 20
50.745248227
 11
34.8785255975
 21
56.1180422738
  0
LINE
  5
274
100
AcDbEntity
  8
0
100
AcDbLine
 62
7
  6
BYLAYER
 10
35.23275344
 20
50.7148393302
 11
36.0592661371
 21
56.0876354283
  0
LINE
  5
275
100
AcDbEntity
  8
0
100
AcDbLine
 62
7
  6
BYLAYER
 10
35.0995104102
 20
55.9894847555
 11
34.2715772144
 21
50.6166907051
  0
LINE
  5
276
100
AcDbEntity
  8
0
100
AcDbLine
 62
7
  6
BYLAYER
 10
40.0822150584
 20
81.345248227
 11
40.240909341
 21
82.245248227
  0
LINE
  5
277
100
AcDbEntity
  8
0
100
AcDbLine
 62
7
  6
BYLAYER
 10
20.4822150584
 20
47.545248227
 11
44.4822150584
 21
47.545248227
  0
LINE
  5
278
100
AcDbEntity
  8
0
100
AcDbLine
 62
7
  6
BYLAYER
 10
23.1490369614
 20
50.616690705
 11
23.1000334465
 21
50.6378438984
  0
LINE
  5
279
100
AcDbEntity
  8
0
100
AcDbLine
 62
7
  6
BYLAYER
 10
16.2353471237
 20
55.9909471504
 11
16.2385132706
 21
55.9894847519
  0
LINE
  5
27A
100
AcDbEntity
  8
0
100
AcDbLine
 62
7
  6
BYLAYER
 10
35.9030558279
 20
59.245248227
 11
35.9030558279
 21
56.1180422738
  0
LINE
  5
27B
100
AcDbEntity
  8
0
100
AcDbLine
 62
7
  6
BYLAYER
 10
36.0615910913
 20
56.1180422738
 11
36.0615910913
 21
59.0498456319
  0
LINE
  5
27C
100
AcDbEntity
  8
0
100
AcDbLine
 62
7
  6
BYLAYER
 10
36.3822150584
 20
73.245248227
 11
36.3822150584
 21
72.545248227
  0
LINE
  5
27D
100
AcDbEntity
  8
0
100
AcDbLine
 62
7
  6
BYLAYER
 10
37.4822150584
 20
25.5678979578
 11
37.4822150584
 21
21.0112736307
  0
LINE
  5
27E
100
AcDbEntity
  8
0
100
AcDbLine
 62
7
  6
BYLAYER
 10
38.0322150584
 20
15.73806855
 11
38.0322150584
 21
17.795248227
  0
LINE
  5
27F
100
AcDbEntity
  8
0
100
AcDbLine
 62
7
  6
BYLAYER
 10
38.2879478983
 20
59.045248227
 11
38.1935581774
 21
50.745248227
  0
LINE
  5
280
100
AcDbEntity
  8
0
100
AcDbLine
 62
7
  6
BYLAYER
 10
40.5525882521
 20
50.6166907051
 11
43.484208915
 21
55.9894847555
  0
LINE
  5
281
100
AcDbEntity
  8
0
100
AcDbLine
 62
7
  6
BYLAYER
 10
39.6893427975
 20
50.745248227
 11
42.62202821
 21
56.1180422738
  0
LINE
  5
282
100
AcDbEntity
  8
0
100
AcDbLine
 62
7
  6
BYLAYER
 10
40.6246258619
 20
50.6494256437
 11
43.5573112298
 21
56.0222196086
  0
LINE
  5
283
100
AcDbEntity
  8
0
100
AcDbLine
 62
7
  6
BYLAYER
 10
42.870710214
 20
55.9894847555
 11
39.93690539
 21
50.6166907051
  0
LINE
  5
284
100
AcDbEntity
  8
0
100
AcDbLine
 62
7
  6
BYLAYER
 10
43.8744785753
 20
50.6166907051
 11
48.1270875395
 21
55.9894847555
  0
LINE
  5
285
100
AcDbEntity
  8
0
100
AcDbLine
 62
7
  6
BYLAYER
 10
43.3955283215
 20
50.745248227
 11
47.6485760771
 21
56.1180422738
  0
LINE
  5
286
100
AcDbEntity
  8
0
100
AcDbLine
 62
7
  6
BYLAYER
 10
43.7149614953
 20
50.7558819555
 11
43.6047553113
 21
50.6166907051
  0
LINE
  5
287
100
AcDbEntity
  8
0
100
AcDbLine
 62
7
  6
BYLAYER
 10
43.8851730436
 20
50.6211151139
 11
48.1382206687
 21
55.9939089955
  0
LINE
  5
288
100
AcDbEntity
  8
0
100
AcDbLine
 62
7
  6
BYLAYER
 10
44.17750037
 20
50.745248227
 11
48.6113097571
 21
56.1180422738
  0
LINE
  5
289
100
AcDbEntity
  8
0
100
AcDbLine
 62
7
  6
BYLAYER
 10
44.2951064957
 20
50.6179502857
 11
48.7289157206
 21
55.9907441355
  0
LINE
  5
28A
100
AcDbEntity
  8
0
100
AcDbLine
 62
7
  6
BYLAYER
 10
22.9822441968
 20
50.045248227
 11
41.98218592
 21
50.045248227
  0
LINE
  5
28B
100
AcDbEntity
  8
0
100
AcDbLine
 62
7
  6
BYLAYER
 10
44.1408494573
 20
50.545248227
 11
20.8235806595
 21
50.545248227
  0
LINE
  5
28C
100
AcDbEntity
  8
0
100
AcDbLine
 62
7
  6
BYLAYER
 10
43.8744785753
 20
50.6166907051
 11
43.6047553113
 21
50.6166907051
  0
LINE
  5
28D
100
AcDbEntity
  8
0
100
AcDbLine
 62
7
  6
BYLAYER
 10
40.5525882521
 20
50.6166907051
 11
39.93690539
 21
50.6166907051
  0
LINE
  5
28E
100
AcDbEntity
  8
0
100
AcDbLine
 62
7
  6
BYLAYER
 10
35.068247949
 20
50.6166907051
 11
34.2715772144
 21
50.6166907051
  0
LINE
  5
28F
100
AcDbEntity
  8
0
100
AcDbLine
 62
7
  6
BYLAYER
 10
28.8909822213
 20
50.6166907051
 11
28.1267908942
 21
50.6166907051
  0
LINE
  5
290
100
AcDbEntity
  8
0
100
AcDbLine
 62
7
  6
BYLAYER
 10
23.6759844321
 20
50.6166907051
 11
23.1490369614
 21
50.6166907051
  0
LINE
  5
291
100
AcDbEntity
  8
0
100
AcDbLine
 62
7
  6
BYLAYER
 10
20.8206090276
 20
50.6166907051
 11
20.6721005626
 21
50.6166907051
  0
LINE
  5
292
100
AcDbEntity
  8
0
100
AcDbLine
 62
7
  6
BYLAYER
 10
41.2262495588
 20
50.7417577457
 11
40.675024408
 21
50.7417577457
  0
LINE
  5
293
100
AcDbEntity
  8
0
100
AcDbLine
 62
7
  6
BYLAYER
 10
38.1935185279
 20
50.7417577457
 11
35.2328187282
 21
50.7417577457
  0
LINE
  5
294
100
AcDbEntity
  8
0
100
AcDbLine
 62
7
  6
BYLAYER
 10
33.6304483446
 20
50.7417577457
 11
29.8912942377
 21
50.7417577457
  0
LINE
  5
295
100
AcDbEntity
  8
0
100
AcDbLine
 62
7
  6
BYLAYER
 10
27.9900328752
 20
50.7417577457
 11
25.6666967936
 21
50.7417577457
  0
LINE
  5
296
100
AcDbEntity
  8
0
100
AcDbLine
 62
7
  6
BYLAYER
 10
44.17750037
 20
50.745248227
 11
43.9834355218
 21
50.745248227
  0
LINE
  5
297
100
AcDbEntity
  8
0
100
AcDbLine
 62
7
  6
BYLAYER
 10
43.3955283215
 20
50.745248227
 11
41.2263071039
 21
50.745248227
  0
LINE
  5
298
100
AcDbEntity
  8
0
100
AcDbLine
 62
7
  6
BYLAYER
 10
39.6893427975
 20
50.745248227
 11
38.1935581774
 21
50.745248227
  0
LINE
  5
299
100
AcDbEntity
  8
0
100
AcDbLine
 62
7
  6
BYLAYER
 10
34.052013216
 20
50.745248227
 11
33.6304594744
 21
50.745248227
  0
LINE
  5
29A
100
AcDbEntity
  8
0
100
AcDbLine
 62
7
  6
BYLAYER
 10
29.8912739748
 20
50.745248227
 11
29.1256418533
 21
50.745248227
  0
LINE
  5
29B
100
AcDbEntity
  8
0
100
AcDbLine
 62
7
  6
BYLAYER
 10
25.6666504536
 20
50.745248227
 11
23.9189829776
 21
50.745248227
  0
LINE
  5
29C
100
AcDbEntity
  8
0
100
AcDbLine
 62
7
  6
BYLAYER
 10
23.0315355223
 20
50.745248227
 11
21.0068352226
 21
50.745248227
  0
LINE
  5
29D
100
AcDbEntity
  8
0
100
AcDbLine
 62
7
  6
BYLAYER
 10
19.7234043349
 20
55.9894847519
 11
19.6734060484
 21
56.01078278
  0
LINE
  5
29E
100
AcDbEntity
  8
0
100
AcDbLine
 62
7
  6
BYLAYER
 10
39.0607150584
 20
7.7727482301
 11
39.0607150584
 21
14.4514434751
  0
LINE
  5
29F
100
AcDbEntity
  8
0
100
AcDbLine
 62
7
  6
BYLAYER
 10
40.0822150584
 20
81.345248227
 11
40.0822150584
 21
72.545248227
  0
LINE
  5
2A0
100
AcDbEntity
  8
0
100
AcDbLine
 62
7
  6
BYLAYER
 10
40.3745199038
 20
21.0112736307
 11
40.3745199038
 21
25.5678979578
  0
LINE
  5
2A1
100
AcDbEntity
  8
0
100
AcDbLine
 62
7
  6
BYLAYER
 10
40.4822150584
 20
50.045248227
 11
40.4822150584
 21
50.545248227
  0
LINE
  5
2A2
100
AcDbEntity
  8
0
100
AcDbLine
 62
7
  6
BYLAYER
 10
40.7322150584
 20
17.795248227
 11
40.7322150584
 21
18.045248227
  0
LINE
  5
2A3
100
AcDbEntity
  8
0
100
AcDbLine
 62
7
  6
BYLAYER
 10
40.8822150584
 20
82.245248227
 11
40.8822150584
 21
72.545248227
  0
LINE
  5
2A4
100
AcDbEntity
  8
0
100
AcDbLine
 62
7
  6
BYLAYER
 10
41.2434234583
 20
51.7830869726
 11
41.2263071039
 21
50.745248227
  0
LINE
  5
2A5
100
AcDbEntity
  8
0
100
AcDbLine
 62
7
  6
BYLAYER
 10
41.8822150584
 20
18.045248227
 11
41.8822150584
 21
20.145248227
  0
LINE
  5
2A6
100
AcDbEntity
  8
0
100
AcDbLine
 62
7
  6
BYLAYER
 10
41.8822150584
 20
72.545248227
 11
41.8822150584
 21
81.345248227
  0
LINE
  5
2A7
100
AcDbEntity
  8
0
100
AcDbLine
 62
7
  6
BYLAYER
 10
42.62202821
 20
59.045248227
 11
42.62202821
 21
56.1180422738
  0
LINE
  5
2A8
100
AcDbEntity
  8
0
100
AcDbLine
 62
7
  6
BYLAYER
 10
42.8590254129
 20
72.545248227
 11
42.8590254129
 21
62.045248227
  0
LINE
  5
2A9
100
AcDbEntity
  8
0
100
AcDbLine
 62
7
  6
BYLAYER
 10
42.9002539512
 20
56.1180422738
 11
42.9002539512
 21
59.245248227
  0
LINE
  5
2AA
100
AcDbEntity
  8
0
100
AcDbLine
 62
7
  6
BYLAYER
 10
43.5154973749
 20
59.245248227
 11
43.5154973749
 21
56.1180422738
  0
LINE
  5
2AB
100
AcDbEntity
  8
0
100
AcDbLine
 62
7
  6
BYLAYER
 10
43.5817606196
 20
56.1180422738
 11
43.5817606196
 21
59.097146691
  0
LINE
  5
2AC
100
AcDbEntity
  8
0
100
AcDbLine
 62
7
  6
BYLAYER
 10
20.4822150577
 20
26.1452482281
 11
19.4822150584
 21
25.5678979578
  0
LINE
  5
2AD
100
AcDbEntity
  8
0
100
AcDbLine
 62
7
  6
BYLAYER
 10
16.2385132749
 20
55.9894847555
 11
16.3864948998
 21
55.9894847555
  0
LINE
  5
2AE
100
AcDbEntity
  8
0
100
AcDbLine
 62
7
  6
BYLAYER
 10
19.7234043383
 20
55.9894847555
 11
20.2484824403
 21
55.9894847555
  0
LINE
  5
2AF
100
AcDbEntity
  8
0
100
AcDbLine
 62
7
  6
BYLAYER
 10
26.6270084305
 20
55.9894847555
 11
27.3884887563
 21
55.9894847555
  0
LINE
  5
2B0
100
AcDbEntity
  8
0
100
AcDbLine
 62
7
  6
BYLAYER
 10
35.0995104102
 20
55.9894847555
 11
35.8933549214
 21
55.9894847555
  0
LINE
  5
2B1
100
AcDbEntity
  8
0
100
AcDbLine
 62
7
  6
BYLAYER
 10
42.870710214
 20
55.9894847555
 11
43.484208915
 21
55.9894847555
  0
LINE
  5
2B2
100
AcDbEntity
  8
0
100
AcDbLine
 62
7
  6
BYLAYER
 10
47.8583211303
 20
55.9894847555
 11
48.1270875395
 21
55.9894847555
  0
LINE
  5
2B3
100
AcDbEntity
  8
0
100
AcDbLine
 62
7
  6
BYLAYER
 10
48.7746588445
 20
56.1180422738
 11
48.6113097571
 21
56.1180422738
  0
LINE
  5
2B4
100
AcDbEntity
  8
0
100
AcDbLine
 62
7
  6
BYLAYER
 10
48.1814057169
 20
56.1180422738
 11
47.6485760771
 21
56.1180422738
  0
LINE
  5
2B5
100
AcDbEntity
  8
0
100
AcDbLine
 62
7
  6
BYLAYER
 10
43.5817606196
 20
56.1180422738
 11
42.62202821
 21
56.1180422738
  0
LINE
  5
2B6
100
AcDbEntity
  8
0
100
AcDbLine
 62
7
  6
BYLAYER
 10
36.0615910913
 20
56.1180422738
 11
34.8785255975
 21
56.1180422738
  0
LINE
  5
2B7
100
AcDbEntity
  8
0
100
AcDbLine
 62
7
  6
BYLAYER
 10
27.6245178786
 20
56.1180422738
 11
26.4815309058
 21
56.1180422738
  0
LINE
  5
2B8
100
AcDbEntity
  8
0
100
AcDbLine
 62
7
  6
BYLAYER
 10
20.4924476036
 20
56.1180422738
 11
19.6422117496
 21
56.1180422738
  0
LINE
  5
2B9
100
AcDbEntity
  8
0
100
AcDbLine
 62
7
  6
BYLAYER
 10
16.5730258355
 20
56.1180422738
 11
16.1923179743
 21
56.1180422738
  0
LINE
  5
2BA
100
AcDbEntity
  8
0
100
AcDbLine
 62
7
  6
BYLAYER
 10
44.4822150584
 20
26.1452482285
 11
44.4822150584
 21
47.545248227
  0
LINE
  5
2BB
100
AcDbEntity
  8
0
100
AcDbLine
 62
7
  6
BYLAYER
 10
45.3745199038
 20
25.5678979578
 11
45.3745199038
 21
21.0112736307
  0
LINE
  5
2BC
100
AcDbEntity
  8
0
100
AcDbLine
 62
7
  6
BYLAYER
 10
45.4822150584
 20
21.0112736331
 11
45.4822150584
 21
25.5678979578
  0
LINE
  5
2BD
100
AcDbEntity
  8
0
100
AcDbLine
 62
7
  6
BYLAYER
 10
45.9072150584
 20
60.045248227
 11
45.9072150584
 21
62.045248227
  0
LINE
  5
2BE
100
AcDbEntity
  8
0
100
AcDbLine
 62
7
  6
BYLAYER
 10
48.7822098623
 20
59.045248227
 11
48.1814057169
 21
59.045248227
  0
LINE
  5
2BF
100
AcDbEntity
  8
0
100
AcDbLine
 62
7
  6
BYLAYER
 10
47.6427880481
 20
59.045248227
 11
43.5817606196
 21
59.045248227
  0
LINE
  5
2C0
100
AcDbEntity
  8
0
100
AcDbLine
 62
7
  6
BYLAYER
 10
42.6180370796
 20
59.045248227
 11
36.0570793784
 21
59.045248227
  0
LINE
  5
2C1
100
AcDbEntity
  8
0
100
AcDbLine
 62
7
  6
BYLAYER
 10
34.8774007858
 20
59.045248227
 11
27.6265607781
 21
59.045248227
  0
LINE
  5
2C2
100
AcDbEntity
  8
0
100
AcDbLine
 62
7
  6
BYLAYER
 10
26.4815309058
 20
59.045248227
 11
20.4971108209
 21
59.045248227
  0
LINE
  5
2C3
100
AcDbEntity
  8
0
100
AcDbLine
 62
7
  6
BYLAYER
 10
19.6422117496
 20
59.045248227
 11
16.5790598654
 21
59.045248227
  0
LINE
  5
2C4
100
AcDbEntity
  8
0
100
AcDbLine
 62
7
  6
BYLAYER
 10
48.9822150584
 20
59.245248227
 11
48.1715798354
 21
59.245248227
  0
LINE
  5
2C5
100
AcDbEntity
  8
0
100
AcDbLine
 62
7
  6
BYLAYER
 10
47.9020490841
 20
59.245248227
 11
43.5154973749
 21
59.245248227
  0
LINE
  5
2C6
100
AcDbEntity
  8
0
100
AcDbLine
 62
7
  6
BYLAYER
 10
42.9002539512
 20
59.245248227
 11
35.9030558279
 21
59.245248227
  0
LINE
  5
2C7
100
AcDbEntity
  8
0
100
AcDbLine
 62
7
  6
BYLAYER
 10
35.1069537102
 20
59.245248227
 11
27.3740027592
 21
59.245248227
  0
LINE
  5
2C8
100
AcDbEntity
  8
0
100
AcDbLine
 62
7
  6
BYLAYER
 10
26.6103568671
 20
59.245248227
 11
20.2136910509
 21
59.245248227
  0
LINE
  5
2C9
100
AcDbEntity
  8
0
100
AcDbLine
 62
7
  6
BYLAYER
 10
19.6871196845
 20
59.245248227
 11
16.3407204427
 21
59.245248227
  0
LINE
  5
2CA
100
AcDbEntity
  8
0
100
AcDbLine
 62
7
  6
BYLAYER
 10
16.1923179743
 20
59.245248227
 11
15.9822150584
 21
59.245248227
  0
LINE
  5
2CB
100
AcDbEntity
  8
0
100
AcDbLine
 62
7
  6
BYLAYER
 10
35.364265866
 20
84.245248227
 11
35.6322150584
 21
83.245248227
  0
LINE
  5
2CC
100
AcDbEntity
  8
0
100
AcDbLine
 62
7
  6
BYLAYER
 10
43.5817606195
 20
59.0971397346
 11
43.5703580141
 21
59.1500409111
  0
LINE
  5
2CD
100
AcDbEntity
  8
0
100
AcDbLine
 62
7
  6
BYLAYER
 10
47.6485760771
 20
59.045248227
 11
47.6485760771
 21
56.1180422738
  0
LINE
  5
2CE
100
AcDbEntity
  8
0
100
AcDbLine
 62
7
  6
BYLAYER
 10
47.9020490841
 20
56.1180422738
 11
47.9020490841
 21
59.245248227
  0
LINE
  5
2CF
100
AcDbEntity
  8
0
100
AcDbLine
 62
7
  6
BYLAYER
 10
48.1715798354
 20
59.245248227
 11
48.1715798354
 21
56.1180422738
  0
LINE
  5
2D0
100
AcDbEntity
  8
0
100
AcDbLine
 62
7
  6
BYLAYER
 10
48.1814057169
 20
56.1180422738
 11
48.1814057169
 21
59.1836886813
  0
LINE
  5
2D1
100
AcDbEntity
  8
0
100
AcDbLine
 62
7
  6
BYLAYER
 10
48.4155184697
 20
72.545248227
 11
48.4155184697
 21
62.045248227
  0
LINE
  5
2D2
100
AcDbEntity
  8
0
100
AcDbLine
 62
7
  6
BYLAYER
 10
48.6113097571
 20
59.045248227
 11
48.6113097571
 21
56.1180422738
  0
LINE
  5
2D3
100
AcDbEntity
  8
0
100
AcDbLine
 62
7
  6
BYLAYER
 10
48.7746588445
 20
56.1180422738
 11
48.7746588445
 21
59.045248227
  0
LINE
  5
2D4
100
AcDbEntity
  8
0
100
AcDbLine
 62
7
  6
BYLAYER
 10
48.9822150584
 20
59.245248227
 11
48.9822150584
 21
59.795248227
  0
LINE
  5
2D5
100
AcDbEntity
  8
0
100
AcDbLine
 62
7
  6
BYLAYER
 10
49.7026957446
 20
72.545248227
 11
49.7026957446
 21
62.045248227
  0
LINE
  5
2D6
100
AcDbEntity
  8
0
100
AcDbLine
 62
7
  6
BYLAYER
 10
15.9822150584
 20
59.795248227
 11
48.9822150584
 21
59.795248227
  0
LINE
  5
2D7
100
AcDbEntity
  8
0
100
AcDbLine
 62
7
  6
BYLAYER
 10
16.2323219774
 20
60.045248227
 11
48.7321081394
 21
60.045248227
  0
LINE
  5
2D8
100
AcDbEntity
  8
0
100
AcDbLine
 62
7
  6
BYLAYER
 10
49.7026957446
 20
62.045248227
 11
15.2617343721
 21
62.045248227
  0
LINE
  5
2D9
100
AcDbEntity
  8
0
100
AcDbLine
 62
7
  6
BYLAYER
 10
41.8822150584
 20
81.345248227
 11
41.7235207757
 21
82.245248227
  0
LINE
  5
2DA
100
AcDbEntity
  8
0
100
AcDbLine
 62
7
  6
BYLAYER
 10
48.1814056488
 20
59.183510918
 11
48.1715798354
 21
59.245248227
  0
LINE
  5
2DB
100
AcDbEntity
  8
0
100
AcDbLine
 62
7
  6
BYLAYER
 10
48.7322150588
 20
60.045248227
 11
48.9822150584
 21
59.795248227
  0
LINE
  5
2DC
100
AcDbEntity
  8
0
100
AcDbLine
 62
7
  6
BYLAYER
 10
26.3322150581
 20
14.6988380659
 11
25.9037150584
 21
14.4514434751
  0
LINE
  5
2DD
100
AcDbEntity
  8
0
100
AcDbLine
 62
7
  6
BYLAYER
 10
43.9822150584
 20
20.145248227
 11
45.4822150573
 21
21.0112736325
  0
LINE
  5
2DE
100
AcDbEntity
  8
0
100
AcDbLine
 62
7
  6
BYLAYER
 10
15.2617343721
 20
72.545248227
 11
49.7026957446
 21
72.545248227
  0
LINE
  5
2DF
100
AcDbEntity
  8
0
100
AcDbLine
 62
7
  6
BYLAYER
 10
28.5822268837
 20
73.245248227
 11
36.3822032331
 21
73.245248227
  0
LINE
  5
2E0
100
AcDbEntity
  8
0
100
AcDbLine
 62
7
  6
BYLAYER
 10
37.3332150584
 20
6.045248227
 11
39.0607150568
 21
7.7727482285
  0
LINE
  5
2E1
100
AcDbEntity
  8
0
100
AcDbLine
 62
7
  6
BYLAYER
 10
23.0822150584
 20
81.345248227
 11
24.8822150584
 21
81.345248227
  0
LINE
  5
2E2
100
AcDbEntity
  8
0
100
AcDbLine
 62
7
  6
BYLAYER
 10
40.0822150584
 20
81.345248227
 11
41.8822150584
 21
81.345248227
  0
LINE
  5
2E3
100
AcDbEntity
  8
0
100
AcDbLine
 62
7
  6
BYLAYER
 10
23.240909341
 20
82.245248227
 11
24.7235207757
 21
82.245248227
  0
LINE
  5
2E4
100
AcDbEntity
  8
0
100
AcDbLine
 62
7
  6
BYLAYER
 10
40.240909341
 20
82.245248227
 11
41.7235207757
 21
82.245248227
  0
LINE
  5
2E5
100
AcDbEntity
  8
0
100
AcDbLine
 62
7
  6
BYLAYER
 10
35.6322150584
 20
83.245248227
 11
29.3322150584
 21
83.245248227
  0
LINE
  5
2E6
100
AcDbEntity
  8
0
100
AcDbLine
 62
7
  6
BYLAYER
 10
35.364265866
 20
84.245248227
 11
29.6001642508
 21
84.245248227
  0
ARC
  5
2E7
100
AcDbEntity
  8
0
100
AcDbCircle
 62
7
  6
BYLAYER
 10
41.9822150584
 20
47.545248227
 40
2.5
100
AcDbArc
 50
0.0
 51
90.0
  0
ARC
  5
2E8
100
AcDbEntity
  8
0
100
AcDbCircle
 62
7
  6
BYLAYER
 10
22.9822150584
 20
47.545248227
 40
2.5
100
AcDbArc
 50
90.0
 51
180.0
  0
ARC
  5
2E9
100
AcDbEntity
  8
0
100
AcDbCircle
 62
7
  6
BYLAYER
 10
19.9160482001
 20
52.0226973552
 40
1.6797894522
100
AcDbArc
 50
307.6795493324
 51
310.4933186099
  0
ARC
  5
2EA
100
AcDbEntity
  8
0
100
AcDbCircle
 62
7
  6
BYLAYER
 10
15.4967167005
 20
57.3780136045
 40
1.6570965899
100
AcDbArc
 50
307.6524545147
 51
310.5050468997
  0
ARC
  5
2EB
100
AcDbEntity
  8
0
100
AcDbCircle
 62
7
  6
BYLAYER
 10
28.2615077559
 20
53.9181656348
 40
1.5107551924
100
AcDbArc
 50
229.7021535243
 51
237.1459570938
  0
ARC
  5
2EC
100
AcDbEntity
  8
0
100
AcDbCircle
 62
7
  6
BYLAYER
 10
39.2322150584
 20
15.73806855
 40
1.2
100
AcDbArc
 50
180.0
 51
239.9999999314
  0
ARC
  5
2ED
100
AcDbEntity
  8
0
100
AcDbCircle
 62
7
  6
BYLAYER
 10
25.7322150584
 20
15.73806855
 40
1.2
100
AcDbArc
 50
300.0000000686
 51
360.0
  0
CIRCLE
  5
2EE
100
AcDbEntity
  8
0
100
AcDbCircle
 62
7
  6
BYLAYER
 10
32.4822150584
 20
79.995248227
 40
0.85
  0
ARC
  5
2EF
100
AcDbEntity
  8
0
100
AcDbCircle
 62
7
  6
BYLAYER
 10
23.6410740029
 20
50.926910158
 40
0.3136999654
100
AcDbArc
 50
287.4409703906
 51
290.5649926569
  0
ARC
  5
2F0
100
AcDbEntity
  8
0
100
AcDbCircle
 62
7
  6
BYLAYER
 10
34.2765202888
 20
50.928453944
 40
0.3117274069
100
AcDbArc
 50
254.7997884306
 51
268.9776259862
  0
ARC
  5
2F1
100
AcDbEntity
  8
0
100
AcDbCircle
 62
7
  6
BYLAYER
 10
28.8856821536
 20
50.9031714717
 40
0.2865297898
100
AcDbArc
 50
271.0598856973
 51
275.9409341526
  0
ARC
  5
2F2
100
AcDbEntity
  8
0
100
AcDbCircle
 62
7
  6
BYLAYER
 10
19.9430061506
 20
56.1179841073
 40
0.2558864728
100
AcDbArc
 50
179.9869758789
 51
190.3670867399
  0
ARC
  5
2F3
100
AcDbEntity
  8
0
100
AcDbCircle
 62
7
  6
BYLAYER
 10
16.4009375529
 20
56.1185439056
 40
0.2086201817
100
AcDbArc
 50
180.1377691021
 51
186.0459150369
  0
ARC
  5
2F4
100
AcDbEntity
  8
0
100
AcDbCircle
 62
7
  6
BYLAYER
 10
16.3943985358
 20
56.117900719
 40
0.2020497979
100
AcDbArc
 50
186.0598428441
 51
199.1492380735
  0
ARC
  5
2F5
100
AcDbEntity
  8
0
100
AcDbCircle
 62
7
  6
BYLAYER
 10
16.1822150584
 20
59.245248227
 40
0.2
100
AcDbArc
 50
180.0
 51
270.0
  0
ARC
  5
2F6
100
AcDbEntity
  8
0
100
AcDbCircle
 62
7
  6
BYLAYER
 10
16.3897712723
 20
56.1180422738
 40
0.2
100
AcDbArc
 50
180.0
 51
219.5332293301
  0
ARC
  5
2F7
100
AcDbEntity
  8
0
100
AcDbCircle
 62
7
  6
BYLAYER
 10
23.2687471237
 20
50.745248227
 40
0.2
100
AcDbArc
 50
212.5238395581
 51
270.0
  0
ARC
  5
2F8
100
AcDbEntity
  8
0
100
AcDbCircle
 62
7
  6
BYLAYER
 10
19.8422117496
 20
56.1180422738
 40
0.2
100
AcDbArc
 50
180.0
 51
212.3674925042
  0
ARC
  5
2F9
100
AcDbEntity
  8
0
100
AcDbCircle
 62
7
  6
BYLAYER
 10
28.1826548805
 20
50.745248227
 40
0.2
100
AcDbArc
 50
195.6123855563
 51
270.0
  0
ARC
  5
2FA
100
AcDbEntity
  8
0
100
AcDbCircle
 62
7
  6
BYLAYER
 10
35.0350787098
 20
50.745248227
 40
0.2
100
AcDbArc
 50
270.0
 51
351.2269512924
  0
ARC
  5
2FB
100
AcDbEntity
  8
0
100
AcDbCircle
 62
7
  6
BYLAYER
 10
48.7822150584
 20
59.245248227
 40
0.2
100
AcDbArc
 50
270.0
 51
360.0
  0
ARC
  5
2FC
100
AcDbEntity
  8
0
100
AcDbCircle
 62
7
  6
BYLAYER
 10
47.9814057169
 20
56.1180422738
 40
0.2
100
AcDbArc
 50
321.6384424012
 51
360.0
  0
ARC
  5
2FD
100
AcDbEntity
  8
0
100
AcDbCircle
 62
7
  6
BYLAYER
 10
43.3817606196
 20
56.1180422738
 40
0.2
100
AcDbArc
 50
331.3370874102
 51
360.0
  0
ARC
  5
2FE
100
AcDbEntity
  8
0
100
AcDbCircle
 62
7
  6
BYLAYER
 10
40.4490752071
 20
50.745248227
 40
0.2
100
AcDbArc
 50
270.0
 51
331.375128598
  0
ARC
  5
2FF
100
AcDbEntity
  8
0
100
AcDbCircle
 62
7
  6
BYLAYER
 10
43.7283579613
 20
50.745248227
 40
0.2
100
AcDbArc
 50
270.0
 51
321.6307886309
  0
ARC
  5
300
100
AcDbEntity
  8
0
100
AcDbCircle
 62
7
  6
BYLAYER
 10
44.1408494573
 20
50.745248227
 40
0.2
100
AcDbArc
 50
270.0
 51
320.4715390755
  0
ARC
  5
301
100
AcDbEntity
  8
0
100
AcDbCircle
 62
7
  6
BYLAYER
 10
48.5746588445
 20
56.1180422738
 40
0.2
100
AcDbArc
 50
320.4667706699
 51
360.0
  0
ARC
  5
302
100
AcDbEntity
  8
0
100
AcDbCircle
 62
7
  6
BYLAYER
 10
20.8250711945
 20
50.743661651
 40
0.1988004914
100
AcDbArc
 50
219.6938532873
 51
270.0
  0
SPLINE
  5
303
100
AcDbEntity
  8
0
100
AcDbSpline
 62
7
  6
BYLAYER
 70
0
 71
3
 72
13
 73
9
 74
0
 42
0.0000001
 43
0.0000001
 44
0.0000000001
 40
0.0
 40
0.0
 40
0.0
 40
0.0
 40
0.2504043518
 40
0.4962722784
 40
0.619151136
 40
0.7430636748
 40
0.8694297821
 40
1.0
 40
1.0
 40
1.0
 40
1.0
 10
28.6561886405
 20
53.2650895578
 30
0.0
 10
28.6561903333
 20
53.1991863801
 30
0.0
 10
28.6460348855
 20
53.068266903
 30
0.0
 10
28.6025143459
 20
52.9098468787
 30
0.0
 10
28.5466049019
 20
52.7925137778
 30
0.0
 10
28.4926246422
 20
52.7100414068
 30
0.0
 10
28.425644081
 20
52.6350361655
 30
0.0
 10
28.3729060216
 20
52.5919659979
 30
0.0
 10
28.3440995721
 20
52.5732283452
 30
0.0
  0
SPLINE
  5
304
100
AcDbEntity
  8
0
100
AcDbSpline
 62
7
  6
BYLAYER
 70
0
 71
3
 72
9
 73
5
 74
0
 42
0.0000001
 43
0.0000001
 44
0.0000000001
 40
0.0
 40
0.0
 40
0.0
 40
0.0
 40
0.2511933739
 40
1.0
 40
1.0
 40
1.0
 40
1.0
 10
27.5762647606
 20
52.5732282704
 30
0.0
 10
27.5646023695
 20
52.578792633
 30
0.0
 10
27.5186096737
 20
52.601856772
 30
0.0
 10
27.4742854446
 20
52.6281580482
 30
0.0
 10
27.4419218343
 20
52.6490477646
 30
0.0
  0
SPLINE
  5
305
100
AcDbEntity
  8
0
100
AcDbSpline
 62
7
  6
BYLAYER
 70
0
 71
3
 72
11
 73
7
 74
0
 42
0.0000001
 43
0.0000001
 44
0.0000000001
 40
0.0
 40
0.0
 40
0.0
 40
0.0
 40
0.2746513456
 40
0.5313251919
 40
0.7723253556
 40
1.0
 40
1.0
 40
1.0
 40
1.0
 10
27.2844100457
 20
52.7659237695
 30
0.0
 10
27.1812179667
 20
52.8532723457
 30
0.0
 10
27.0023010383
 20
53.0478459615
 30
0.0
 10
26.8069519788
 20
53.3766449604
 30
0.0
 10
26.6866550719
 20
53.7151367534
 30
0.0
 10
26.6561865826
 20
53.9463193216
 30
0.0
 10
26.6561821409
 20
54.058392522
 30
0.0
  0
SPLINE
  5
306
100
AcDbEntity
  8
0
100
AcDbSpline
 62
7
  6
BYLAYER
 70
0
 71
3
 72
9
 73
5
 74
0
 42
0.0000001
 43
0.0000001
 44
0.0000000001
 40
0.0
 40
0.0
 40
0.0
 40
0.0
 40
0.4605551786
 40
1.0
 40
1.0
 40
1.0
 40
1.0
 10
19.6422113695
 20
59.119565509
 30
0.0
 10
19.64218611
 20
59.1402404524
 30
0.0
 10
19.6531501764
 20
59.184920094
 30
0.0
 10
19.6741345686
 20
59.2248075334
 30
0.0
 10
19.6871196845
 20
59.245248227
 30
0.0
  0
SPLINE
  5
307
100
AcDbEntity
  8
0
100
AcDbSpline
 62
7
  6
BYLAYER
 70
0
 71
3
 72
13
 73
9
 74
0
 42
0.0000001
 43
0.0000001
 44
0.0000000001
 40
0.0
 40
0.0
 40
0.0
 40
0.0
 40
0.0304383761
 40
0.0890969839
 40
0.1788321399
 40
0.2988324479
 40
0.6159313737
 40
1.0
 40
1.0
 40
1.0
 40
1.0
 10
44.2950608586
 20
50.6179766764
 30
0.0
 10
44.2961471439
 20
50.6193885224
 30
0.0
 10
44.2949521755
 20
50.625456587
 30
0.0
 10
44.2896613054
 20
50.6339429599
 30
0.0
 10
44.2801129815
 20
50.6467356941
 30
0.0
 10
44.2596259852
 20
50.6696372042
 30
0.0
 10
44.2252237628
 20
50.7033674683
 30
0.0
 10
44.1945925572
 20
50.7306507184
 30
0.0
 10
44.17750037
 20
50.745248227
 30
0.0
  0
SPLINE
  5
308
100
AcDbEntity
  8
0
100
AcDbSpline
 62
7
  6
BYLAYER
 70
0
 71
3
 72
9
 73
5
 74
0
 42
0.0000001
 43
0.0000001
 44
0.0000000001
 40
0.0
 40
0.0
 40
0.0
 40
0.0
 40
0.5432267596
 40
1.0
 40
1.0
 40
1.0
 40
1.0
 10
48.6113097571
 20
56.1180422738
 30
0.0
 10
48.6275761968
 20
56.1041538043
 30
0.0
 10
48.6570047516
 20
56.0779828896
 30
0.0
 10
48.6852651909
 20
56.0505226356
 30
0.0
 10
48.6976072482
 20
56.0374409207
 30
0.0
  0
SPLINE
  5
309
100
AcDbEntity
  8
0
100
AcDbSpline
 62
7
  6
BYLAYER
 70
0
 71
3
 72
9
 73
5
 74
0
 42
0.0000001
 43
0.0000001
 44
0.0000000001
 40
0.0
 40
0.0
 40
0.0
 40
0.0
 40
0.2884005819
 40
1.0
 40
1.0
 40
1.0
 40
1.0
 10
48.6976072482
 20
56.0374409207
 30
0.0
 10
48.6998077614
 20
56.035108531
 30
0.0
 10
48.7073612271
 20
56.0269525512
 30
0.0
 10
48.7146367772
 20
56.0185166312
 30
0.0
 10
48.7193984787
 20
56.0121979717
 30
0.0
  0
SPLINE
  5
30A
100
AcDbEntity
  8
0
100
AcDbSpline
 62
7
  6
BYLAYER
 70
0
 71
3
 72
10
 73
6
 74
0
 42
0.0000001
 43
0.0000001
 44
0.0000000001
 40
0.0
 40
0.0
 40
0.0
 40
0.0
 40
0.6743075993
 40
0.8737136493
 40
1.0
 40
1.0
 40
1.0
 40
1.0
 10
48.7193984787
 20
56.0121979717
 30
0.0
 10
48.7226722115
 20
56.0078538096
 30
0.0
 10
48.7267818543
 20
56.001989008
 30
0.0
 10
48.7297449778
 20
55.9945034382
 30
0.0
 10
48.7295005282
 20
55.9915962035
 30
0.0
 10
48.7288782343
 20
55.9907896152
 30
0.0
  0
SPLINE
  5
30B
100
AcDbEntity
  8
0
100
AcDbSpline
 62
7
  6
BYLAYER
 70
0
 71
3
 72
15
 73
11
 74
0
 42
0.0000001
 43
0.0000001
 44
0.0000000001
 40
0.0
 40
0.0
 40
0.0
 40
0.0
 40
0.367209903
 40
0.5337382743
 40
0.6807218358
 40
0.8030319585
 40
0.8968922848
 40
0.932590646
 40
0.9610026104
 40
1.0
 40
1.0
 40
1.0
 40
1.0
 10
44.17750037
 20
50.745248227
 30
0.0
 10
44.17750037
 20
50.7197335578
 30
0.0
 10
44.1762645286
 20
50.6826207158
 30
0.0
 10
44.1717628348
 20
50.6355256806
 30
0.0
 10
44.1673969705
 20
50.605541963
 30
0.0
 10
44.1620802847
 20
50.5808521155
 30
0.0
 10
44.1568210625
 20
50.5641181859
 30
0.0
 10
44.1518697329
 20
50.5542284595
 30
0.0
 10
44.1479028919
 20
50.5484011792
 30
0.0
 10
44.1435590942
 20
50.545248227
 30
0.0
 10
44.1408494573
 20
50.545248227
 30
0.0
  0
SPLINE
  5
30C
100
AcDbEntity
  8
0
100
AcDbSpline
 62
7
  6
BYLAYER
 70
0
 71
3
 72
9
 73
5
 74
0
 42
0.0000001
 43
0.0000001
 44
0.0000000001
 40
0.0
 40
0.0
 40
0.0
 40
0.0
 40
0.2436610222
 40
1.0
 40
1.0
 40
1.0
 40
1.0
 10
26.4889043543
 20
56.0642294555
 30
0.0
 10
26.4898622628
 20
56.060800372
 30
0.0
 10
26.4948147022
 20
56.0470126825
 30
0.0
 10
26.503875026
 20
56.0348665448
 30
0.0
 10
26.5119301423
 20
56.0272999819
 30
0.0
  0
SPLINE
  5
30D
100
AcDbEntity
  8
0
100
AcDbSpline
 62
7
  6
BYLAYER
 70
0
 71
3
 72
9
 73
5
 74
0
 42
0.0000001
 43
0.0000001
 44
0.0000000001
 40
0.0
 40
0.0
 40
0.0
 40
0.0
 40
0.2178416407
 40
1.0
 40
1.0
 40
1.0
 40
1.0
 10
26.5119301423
 20
56.0272999819
 30
0.0
 10
26.5184274144
 20
56.0211967781
 30
0.0
 10
26.5521883872
 20
55.9973410822
 30
0.0
 10
26.5950045973
 20
55.9898970982
 30
0.0
 10
26.627008429
 20
55.9894847519
 30
0.0
  0
SPLINE
  5
30E
100
AcDbEntity
  8
0
100
AcDbSpline
 62
7
  6
BYLAYER
 70
0
 71
3
 72
8
 73
4
 74
0
 42
0.0000001
 43
0.0000001
 44
0.0000000001
 40
0.0
 40
0.0
 40
0.0
 40
0.0
 40
1.0
 40
1.0
 40
1.0
 40
1.0
 10
43.8744785753
 20
50.616690705
 30
0.0
 10
43.8627127446
 20
50.6019885316
 30
0.0
 10
43.8486727453
 20
50.5888472253
 30
0.0
 10
43.8331752164
 20
50.5781507178
 30
0.0
  0
SPLINE
  5
30F
100
AcDbEntity
  8
0
100
AcDbSpline
 62
7
  6
BYLAYER
 70
0
 71
3
 72
9
 73
5
 74
0
 42
0.0000001
 43
0.0000001
 44
0.0000000001
 40
0.0
 40
0.0
 40
0.0
 40
0.0
 40
0.5019390221
 40
1.0
 40
1.0
 40
1.0
 40
1.0
 10
43.8331752164
 20
50.5781507178
 30
0.0
 10
43.8178731049
 20
50.5675890888
 30
0.0
 10
43.7840649513
 20
50.5509685759
 30
0.0
 10
43.7468073888
 20
50.545248227
 30
0.0
 10
43.7283579613
 20
50.545248227
 30
0.0
  0
SPLINE
  5
310
100
AcDbEntity
  8
0
100
AcDbSpline
 62
7
  6
BYLAYER
 70
0
 71
3
 72
8
 73
4
 74
0
 42
0.0000001
 43
0.0000001
 44
0.0000000001
 40
0.0
 40
0.0
 40
0.0
 40
0.0
 40
1.0
 40
1.0
 40
1.0
 40
1.0
 10
47.8583211303
 20
55.9894847555
 30
0.0
 10
46.4774732634
 20
54.2447282442
 30
0.0
 10
45.0960031965
 20
52.5004642464
 30
0.0
 10
43.7149379461
 20
50.7558798004
 30
0.0
  0
SPLINE
  5
311
100
AcDbEntity
  8
0
100
AcDbSpline
 62
7
  6
BYLAYER
 70
0
 71
3
 72
14
 73
10
 74
0
 42
0.0000001
 43
0.0000001
 44
0.0000000001
 40
0.0
 40
0.0
 40
0.0
 40
0.0
 40
0.3450762469
 40
0.5031401601
 40
0.644415094
 40
0.7650881576
 40
0.8631092523
 40
0.9391737421
 40
1.0
 40
1.0
 40
1.0
 40
1.0
 10
43.3955283215
 20
50.745248227
 30
0.0
 10
43.3955283215
 20
50.7196801497
 30
0.0
 10
43.3978094712
 20
50.6823138491
 30
0.0
 10
43.4060080264
 20
50.6352353804
 30
0.0
 10
43.4140210704
 20
50.6051124042
 30
0.0
 10
43.4237748376
 20
50.5802028408
 30
0.0
 10
43.434944484
 20
50.5612894742
 30
0.0
 10
43.4474388234
 20
50.5487346672
 30
0.0
 10
43.4575873891
 20
50.545248227
 30
0.0
 10
43.4620942495
 20
50.545248227
 30
0.0
  0
SPLINE
  5
312
100
AcDbEntity
  8
0
100
AcDbSpline
 62
7
  6
BYLAYER
 70
0
 71
3
 72
9
 73
5
 74
0
 42
0.0000001
 43
0.0000001
 44
0.0000000001
 40
0.0
 40
0.0
 40
0.0
 40
0.0
 40
0.4939853381
 40
1.0
 40
1.0
 40
1.0
 40
1.0
 10
43.4620942495
 20
50.545248227
 30
0.0
 10
43.4890626003
 20
50.545248227
 30
0.0
 10
43.5443833725
 20
50.5584779006
 30
0.0
 10
43.5877470059
 20
50.5949223291
 30
0.0
 10
43.6047553114
 20
50.616690705
 30
0.0
  0
SPLINE
  5
313
100
AcDbEntity
  8
0
100
AcDbSpline
 62
7
  6
BYLAYER
 70
0
 71
3
 72
12
 73
8
 74
0
 42
0.0000001
 43
0.0000001
 44
0.0000000001
 40
0.0
 40
0.0
 40
0.0
 40
0.0
 40
0.0778309527
 40
0.1612010033
 40
0.3633191246
 40
0.6416896444
 40
1.0
 40
1.0
 40
1.0
 40
1.0
 10
41.1140128511
 20
50.545248227
 30
0.0
 10
41.120483782
 20
50.545248227
 30
0.0
 10
41.1339648802
 20
50.5472993744
 30
0.0
 10
41.1615588783
 20
50.5604719495
 30
0.0
 10
41.1938186255
 20
50.5967021639
 30
0.0
 10
41.2198564855
 20
50.6622991458
 30
0.0
 10
41.2263952078
 20
50.7154620533
 30
0.0
 10
41.2268864651
 20
50.745248227
 30
0.0
  0
SPLINE
  5
314
100
AcDbEntity
  8
0
100
AcDbSpline
 62
7
  6
BYLAYER
 70
0
 71
3
 72
13
 73
9
 74
0
 42
0.0000001
 43
0.0000001
 44
0.0000000001
 40
0.0
 40
0.0
 40
0.0
 40
0.0
 40
0.2895047154
 40
0.4161304486
 40
0.5312835207
 40
0.642148084
 40
0.7553091037
 40
1.0
 40
1.0
 40
1.0
 40
1.0
 10
26.8369300016
 20
54.8183230751
 30
0.0
 10
26.8415526355
 20
54.8016928868
 30
0.0
 10
26.8509281233
 20
54.7779960668
 30
0.0
 10
26.8719331748
 20
54.7538375694
 30
0.0
 10
26.8901804305
 20
54.7425929734
 30
0.0
 10
26.9103679868
 20
54.7385099407
 30
0.0
 10
26.9384928768
 20
54.7411941263
 30
0.0
 10
26.9582517246
 20
54.7506824325
 30
0.0
 10
26.9707485371
 20
54.7582099718
 30
0.0
  0
SPLINE
  5
315
100
AcDbEntity
  8
0
100
AcDbSpline
 62
7
  6
BYLAYER
 70
0
 71
3
 72
11
 73
7
 74
0
 42
0.0000001
 43
0.0000001
 44
0.0000000001
 40
0.0
 40
0.0
 40
0.0
 40
0.0
 40
0.2802425498
 40
0.5375014301
 40
0.7747029124
 40
1.0
 40
1.0
 40
1.0
 40
1.0
 10
40.5525882521
 20
50.616690705
 30
0.0
 10
40.5465313535
 20
50.6060069074
 30
0.0
 10
40.5329987696
 20
50.5864989738
 30
0.0
 10
40.5077604452
 20
50.5632989971
 30
0.0
 10
40.4793450114
 20
50.5486564354
 30
0.0
 10
40.4589485614
 20
50.545248227
 30
0.0
 10
40.4490752071
 20
50.545248227
 30
0.0
  0
SPLINE
  5
316
100
AcDbEntity
  8
0
100
AcDbSpline
 62
7
  6
BYLAYER
 70
0
 71
3
 72
9
 73
5
 74
0
 42
0.0000001
 43
0.0000001
 44
0.0000000001
 40
0.0
 40
0.0
 40
0.0
 40
0.0
 40
0.5069073132
 40
1.0
 40
1.0
 40
1.0
 40
1.0
 10
43.5154973749
 20
56.1180422738
 30
0.0
 10
43.5153202899
 20
56.1030902395
 30
0.0
 10
43.5134355805
 20
56.0735326299
 30
0.0
 10
43.5065102119
 20
56.0447007138
 30
0.0
 10
43.5021138157
 20
56.0308354584
 30
0.0
  0
SPLINE
  5
317
100
AcDbEntity
  8
0
100
AcDbSpline
 62
7
  6
BYLAYER
 70
0
 71
3
 72
9
 73
5
 74
0
 42
0.0000001
 43
0.0000001
 44
0.0000000001
 40
0.0
 40
0.0
 40
0.0
 40
0.0
 40
0.2563006306
 40
1.0
 40
1.0
 40
1.0
 40
1.0
 10
43.5021138157
 20
56.0308354584
 30
0.0
 10
43.500948937
 20
56.0271616905
 30
0.0
 10
43.496134068
 20
56.0129233392
 30
0.0
 10
43.4899496094
 20
55.9990819523
 30
0.0
 10
43.4842089179
 20
55.9894847519
 30
0.0
  0
SPLINE
  5
318
100
AcDbEntity
  8
0
100
AcDbSpline
 62
7
  6
BYLAYER
 70
0
 71
3
 72
11
 73
7
 74
0
 42
0.0000001
 43
0.0000001
 44
0.0000000001
 40
0.0
 40
0.0
 40
0.0
 40
0.0
 40
0.2989418487
 40
0.5602354907
 40
0.78996026
 40
1.0
 40
1.0
 40
1.0
 40
1.0
 10
43.4842089179
 20
55.9894847519
 30
0.0
 10
43.4925200375
 20
55.989618637
 30
0.0
 10
43.5081263624
 20
55.9910347002
 30
0.0
 10
43.5293586543
 20
55.9973108459
 30
0.0
 10
43.5463079526
 20
56.0074471691
 30
0.0
 10
43.5543977731
 20
56.0170235678
 30
0.0
 10
43.5572378277
 20
56.0221267516
 30
0.0
  0
SPLINE
  5
319
100
AcDbEntity
  8
0
100
AcDbSpline
 62
7
  6
BYLAYER
 70
0
 71
3
 72
9
 73
5
 74
0
 42
0.0000001
 43
0.0000001
 44
0.0000000001
 40
0.0
 40
0.0
 40
0.0
 40
0.0
 40
0.2415801516
 40
1.0
 40
1.0
 40
1.0
 40
1.0
 10
43.5703580141
 20
59.1500409238
 30
0.0
 10
43.5694255507
 20
59.1524915359
 30
0.0
 10
43.5654028145
 20
59.1625734856
 30
0.0
 10
43.5607794977
 20
59.1724109333
 30
0.0
 10
43.5570234311
 20
59.1797356343
 30
0.0
  0
SPLINE
  5
31A
100
AcDbEntity
  8
0
100
AcDbSpline
 62
7
  6
BYLAYER
 70
0
 71
3
 72
9
 73
5
 74
0
 42
0.0000001
 43
0.0000001
 44
0.0000000001
 40
0.0
 40
0.0
 40
0.0
 40
0.0
 40
0.2372159352
 40
1.0
 40
1.0
 40
1.0
 40
1.0
 10
43.5570234311
 20
59.1797356343
 30
0.0
 10
43.5542229411
 20
59.1851968666
 30
0.0
 10
43.5418157292
 20
59.2079097684
 30
0.0
 10
43.527319253
 20
59.2294455766
 30
0.0
 10
43.5154973749
 20
59.245248227
 30
0.0
  0
SPLINE
  5
31B
100
AcDbEntity
  8
0
100
AcDbSpline
 62
7
  6
BYLAYER
 70
0
 71
3
 72
9
 73
5
 74
0
 42
0.0000001
 43
0.0000001
 44
0.0000000001
 40
0.0
 40
0.0
 40
0.0
 40
0.0
 40
0.419265266
 40
1.0
 40
1.0
 40
1.0
 40
1.0
 10
26.4815687129
 20
59.058700914
 30
0.0
 10
26.4814890012
 20
59.0657390043
 30
0.0
 10
26.4867986082
 20
59.0822360703
 30
0.0
 10
26.4946502585
 20
59.0969519574
 30
0.0
 10
26.4995804877
 20
59.1053627178
 30
0.0
  0
SPLINE
  5
31C
100
AcDbEntity
  8
0
100
AcDbSpline
 62
7
  6
BYLAYER
 70
0
 71
3
 72
9
 73
5
 74
0
 42
0.0000001
 43
0.0000001
 44
0.0000000001
 40
0.0
 40
0.0
 40
0.0
 40
0.0
 40
0.4581845605
 40
1.0
 40
1.0
 40
1.0
 40
1.0
 10
26.4995804877
 20
59.1053627178
 30
0.0
 10
26.5133802753
 20
59.1289045657
 30
0.0
 10
26.548899364
 20
59.1770217982
 30
0.0
 10
26.5882522525
 20
59.2217389635
 30
0.0
 10
26.6103568671
 20
59.245248227
 30
0.0
  0
SPLINE
  5
31D
100
AcDbEntity
  8
0
100
AcDbSpline
 62
7
  6
BYLAYER
 70
0
 71
3
 72
12
 73
8
 74
0
 42
0.0000001
 43
0.0000001
 44
0.0000000001
 40
0.0
 40
0.0
 40
0.0
 40
0.0
 40
0.1350201679
 40
0.2746829255
 40
0.5405083963
 40
0.7824288739
 40
1.0
 40
1.0
 40
1.0
 40
1.0
 10
47.6485760771
 20
59.0453423083
 30
0.0
 10
47.6638534881
 20
59.0453423083
 30
0.0
 10
47.6949273831
 20
59.0505992567
 30
0.0
 10
47.7522645486
 20
59.0723854882
 30
0.0
 10
47.8141106437
 20
59.1136706254
 30
0.0
 10
47.8690630145
 20
59.1755543878
 30
0.0
 10
47.8937505842
 20
59.2220710887
 30
0.0
 10
47.9020490841
 20
59.245248227
 30
0.0
  0
SPLINE
  5
31E
100
AcDbEntity
  8
0
100
AcDbSpline
 62
7
  6
BYLAYER
 70
0
 71
3
 72
11
 73
7
 74
0
 42
0.0000001
 43
0.0000001
 44
0.0000000001
 40
0.0
 40
0.0
 40
0.0
 40
0.0
 40
0.2059743462
 40
0.4355394025
 40
0.7008671588
 40
1.0
 40
1.0
 40
1.0
 40
1.0
 10
27.9902252195
 20
50.6914774753
 30
0.0
 10
27.9932646574
 20
50.6805132305
 30
0.0
 10
28.0053373294
 20
50.6585932285
 30
0.0
 10
28.0372263655
 20
50.6351756248
 30
0.0
 10
28.0790208513
 20
50.6205215352
 30
0.0
 10
28.1102698468
 20
50.6169856371
 30
0.0
 10
28.1267908942
 20
50.616690705
 30
0.0
  0
SPLINE
  5
31F
100
AcDbEntity
  8
0
100
AcDbSpline
 62
7
  6
BYLAYER
 70
0
 71
3
 72
9
 73
5
 74
0
 42
0.0000001
 43
0.0000001
 44
0.0000000001
 40
0.0
 40
0.0
 40
0.0
 40
0.0
 40
0.4964563232
 40
1.0
 40
1.0
 40
1.0
 40
1.0
 10
47.8583211344
 20
55.9894847519
 30
0.0
 10
47.8723802356
 20
56.0074134301
 30
0.0
 10
47.894552908
 20
56.0487222937
 30
0.0
 10
47.9020490841
 20
56.0949333421
 30
0.0
 10
47.9020490841
 20
56.1180422738
 30
0.0
  0
SPLINE
  5
320
100
AcDbEntity
  8
0
100
AcDbSpline
 62
7
  6
BYLAYER
 70
0
 71
3
 72
9
 73
5
 74
0
 42
0.0000001
 43
0.0000001
 44
0.0000000001
 40
0.0
 40
0.0
 40
0.0
 40
0.0
 40
0.511612112
 40
1.0
 40
1.0
 40
1.0
 40
1.0
 10
43.3955283215
 20
50.745248227
 30
0.0
 10
43.4145990867
 20
50.7282686848
 30
0.0
 10
43.4533935172
 20
50.6967797451
 30
0.0
 10
43.4944477977
 20
50.6682636437
 30
0.0
 10
43.5152158547
 20
50.6555029098
 30
0.0
  0
SPLINE
  5
321
100
AcDbEntity
  8
0
100
AcDbSpline
 62
7
  6
BYLAYER
 70
0
 71
3
 72
10
 73
6
 74
0
 42
0.0000001
 43
0.0000001
 44
0.0000000001
 40
0.0
 40
0.0
 40
0.0
 40
0.0
 40
0.6048172852
 40
0.8319146122
 40
1.0
 40
1.0
 40
1.0
 40
1.0
 10
43.5152158547
 20
50.6555029098
 30
0.0
 10
43.5320861718
 20
50.6451371049
 30
0.0
 10
43.5559883323
 20
50.6317521158
 30
0.0
 10
43.586515095
 20
50.6199317475
 30
0.0
 10
43.5992587577
 20
50.6169520034
 30
0.0
 10
43.6047553114
 20
50.616690705
 30
0.0
  0
SPLINE
  5
322
100
AcDbEntity
  8
0
100
AcDbSpline
 62
7
  6
BYLAYER
 70
0
 71
3
 72
12
 73
8
 74
0
 42
0.0000001
 43
0.0000001
 44
0.0000000001
 40
0.0
 40
0.0
 40
0.0
 40
0.0
 40
0.0659988173
 40
0.1554876973
 40
0.3947598972
 40
0.6902251708
 40
1.0
 40
1.0
 40
1.0
 40
1.0
 10
47.8583198306
 20
55.989485923
 30
0.0
 10
47.8528579593
 20
55.9896857285
 30
0.0
 10
47.8401498009
 20
55.992574306
 30
0.0
 10
47.8096237799
 20
56.0042759802
 30
0.0
 10
47.7642410236
 20
56.0295379082
 30
0.0
 10
47.7067181597
 20
56.069352594
 30
0.0
 10
47.6677380057
 20
56.1009862473
 30
0.0
 10
47.6485760771
 20
56.1180422738
 30
0.0
  0
SPLINE
  5
323
100
AcDbEntity
  8
0
100
AcDbSpline
 62
7
  6
BYLAYER
 70
0
 71
3
 72
9
 73
5
 74
0
 42
0.0000001
 43
0.0000001
 44
0.0000000001
 40
0.0
 40
0.0
 40
0.0
 40
0.0
 40
0.5026701285
 40
1.0
 40
1.0
 40
1.0
 40
1.0
 10
48.1715798354
 20
56.1180422738
 30
0.0
 10
48.1715798354
 20
56.0949225748
 30
0.0
 10
48.1639192588
 20
56.0485992759
 30
0.0
 10
48.1413536902
 20
56.0073649257
 30
0.0
 10
48.1270875436
 20
55.9894847519
 30
0.0
  0
SPLINE
  5
324
100
AcDbEntity
  8
0
100
AcDbSpline
 62
7
  6
BYLAYER
 70
0
 71
3
 72
12
 73
8
 74
0
 42
0.0000001
 43
0.0000001
 44
0.0000000001
 40
0.0
 40
0.0
 40
0.0
 40
0.0
 40
0.2504273246
 40
0.4963131516
 40
0.742653771
 40
0.8691702998
 40
1.0
 40
1.0
 40
1.0
 40
1.0
 10
26.6561821409
 20
54.058392522
 30
0.0
 10
26.6561795134
 20
54.1246890593
 30
0.0
 10
26.6665145968
 20
54.2564495715
 30
0.0
 10
26.7191281004
 20
54.4472637278
 30
0.0
 10
26.8001003859
 20
54.5922836563
 30
0.0
 10
26.8898565709
 20
54.6914692581
 30
0.0
 10
26.943382292
 20
54.7343730003
 30
0.0
 10
26.9725330573
 20
54.7530764142
 30
0.0
  0
SPLINE
  5
325
100
AcDbEntity
  8
0
100
AcDbSpline
 62
7
  6
BYLAYER
 70
0
 71
3
 72
9
 73
5
 74
0
 42
0.0000001
 43
0.0000001
 44
0.0000000001
 40
0.0
 40
0.0
 40
0.0
 40
0.0
 40
0.233624907
 40
1.0
 40
1.0
 40
1.0
 40
1.0
 10
42.62202821
 20
56.1180422738
 30
0.0
 10
42.6255840244
 20
56.1134522756
 30
0.0
 10
42.6415917521
 20
56.0944185788
 30
0.0
 10
42.6602109778
 20
56.0776674765
 30
0.0
 10
42.6752958401
 20
56.0660393265
 30
0.0
  0
SPLINE
  5
326
100
AcDbEntity
  8
0
100
AcDbSpline
 62
7
  6
BYLAYER
 70
0
 71
3
 72
9
 73
5
 74
0
 42
0.0000001
 43
0.0000001
 44
0.0000000001
 40
0.0
 40
0.0
 40
0.0
 40
0.0
 40
0.2353477348
 40
1.0
 40
1.0
 40
1.0
 40
1.0
 10
42.8707102168
 20
55.9894847519
 30
0.0
 10
42.8755818079
 20
55.9986798269
 30
0.0
 10
42.893317408
 20
56.039296085
 30
0.0
 10
42.9002539512
 20
56.0842333225
 30
0.0
 10
42.9002539512
 20
56.1180422738
 30
0.0
  0
SPLINE
  5
327
100
AcDbEntity
  8
0
100
AcDbSpline
 62
7
  6
BYLAYER
 70
0
 71
3
 72
10
 73
6
 74
0
 42
0.0000001
 43
0.0000001
 44
0.0000000001
 40
0.0
 40
0.0
 40
0.0
 40
0.0
 40
0.5261317012
 40
0.7770711357
 40
1.0
 40
1.0
 40
1.0
 40
1.0
 10
42.6752958401
 20
56.0660393265
 30
0.0
 10
42.7048079285
 20
56.0432899646
 30
0.0
 10
42.753883859
 20
56.0162831763
 30
0.0
 10
42.8214277097
 20
55.9947030847
 30
0.0
 10
42.8549235425
 20
55.9897328692
 30
0.0
 10
42.8707102168
 20
55.9894847519
 30
0.0
  0
SPLINE
  5
328
100
AcDbEntity
  8
0
100
AcDbSpline
 62
7
  6
BYLAYER
 70
0
 71
3
 72
11
 73
7
 74
0
 42
0.0000001
 43
0.0000001
 44
0.0000000001
 40
0.0
 40
0.0
 40
0.0
 40
0.0
 40
0.2803675962
 40
0.5438914175
 40
0.7818312004
 40
1.0
 40
1.0
 40
1.0
 40
1.0
 10
39.6893427975
 20
50.745248227
 30
0.0
 10
39.6893427975
 20
50.7194613805
 30
0.0
 10
39.6966670876
 20
50.6690821074
 30
0.0
 10
39.7288349
 20
50.6033333795
 30
0.0
 10
39.7787302363
 20
50.5569895573
 30
0.0
 10
39.8212231754
 20
50.545248227
 30
0.0
 10
39.8412892794
 20
50.545248227
 30
0.0
  0
SPLINE
  5
329
100
AcDbEntity
  8
0
100
AcDbSpline
 62
7
  6
BYLAYER
 70
0
 71
3
 72
9
 73
5
 74
0
 42
0.0000001
 43
0.0000001
 44
0.0000000001
 40
0.0
 40
0.0
 40
0.0
 40
0.0
 40
0.2651447137
 40
1.0
 40
1.0
 40
1.0
 40
1.0
 10
39.7425994542
 20
50.6932418417
 30
0.0
 10
39.7373820778
 20
50.6972647549
 30
0.0
 10
39.7181371233
 20
50.7129719743
 30
0.0
 10
39.70052329
 20
50.7308120043
 30
0.0
 10
39.6893427975
 20
50.745248227
 30
0.0
  0
SPLINE
  5
32A
100
AcDbEntity
  8
0
100
AcDbSpline
 62
7
  6
BYLAYER
 70
0
 71
3
 72
9
 73
5
 74
0
 42
0.0000001
 43
0.0000001
 44
0.0000000001
 40
0.0
 40
0.0
 40
0.0
 40
0.0
 40
0.230364879
 40
1.0
 40
1.0
 40
1.0
 40
1.0
 10
39.93690539
 20
50.616690705
 30
0.0
 10
39.9311123439
 20
50.6168160213
 30
0.0
 10
39.9059937074
 20
50.6186281626
 30
0.0
 10
39.8813043277
 20
50.6245645577
 30
0.0
 10
39.8628716414
 20
50.6304803888
 30
0.0
  0
SPLINE
  5
32B
100
AcDbEntity
  8
0
100
AcDbSpline
 62
7
  6
BYLAYER
 70
0
 71
3
 72
9
 73
5
 74
0
 42
0.0000001
 43
0.0000001
 44
0.0000000001
 40
0.0
 40
0.0
 40
0.0
 40
0.0
 40
0.4980614355
 40
1.0
 40
1.0
 40
1.0
 40
1.0
 10
39.8628716414
 20
50.6304803888
 30
0.0
 10
39.8413505609
 20
50.6373874166
 30
0.0
 10
39.7993557381
 20
50.6551657197
 30
0.0
 10
39.760638075
 20
50.6793329728
 30
0.0
 10
39.7425994542
 20
50.6932418417
 30
0.0
  0
SPLINE
  5
32C
100
AcDbEntity
  8
0
100
AcDbSpline
 62
7
  6
BYLAYER
 70
0
 71
3
 72
11
 73
7
 74
0
 42
0.0000001
 43
0.0000001
 44
0.0000000001
 40
0.0
 40
0.0
 40
0.0
 40
0.0
 40
0.2192384377
 40
0.4534986785
 40
0.7127028318
 40
1.0
 40
1.0
 40
1.0
 40
1.0
 10
39.8412892794
 20
50.545248227
 30
0.0
 10
39.8504296577
 20
50.545248227
 30
0.0
 10
39.8694685901
 20
50.5487230364
 30
0.0
 10
39.8957510402
 20
50.5634953703
 30
0.0
 10
39.9189927723
 20
50.5867366358
 30
0.0
 10
39.9313487166
 20
50.606079756
 30
0.0
 10
39.93690539
 20
50.616690705
 30
0.0
  0
SPLINE
  5
32D
100
AcDbEntity
  8
0
100
AcDbSpline
 62
7
  6
BYLAYER
 70
0
 71
3
 72
12
 73
8
 74
0
 42
0.0000001
 43
0.0000001
 44
0.0000000001
 40
0.0
 40
0.0
 40
0.0
 40
0.0
 40
0.0266490063
 40
0.0749046331
 40
0.2562252269
 40
0.568511826
 40
1.0
 40
1.0
 40
1.0
 40
1.0
 10
38.2221717758
 20
50.545248227
 30
0.0
 10
38.2203478736
 20
50.545248227
 30
0.0
 10
38.2159183695
 20
50.5491392371
 30
0.0
 10
38.2092517968
 20
50.5650525667
 30
0.0
 10
38.2015473775
 20
50.6019064426
 30
0.0
 10
38.1951219542
 20
50.664681036
 30
0.0
 10
38.1936218443
 20
50.71571837
 30
0.0
 10
38.1939576754
 20
50.745248227
 30
0.0
  0
SPLINE
  5
32E
100
AcDbEntity
  8
0
100
AcDbSpline
 62
7
  6
BYLAYER
 70
0
 71
3
 72
9
 73
5
 74
0
 42
0.0000001
 43
0.0000001
 44
0.0000000001
 40
0.0
 40
0.0
 40
0.0
 40
0.0
 40
0.3847632173
 40
1.0
 40
1.0
 40
1.0
 40
1.0
 10
36.0615914641
 20
59.0498898164
 30
0.0
 10
36.0615937087
 20
59.0534518771
 30
0.0
 10
36.057825475
 20
59.06233588
 30
0.0
 10
36.0532505314
 20
59.0702264751
 30
0.0
 10
36.0501884858
 20
59.0750291129
 30
0.0
  0
SPLINE
  5
32F
100
AcDbEntity
  8
0
100
AcDbSpline
 62
7
  6
BYLAYER
 70
0
 71
3
 72
12
 73
8
 74
0
 42
0.0000001
 43
0.0000001
 44
0.0000000001
 40
0.0
 40
0.0
 40
0.0
 40
0.0
 40
0.3762657079
 40
0.6688971313
 40
0.781385968
 40
0.8719229352
 40
1.0
 40
1.0
 40
1.0
 40
1.0
 10
35.068247949
 20
50.616690705
 30
0.0
 10
35.0664093253
 20
50.6065696038
 30
0.0
 10
35.0624900853
 20
50.5886859072
 30
0.0
 10
35.0558146103
 20
50.5683215724
 30
0.0
 10
35.0494681828
 20
50.5562428832
 30
0.0
 10
35.0442341317
 20
50.5489918934
 30
0.0
 10
35.0385802161
 20
50.545248227
 30
0.0
 10
35.0350787098
 20
50.545248227
 30
0.0
  0
SPLINE
  5
330
100
AcDbEntity
  8
0
100
AcDbSpline
 62
7
  6
BYLAYER
 70
0
 71
3
 72
9
 73
5
 74
0
 42
0.0000001
 43
0.0000001
 44
0.0000000001
 40
0.0
 40
0.0
 40
0.0
 40
0.0
 40
0.5304872188
 40
1.0
 40
1.0
 40
1.0
 40
1.0
 10
35.9030558279
 20
56.1180422738
 30
0.0
 10
35.9030558279
 20
56.0952255624
 30
0.0
 10
35.9015601165
 20
56.052206892
 30
0.0
 10
35.8968160191
 20
56.0093800889
 30
0.0
 10
35.8933549223
 20
55.9894847519
 30
0.0
  0
SPLINE
  5
331
100
AcDbEntity
  8
0
100
AcDbSpline
 62
7
  6
BYLAYER
 70
0
 71
3
 72
9
 73
5
 74
0
 42
0.0000001
 43
0.0000001
 44
0.0000000001
 40
0.0
 40
0.0
 40
0.0
 40
0.0
 40
0.2148673692
 40
1.0
 40
1.0
 40
1.0
 40
1.0
 10
36.0501884858
 20
59.0750947198
 30
0.0
 10
36.0480732318
 20
59.0784123709
 30
0.0
 10
36.0378366891
 20
59.0936021847
 30
0.0
 10
36.0265803533
 20
59.1080758767
 30
0.0
 10
36.017536992
 20
59.1192526743
 30
0.0
  0
SPLINE
  5
332
100
AcDbEntity
  8
0
100
AcDbSpline
 62
7
  6
BYLAYER
 70
0
 71
3
 72
9
 73
5
 74
0
 42
0.0000001
 43
0.0000001
 44
0.0000000001
 40
0.0
 40
0.0
 40
0.0
 40
0.0
 40
0.4734230025
 40
1.0
 40
1.0
 40
1.0
 40
1.0
 10
36.017536992
 20
59.1192526743
 30
0.0
 10
36.0006344349
 20
59.1401427455
 30
0.0
 10
35.9631497813
 20
59.182817122
 30
0.0
 10
35.9240220554
 20
59.2239466222
 30
0.0
 10
35.9030558279
 20
59.245248227
 30
0.0
  0
SPLINE
  5
333
100
AcDbEntity
  8
0
100
AcDbSpline
 62
7
  6
BYLAYER
 70
0
 71
3
 72
11
 73
7
 74
0
 42
0.0000001
 43
0.0000001
 44
0.0000000001
 40
0.0
 40
0.0
 40
0.0
 40
0.0
 40
0.2572958218
 40
0.50873852
 40
0.7556665246
 40
1.0
 40
1.0
 40
1.0
 40
1.0
 10
24.589910213
 20
25.5678979578
 30
0.0
 10
24.3874142843
 20
25.6578295572
 30
0.0
 10
23.9795641989
 20
25.8195249
 30
0.0
 10
23.3540957653
 20
26.0027844407
 30
0.0
 10
22.7237513531
 20
26.1180387771
 30
0.0
 10
22.3003156221
 20
26.145248227
 30
0.0
 10
22.089910213
 20
26.145248227
 30
0.0
  0
SPLINE
  5
334
100
AcDbEntity
  8
0
100
AcDbSpline
 62
7
  6
BYLAYER
 70
0
 71
3
 72
13
 73
9
 74
0
 42
0.0000001
 43
0.0000001
 44
0.0000000001
 40
0.0
 40
0.0
 40
0.0
 40
0.0
 40
0.0995876093
 40
0.219478069
 40
0.3492817529
 40
0.4831749786
 40
0.7491180285
 40
1.0
 40
1.0
 40
1.0
 40
1.0
 10
42.62202821
 20
59.0453423083
 30
0.0
 10
42.6336343329
 20
59.0453423083
 30
0.0
 10
42.65897798
 20
59.0516532073
 30
0.0
 10
42.6961176981
 20
59.068235223
 30
0.0
 10
42.7347978198
 20
59.0908726203
 30
0.0
 10
42.785144757
 20
59.1266658996
 30
0.0
 10
42.8419853622
 20
59.1772046743
 30
0.0
 10
42.8822685874
 20
59.222196075
 30
0.0
 10
42.9002539512
 20
59.245248227
 30
0.0
  0
SPLINE
  5
335
100
AcDbEntity
  8
0
100
AcDbSpline
 62
7
  6
BYLAYER
 70
0
 71
3
 72
10
 73
6
 74
0
 42
0.0000001
 43
0.0000001
 44
0.0000000001
 40
0.0
 40
0.0
 40
0.0
 40
0.0
 40
0.2444462028
 40
0.4914786403
 40
1.0
 40
1.0
 40
1.0
 40
1.0
 10
22.089910213
 20
26.145248227
 30
0.0
 10
21.8795079051
 20
26.145248227
 30
0.0
 10
21.4560274223
 20
26.118588169
 30
0.0
 10
20.607831104
 20
25.96412782
 30
0.0
 10
19.9899342029
 20
25.7455548492
 30
0.0
 10
19.589910213
 20
25.5678979578
 30
0.0
  0
SPLINE
  5
336
100
AcDbEntity
  8
0
100
AcDbSpline
 62
7
  6
BYLAYER
 70
0
 71
3
 72
11
 73
7
 74
0
 42
0.0000001
 43
0.0000001
 44
0.0000000001
 40
0.0
 40
0.0
 40
0.0
 40
0.0
 40
0.2572958218
 40
0.50873852
 40
0.7556665246
 40
1.0
 40
1.0
 40
1.0
 40
1.0
 10
45.3745199038
 20
25.5678979578
 30
0.0
 10
45.1720239752
 20
25.6578295572
 30
0.0
 10
44.7641738898
 20
25.8195249
 30
0.0
 10
44.1387054561
 20
26.0027844407
 30
0.0
 10
43.5083610439
 20
26.1180387771
 30
0.0
 10
43.0849253129
 20
26.145248227
 30
0.0
 10
42.8745199038
 20
26.145248227
 30
0.0
  0
SPLINE
  5
337
100
AcDbEntity
  8
0
100
AcDbSpline
 62
7
  6
BYLAYER
 70
0
 71
3
 72
11
 73
7
 74
0
 42
0.0000001
 43
0.0000001
 44
0.0000000001
 40
0.0
 40
0.0
 40
0.0
 40
0.0
 40
0.2025059631
 40
0.5752619447
 40
0.7863416308
 40
1.0
 40
1.0
 40
1.0
 40
1.0
 10
34.8785255975
 20
56.1180422738
 30
0.0
 10
34.8824276592
 20
56.100169841
 30
0.0
 10
34.9097342003
 20
56.0532276501
 30
0.0
 10
34.9725806707
 20
56.0143725689
 30
0.0
 10
35.0417746645
 20
55.9940168197
 30
0.0
 10
35.0802109661
 20
55.989721423
 30
0.0
 10
35.0995104109
 20
55.9894847519
 30
0.0
  0
SPLINE
  5
338
100
AcDbEntity
  8
0
100
AcDbSpline
 62
7
  6
BYLAYER
 70
0
 71
3
 72
9
 73
5
 74
0
 42
0.0000001
 43
0.0000001
 44
0.0000000001
 40
0.0
 40
0.0
 40
0.0
 40
0.0
 40
0.4688552885
 40
1.0
 40
1.0
 40
1.0
 40
1.0
 10
35.0995104109
 20
55.9894847519
 30
0.0
 10
35.1021744527
 20
56.0094431363
 30
0.0
 10
35.1058089308
 20
56.052281558
 30
0.0
 10
35.1069537102
 20
56.0952318031
 30
0.0
 10
35.1069537102
 20
56.1180422738
 30
0.0
  0
SPLINE
  5
339
100
AcDbEntity
  8
0
100
AcDbSpline
 62
7
  6
BYLAYER
 70
0
 71
3
 72
11
 73
7
 74
0
 42
0.0000001
 43
0.0000001
 44
0.0000000001
 40
0.0
 40
0.0
 40
0.0
 40
0.0
 40
0.2519658603
 40
0.5027869052
 40
0.7519755291
 40
1.0
 40
1.0
 40
1.0
 40
1.0
 10
34.052013216
 20
50.745248227
 30
0.0
 10
34.052013216
 20
50.719253147
 30
0.0
 10
34.0621846728
 20
50.6668265244
 30
0.0
 10
34.1058114163
 20
50.6003588211
 30
0.0
 10
34.171166606
 20
50.5557190729
 30
0.0
 10
34.2230378642
 20
50.545248227
 30
0.0
 10
34.2486263148
 20
50.545248227
 30
0.0
  0
SPLINE
  5
33A
100
AcDbEntity
  8
0
100
AcDbSpline
 62
7
  6
BYLAYER
 70
0
 71
3
 72
10
 73
6
 74
0
 42
0.0000001
 43
0.0000001
 44
0.0000000001
 40
0.0
 40
0.0
 40
0.0
 40
0.0
 40
0.2897982702
 40
0.5578568713
 40
1.0
 40
1.0
 40
1.0
 40
1.0
 10
34.1947876252
 20
50.6276321564
 30
0.0
 10
34.1769360945
 20
50.6324885309
 30
0.0
 10
34.1432733399
 20
50.6453700086
 30
0.0
 10
34.0895768986
 20
50.6792313469
 30
0.0
 10
34.0580323096
 20
50.7176716822
 30
0.0
 10
34.052013216
 20
50.745248227
 30
0.0
  0
SPLINE
  5
33B
100
AcDbEntity
  8
0
100
AcDbSpline
 62
7
  6
BYLAYER
 70
0
 71
3
 72
12
 73
8
 74
0
 42
0.0000001
 43
0.0000001
 44
0.0000000001
 40
0.0
 40
0.0
 40
0.0
 40
0.0
 40
0.1042108201
 40
0.1905694156
 40
0.3029724214
 40
0.6049255788
 40
1.0
 40
1.0
 40
1.0
 40
1.0
 10
34.2486263148
 20
50.545248227
 30
0.0
 10
34.2513050153
 20
50.545248227
 30
0.0
 10
34.2553132922
 20
50.5496264387
 30
0.0
 10
34.2586193901
 20
50.5563562559
 30
0.0
 10
34.263068701
 20
50.568603615
 30
0.0
 10
34.2676052729
 20
50.5888687737
 30
0.0
 10
34.2703106846
 20
50.6066147516
 30
0.0
 10
34.2715772144
 20
50.616690705
 30
0.0
  0
SPLINE
  5
33C
100
AcDbEntity
  8
0
100
AcDbSpline
 62
7
  6
BYLAYER
 70
0
 71
3
 72
11
 73
7
 74
0
 42
0.0000001
 43
0.0000001
 44
0.0000000001
 40
0.0
 40
0.0
 40
0.0
 40
0.0
 40
0.1959188489
 40
0.4156247151
 40
0.6817769545
 40
1.0
 40
1.0
 40
1.0
 40
1.0
 10
33.7923139336
 20
50.545248227
 30
0.0
 10
33.7738234183
 20
50.545248227
 30
0.0
 10
33.7341820846
 20
50.5539715202
 30
0.0
 10
33.6811002048
 20
50.5932033029
 30
0.0
 10
33.6405192941
 20
50.6593663351
 30
0.0
 10
33.6304758041
 20
50.7152149867
 30
0.0
 10
33.6305720641
 20
50.745248227
 30
0.0
  0
SPLINE
  5
33D
100
AcDbEntity
  8
0
100
AcDbSpline
 62
7
  6
BYLAYER
 70
0
 71
3
 72
11
 73
7
 74
0
 42
0.0000001
 43
0.0000001
 44
0.0000000001
 40
0.0
 40
0.0
 40
0.0
 40
0.0
 40
0.1691713319
 40
0.3765620742
 40
0.6523120836
 40
1.0
 40
1.0
 40
1.0
 40
1.0
 10
29.7658057339
 20
50.545248227
 30
0.0
 10
29.7803168333
 20
50.545248227
 30
0.0
 10
29.8129151535
 20
50.5550907915
 30
0.0
 10
29.8535891708
 20
50.5957636353
 30
0.0
 10
29.8839471142
 20
50.661476585
 30
0.0
 10
29.8912430168
 20
50.7154249209
 30
0.0
 10
29.8910694101
 20
50.745248227
 30
0.0
  0
SPLINE
  5
33E
100
AcDbEntity
  8
0
100
AcDbSpline
 62
7
  6
BYLAYER
 70
0
 71
3
 72
11
 73
7
 74
0
 42
0.0000001
 43
0.0000001
 44
0.0000000001
 40
0.0
 40
0.0
 40
0.0
 40
0.0
 40
0.2431778822
 40
0.4904099854
 40
0.7432595034
 40
1.0
 40
1.0
 40
1.0
 40
1.0
 10
28.9370444587
 20
50.545248227
 30
0.0
 10
28.9616306894
 20
50.545248227
 30
0.0
 10
29.0117965156
 20
50.555881489
 30
0.0
 10
29.0744723546
 20
50.6008287674
 30
0.0
 10
29.1160156839
 20
50.6672510453
 30
0.0
 10
29.1256418533
 20
50.7192907631
 30
0.0
 10
29.1256418533
 20
50.745248227
 30
0.0
  0
SPLINE
  5
33F
100
AcDbEntity
  8
0
100
AcDbSpline
 62
7
  6
BYLAYER
 70
0
 71
3
 72
10
 73
6
 74
0
 42
0.0000001
 43
0.0000001
 44
0.0000000001
 40
0.0
 40
0.0
 40
0.0
 40
0.0
 40
0.357091334
 40
0.642642358
 40
1.0
 40
1.0
 40
1.0
 40
1.0
 10
28.8909822213
 20
50.616690705
 30
0.0
 10
28.8935546161
 20
50.6064939252
 30
0.0
 10
28.899272031
 20
50.5881095748
 30
0.0
 10
28.9108341999
 20
50.5621689304
 30
0.0
 10
28.926520365
 20
50.545248227
 30
0.0
 10
28.9370444587
 20
50.545248227
 30
0.0
  0
SPLINE
  5
340
100
AcDbEntity
  8
0
100
AcDbSpline
 62
7
  6
BYLAYER
 70
0
 71
3
 72
10
 73
6
 74
0
 42
0.0000001
 43
0.0000001
 44
0.0000000001
 40
0.0
 40
0.0
 40
0.0
 40
0.0
 40
0.2444462028
 40
0.4914786403
 40
1.0
 40
1.0
 40
1.0
 40
1.0
 10
42.8745199038
 20
26.145248227
 30
0.0
 10
42.6641175959
 20
26.145248227
 30
0.0
 10
42.2406371132
 20
26.118588169
 30
0.0
 10
41.3924407948
 20
25.96412782
 30
0.0
 10
40.7745438938
 20
25.7455548492
 30
0.0
 10
40.3745199038
 20
25.5678979578
 30
0.0
  0
SPLINE
  5
341
100
AcDbEntity
  8
0
100
AcDbSpline
 62
7
  6
BYLAYER
 70
0
 71
3
 72
11
 73
7
 74
0
 42
0.0000001
 43
0.0000001
 44
0.0000000001
 40
0.0
 40
0.0
 40
0.0
 40
0.0
 40
0.2751406579
 40
0.5450603472
 40
0.7905365588
 40
1.0
 40
1.0
 40
1.0
 40
1.0
 10
28.9153388928
 20
50.6181805978
 30
0.0
 10
28.9386643167
 20
50.6205876142
 30
0.0
 10
28.9844332129
 20
50.6305588832
 30
0.0
 10
29.0465166975
 20
50.6581506467
 30
0.0
 10
29.0958251551
 20
50.6962651115
 30
0.0
 10
29.1190630565
 20
50.7286528107
 30
0.0
 10
29.1256418533
 20
50.745248227
 30
0.0
  0
SPLINE
  5
342
100
AcDbEntity
  8
0
100
AcDbSpline
 62
7
  6
BYLAYER
 70
0
 71
3
 72
13
 73
9
 74
0
 42
0.0000001
 43
0.0000001
 44
0.0000000001
 40
0.0
 40
0.0
 40
0.0
 40
0.0
 40
0.0718987315
 40
0.1427861901
 40
0.2804582729
 40
0.5387349657
 40
0.7774965104
 40
1.0
 40
1.0
 40
1.0
 40
1.0
 10
27.7302672781
 20
54.7530764099
 30
0.0
 10
27.7699844429
 20
54.7343165424
 30
0.0
 10
27.8464576072
 20
54.6919114628
 30
0.0
 10
27.988242712
 20
54.5953947027
 30
0.0
 10
28.20264293
 20
54.4055986457
 30
0.0
 10
28.4369315646
 20
54.0908718429
 30
0.0
 10
28.6111738873
 20
53.6835441722
 30
0.0
 10
28.6561851488
 20
53.4010226316
 30
0.0
 10
28.6561886405
 20
53.2650895578
 30
0.0
  0
SPLINE
  5
343
100
AcDbEntity
  8
0
100
AcDbSpline
 62
7
  6
BYLAYER
 70
0
 71
3
 72
10
 73
6
 74
0
 42
0.0000001
 43
0.0000001
 44
0.0000000001
 40
0.0
 40
0.0
 40
0.0
 40
0.0
 40
0.4927872483
 40
0.7461309768
 40
1.0
 40
1.0
 40
1.0
 40
1.0
 10
27.9890149207
 20
52.4699874492
 30
0.0
 10
27.9186363382
 20
52.4698814366
 30
0.0
 10
27.8116884462
 20
52.4852288884
 30
0.0
 10
27.6754728019
 20
52.5285065246
 30
0.0
 10
27.6089334907
 20
52.5575018453
 30
0.0
 10
27.5762647606
 20
52.5732282704
 30
0.0
  0
SPLINE
  5
344
100
AcDbEntity
  8
0
100
AcDbSpline
 62
7
  6
BYLAYER
 70
0
 71
3
 72
10
 73
6
 74
0
 42
0.0000001
 43
0.0000001
 44
0.0000000001
 40
0.0
 40
0.0
 40
0.0
 40
0.0
 40
0.232983239
 40
0.4768224574
 40
1.0
 40
1.0
 40
1.0
 40
1.0
 10
28.3440995721
 20
52.5732283452
 30
0.0
 10
28.3198137466
 20
52.5572377034
 30
0.0
 10
28.2679439753
 20
52.5275587333
 30
0.0
 10
28.1509858911
 20
52.482944216
 30
0.0
 10
28.0543101006
 20
52.469879091
 30
0.0
 10
27.9890149207
 20
52.4699874492
 30
0.0
  0
SPLINE
  5
345
100
AcDbEntity
  8
0
100
AcDbSpline
 62
7
  6
BYLAYER
 70
0
 71
3
 72
11
 73
7
 74
0
 42
0.0000001
 43
0.0000001
 44
0.0000000001
 40
0.0
 40
0.0
 40
0.0
 40
0.0
 40
0.1723433521
 40
0.3872277552
 40
0.66308451
 40
1.0
 40
1.0
 40
1.0
 40
1.0
 10
28.1826548805
 20
50.545248227
 30
0.0
 10
28.1771628934
 20
50.545248227
 30
0.0
 10
28.1648031413
 20
50.5495195281
 30
0.0
 10
28.1498263466
 20
50.5649800221
 30
0.0
 10
28.1366856373
 20
50.5880183944
 30
0.0
 10
28.1299320261
 20
50.6064241513
 30
0.0
 10
28.1267908942
 20
50.616690705
 30
0.0
  0
SPLINE
  5
346
100
AcDbEntity
  8
0
100
AcDbSpline
 62
7
  6
BYLAYER
 70
0
 71
3
 72
9
 73
5
 74
0
 42
0.0000001
 43
0.0000001
 44
0.0000000001
 40
0.0
 40
0.0
 40
0.0
 40
0.0
 40
0.5000317251
 40
1.0
 40
1.0
 40
1.0
 40
1.0
 10
27.4822150584
 20
21.0112736307
 30
0.0
 10
28.3023997643
 20
20.8291452222
 30
0.0
 10
29.9608649109
 20
20.5417864121
 30
0.0
 10
31.6421587623
 20
20.4339234381
 30
0.0
 10
32.4822150584
 20
20.4339234381
 30
0.0
  0
SPLINE
  5
347
100
AcDbEntity
  8
0
100
AcDbSpline
 62
7
  6
BYLAYER
 70
0
 71
3
 72
9
 73
5
 74
0
 42
0.0000001
 43
0.0000001
 44
0.0000000001
 40
0.0
 40
0.0
 40
0.0
 40
0.0
 40
0.499967602
 40
1.0
 40
1.0
 40
1.0
 40
1.0
 10
32.4822150584
 20
20.4339234381
 30
0.0
 10
33.3222906992
 20
20.4339234381
 30
0.0
 10
35.0038223222
 20
20.5395497077
 30
0.0
 10
36.6620092576
 20
20.829140538
 30
0.0
 10
37.4822150584
 20
21.0112736307
 30
0.0
  0
SPLINE
  5
348
100
AcDbEntity
  8
0
100
AcDbSpline
 62
7
  6
BYLAYER
 70
0
 71
3
 72
14
 73
10
 74
0
 42
0.0000001
 43
0.0000001
 44
0.0000000001
 40
0.0
 40
0.0
 40
0.0
 40
0.0
 40
0.019091372
 40
0.0640750751
 40
0.1384851127
 40
0.2446622444
 40
0.3850879768
 40
0.5609021888
 40
1.0
 40
1.0
 40
1.0
 40
1.0
 10
25.6807048241
 20
50.545248227
 30
0.0
 10
25.6794211505
 20
50.545248227
 30
0.0
 10
25.6770167127
 20
50.5502303531
 30
0.0
 10
25.6752512614
 20
50.5584209814
 30
0.0
 10
25.6728880509
 20
50.5739384764
 30
0.0
 10
25.670996488
 20
50.5952130129
 30
0.0
 10
25.6692251858
 20
50.6236555515
 30
0.0
 10
25.6672318304
 20
50.6743614894
 30
0.0
 10
25.666575779
 20
50.715726592
 30
0.0
 10
25.6661835048
 20
50.745248227
 30
0.0
  0
SPLINE
  5
349
100
AcDbEntity
  8
0
100
AcDbSpline
 62
7
  6
BYLAYER
 70
0
 71
3
 72
9
 73
5
 74
0
 42
0.0000001
 43
0.0000001
 44
0.0000000001
 40
0.0
 40
0.0
 40
0.0
 40
0.0
 40
0.4943868649
 40
1.0
 40
1.0
 40
1.0
 40
1.0
 10
23.9189829776
 20
50.745248227
 30
0.0
 10
23.8965459207
 20
50.7204529602
 30
0.0
 10
23.8432887432
 20
50.6776071874
 30
0.0
 10
23.7832965625
 20
50.6451889567
 30
0.0
 10
23.751267282
 20
50.6332009319
 30
0.0
  0
SPLINE
  5
34A
100
AcDbEntity
  8
0
100
AcDbSpline
 62
7
  6
BYLAYER
 70
0
 71
3
 72
13
 73
9
 74
0
 42
0.0000001
 43
0.0000001
 44
0.0000000001
 40
0.0
 40
0.0
 40
0.0
 40
0.0
 40
0.0979996934
 40
0.2011751325
 40
0.312614119
 40
0.4339766645
 40
0.704688395
 40
1.0
 40
1.0
 40
1.0
 40
1.0
 10
23.7889358068
 20
50.545248227
 30
0.0
 10
23.7974725114
 20
50.545248227
 30
0.0
 10
23.8150877771
 20
50.5480272493
 30
0.0
 10
23.8399700795
 20
50.5598556243
 30
0.0
 10
23.8625811334
 20
50.5788620877
 30
0.0
 10
23.8896876734
 20
50.613668419
 30
0.0
 10
23.9128916745
 20
50.6700193507
 30
0.0
 10
23.9189829776
 20
50.7195237797
 30
0.0
 10
23.9189829776
 20
50.745248227
 30
0.0
  0
SPLINE
  5
34B
100
AcDbEntity
  8
0
100
AcDbSpline
 62
7
  6
BYLAYER
 70
0
 71
3
 72
10
 73
6
 74
0
 42
0.0000001
 43
0.0000001
 44
0.0000000001
 40
0.0
 40
0.0
 40
0.0
 40
0.0
 40
0.5265093498
 40
0.7676411083
 40
1.0
 40
1.0
 40
1.0
 40
1.0
 10
23.675984432
 20
50.616690705
 30
0.0
 10
23.688801604
 20
50.5959715938
 30
0.0
 10
23.713794797
 20
50.5684248776
 30
0.0
 10
23.7561437745
 20
50.5486030118
 30
0.0
 10
23.778183886
 20
50.545248227
 30
0.0
 10
23.7889358068
 20
50.545248227
 30
0.0
  0
SPLINE
  5
34C
100
AcDbEntity
  8
0
100
AcDbSpline
 62
7
  6
BYLAYER
 70
0
 71
3
 72
9
 73
5
 74
0
 42
0.0000001
 43
0.0000001
 44
0.0000000001
 40
0.0
 40
0.0
 40
0.0
 40
0.0
 40
0.2568630211
 40
1.0
 40
1.0
 40
1.0
 40
1.0
 10
23.7350971173
 20
50.6276321564
 30
0.0
 10
23.7332958816
 20
50.6270678411
 30
0.0
 10
23.7262636664
 20
50.6249349124
 30
0.0
 10
23.719151762
 20
50.6230616803
 30
0.0
 10
23.7138289437
 20
50.621841141
 30
0.0
  0
SPLINE
  5
34D
100
AcDbEntity
  8
0
100
AcDbSpline
 62
7
  6
BYLAYER
 70
0
 71
3
 72
9
 73
5
 74
0
 42
0.0000001
 43
0.0000001
 44
0.0000000001
 40
0.0
 40
0.0
 40
0.0
 40
0.0
 40
0.2583009853
 40
1.0
 40
1.0
 40
1.0
 40
1.0
 10
23.7138289437
 20
50.621841141
 30
0.0
 10
23.712138826
 20
50.6214535916
 30
0.0
 10
23.7055805381
 20
50.6200205824
 30
0.0
 10
23.6989606541
 20
50.6188628105
 30
0.0
 10
23.6940268748
 20
50.6181929439
 30
0.0
  0
SPLINE
  5
34E
100
AcDbEntity
  8
0
100
AcDbSpline
 62
7
  6
BYLAYER
 70
0
 71
3
 72
9
 73
5
 74
0
 42
0.0000001
 43
0.0000001
 44
0.0000000001
 40
0.0
 40
0.0
 40
0.0
 40
0.0
 40
0.259850943
 40
1.0
 40
1.0
 40
1.0
 40
1.0
 10
23.6940268748
 20
50.6181929439
 30
0.0
 10
23.6924725182
 20
50.6179819066
 30
0.0
 10
23.6864814457
 20
50.61724255
 30
0.0
 10
23.6804510107
 20
50.6168029111
 30
0.0
 10
23.675984432
 20
50.616690705
 30
0.0
  0
SPLINE
  5
34F
100
AcDbEntity
  8
0
100
AcDbSpline
 62
7
  6
BYLAYER
 70
0
 71
3
 72
9
 73
5
 74
0
 42
0.0000001
 43
0.0000001
 44
0.0000000001
 40
0.0
 40
0.0
 40
0.0
 40
0.0
 40
0.2594515744
 40
1.0
 40
1.0
 40
1.0
 40
1.0
 10
20.2136910509
 20
56.1180422738
 30
0.0
 10
20.2136910509
 20
56.1064439245
 30
0.0
 10
20.2165483006
 20
56.061838274
 30
0.0
 10
20.2309588541
 20
56.0175714708
 30
0.0
 10
20.2484824371
 20
55.9894847519
 30
0.0
  0
SPLINE
  5
350
100
AcDbEntity
  8
0
100
AcDbSpline
 62
7
  6
BYLAYER
 70
0
 71
3
 72
11
 73
7
 74
0
 42
0.0000001
 43
0.0000001
 44
0.0000000001
 40
0.0
 40
0.0
 40
0.0
 40
0.0
 40
0.2116475433
 40
0.4683908794
 40
0.7421723673
 40
1.0
 40
1.0
 40
1.0
 40
1.0
 10
20.2484824371
 20
55.9894847519
 30
0.0
 10
20.2683265491
 20
55.9898475468
 30
0.0
 10
20.3118914886
 20
55.9994349927
 30
0.0
 10
20.3760720099
 20
56.0268863489
 30
0.0
 10
20.4385429463
 20
56.0669896138
 30
0.0
 10
20.4762225198
 20
56.1001168005
 30
0.0
 10
20.4924476036
 20
56.1180422738
 30
0.0
  0
SPLINE
  5
351
100
AcDbEntity
  8
0
100
AcDbSpline
 62
7
  6
BYLAYER
 70
0
 71
3
 72
13
 73
9
 74
0
 42
0.0000001
 43
0.0000001
 44
0.0000000001
 40
0.0
 40
0.0
 40
0.0
 40
0.0
 40
0.1112405761
 40
0.2379464083
 40
0.3702574829
 40
0.5034699306
 40
0.7616699755
 40
1.0
 40
1.0
 40
1.0
 40
1.0
 10
20.4924476036
 20
59.0453423083
 30
0.0
 10
20.479381021
 20
59.0453423083
 30
0.0
 10
20.4515672263
 20
59.0512597249
 30
0.0
 10
20.411335415
 20
59.0678824031
 30
0.0
 10
20.3711020343
 20
59.0905806619
 30
0.0
 10
20.3208130214
 20
59.1261429383
 30
0.0
 10
20.2661694306
 20
59.1764741396
 30
0.0
 10
20.2293178432
 20
59.2220208117
 30
0.0
 10
20.2136910509
 20
59.245248227
 30
0.0
  0
SPLINE
  5
352
100
AcDbEntity
  8
0
100
AcDbSpline
 62
7
  6
BYLAYER
 70
0
 71
3
 72
9
 73
5
 74
0
 42
0.0000001
 43
0.0000001
 44
0.0000000001
 40
0.0
 40
0.0
 40
0.0
 40
0.0
 40
0.5000323563
 40
1.0
 40
1.0
 40
1.0
 40
1.0
 10
37.4822150584
 20
25.5678979578
 30
0.0
 10
36.6620094498
 20
25.7500310078
 30
0.0
 10
35.0038207858
 20
26.0396079584
 30
0.0
 10
33.3222906426
 20
26.145248227
 30
0.0
 10
32.4822150584
 20
26.145248227
 30
0.0
  0
SPLINE
  5
353
100
AcDbEntity
  8
0
100
AcDbSpline
 62
7
  6
BYLAYER
 70
0
 71
3
 72
9
 73
5
 74
0
 42
0.0000001
 43
0.0000001
 44
0.0000000001
 40
0.0
 40
0.0
 40
0.0
 40
0.0
 40
0.4999681761
 40
1.0
 40
1.0
 40
1.0
 40
1.0
 10
32.4822150584
 20
26.145248227
 30
0.0
 10
31.6421585722
 20
26.145248227
 30
0.0
 10
29.9608605831
 20
26.0374241236
 30
0.0
 10
28.302400274
 20
25.7500264794
 30
0.0
 10
27.4822150584
 20
25.5678979578
 30
0.0
  0
SPLINE
  5
354
100
AcDbEntity
  8
0
100
AcDbSpline
 62
7
  6
BYLAYER
 70
0
 71
3
 72
9
 73
5
 74
0
 42
0.0000001
 43
0.0000001
 44
0.0000000001
 40
0.0
 40
0.0
 40
0.0
 40
0.0
 40
0.745919105
 40
1.0
 40
1.0
 40
1.0
 40
1.0
 10
36.0591231028
 20
56.0876908308
 30
0.0
 10
36.0580328522
 20
56.0808427749
 30
0.0
 10
36.0553598851
 20
56.0718008538
 30
0.0
 10
36.0513244731
 20
56.0634232183
 30
0.0
 10
36.050217705
 20
56.0613365497
 30
0.0
  0
SPLINE
  5
355
100
AcDbEntity
  8
0
100
AcDbSpline
 62
7
  6
BYLAYER
 70
0
 71
3
 72
9
 73
5
 74
0
 42
0.0000001
 43
0.0000001
 44
0.0000000001
 40
0.0
 40
0.0
 40
0.0
 40
0.0
 40
0.4724733613
 40
1.0
 40
1.0
 40
1.0
 40
1.0
 10
36.050217705
 20
56.0613365497
 30
0.0
 10
36.0450838233
 20
56.0516572776
 30
0.0
 10
36.0303937573
 20
56.0330817134
 30
0.0
 10
36.0109212823
 20
56.0199323569
 30
0.0
 10
36.0001015222
 20
56.0142241726
 30
0.0
  0
SPLINE
  5
356
100
AcDbEntity
  8
0
100
AcDbSpline
 62
7
  6
BYLAYER
 70
0
 71
3
 72
9
 73
5
 74
0
 42
0.0000001
 43
0.0000001
 44
0.0000000001
 40
0.0
 40
0.0
 40
0.0
 40
0.0
 40
0.2313167367
 40
1.0
 40
1.0
 40
1.0
 40
1.0
 10
36.0001015222
 20
56.0142241726
 30
0.0
 10
35.9925895143
 20
56.0102610601
 30
0.0
 10
35.9588186669
 20
55.9956169683
 30
0.0
 10
35.9215767391
 20
55.9898327023
 30
0.0
 10
35.8933549223
 20
55.9894847519
 30
0.0
  0
SPLINE
  5
357
100
AcDbEntity
  8
0
100
AcDbSpline
 62
7
  6
BYLAYER
 70
0
 71
3
 72
9
 73
5
 74
0
 42
0.0000001
 43
0.0000001
 44
0.0000000001
 40
0.0
 40
0.0
 40
0.0
 40
0.0
 40
0.4725685655
 40
1.0
 40
1.0
 40
1.0
 40
1.0
 10
26.627008429
 20
55.9894847519
 30
0.0
 10
26.6211514573
 20
56.0090988336
 30
0.0
 10
26.6129425761
 20
56.0518507759
 30
0.0
 10
26.6103568671
 20
56.0951959331
 30
0.0
 10
26.6103568671
 20
56.1180422738
 30
0.0
  0
SPLINE
  5
358
100
AcDbEntity
  8
0
100
AcDbSpline
 62
7
  6
BYLAYER
 70
0
 71
3
 72
10
 73
6
 74
0
 42
0.0000001
 43
0.0000001
 44
0.0000000001
 40
0.0
 40
0.0
 40
0.0
 40
0.0
 40
0.2331800083
 40
0.4771261065
 40
1.0
 40
1.0
 40
1.0
 40
1.0
 10
26.9725330573
 20
54.7530764142
 30
0.0
 10
26.9966419486
 20
54.7686613873
 30
0.0
 10
27.0480647014
 20
54.797550656
 30
0.0
 10
27.1636716156
 20
54.8409088785
 30
0.0
 10
27.2589827577
 20
54.853597366
 30
0.0
 10
27.3233556411
 20
54.8534946344
 30
0.0
  0
LINE
  5
359
100
AcDbEntity
  8
0
100
AcDbLine
 62
7
  6
BYLAYER
 10
26.627008429
 20
55.9894847519
 11
26.9455018776
 21
54.8486455043
  0
LINE
  5
35A
100
AcDbEntity
  8
0
100
AcDbLine
 62
7
  6
BYLAYER
 10
27.7327086961
 20
54.7582099707
 11
27.3884923368
 21
55.9894847976
  0
SPLINE
  5
35B
100
AcDbEntity
  8
0
100
AcDbSpline
 62
7
  6
BYLAYER
 70
0
 71
3
 72
10
 73
6
 74
0
 42
0.0000001
 43
0.0000001
 44
0.0000000001
 40
0.0
 40
0.0
 40
0.0
 40
0.0
 40
0.4927371512
 40
0.7460576604
 40
1.0
 40
1.0
 40
1.0
 40
1.0
 10
27.3233556411
 20
54.8534946344
 30
0.0
 10
27.3926662587
 20
54.8535944956
 30
0.0
 10
27.4979852418
 20
54.8387145574
 30
0.0
 10
27.6323169253
 20
54.7966293049
 30
0.0
 10
27.698001087
 20
54.7684016086
 30
0.0
 10
27.7302672781
 20
54.7530764099
 30
0.0
  0
SPLINE
  5
35C
100
AcDbEntity
  8
0
100
AcDbSpline
 62
7
  6
BYLAYER
 70
0
 71
3
 72
9
 73
5
 74
0
 42
0.0000001
 43
0.0000001
 44
0.0000000001
 40
0.0
 40
0.0
 40
0.0
 40
0.0
 40
0.5285461824
 40
1.0
 40
1.0
 40
1.0
 40
1.0
 10
27.3740027592
 20
56.1180422738
 30
0.0
 10
27.3740027592
 20
56.0952068286
 30
0.0
 10
27.3762451928
 20
56.0519821499
 30
0.0
 10
27.3833674144
 20
56.009199223
 30
0.0
 10
27.388488755
 20
55.9894847519
 30
0.0
  0
SPLINE
  5
35D
100
AcDbEntity
  8
0
100
AcDbSpline
 62
7
  6
BYLAYER
 70
0
 71
3
 72
11
 73
7
 74
0
 42
0.0000001
 43
0.0000001
 44
0.0000000001
 40
0.0
 40
0.0
 40
0.0
 40
0.0
 40
0.2698907664
 40
0.5414363883
 40
0.7902412641
 40
1.0
 40
1.0
 40
1.0
 40
1.0
 10
27.3884923368
 20
55.9894847976
 30
0.0
 10
27.4137966568
 20
55.9898074583
 30
0.0
 10
27.4646106162
 20
55.9971835641
 30
0.0
 10
27.5342631236
 20
56.0243111275
 30
0.0
 10
27.590818491
 20
56.064091641
 30
0.0
 10
27.6172681704
 20
56.0997590801
 30
0.0
 10
27.6245178786
 20
56.1180422738
 30
0.0
  0
SPLINE
  5
35E
100
AcDbEntity
  8
0
100
AcDbSpline
 62
7
  6
BYLAYER
 70
0
 71
3
 72
15
 73
11
 74
0
 42
0.0000001
 43
0.0000001
 44
0.0000000001
 40
0.0
 40
0.0
 40
0.0
 40
0.0
 40
0.0287154942
 40
0.0671406222
 40
0.1676476458
 40
0.289665903
 40
0.4246191762
 40
0.5664480156
 40
0.7115371471
 40
1.0
 40
1.0
 40
1.0
 40
1.0
 10
27.6245178786
 20
59.0453423083
 30
0.0
 10
27.6214253719
 20
59.0453423083
 30
0.0
 10
27.6142672105
 20
59.0471328511
 30
0.0
 10
27.5978051601
 20
59.0545071402
 30
0.0
 10
27.5738538507
 20
59.0694290097
 30
0.0
 10
27.5424932773
 20
59.0917293104
 30
0.0
 10
27.5088331255
 20
59.1184491843
 30
0.0
 10
27.4743815186
 20
59.1480766187
 30
0.0
 10
27.4286727334
 20
59.1899247757
 30
0.0
 10
27.3954781579
 20
59.2228005373
 30
0.0
 10
27.3740027592
 20
59.245248227
 30
0.0
  0
SPLINE
  5
35F
100
AcDbEntity
  8
0
100
AcDbSpline
 62
7
  6
BYLAYER
 70
0
 71
3
 72
14
 73
10
 74
0
 42
0.0000001
 43
0.0000001
 44
0.0000000001
 40
0.0
 40
0.0
 40
0.0
 40
0.0
 40
0.1254627349
 40
0.250565514
 40
0.3746871251
 40
0.4987800171
 40
0.6232302757
 40
0.748837431
 40
1.0
 40
1.0
 40
1.0
 40
1.0
 10
27.7327086961
 20
54.7582099707
 30
0.0
 10
27.7461710985
 20
54.7522402097
 30
0.0
 10
27.7740935007
 20
54.7423695113
 30
0.0
 10
27.8182466358
 20
54.7373269064
 30
0.0
 10
27.8622194879
 20
54.7452367455
 30
0.0
 10
27.9003793126
 20
54.7685787562
 30
0.0
 10
27.9285309488
 20
54.803274287
 30
0.0
 10
27.9510148015
 20
54.8582279985
 30
0.0
 10
27.9557136161
 20
54.9030378706
 30
0.0
 10
27.9557137527
 20
54.9325190081
 30
0.0
  0
SPLINE
  5
360
100
AcDbEntity
  8
0
100
AcDbSpline
 62
7
  6
BYLAYER
 70
0
 71
3
 72
16
 73
12
 74
0
 42
0.0000001
 43
0.0000001
 44
0.0000000001
 40
0.0
 40
0.0
 40
0.0
 40
0.0
 40
0.0195051337
 40
0.0507143727
 40
0.0921645341
 40
0.1418245254
 40
0.2599135283
 40
0.3952121809
 40
0.5407592417
 40
0.6922924481
 40
1.0
 40
1.0
 40
1.0
 40
1.0
 10
34.8785255975
 20
59.0453423083
 30
0.0
 10
34.8805056031
 20
59.0453423083
 30
0.0
 10
34.8854257767
 20
59.0475154876
 30
0.0
 10
34.8933051633
 20
59.0523540445
 30
0.0
 10
34.9034005419
 20
59.0596785625
 30
0.0
 10
34.9202051372
 20
59.0726256852
 30
0.0
 10
34.9439905016
 20
59.0921692157
 30
0.0
 10
34.9745314212
 20
59.118760566
 30
0.0
 10
35.0069514608
 20
59.1483551946
 30
0.0
 10
35.0516314812
 20
59.1904607945
 30
0.0
 10
35.0849408219
 20
59.2230869662
 30
0.0
 10
35.1069537102
 20
59.245248227
 30
0.0
  0
SPLINE
  5
361
100
AcDbEntity
  8
0
100
AcDbSpline
 62
7
  6
BYLAYER
 70
0
 71
3
 72
9
 73
5
 74
0
 42
0.0000001
 43
0.0000001
 44
0.0000000001
 40
0.0
 40
0.0
 40
0.0
 40
0.0
 40
0.2424418982
 40
1.0
 40
1.0
 40
1.0
 40
1.0
 10
19.7234043349
 20
55.9894847519
 30
0.0
 10
19.7194899925
 20
55.9955004453
 30
0.0
 10
19.7047104942
 20
56.0211902216
 30
0.0
 10
19.6953459659
 20
56.0498785658
 30
0.0
 10
19.6912970228
 20
56.0719362853
 30
0.0
  0
SPLINE
  5
362
100
AcDbEntity
  8
0
100
AcDbSpline
 62
7
  6
BYLAYER
 70
0
 71
3
 72
9
 73
5
 74
0
 42
0.0000001
 43
0.0000001
 44
0.0000000001
 40
0.0
 40
0.0
 40
0.0
 40
0.0
 40
0.4870879404
 40
1.0
 40
1.0
 40
1.0
 40
1.0
 10
23.2687471237
 20
50.545248227
 30
0.0
 10
23.2527214466
 20
50.545248227
 30
0.0
 10
23.2195380235
 20
50.5519746966
 30
0.0
 10
23.1913622094
 20
50.5703844572
 30
0.0
 10
23.1788277728
 20
50.5816833155
 30
0.0
  0
SPLINE
  5
363
100
AcDbEntity
  8
0
100
AcDbSpline
 62
7
  6
BYLAYER
 70
0
 71
3
 72
9
 73
5
 74
0
 42
0.0000001
 43
0.0000001
 44
0.0000000001
 40
0.0
 40
0.0
 40
0.0
 40
0.0
 40
0.2446277359
 40
1.0
 40
1.0
 40
1.0
 40
1.0
 10
23.1788277728
 20
50.5816833155
 30
0.0
 10
23.1760393032
 20
50.5841969126
 30
0.0
 10
23.1649971948
 20
50.5948639262
 30
0.0
 10
23.1553929495
 20
50.6069962704
 30
0.0
 10
23.1490369614
 20
50.616690705
 30
0.0
  0
SPLINE
  5
364
100
AcDbEntity
  8
0
100
AcDbSpline
 62
7
  6
BYLAYER
 70
0
 71
3
 72
15
 73
11
 74
0
 42
0.0000001
 43
0.0000001
 44
0.0000000001
 40
0.0
 40
0.0
 40
0.0
 40
0.0
 40
0.0389506579
 40
0.0673512958
 40
0.1030280908
 40
0.196979748
 40
0.3193481131
 40
0.4664028907
 40
0.6330616434
 40
1.0
 40
1.0
 40
1.0
 40
1.0
 10
20.97018431
 20
50.545248227
 30
0.0
 10
20.9728906238
 20
50.545248227
 30
0.0
 10
20.9772266917
 20
50.54840549
 30
0.0
 10
20.9811909033
 20
50.5542258705
 30
0.0
 10
20.9861558887
 20
50.5641135631
 30
0.0
 10
20.9914129571
 20
50.5808579199
 30
0.0
 10
20.996739728
 20
50.6055600393
 30
0.0
 10
21.0010978847
 20
50.6355626681
 30
0.0
 10
21.0056027081
 20
50.6826508436
 30
0.0
 10
21.0068352226
 20
50.7197531415
 30
0.0
 10
21.0068352226
 20
50.745248227
 30
0.0
  0
SPLINE
  5
365
100
AcDbEntity
  8
0
100
AcDbSpline
 62
7
  6
BYLAYER
 70
0
 71
3
 72
9
 73
5
 74
0
 42
0.0000001
 43
0.0000001
 44
0.0000000001
 40
0.0
 40
0.0
 40
0.0
 40
0.0
 40
0.5019694361
 40
1.0
 40
1.0
 40
1.0
 40
1.0
 10
20.8206090275
 20
50.616690705
 30
0.0
 10
20.8386253548
 20
50.5946980904
 30
0.0
 10
20.8846190099
 20
50.5581888574
 30
0.0
 10
20.9419774262
 20
50.545248227
 30
0.0
 10
20.97018431
 20
50.545248227
 30
0.0
  0
SPLINE
  5
366
100
AcDbEntity
  8
0
100
AcDbSpline
 62
7
  6
BYLAYER
 70
0
 71
3
 72
9
 73
5
 74
0
 42
0.0000001
 43
0.0000001
 44
0.0000000001
 40
0.0
 40
0.0
 40
0.0
 40
0.0
 40
0.2777856975
 40
1.0
 40
1.0
 40
1.0
 40
1.0
 10
20.9428104128
 20
50.6932418417
 30
0.0
 10
20.9362697163
 20
50.6881985686
 30
0.0
 10
20.912557662
 20
50.6702644888
 30
0.0
 10
20.8882496555
 20
50.6530851263
 30
0.0
 10
20.8701516933
 20
50.6415281853
 30
0.0
  0
SPLINE
  5
367
100
AcDbEntity
  8
0
100
AcDbSpline
 62
7
  6
BYLAYER
 70
0
 71
3
 72
11
 73
7
 74
0
 42
0.0000001
 43
0.0000001
 44
0.0000000001
 40
0.0
 40
0.0
 40
0.0
 40
0.0
 40
0.3484143357
 40
0.6354510452
 40
0.8542963034
 40
1.0
 40
1.0
 40
1.0
 40
1.0
 10
20.8701516933
 20
50.6415281853
 30
0.0
 10
20.8647005708
 20
50.6380472243
 30
0.0
 10
20.8546629383
 20
50.6318559623
 30
0.0
 10
20.8407835236
 20
50.624125574
 30
0.0
 10
20.82983672
 20
50.6190563819
 30
0.0
 10
20.8233046449
 20
50.6169128486
 30
0.0
 10
20.8206090275
 20
50.616690705
 30
0.0
  0
SPLINE
  5
368
100
AcDbEntity
  8
0
100
AcDbSpline
 62
7
  6
BYLAYER
 70
0
 71
3
 72
9
 73
5
 74
0
 42
0.0000001
 43
0.0000001
 44
0.0000000001
 40
0.0
 40
0.0
 40
0.0
 40
0.0
 40
0.5011885034
 40
1.0
 40
1.0
 40
1.0
 40
1.0
 10
16.3407204427
 20
56.1180422738
 30
0.0
 10
16.3407204427
 20
56.094904107
 30
0.0
 10
16.3486608488
 20
56.0483895641
 30
0.0
 10
16.3718838027
 20
56.007284316
 30
0.0
 10
16.3864948955
 20
55.9894847519
 30
0.0
  0
SPLINE
  5
369
100
AcDbEntity
  8
0
100
AcDbSpline
 62
7
  6
BYLAYER
 70
0
 71
3
 72
13
 73
9
 74
0
 42
0.0000001
 43
0.0000001
 44
0.0000000001
 40
0.0
 40
0.0
 40
0.0
 40
0.0
 40
0.0509021571
 40
0.1269226864
 40
0.226609048
 40
0.3478203458
 40
0.645325087
 40
1.0
 40
1.0
 40
1.0
 40
1.0
 10
16.3864948955
 20
55.9894847519
 30
0.0
 10
16.3889534941
 20
55.9896352951
 30
0.0
 10
16.3949211686
 20
55.9914661385
 30
0.0
 10
16.4049084737
 20
55.9959259956
 30
0.0
 10
16.4175640188
 20
56.0027832758
 30
0.0
 10
16.4390397604
 20
56.0157436144
 30
0.0
 10
16.4700448594
 20
56.0367522644
 30
0.0
 10
16.4953945026
 20
56.055561015
 30
0.0
 10
16.5089877127
 20
56.0660393265
 30
0.0
  0
SPLINE
  5
36A
100
AcDbEntity
  8
0
100
AcDbSpline
 62
7
  6
BYLAYER
 70
0
 71
3
 72
11
 73
7
 74
0
 42
0.0000001
 43
0.0000001
 44
0.0000000001
 40
0.0
 40
0.0
 40
0.0
 40
0.0
 40
0.1437706633
 40
0.2876867649
 40
0.5526717096
 40
1.0
 40
1.0
 40
1.0
 40
1.0
 10
16.5730258355
 20
59.0453423083
 30
0.0
 10
16.5574093908
 20
59.0453423083
 30
0.0
 10
16.5261371827
 20
59.0503723053
 30
0.0
 10
16.4698072007
 20
59.071933795
 30
0.0
 10
16.3927116749
 20
59.126036246
 30
0.0
 10
16.3506421618
 20
59.1976829705
 30
0.0
 10
16.3407204427
 20
59.245248227
 30
0.0
  0
SPLINE
  5
36B
100
AcDbEntity
  8
0
100
AcDbSpline
 62
7
  6
BYLAYER
 70
0
 71
3
 72
8
 73
4
 74
0
 42
0.0000001
 43
0.0000001
 44
0.0000000001
 40
0.0
 40
0.0
 40
0.0
 40
0.0
 40
1.0
 40
1.0
 40
1.0
 40
1.0
 10
16.2385132706
 20
55.9894847519
 30
0.0
 10
16.223263903
 20
56.007718159
 30
0.0
 10
16.2113415979
 20
56.0291733313
 30
0.0
 10
16.203528686
 20
56.051622357
 30
0.0
  0
SPLINE
  5
36C
100
AcDbEntity
  8
0
100
AcDbSpline
 62
7
  6
BYLAYER
 70
0
 71
3
 72
9
 73
5
 74
0
 42
0.0000001
 43
0.0000001
 44
0.0000000001
 40
0.0
 40
0.0
 40
0.0
 40
0.0
 40
0.4992046861
 40
1.0
 40
1.0
 40
1.0
 40
1.0
 10
20.8235806595
 20
50.545248227
 30
0.0
 10
20.7989783621
 20
50.545248227
 30
0.0
 10
20.7492347962
 20
50.5547242671
 30
0.0
 10
20.7066492304
 20
50.5820812121
 30
0.0
 10
20.6886936861
 20
50.5990144575
 30
0.0
  0
SPLINE
  5
36D
100
AcDbEntity
  8
0
100
AcDbSpline
 62
7
  6
BYLAYER
 70
0
 71
3
 72
11
 73
7
 74
0
 42
0.0000001
 43
0.0000001
 44
0.0000000001
 40
0.0
 40
0.0
 40
0.0
 40
0.0
 40
0.2036292163
 40
0.4334015057
 40
0.701216571
 40
1.0
 40
1.0
 40
1.0
 40
1.0
 10
35.2325908996
 20
50.7147594561
 30
0.0
 10
35.2303737352
 20
50.70096985
 30
0.0
 10
35.2175564365
 20
50.672585243
 30
0.0
 10
35.1793986665
 20
50.6413701103
 30
0.0
 10
35.1276724109
 20
50.621908454
 30
0.0
 10
35.0887382044
 20
50.6170403911
 30
0.0
 10
35.068247949
 20
50.616690705
 30
0.0
  0
SPLINE
  5
36E
100
AcDbEntity
  8
0
100
AcDbSpline
 62
7
  6
BYLAYER
 70
0
 71
3
 72
13
 73
9
 74
0
 42
0.0000001
 43
0.0000001
 44
0.0000000001
 40
0.0
 40
0.0
 40
0.0
 40
0.0
 40
0.254288788
 40
0.3777893409
 40
0.5000082898
 40
0.6222301655
 40
0.7457322643
 40
1.0
 40
1.0
 40
1.0
 40
1.0
 10
45.3745199038
 20
21.0112736307
 30
0.0
 10
44.9744307818
 20
20.8335878131
 30
0.0
 10
44.3568854953
 20
20.6139350559
 30
0.0
 10
43.508370809
 20
20.4599125868
 30
0.0
 10
42.8745212306
 20
20.4210039837
 30
0.0
 10
42.2407038662
 20
20.4603521838
 30
0.0
 10
41.3922606079
 20
20.6144389783
 30
0.0
 10
40.7745759028
 20
20.8336025235
 30
0.0
 10
40.3745199038
 20
21.0112736307
 30
0.0
  0
SPLINE
  5
36F
100
AcDbEntity
  8
0
100
AcDbSpline
 62
7
  6
BYLAYER
 70
0
 71
3
 72
13
 73
9
 74
0
 42
0.0000001
 43
0.0000001
 44
0.0000000001
 40
0.0
 40
0.0
 40
0.0
 40
0.0
 40
0.254288788
 40
0.3777893409
 40
0.5000082898
 40
0.6222301655
 40
0.7457322643
 40
1.0
 40
1.0
 40
1.0
 40
1.0
 10
24.589910213
 20
21.0112736307
 30
0.0
 10
24.1898210909
 20
20.8335878131
 30
0.0
 10
23.5722758045
 20
20.6139350559
 30
0.0
 10
22.7237611181
 20
20.4599125868
 30
0.0
 10
22.0899115398
 20
20.4210039837
 30
0.0
 10
21.4560941753
 20
20.4603521838
 30
0.0
 10
20.6076509171
 20
20.6144389783
 30
0.0
 10
19.989966212
 20
20.8336025235
 30
0.0
 10
19.589910213
 20
21.0112736307
 30
0.0
  0
ENDSEC
  0
SECTION
  2
OBJECTS
  0
DICTIONARY
  5
C
100
AcDbDictionary
280
0
281
1
  3
ACAD_GROUP
350
D
  3
ACAD_MLINESTYLE
350
17
  3
ACAD_LAYOUT
350
1A
  3
ACAD_PLOTSETTINGS
350
19
  3
ACAD_PLOTSTYLENAME
350
E
  0
DICTIONARY
  5
D
102
{ACAD_REACTORS
330
C
102
}
100
AcDbDictionary
280
0
281
1
  0
ACDBDICTIONARYWDFLT
  5
E
102
{ACAD_REACTORS
330
C
102
}
100
AcDbDictionary
281
1
  3
Normal
350
F
100
AcDbDictionaryWithDefault
340
F
  0
DICTIONARY
  5
17
102
{ACAD_REACTORS
330
C
102
}
100
AcDbDictionary
280
0
281
1
  3
Standard
350
18
  0
DICTIONARY
  5
19
102
{ACAD_REACTORS
330
C
102
}
100
AcDbDictionary
281
1
  0
DICTIONARY
  5
1A
102
{ACAD_REACTORS
330
C
102
}
100
AcDbDictionary
281
1
  3
Model
350
370
  3
Layout1
350
371
  0
ACDBPLACEHOLDER
  5
F
102
{ACAD_REACTORS
330
E
102
}
  0
MLINESTYLE
  5
18
102
{ACAD_REACTORS
330
17
102
}
100
AcDbMlineStyle
  2
STANDARD
 70
0
  3

 62
256
 51
90.0
 52
90.0
 71
2
 49
0.5
 62
256
  6
BYLAYER
 49
-0.5
 62
256
  6
BYLAYER
  0
LAYOUT
  5
370
102
{ACAD_REACTORS
330
1A
102
}
100
AcDbPlotSettings
  1

  2
none_device
  4

  6

 40
0.0
 41
0.0
 42
0.0
 43
0.0
 44
210.0
 45
297.0
 46
0.0
 47
0.0
 48
0.0
 49
0.0
140
0.0
141
0.0
142
1.0
143
1.0
 70
1024
 72
1
 73
0
 74
0
  7

 75
0
147
1.0
148
0.0
149
0.0
100
AcDbLayout
  1
Model
 70
0
 71
0
 10
0.0
 20
0.0
 11
210.0
 21
297.0
 12
0.0
 22
0.0
 32
0.0
 14
0.0
 24
0.0
 34
0.0
 15
0.0
 25
0.0
 35
0.0
146
0.0
 13
0.0
 23
0.0
 33
0.0
 16
1.0
 26
0.0
 36
0.0
 17
0.0
 27
1.0
 37
0.0
 76
0
330
211
345
0
346
0
  0
LAYOUT
  5
371
102
{ACAD_REACTORS
330
1A
102
}
100
AcDbPlotSettings
  1

  2
none_device
  4

  6

 40
0.0
 41
0.0
 42
0.0
 43
0.0
 44
210.0
 45
297.0
 46
0.0
 47
0.0
 48
0.0
 49
0.0
140
0.0
141
0.0
142
1.0
143
1.0
 70
0
 72
1
 73
0
 74
0
  7

 75
0
147
1.0
148
0.0
149
0.0
100
AcDbLayout
  1
Layout1
 70
0
 71
1
 10
0.0
 20
0.0
 11
210.0
 21
297.0
 12
0.0
 22
0.0
 32
0.0
 14
0.0
 24
0.0
 34
0.0
 15
0.0
 25
0.0
 35
0.0
146
0.0
 13
0.0
 23
0.0
 33
0.0
 16
1.0
 26
0.0
 36
0.0
 17
0.0
 27
1.0
 37
0.0
 76
0
330
212
345
0
346
0
  0
ENDSEC
  0
EOF
